  0
SECTION
  2
HEADER
  9
$ACADVER
  1
AC1015
  9
$ACADMAINTVER
 70
     6
  9
$DWGCODEPAGE
  3
ANSI_1252
  9
$INSBASE
 10
0.0
 20
0.0
 30
0.0
  9
$EXTMIN
 10
0.0
 20
0.0
 30
0.0
  9
$EXTMAX
 10
431.8
 20
279.4
 30
0.0
  9
$LIMMIN
 10
0.0
 20
0.0
  9
$LIMMAX
 10
431.8
 20
279.4
  9
$ORTHOMODE
 70
     0
  9
$REGENMODE
 70
     1
  9
$FILLMODE
 70
     1
  9
$QTEXTMODE
 70
     0
  9
$MIRRTEXT
 70
     1
  9
$LTSCALE
 40
1.0
  9
$ATTMODE
 70
     1
  9
$TEXTSIZE
 40
3.175
  9
$TRACEWID
 40
1.0
  9
$TEXTSTYLE
  7
Standard
  9
$CLAYER
  8
0
  9
$CELTYPE
  6
ByLayer
  9
$CECOLOR
 62
   256
  9
$CELTSCALE
 40
1.0
  9
$DISPSILH
 70
     0
  9
$DIMSCALE
 40
1.0
  9
$DIMASZ
 40
3.302
  9
$DIMEXO
 40
1.27
  9
$DIMDLI
 40
3.75
  9
$DIMRND
 40
0.0
  9
$DIMDLE
 40
0.0
  9
$DIMEXE
 40
3.175
  9
$DIMTP
 40
0.0
  9
$DIMTM
 40
0.0
  9
$DIMTXT
 40
3.175
  9
$DIMCEN
 40
2.5
  9
$DIMTSZ
 40
0.0
  9
$DIMTOL
 70
     0
  9
$DIMLIM
 70
     0
  9
$DIMTIH
 70
     1
  9
$DIMTOH
 70
     1
  9
$DIMSE1
 70
     0
  9
$DIMSE2
 70
     0
  9
$DIMTAD
 70
     0
  9
$DIMZIN
 70
     0
  9
$DIMBLK
  1

  9
$DIMASO
 70
     1
  9
$DIMSHO
 70
     1
  9
$DIMPOST
  1

  9
$DIMAPOST
  1

  9
$DIMALT
 70
     0
  9
$DIMALTD
 70
     3
  9
$DIMALTF
 40
0.0393700787
  9
$DIMLFAC
 40
15.0
  9
$DIMTOFL
 70
     1
  9
$DIMTVP
 40
0.0
  9
$DIMTIX
 70
     0
  9
$DIMSOXD
 70
     0
  9
$DIMSAH
 70
     0
  9
$DIMBLK1
  1

  9
$DIMBLK2
  1

  9
$DIMSTYLE
  2
ISO-25
  9
$DIMCLRD
 70
     0
  9
$DIMCLRE
 70
     0
  9
$DIMCLRT
 70
     0
  9
$DIMTFAC
 40
1.0
  9
$DIMGAP
 40
1.524
  9
$DIMJUST
 70
     0
  9
$DIMSD1
 70
     0
  9
$DIMSD2
 70
     0
  9
$DIMTOLJ
 70
     0
  9
$DIMTZIN
 70
     0
  9
$DIMALTZ
 70
     0
  9
$DIMALTTZ
 70
     0
  9
$DIMUPT
 70
     0
  9
$DIMDEC
 70
     0
  9
$DIMTDEC
 70
     0
  9
$DIMALTU
 70
     2
  9
$DIMALTTD
 70
     3
  9
$DIMTXSTY
  7
Standard
  9
$DIMAUNIT
 70
     0
  9
$DIMADEC
 70
     0
  9
$DIMALTRND
 40
0.0
  9
$DIMAZIN
 70
     0
  9
$DIMDSEP
 70
    44
  9
$DIMATFIT
 70
     3
  9
$DIMFRAC
 70
     0
  9
$DIMLDRBLK
  1

  9
$DIMLUNIT
 70
     2
  9
$DIMLWD
 70
    -2
  9
$DIMLWE
 70
    -2
  9
$DIMTMOVE
 70
     0
  9
$LUNITS
 70
     2
  9
$LUPREC
 70
     2
  9
$SKETCHINC
 40
1.0
  9
$FILLETRAD
 40
10.0
  9
$AUNITS
 70
     0
  9
$AUPREC
 70
     2
  9
$MENU
  1
.
  9
$ELEVATION
 40
0.0
  9
$PELEVATION
 40
0.0
  9
$THICKNESS
 40
0.0
  9
$LIMCHECK
 70
     0
  9
$CHAMFERA
 40
0.0
  9
$CHAMFERB
 40
0.0
  9
$CHAMFERC
 40
0.0
  9
$CHAMFERD
 40
0.0
  9
$SKPOLY
 70
     0
  9
$TDCREATE
 40
2458682.416534236
  9
$TDUCREATE
 40
2458682.583200903
  9
$TDUPDATE
 40
2458682.416535868
  9
$TDUUPDATE
 40
2458682.583202535
  9
$TDINDWG
 40
0.0000000116
  9
$TDUSRTIMER
 40
0.0000000116
  9
$USRTIMER
 70
     1
  9
$ANGBASE
 50
0.0
  9
$ANGDIR
 70
     0
  9
$PDMODE
 70
     0
  9
$PDSIZE
 40
-1.0
  9
$PLINEWID
 40
0.0
  9
$SPLFRAME
 70
     0
  9
$SPLINETYPE
 70
     6
  9
$SPLINESEGS
 70
     8
  9
$HANDSEED
  5
17E
  9
$SURFTAB1
 70
     6
  9
$SURFTAB2
 70
     6
  9
$SURFTYPE
 70
     6
  9
$SURFU
 70
     6
  9
$SURFV
 70
     6
  9
$UCSBASE
  2

  9
$UCSNAME
  2

  9
$UCSORG
 10
0.0
 20
0.0
 30
0.0
  9
$UCSXDIR
 10
1.0
 20
0.0
 30
0.0
  9
$UCSYDIR
 10
0.0
 20
1.0
 30
0.0
  9
$UCSORTHOREF
  2

  9
$UCSORTHOVIEW
 70
     0
  9
$UCSORGTOP
 10
0.0
 20
0.0
 30
0.0
  9
$UCSORGBOTTOM
 10
0.0
 20
0.0
 30
0.0
  9
$UCSORGLEFT
 10
0.0
 20
0.0
 30
0.0
  9
$UCSORGRIGHT
 10
0.0
 20
0.0
 30
0.0
  9
$UCSORGFRONT
 10
0.0
 20
0.0
 30
0.0
  9
$UCSORGBACK
 10
0.0
 20
0.0
 30
0.0
  9
$PUCSBASE
  2

  9
$PUCSNAME
  2

  9
$PUCSORG
 10
0.0
 20
0.0
 30
0.0
  9
$PUCSXDIR
 10
1.0
 20
0.0
 30
0.0
  9
$PUCSYDIR
 10
0.0
 20
1.0
 30
0.0
  9
$PUCSORTHOREF
  2

  9
$PUCSORTHOVIEW
 70
     0
  9
$PUCSORGTOP
 10
0.0
 20
0.0
 30
0.0
  9
$PUCSORGBOTTOM
 10
0.0
 20
0.0
 30
0.0
  9
$PUCSORGLEFT
 10
0.0
 20
0.0
 30
0.0
  9
$PUCSORGRIGHT
 10
0.0
 20
0.0
 30
0.0
  9
$PUCSORGFRONT
 10
0.0
 20
0.0
 30
0.0
  9
$PUCSORGBACK
 10
0.0
 20
0.0
 30
0.0
  9
$USERI1
 70
     0
  9
$USERI2
 70
     0
  9
$USERI3
 70
     0
  9
$USERI4
 70
     0
  9
$USERI5
 70
     0
  9
$USERR1
 40
0.0
  9
$USERR2
 40
0.0
  9
$USERR3
 40
0.0
  9
$USERR4
 40
0.0
  9
$USERR5
 40
0.0
  9
$WORLDVIEW
 70
     1
  9
$SHADEDGE
 70
     3
  9
$SHADEDIF
 70
    70
  9
$TILEMODE
 70
     1
  9
$MAXACTVP
 70
    64
  9
$PINSBASE
 10
0.0
 20
0.0
 30
0.0
  9
$PLIMCHECK
 70
     0
  9
$PEXTMIN
 10
1.0000000000E+20
 20
1.0000000000E+20
 30
1.0000000000E+20
  9
$PEXTMAX
 10
-1.0000000000E+20
 20
-1.0000000000E+20
 30
-1.0000000000E+20
  9
$PLIMMIN
 10
0.0
 20
0.0
  9
$PLIMMAX
 10
420.0
 20
297.0
  9
$UNITMODE
 70
     0
  9
$VISRETAIN
 70
     1
  9
$PLINEGEN
 70
     0
  9
$PSLTSCALE
 70
     1
  9
$TREEDEPTH
 70
  3020
  9
$CMLSTYLE
  2
Standard
  9
$CMLJUST
 70
     0
  9
$CMLSCALE
 40
20.0
  9
$PROXYGRAPHICS
 70
     1
  9
$MEASUREMENT
 70
     1
  9
$CELWEIGHT
370
    -1
  9
$ENDCAPS
280
     0
  9
$JOINSTYLE
280
     0
  9
$LWDISPLAY
290
     1
  9
$INSUNITS
 70
     4
  9
$HYPERLINKBASE
  1

  9
$STYLESHEET
  1

  9
$XEDIT
290
     1
  9
$CEPSNTYPE
380
     0
  9
$PSTYLEMODE
290
     1
  9
$FINGERPRINTGUID
  2
{6C128446-DB07-41F8-8366-080C3F77644F}
  9
$VERSIONGUID
  2
{FAEB1C32-E019-11D5-929B-00C0DF256EC4}
  9
$EXTNAMES
290
     1
  9
$PSVPSCALE
 40
0.0
  9
$OLESTARTUP
290
     0
  0
ENDSEC
  0
SECTION
  2
CLASSES
  0
CLASS
  1
ACDBDICTIONARYWDFLT
  2
AcDbDictionaryWithDefault
  3
ObjectDBX Classes
 90
        0
280
     0
281
     0
  0
CLASS
  1
VISUALSTYLE
  2
AcDbVisualStyle
  3
ObjectDBX Classes
 90
     4095
280
     0
281
     0
  0
CLASS
  1
MATERIAL
  2
AcDbMaterial
  3
ObjectDBX Classes
 90
     1153
280
     0
281
     0
  0
CLASS
  1
SCALE
  2
AcDbScale
  3
ObjectDBX Classes
 90
     1153
280
     0
281
     0
  0
CLASS
  1
TABLESTYLE
  2
AcDbTableStyle
  3
ObjectDBX Classes
 90
     4095
280
     0
281
     0
  0
CLASS
  1
MLEADERSTYLE
  2
AcDbMLeaderStyle
  3
ACDB_MLEADERSTYLE_CLASS
 90
     4095
280
     0
281
     0
  0
CLASS
  1
SUN
  2
AcDbSun
  3
SCENEOE
 90
     1153
280
     0
281
     0
  0
CLASS
  1
ACDBPLACEHOLDER
  2
AcDbPlaceHolder
  3
ObjectDBX Classes
 90
        0
280
     0
281
     0
  0
CLASS
  1
LAYOUT
  2
AcDbLayout
  3
ObjectDBX Classes
 90
        0
280
     0
281
     0
  0
ENDSEC
  0
SECTION
  2
TABLES
  0
TABLE
  2
VPORT
  5
8
330
0
100
AcDbSymbolTable
 70
     1
  0
VPORT
  5
29
330
8
100
AcDbSymbolTableRecord
100
AcDbViewportTableRecord
  2
*Active
 70
     0
 10
0.0
 20
0.0
 11
1.0
 21
1.0
 12
215.9
 22
139.7
 13
0.0
 23
0.0
 14
10.0
 24
10.0
 15
10.0
 25
10.0
 16
0.0
 26
0.0
 36
1.0
 17
0.0
 27
0.0
 37
0.0
 40
279.4
 41
1.5454545455
 42
50.0
 43
0.0
 44
0.0
 50
0.0
 51
0.0
 71
     0
 72
  2000
 73
     1
 74
     3
 75
     0
 76
     0
 77
     0
 78
     0
281
     0
 65
     1
110
0.0
120
0.0
130
0.0
111
1.0
121
0.0
131
0.0
112
0.0
122
1.0
132
0.0
 79
     0
146
0.0
  0
ENDTAB
  0
TABLE
  2
LTYPE
  5
5
330
0
100
AcDbSymbolTable
 70
     6
  0
LTYPE
  5
14
330
5
100
AcDbSymbolTableRecord
100
AcDbLinetypeTableRecord
  2
ByBlock
 70
     0
  3

 72
    65
 73
     0
 40
0.0
  0
LTYPE
  5
15
330
5
100
AcDbSymbolTableRecord
100
AcDbLinetypeTableRecord
  2
ByLayer
 70
     0
  3

 72
    65
 73
     0
 40
0.0
  0
LTYPE
  5
16
330
5
100
AcDbSymbolTableRecord
100
AcDbLinetypeTableRecord
  2
Continuous
 70
     0
  3
Solid line
 72
    65
 73
     0
 40
0.0
  0
LTYPE
  5
6E
330
5
100
AcDbSymbolTableRecord
100
AcDbLinetypeTableRecord
  2
HIDDEN
 70
     0
  3
Hidden __ __ __ __ __ __ __ __ __ __ __ __ __ __
 72
    65
 73
     2
 40
1.905
 49
1.27
 74
     0
 49
-0.635
 74
     0
  0
LTYPE
  5
6F
330
5
100
AcDbSymbolTableRecord
100
AcDbLinetypeTableRecord
  2
PHANTOM
 70
     0
  3
Phantom ______  __  __  ______  __  __  ______
 72
    65
 73
     6
 40
12.7
 49
6.35
 74
     0
 49
-1.27
 74
     0
 49
1.27
 74
     0
 49
-1.27
 74
     0
 49
1.27
 74
     0
 49
-1.27
 74
     0
  0
LTYPE
  5
70
330
5
100
AcDbSymbolTableRecord
100
AcDbLinetypeTableRecord
  2
CENTER
 70
     0
  3
Center ____ _ ____ _ ____ _ ____ _ ____ _ ____
 72
    65
 73
     4
 40
10.16
 49
6.35
 74
     0
 49
-1.27
 74
     0
 49
1.27
 74
     0
 49
-1.27
 74
     0
  0
LTYPE
  5
71
330
5
100
AcDbSymbolTableRecord
100
AcDbLinetypeTableRecord
  2
CENTERX2
 70
     0
  3
Center (2x) ________  __  ________  __  _____
 72
    65
 73
     4
 40
20.32
 49
12.7
 74
     0
 49
-2.54
 74
     0
 49
2.54
 74
     0
 49
-2.54
 74
     0
  0
LTYPE
  5
72
330
5
100
AcDbSymbolTableRecord
100
AcDbLinetypeTableRecord
  2
DOT2
 70
     0
  3
Dot (.5x) ........................................
 72
    65
 73
     2
 40
0.635
 49
0.0
 74
     0
 49
-0.635
 74
     0
  0
ENDTAB
  0
TABLE
  2
LAYER
  5
2
330
0
100
AcDbSymbolTable
 70
     2
  0
LAYER
  5
10
330
2
100
AcDbSymbolTableRecord
100
AcDbLayerTableRecord
  2
0
 70
     0
 62
     7
  6
Continuous
370
    -3
390
F
  0
LAYER
  5
73
330
2
100
AcDbSymbolTableRecord
100
AcDbLayerTableRecord
  2
FORMAT
 70
     0
 62
     7
  6
Continuous
370
    -3
390
F
  0
ENDTAB
  0
TABLE
  2
STYLE
  5
3
330
0
100
AcDbSymbolTable
 70
     2
  0
STYLE
  5
11
330
3
100
AcDbSymbolTableRecord
100
AcDbTextStyleTableRecord
  2
Standard
 70
     0
 40
0.0
 41
1.0
 50
0.0
 71
     0
 42
3.175
  3
txt
  4

  0
STYLE
  5
B8
330
3
100
AcDbSymbolTableRecord
100
AcDbTextStyleTableRecord
  2
SLDTEXTSTYLE0
 70
     0
 40
0.0
 41
0.7
 50
0.0
 71
     0
 42
3.175
  3
TXT
  4

  0
ENDTAB
  0
TABLE
  2
VIEW
  5
6
330
0
100
AcDbSymbolTable
 70
     0
  0
ENDTAB
  0
TABLE
  2
UCS
  5
7
330
0
100
AcDbSymbolTable
 70
     0
  0
ENDTAB
  0
TABLE
  2
APPID
  5
9
330
0
100
AcDbSymbolTable
 70
     1
  0
APPID
  5
12
330
9
100
AcDbSymbolTableRecord
100
AcDbRegAppTableRecord
  2
ACAD
 70
     0
  0
ENDTAB
  0
TABLE
  2
DIMSTYLE
  5
A
330
0
100
AcDbSymbolTable
 70
     1
100
AcDbDimStyleTable
  0
DIMSTYLE
105
27
330
A
100
AcDbSymbolTableRecord
100
AcDbDimStyleTableRecord
  2
ISO-25
 70
     0
 41
2.5
 42
0.625
 43
3.75
 44
1.25
 73
     0
 74
     0
 77
     1
 78
     8
140
2.5
141
2.5
143
0.0393700787
147
0.625
171
     3
172
     1
178
     0
271
     2
272
     2
274
     3
278
    44
283
     0
284
     8
340
11
  0
ENDTAB
  0
TABLE
  2
BLOCK_RECORD
  5
1
330
0
100
AcDbSymbolTable
 70
     3
  0
BLOCK_RECORD
  5
1F
330
1
100
AcDbSymbolTableRecord
100
AcDbBlockTableRecord
  2
*Model_Space
340
22
  0
BLOCK_RECORD
  5
1B
330
1
100
AcDbSymbolTableRecord
100
AcDbBlockTableRecord
  2
*Paper_Space
340
1E
  0
BLOCK_RECORD
  5
23
330
1
100
AcDbSymbolTableRecord
100
AcDbBlockTableRecord
  2
*Paper_Space0
340
26
  0
BLOCK_RECORD
  5
BB
330
1
100
AcDbSymbolTableRecord
100
AcDbBlockTableRecord
  2
SW_NOTE_0
340
0
102
{BLKREFS
331
C1
102
}
  0
BLOCK_RECORD
  5
C6
330
1
100
AcDbSymbolTableRecord
100
AcDbBlockTableRecord
  2
SW_NOTE_1
340
0
102
{BLKREFS
331
CC
102
}
  0
ENDTAB
  0
ENDSEC
  0
SECTION
  2
BLOCKS
  0
BLOCK
  5
20
330
1F
100
AcDbEntity
  8
0
100
AcDbBlockBegin
  2
*Model_Space
 70
     0
 10
0.0
 20
0.0
 30
0.0
  3
*Model_Space
  1

  0
ENDBLK
  5
21
330
1F
100
AcDbEntity
  8
0
100
AcDbBlockEnd
  0
BLOCK
  5
1C
330
1B
100
AcDbEntity
 67
     1
  8
0
100
AcDbBlockBegin
  2
*Paper_Space
 70
     0
 10
0.0
 20
0.0
 30
0.0
  3
*Paper_Space
  1

  0
ENDBLK
  5
1D
330
1B
100
AcDbEntity
 67
     1
  8
0
100
AcDbBlockEnd
  0
BLOCK
  5
24
330
23
100
AcDbEntity
  8
0
100
AcDbBlockBegin
  2
*Paper_Space0
 70
     0
 10
0.0
 20
0.0
 30
0.0
  3
*Paper_Space0
  1

  0
ENDBLK
  5
25
330
23
100
AcDbEntity
  8
0
100
AcDbBlockEnd
  0
BLOCK
  5
BC
330
BB
100
AcDbEntity
  8
0
100
AcDbBlockBegin
  2
SW_NOTE_0
 70
     0
 10
0.0
 20
0.0
 30
0.0
  3
SW_NOTE_0
  1

  0
MTEXT
  5
BE
330
BB
100
AcDbEntity
  8
0
  6
Continuous
 62
     0
370
     0
100
AcDbMText
 10
0.0
 20
2.0463950369
 30
0.0
 40
1.5875
 41
0.0
 71
     1
 72
     1
  1
87 34th Street, Unit 11, Brooklyn, NY 11232
  7
SLDTEXTSTYLE0
 73
     1
 44
1.0
  0
MTEXT
  5
BF
330
BB
100
AcDbEntity
  8
0
  6
Continuous
 62
     0
370
     0
100
AcDbMText
 10
0.0
 20
-0.0702716042
 30
0.0
 40
1.5875
 41
0.0
 71
     1
 72
     1
  1
T +1 718-387-6132
  7
SLDTEXTSTYLE0
 73
     1
 44
1.0
  0
MTEXT
  5
C0
330
BB
100
AcDbEntity
  8
0
  6
Continuous
 62
     0
370
     0
100
AcDbMText
 10
0.0
 20
-2.1869382453
 30
0.0
 40
1.5875
 41
0.0
 71
     1
 72
     1
  1
www.rollandhill.com
  7
SLDTEXTSTYLE0
 73
     1
 44
1.0
  0
ENDBLK
  5
BD
330
BB
100
AcDbEntity
  8
0
100
AcDbBlockEnd
  0
BLOCK
  5
C7
330
C6
100
AcDbEntity
  8
0
100
AcDbBlockBegin
  2
SW_NOTE_1
 70
     0
 10
0.0
 20
0.0
 30
0.0
  3
SW_NOTE_1
  1

  0
MTEXT
  5
C9
330
C6
100
AcDbEntity
  8
0
  6
Continuous
 62
     0
370
     0
100
AcDbMText
 10
0.0
 20
2.0463950369
 30
0.0
 40
1.5875
 41
0.0
 71
     1
 72
     1
  1
\LPROPRIETARY AND CONFIDENTIAL
  7
SLDTEXTSTYLE0
 73
     1
 44
1.0
  0
MTEXT
  5
CA
330
C6
100
AcDbEntity
  8
0
  6
Continuous
 62
     0
370
     0
100
AcDbMText
 10
37.3117625713
 20
2.0463950369
 30
0.0
 40
1.5875
 41
0.0
 71
     1
 72
     1
  1
THE INFORMATION CONTAINED IN THIS DRAWING IS THE SOLE PROPERTY OF ROLL & HILL LLC. ANY REPRODUCTION IN
  7
SLDTEXTSTYLE0
 73
     1
 44
1.0
  0
MTEXT
  5
CB
330
C6
100
AcDbEntity
  8
0
  6
Continuous
 62
     0
370
     0
100
AcDbMText
 10
0.0
 20
-0.0702716042
 30
0.0
 40
1.5875
 41
0.0
 71
     1
 72
     1
  1
PART OR AS A WHOLE WITHOUT THE WRITTEN PERMISSION OF ROLL & HILL LLC. IS PROHIBITED.
  7
SLDTEXTSTYLE0
 73
     1
 44
1.0
  0
ENDBLK
  5
C8
330
C6
100
AcDbEntity
  8
0
100
AcDbBlockEnd
  0
ENDSEC
  0
SECTION
  2
ENTITIES
  0
HATCH
  5
74
330
1F
100
AcDbEntity
  8
0
  6
Continuous
 62
     7
100
AcDbHatch
 10
0.0
 20
0.0
 30
0.0
210
0.0
220
0.0
230
1.0
  2
SOLID
 70
     1
 71
     0
 91
        2
 92
        0
 93
        6
 72
     4
 94
        3
 73
     1
 74
     0
 95
       20
 96
       16
 40
0.0
 40
0.0
 40
0.0
 40
0.0
 40
1.0
 40
1.0
 40
1.0
 40
2.0
 40
2.0
 40
2.0
 40
3.0
 40
3.0
 40
3.0
 40
4.0
 40
4.0
 40
4.0
 40
5.0
 40
5.0
 40
5.0
 40
5.0
 10
261.0219043336847
 20
23.63056361828031
 42
1.0
 10
261.2341319795987
 20
23.68742184709604
 42
1.0
 10
261.3945785321864
 20
23.72473719781129
 42
1.0
 10
261.5515161764629
 20
23.77337299628437
 42
1.0
 10
262.5617362220245
 20
24.08644572151765
 42
1.0
 10
262.9966382899503
 20
24.76217905347502
 42
1.0
 10
262.9131259646454
 20
25.88395655371281
 42
1.0
 10
262.8488620904764
 20
26.74717259793779
 42
1.0
 10
262.3071445332423
 20
27.30037799580671
 42
1.0
 10
261.2989762515715
 20
27.40941936834727
 42
1.0
 10
260.5093946232761
 20
27.49481913962259
 42
1.0
 10
259.7094699986221
 20
27.48819126576296
 42
1.0
 10
258.913837050576
 20
27.51251762112626
 42
1.0
 10
258.5159962651877
 20
27.52468175973202
 42
1.0
 10
258.1174764912431
 20
27.51463645747964
 42
1.0
 10
257.7192638284546
 20
27.51463645747964
 42
1.0
 72
     4
 94
        3
 73
     1
 74
     0
 95
       14
 96
       10
 40
17.0
 40
17.0
 40
17.0
 40
17.0
 40
18.0
 40
18.0
 40
18.0
 40
19.0
 40
19.0
 40
19.0
 40
20.0
 40
20.0
 40
20.0
 40
20.0
 10
257.7192638284546
 20
27.51463645747964
 42
1.0
 10
258.2057453879524
 20
27.36893835120056
 42
1.0
 10
258.4151924094879
 20
27.04153921726714
 42
1.0
 10
258.4151320634913
 20
26.55729487989966
 42
1.0
 10
258.4149081683119
 20
24.76100595804667
 42
1.0
 10
258.4191609275175
 20
22.96470127704905
 42
1.0
 10
258.4124688639662
 20
21.16843695483816
 42
1.0
 10
258.4104423723632
 20
20.62446660851326
 42
1.0
 10
258.2139995287706
 20
20.39587059142628
 42
1.0
 10
257.7053577757453
 20
20.25910042553502
 42
1.0
 72
     1
 10
257.7053577757453
 20
20.25910042553502
 11
260.1134120717832
 21
20.25910042553502
 72
     4
 94
        3
 73
     1
 74
     0
 95
       14
 96
       10
 40
13.0
 40
13.0
 40
13.0
 40
13.0
 40
14.0
 40
14.0
 40
14.0
 40
15.0
 40
15.0
 40
15.0
 40
16.0
 40
16.0
 40
16.0
 40
16.0
 10
260.1134120717832
 20
20.25910042553502
 42
1.0
 10
259.6377614656041
 20
20.40079128856704
 42
1.0
 10
259.4435911100346
 20
20.64162793377141
 42
1.0
 10
259.4408326829897
 20
21.14221143023692
 42
1.0
 10
259.4366701545022
 20
21.89763799307775
 42
1.0
 10
259.4392191002215
 20
22.65310606781492
 42
1.0
 10
259.4405559370167
 20
23.40855338660287
 42
1.0
 10
259.4406539512153
 20
23.46398560492077
 42
1.0
 10
259.4539911852495
 20
23.51939476107442
 42
1.0
 10
259.4607286043899
 20
23.57138302951071
 42
1.0
 72
     4
 94
        3
 73
     1
 74
     0
 95
       20
 96
       16
 40
8.0
 40
8.0
 40
8.0
 40
8.0
 40
9.0
 40
9.0
 40
9.0
 40
10.0
 40
10.0
 40
10.0
 40
11.0
 40
11.0
 40
11.0
 40
12.0
 40
12.0
 40
12.0
 40
13.0
 40
13.0
 40
13.0
 40
13.0
 10
259.4607286043899
 20
23.57138302951071
 42
1.0
 10
260.3725694925604
 20
23.65083910446931
 42
1.0
 10
260.6054131759577
 20
23.52556773374194
 42
1.0
 10
261.0037355762117
 20
22.71920223094413
 42
1.0
 10
261.378026816807
 20
21.9614848264415
 42
1.0
 10
261.7451764738302
 20
21.200166649339
 42
1.0
 10
262.1067370153144
 20
20.43629933433309
 42
1.0
 10
262.1765046750147
 20
20.28890135435546
 42
1.0
 10
262.2549406335689
 20
20.22203337745712
 42
1.0
 10
262.427398730108
 20
20.22724465786873
 42
1.0
 10
262.8718696744063
 20
20.24067529366942
 42
1.0
 10
263.3170171088603
 20
20.2311736819415
 42
1.0
 10
263.7618904879274
 20
20.2323936704376
 42
1.0
 10
263.8264337986554
 20
20.23257048036439
 42
1.0
 10
263.8909540472192
 20
20.24131411562171
 42
1.0
 10
263.9554858268652
 20
20.24609336482204
 42
1.0
 72
     4
 94
        3
 73
     1
 74
     0
 95
       14
 96
       10
 40
5.0
 40
5.0
 40
5.0
 40
5.0
 40
6.0
 40
6.0
 40
6.0
 40
7.0
 40
7.0
 40
7.0
 40
8.0
 40
8.0
 40
8.0
 40
8.0
 10
263.9554858268652
 20
20.24609336482204
 42
1.0
 10
263.5606000734738
 20
20.32757122285868
 42
1.0
 10
263.3178377375433
 20
20.57267359973515
 42
1.0
 10
263.1292772534607
 20
20.88520667032095
 42
1.0
 10
262.8739775562312
 20
21.30835818112304
 42
1.0
 10
262.6276890153665
 20
21.7369354504649
 42
1.0
 10
262.3739921385617
 20
22.16106556577572
 42
1.0
 10
262.033208300972
 20
22.73079019980925
 42
1.0
 10
261.7521543160346
 20
23.35408286053947
 42
1.0
 10
261.0219043336847
 20
23.63056361828031
 42
1.0
 97
        0
 92
        0
 93
        2
 72
     1
 10
259.4558811296203
 20
23.74052094311722
 11
259.4558811296203
 21
27.35855230546976
 72
     4
 94
        3
 73
     1
 74
     0
 95
       20
 96
       16
 40
1.0
 40
1.0
 40
1.0
 40
1.0
 40
2.0
 40
2.0
 40
2.0
 40
3.0
 40
3.0
 40
3.0
 40
4.0
 40
4.0
 40
4.0
 40
5.0
 40
5.0
 40
5.0
 40
6.0
 40
6.0
 40
6.0
 40
6.0
 10
259.4558811296203
 20
27.35855230546976
 42
1.0
 10
259.8103733099057
 20
27.35855230546976
 42
1.0
 10
260.1467440101549
 20
27.38072599997261
 42
1.0
 10
260.4792308497364
 20
27.35420547185249
 42
1.0
 10
261.3230227860075
 20
27.28690123567825
 42
1.0
 10
261.7108519014664
 20
26.95476897687368
 42
1.0
 10
261.8164781518313
 20
26.10478869315943
 42
1.0
 10
261.8719876284001
 20
25.65810454981779
 42
1.0
 10
261.8389787525148
 20
25.18024881635489
 42
1.0
 10
261.7413862071132
 20
24.73962656292206
 42
1.0
 10
261.608259863196
 20
24.13857044109259
 42
1.0
 10
261.1506181168165
 20
23.81517009427841
 42
1.0
 10
260.5489927438957
 20
23.74778168120397
 42
1.0
 10
260.1942113256325
 20
23.70804326575078
 42
1.0
 10
259.8313410453958
 20
23.74052094311722
 42
1.0
 10
259.4558811296203
 20
23.74052094311722
 42
1.0
 97
        0
 75
     0
 76
     1
 98
        1
 10
0.0
 20
0.0
  0
HATCH
  5
75
330
1F
100
AcDbEntity
  8
0
  6
Continuous
 62
     7
100
AcDbHatch
 10
0.0
 20
0.0
 30
0.0
210
0.0
220
0.0
230
1.0
  2
SOLID
 70
     1
 71
     0
 91
        2
 92
        0
 93
        2
 72
     4
 94
        3
 73
     1
 74
     0
 95
       14
 96
       10
 40
0.0
 40
0.0
 40
0.0
 40
0.0
 40
1.0
 40
1.0
 40
1.0
 40
2.0
 40
2.0
 40
2.0
 40
3.0
 40
3.0
 40
3.0
 40
3.0
 10
267.2336118279071
 20
20.23490821509466
 42
1.0
 10
268.1650050112285
 20
19.98240211471103
 42
1.0
 10
269.1482911393735
 20
20.33660467264827
 42
1.0
 10
269.7215189161771
 20
21.13111084177937
 42
1.0
 10
270.3723808569537
 20
22.03321892002499
 42
1.0
 10
270.372934348899
 20
23.32205720159637
 42
1.0
 10
269.7103360726668
 20
24.21398909980579
 42
1.0
 10
269.2464106552308
 20
24.83848445240961
 42
1.0
 10
268.6216197225536
 20
25.16033694362372
 42
1.0
 10
267.7758432870376
 20
25.16748813643033
 42
1.0
 72
     4
 94
        3
 73
     1
 74
     0
 95
       14
 96
       10
 40
3.0
 40
3.0
 40
3.0
 40
3.0
 40
4.0
 40
4.0
 40
4.0
 40
5.0
 40
5.0
 40
5.0
 40
6.0
 40
6.0
 40
6.0
 40
6.0
 10
267.7758432870376
 20
25.16748813643033
 42
1.0
 10
266.9062728477855
 20
25.1505801106106
 42
1.0
 10
266.225828300013
 20
24.723612195973
 42
1.0
 10
265.7739382574312
 20
23.92202056120339
 42
1.0
 10
265.4879189885011
 20
23.41465794151554
 42
1.0
 10
265.4259332718035
 20
22.86561853145873
 42
1.0
 10
265.4837047623288
 20
22.29272284982232
 42
1.0
 10
265.5792320909092
 20
21.34541139190241
 42
1.0
 10
266.3034040398354
 20
20.48709452013179
 42
1.0
 10
267.2336118279071
 20
20.23490821509466
 42
1.0
 97
        0
 92
        0
 93
        2
 72
     4
 94
        3
 73
     1
 74
     0
 95
       17
 96
       13
 40
0.0
 40
0.0
 40
0.0
 40
0.0
 40
1.0
 40
1.0
 40
1.0
 40
2.0
 40
2.0
 40
2.0
 40
3.0
 40
3.0
 40
3.0
 40
4.0
 40
4.0
 40
4.0
 40
4.0
 10
266.4699528411193
 20
22.82140374989816
 42
1.0
 10
266.4968487059656
 20
23.23360918874381
 42
1.0
 10
266.5993976948625
 20
23.64490674705059
 42
1.0
 10
266.7072125446274
 20
24.04607386528146
 42
1.0
 10
266.7597204805012
 20
24.2414496033099
 42
1.0
 10
266.882078331128
 20
24.42789874624283
 42
1.0
 10
267.0072628343699
 20
24.59213287496141
 42
1.0
 10
267.4640605055332
 20
25.19142205062979
 42
1.0
 10
268.2143234497673
 20
25.18405330473933
 42
1.0
 10
268.6683621173312
 20
24.58056604641373
 42
1.0
 10
269.0963628325642
 20
24.01168817818241
 42
1.0
 10
269.195680043492
 20
23.34551372899321
 42
1.0
 10
269.218762963826
 20
22.68351122534059
 42
1.0
 72
     4
 94
        3
 73
     1
 74
     0
 95
       17
 96
       13
 40
4.0
 40
4.0
 40
4.0
 40
4.0
 40
5.0
 40
5.0
 40
5.0
 40
6.0
 40
6.0
 40
6.0
 40
7.0
 40
7.0
 40
7.0
 40
8.0
 40
8.0
 40
8.0
 40
8.0
 10
269.218762963826
 20
22.68351122534059
 42
1.0
 10
269.202432645224
 20
22.05765558940843
 42
1.0
 10
269.1208448575376
 20
21.47214721006825
 42
1.0
 10
268.810867074766
 20
20.94311038392242
 42
1.0
 10
268.6078393105943
 20
20.5966013640246
 42
1.0
 10
268.3388937306983
 20
20.33416469565678
 42
1.0
 10
267.9076604687568
 20
20.30531315927085
 42
1.0
 10
267.4153070900211
 20
20.27237193240103
 42
1.0
 10
267.1048165584612
 20
20.54785025472892
 42
1.0
 10
266.8746830637486
 20
20.93428603108956
 42
1.0
 10
266.5287029361534
 20
21.51524885782822
 42
1.0
 10
266.4269741915698
 20
22.16270989809668
 42
1.0
 10
266.4699528411193
 20
22.82140374989816
 42
1.0
 97
        0
 75
     0
 76
     1
 98
        1
 10
0.0
 20
0.0
  0
HATCH
  5
76
330
1F
100
AcDbEntity
  8
0
  6
Continuous
 62
     7
100
AcDbHatch
 10
0.0
 20
0.0
 30
0.0
210
0.0
220
0.0
230
1.0
  2
SOLID
 70
     1
 71
     0
 91
        1
 92
        0
 93
        4
 72
     1
 10
273.9540333846496
 20
27.87257450949275
 11
272.4594267850394
 21
27.32510813123116
 72
     4
 94
        3
 73
     1
 74
     0
 95
       14
 96
       10
 40
6.0
 40
6.0
 40
6.0
 40
6.0
 40
7.0
 40
7.0
 40
7.0
 40
8.0
 40
8.0
 40
8.0
 40
9.0
 40
9.0
 40
9.0
 40
9.0
 10
272.4594267850394
 20
27.32510813123116
 42
1.0
 10
272.9826104338649
 20
27.28380667758701
 42
1.0
 10
273.0476395875227
 20
27.23250104921648
 42
1.0
 10
273.0527409382852
 20
26.65700799131587
 42
1.0
 10
273.0685846452182
 20
24.86961337752774
 42
1.0
 10
273.0702866329497
 20
23.08209538116094
 42
1.0
 10
273.0783845276048
 20
21.29462927466367
 42
1.0
 10
273.0805785081768
 20
20.81042375860576
 42
1.0
 10
273.0059923935969
 20
20.37668517687364
 42
1.0
 10
272.426404840594
 20
20.2590796695872
 42
1.0
 72
     1
 10
272.426404840594
 20
20.2590796695872
 11
274.6224502449564
 21
20.2590796695872
 72
     4
 94
        3
 73
     1
 74
     0
 95
       17
 96
       13
 40
1.0
 40
1.0
 40
1.0
 40
1.0
 40
2.0
 40
2.0
 40
2.0
 40
3.0
 40
3.0
 40
3.0
 40
4.0
 40
4.0
 40
4.0
 40
5.0
 40
5.0
 40
5.0
 40
5.0
 10
274.6224502449564
 20
20.2590796695872
 42
1.0
 10
274.1836818051716
 20
20.38260600321025
 42
1.0
 10
274.0006220316647
 20
20.58964274029083
 42
1.0
 10
273.9590578615309
 20
21.04279505200226
 42
1.0
 10
273.9506540088286
 20
21.13443409966764
 42
1.0
 10
273.954217881965
 20
21.22727776105204
 42
1.0
 10
273.9542086570993
 20
21.31956562427539
 42
1.0
 10
273.9539872603212
 20
23.41776441505853
 42
1.0
 10
273.9540349221275
 20
25.51596282147274
 42
1.0
 10
273.9540333846496
 20
27.61416161225588
 42
1.0
 10
273.9540333846496
 20
27.71082379150879
 42
1.0
 10
273.9540333846496
 20
27.8074859707617
 42
1.0
 10
273.9540333846496
 20
27.87257450949275
 42
1.0
 97
        0
 75
     0
 76
     1
 98
        1
 10
0.0
 20
0.0
  0
HATCH
  5
77
330
1F
100
AcDbEntity
  8
0
  6
Continuous
 62
     7
100
AcDbHatch
 10
0.0
 20
0.0
 30
0.0
210
0.0
220
0.0
230
1.0
  2
SOLID
 70
     1
 71
     0
 91
        1
 92
        0
 93
        4
 72
     1
 10
276.9460186560295
 20
20.2549177176549
 11
279.1055120673172
 21
20.2549177176549
 72
     4
 94
        3
 73
     1
 74
     0
 95
       14
 96
       10
 40
6.0
 40
6.0
 40
6.0
 40
6.0
 40
7.0
 40
7.0
 40
7.0
 40
8.0
 40
8.0
 40
8.0
 40
9.0
 40
9.0
 40
9.0
 40
9.0
 10
279.1055120673172
 20
20.2549177176549
 42
1.0
 10
278.6550987719953
 20
20.40793364087759
 42
1.0
 10
278.4823339486704
 20
20.63637283524633
 42
1.0
 10
278.4822124879378
 20
21.11904779232805
 42
1.0
 10
278.4816605334703
 20
23.30086999117493
 42
1.0
 10
278.4819664915176
 20
25.48269219002111
 42
1.0
 10
278.4819649540404
 20
27.66451419668386
 42
1.0
 10
278.4819649540404
 20
27.75219577693941
 42
1.0
 10
278.4819664915176
 20
27.83987735719566
 42
1.0
 10
278.4819664915176
 20
27.88441039662488
 42
1.0
 72
     1
 10
278.4819664915176
 20
27.88441039662488
 11
276.9846800684063
 21
27.3296354262854
 72
     4
 94
        3
 73
     1
 74
     0
 95
       17
 96
       13
 40
1.0
 40
1.0
 40
1.0
 40
1.0
 40
2.0
 40
2.0
 40
2.0
 40
3.0
 40
3.0
 40
3.0
 40
4.0
 40
4.0
 40
4.0
 40
5.0
 40
5.0
 40
5.0
 40
5.0
 10
276.9846800684063
 20
27.3296354262854
 42
1.0
 10
277.5366914227135
 20
27.25167954511983
 42
1.0
 10
277.5738092075535
 20
27.20775573119973
 42
1.0
 10
277.5772915943764
 20
26.57154691311976
 42
1.0
 10
277.5773838430334
 20
26.55476419172763
 42
1.0
 10
277.577359243392
 20
26.53798031722657
 42
1.0
 10
277.577359243392
 20
26.52119721146337
 42
1.0
 10
277.5773700057348
 20
24.72538990447762
 42
1.0
 10
277.5776652014392
 20
22.92958298186009
 42
1.0
 10
277.5771993457187
 20
21.13377529050539
 42
1.0
 10
277.5770686601204
 20
20.6342380475635
 42
1.0
 10
277.4179566381115
 20
20.4199152040148
 42
1.0
 10
276.9460186560295
 20
20.2549177176549
 42
1.0
 97
        0
 75
     0
 76
     1
 98
        1
 10
0.0
 20
0.0
  0
HATCH
  5
78
330
1F
100
AcDbEntity
  8
0
  6
Continuous
 62
     7
100
AcDbHatch
 10
0.0
 20
0.0
 30
0.0
210
0.0
220
0.0
230
1.0
  2
SOLID
 70
     1
 71
     0
 91
        3
 92
        0
 93
        9
 72
     4
 94
        3
 73
     1
 74
     0
 95
       14
 96
       10
 40
0.0
 40
0.0
 40
0.0
 40
0.0
 40
1.0
 40
1.0
 40
1.0
 40
2.0
 40
2.0
 40
2.0
 40
3.0
 40
3.0
 40
3.0
 40
3.0
 10
287.0539854214827
 20
21.61211917311517
 42
1.0
 10
287.2972697310664
 20
21.3082559388604
 42
1.0
 10
287.5152010346028
 20
21.01001756649998
 42
1.0
 10
287.7601488949774
 20
20.73592220529573
 42
1.0
 10
288.1784811821614
 20
20.26780485511384
 42
1.0
 10
288.7048673968812
 20
20.09831485913089
 42
1.0
 10
289.3271645408483
 20
20.20870037148624
 42
1.0
 10
289.9739444785289
 20
20.32342848939635
 42
1.0
 10
290.7160910783766
 20
21.04182259740494
 42
1.0
 10
290.8103661314317
 20
21.70506046432864
 42
1.0
 72
     4
 94
        3
 73
     1
 74
     0
 95
       14
 96
       10
 40
24.0
 40
24.0
 40
24.0
 40
24.0
 40
25.0
 40
25.0
 40
25.0
 40
26.0
 40
26.0
 40
26.0
 40
27.0
 40
27.0
 40
27.0
 40
27.0
 10
290.8103661314317
 20
21.70506046432864
 42
1.0
 10
290.6825002672103
 20
21.49939669476813
 42
1.0
 10
290.5884281612034
 20
21.32571784099438
 42
1.0
 10
290.4735170834558
 20
21.16713932372221
 42
1.0
 10
289.9836367374808
 20
20.49110656799653
 42
1.0
 10
289.3841588364346
 20
20.43289382139212
 42
1.0
 10
288.8166481701822
 20
21.05011190802389
 42
1.0
 10
288.4270667146001
 20
21.47381844824843
 42
1.0
 10
288.0996055050067
 20
21.95463920731319
 42
1.0
 10
287.7314564875268
 20
22.4264857094768
 42
1.0
 72
     4
 94
        3
 73
     1
 74
     0
 95
       11
 96
        7
 40
22.0
 40
22.0
 40
22.0
 40
22.0
 40
23.0
 40
23.0
 40
23.0
 40
24.0
 40
24.0
 40
24.0
 40
24.0
 10
287.7314564875268
 20
22.4264857094768
 42
1.0
 10
288.1508588591387
 20
23.00030157147278
 42
1.0
 10
288.5466855488353
 20
23.55949371503118
 42
1.0
 10
288.9612633156569
 20
24.10441845059237
 42
1.0
 10
289.4290162836425
 20
24.71923384406366
 42
1.0
 10
289.9536528488242
 20
25.26443186627322
 42
1.0
 10
290.7742138825406
 20
25.39867403457779
 42
1.0
 72
     1
 10
290.7742138825406
 20
25.39867403457779
 11
287.7715077796773
 21
25.39867403457779
 72
     4
 94
        3
 73
     1
 74
     0
 95
       17
 96
       13
 40
16.0
 40
16.0
 40
16.0
 40
16.0
 40
17.0
 40
17.0
 40
17.0
 40
18.0
 40
18.0
 40
18.0
 40
19.0
 40
19.0
 40
19.0
 40
20.0
 40
20.0
 40
20.0
 40
20.0
 10
287.7715077796773
 20
25.39867403457779
 42
1.0
 10
287.9710693005408
 20
25.34310267453518
 42
1.0
 10
288.1718392788191
 20
25.32949945687163
 42
1.0
 10
288.3670435880915
 20
25.28904726743022
 42
1.0
 10
288.7601181928394
 20
25.20759054971102
 42
1.0
 10
288.9174636530569
 20
24.97387165717582
 42
1.0
 10
288.8543009972361
 20
24.57697987985169
 42
1.0
 10
288.8373887433532
 20
24.47070865762303
 42
1.0
 10
288.8131334963293
 20
24.35736772890119
 42
1.0
 10
288.7595985254019
 20
24.26650702928458
 42
1.0
 10
288.4211781752921
 20
23.692108847638
 42
1.0
 10
288.0735790837579
 20
23.12311989664797
 42
1.0
 10
287.7233847299918
 20
22.54303496963325
 42
1.0
 72
     1
 10
287.7233847299918
 20
22.54303496963325
 11
285.8065406500284
 21
24.86455968857224
 72
     4
 94
        3
 73
     1
 74
     0
 95
       20
 96
       16
 40
10.0
 40
10.0
 40
10.0
 40
10.0
 40
11.0
 40
11.0
 40
11.0
 40
12.0
 40
12.0
 40
12.0
 40
13.0
 40
13.0
 40
13.0
 40
14.0
 40
14.0
 40
14.0
 40
15.0
 40
15.0
 40
15.0
 40
15.0
 10
285.8065406500283
 20
24.86455968857225
 42
1.0
 10
285.9002991106001
 20
24.9215528310502
 42
1.0
 10
286.0025259979348
 20
24.975621306713
 42
1.0
 10
286.0959738880259
 20
25.04203380586477
 42
1.0
 10
286.361711520857
 20
25.23088333574105
 42
1.0
 10
286.6551698752792
 20
25.39378370261948
 42
1.0
 10
286.8815726805328
 20
25.62247811827483
 42
1.0
 10
287.5614237619422
 20
26.30921056516709
 42
1.0
 10
287.361321048954
 20
27.32558686332681
 42
1.0
 10
286.4793408590448
 20
27.71426216803416
 42
1.0
 10
285.840402057257
 20
27.99583274545401
 42
1.0
 10
285.1912113546599
 20
27.99239110178883
 42
1.0
 10
284.558084218296
 20
27.68711127408746
 42
1.0
 10
283.9109291360762
 20
27.37506654483262
 42
1.0
 10
283.6309452355653
 20
26.8393466878164
 42
1.0
 10
283.7149530130354
 20
26.1296866058298
 42
1.0
 72
     4
 94
        3
 73
     1
 74
     0
 95
       11
 96
        7
 40
8.0
 40
8.0
 40
8.0
 40
8.0
 40
9.0
 40
9.0
 40
9.0
 40
10.0
 40
10.0
 40
10.0
 40
10.0
 10
283.7149530130354
 20
26.1296866058298
 42
1.0
 10
283.7707819005811
 20
25.65802498535045
 42
1.0
 10
284.0198409761273
 20
25.28515591156022
 42
1.0
 10
284.3077767109179
 20
24.93075271279267
 42
1.0
 10
284.4323277733789
 20
24.77744812814591
 42
1.0
 10
284.5641388051866
 20
24.6300390014551
 42
1.0
 10
284.7027239634148
 20
24.46818604120849
 42
1.0
 72
     4
 94
        3
 73
     1
 74
     0
 95
       20
 96
       16
 40
3.0
 40
3.0
 40
3.0
 40
3.0
 40
4.0
 40
4.0
 40
4.0
 40
5.0
 40
5.0
 40
5.0
 40
6.0
 40
6.0
 40
6.0
 40
7.0
 40
7.0
 40
7.0
 40
8.0
 40
8.0
 40
8.0
 40
8.0
 10
284.7027239634148
 20
24.46818604120849
 42
1.0
 10
284.5513685160267
 20
24.38851087568819
 42
1.0
 10
284.4255536469583
 20
24.32317807019961
 42
1.0
 10
284.3005597909425
 20
24.25632085564481
 42
1.0
 10
283.8607304915963
 20
24.02105948868024
 42
1.0
 10
283.460866385652
 20
23.73663343094009
 42
1.0
 10
283.1417229300147
 20
23.34576433784628
 42
1.0
 10
282.3522343191156
 20
22.37884389028816
 42
1.0
 10
282.6109241545095
 20
20.5355588898502
 42
1.0
 10
284.198169930981
 20
20.23446388406056
 42
1.0
 10
285.1515567317372
 20
20.05360962220845
 42
1.0
 10
285.9488126796034
 20
20.36759637788916
 42
1.0
 10
286.5896302790503
 20
21.09003174583673
 42
1.0
 10
286.7443651022574
 20
21.26447318851251
 42
1.0
 10
286.8995550188436
 20
21.43851181205056
 42
1.0
 10
287.0539854214827
 20
21.61211917311517
 42
1.0
 97
        0
 92
        0
 93
        2
 72
     4
 94
        3
 73
     1
 74
     0
 95
       14
 96
       10
 40
0.0
 40
0.0
 40
0.0
 40
0.0
 40
1.0
 40
1.0
 40
1.0
 40
2.0
 40
2.0
 40
2.0
 40
3.0
 40
3.0
 40
3.0
 40
3.0
 10
284.688382372121
 20
27.15085253116304
 42
1.0
 10
284.8337724063213
 20
27.5710895609412
 42
1.0
 10
285.1818973152029
 20
27.79269159230804
 42
1.0
 10
285.6158934244382
 20
27.76810636414938
 42
1.0
 10
285.9916529561654
 20
27.74682017860581
 42
1.0
 10
286.2400293916459
 20
27.5110460628537
 42
1.0
 10
286.3549927436335
 20
27.06650131962916
 42
1.0
 10
286.5713650448558
 20
26.2298440482801
 42
1.0
 10
286.3259713159692
 20
25.4295804098103
 42
1.0
 10
285.6520579731507
 20
24.9254318870995
 42
1.0
 72
     4
 94
        3
 73
     1
 74
     0
 95
       11
 96
        7
 40
3.0
 40
3.0
 40
3.0
 40
3.0
 40
4.0
 40
4.0
 40
4.0
 40
5.0
 40
5.0
 40
5.0
 40
5.0
 10
285.6520579731507
 20
24.9254318870995
 42
1.0
 10
285.3510444536752
 20
25.31853032275095
 42
1.0
 10
285.0380140090768
 20
25.68714980838475
 42
1.0
 10
284.7721626029031
 20
26.08712768767229
 42
1.0
 10
284.5571094574822
 20
26.41068293535724
 42
1.0
 10
284.5630810205802
 20
26.788679112661
 42
1.0
 10
284.688382372121
 20
27.15085253116304
 42
1.0
 97
        0
 92
        0
 93
        2
 72
     1
 10
284.845288113738
 20
24.3712657578988
 11
287.0009947176327
 21
21.77781006188367
 72
     4
 94
        3
 73
     1
 74
     0
 95
       14
 96
       10
 40
1.0
 40
1.0
 40
1.0
 40
1.0
 40
2.0
 40
2.0
 40
2.0
 40
3.0
 40
3.0
 40
3.0
 40
4.0
 40
4.0
 40
4.0
 40
4.0
 10
287.0009947176327
 20
21.77781006188367
 42
1.0
 10
286.5509442670314
 20
21.22618922689351
 42
1.0
 10
286.0339581905155
 20
20.90925282038733
 42
1.0
 10
285.3603677179978
 20
20.87638462370451
 42
1.0
 10
284.4974276510072
 20
20.83427541775252
 42
1.0
 10
283.8665083325146
 20
21.39392726712143
 42
1.0
 10
283.7780264951535
 20
22.28619625730053
 42
1.0
 10
283.6988925217564
 20
23.08417174469389
 42
1.0
 10
284.1054815548355
 20
23.90423117633508
 42
1.0
 10
284.845288113738
 20
24.3712657578988
 42
1.0
 97
        0
 75
     0
 76
     1
 98
        1
 10
0.0
 20
0.0
  0
HATCH
  5
79
330
1F
100
AcDbEntity
  8
0
  6
Continuous
 62
     7
100
AcDbHatch
 10
0.0
 20
0.0
 30
0.0
210
0.0
220
0.0
230
1.0
  2
SOLID
 70
     1
 71
     0
 91
        1
 92
        0
 93
        2
 72
     4
 94
        3
 73
     1
 74
     0
 95
       11
 96
        7
 40
0.0
 40
0.0
 40
0.0
 40
0.0
 40
1.0
 40
1.0
 40
1.0
 40
2.0
 40
2.0
 40
2.0
 40
2.0
 10
303.0570519104932
 20
26.35430478392947
 42
1.0
 10
303.0628482011429
 20
25.96449808787493
 42
1.0
 10
303.3259905717408
 20
25.69768229885988
 42
1.0
 10
303.6993639381942
 20
25.70301926806731
 42
1.0
 10
304.0680572227529
 20
25.70828897263022
 42
1.0
 10
304.3293945946187
 20
25.98752450590587
 42
1.0
 10
304.327448147944
 20
26.37412133304796
 42
1.0
 72
     4
 94
        3
 73
     1
 74
     0
 95
       11
 96
        7
 40
2.0
 40
2.0
 40
2.0
 40
2.0
 40
3.0
 40
3.0
 40
3.0
 40
4.0
 40
4.0
 40
4.0
 40
4.0
 10
304.327448147944
 20
26.37412133304796
 42
1.0
 10
304.3255386007336
 20
26.75299425696746
 42
1.0
 10
304.0507636744179
 20
27.04560238626284
 42
1.0
 10
303.6924299141011
 20
27.05034857969325
 42
1.0
 10
303.3266947364936
 20
27.05519259513757
 42
1.0
 10
303.0511172468595
 20
26.75330175249256
 42
1.0
 10
303.0570519104932
 20
26.35430478392947
 42
1.0
 97
        0
 75
     0
 76
     1
 98
        1
 10
0.0
 20
0.0
  0
HATCH
  5
7A
330
1F
100
AcDbEntity
  8
0
  6
Continuous
 62
     7
100
AcDbHatch
 10
0.0
 20
0.0
 30
0.0
210
0.0
220
0.0
230
1.0
  2
SOLID
 70
     1
 71
     0
 91
        1
 92
        0
 93
        4
 72
     1
 10
302.6973344203136
 20
20.2539775500868
 11
304.8038079156778
 21
20.2539775500868
 72
     4
 94
        3
 73
     1
 74
     0
 95
       17
 96
       13
 40
6.0
 40
6.0
 40
6.0
 40
6.0
 40
7.0
 40
7.0
 40
7.0
 40
8.0
 40
8.0
 40
8.0
 40
9.0
 40
9.0
 40
9.0
 40
10.0
 40
10.0
 40
10.0
 40
10.0
 10
304.8038079156778
 20
20.2539775500868
 42
1.0
 10
304.4578262506061
 20
20.33981031349822
 42
1.0
 10
304.2621822227331
 20
20.55023795748124
 42
1.0
 10
304.2107535961514
 20
20.89393877449616
 42
1.0
 10
304.1922454404932
 20
21.01764883669525
 42
1.0
 10
304.1821011631179
 20
21.14380579453512
 42
1.0
 10
304.1818797663412
 20
21.26887114326077
 42
1.0
 10
304.1797703470369
 20
22.46084295323946
 42
1.0
 10
304.1808527312862
 20
23.65282014439031
 42
1.0
 10
304.1800932173391
 20
24.84479541369365
 42
1.0
 10
304.1800409430993
 20
24.93136078519359
 42
1.0
 10
304.1727133247369
 20
25.01792115989102
 42
1.0
 10
304.1706223551654
 20
25.06377258638473
 42
1.0
 72
     1
 10
304.1706223551654
 20
25.06377258638473
 11
302.7125031745686
 21
24.50968064047992
 72
     4
 94
        3
 73
     1
 74
     0
 95
       17
 96
       13
 40
1.0
 40
1.0
 40
1.0
 40
1.0
 40
2.0
 40
2.0
 40
2.0
 40
3.0
 40
3.0
 40
3.0
 40
4.0
 40
4.0
 40
4.0
 40
5.0
 40
5.0
 40
5.0
 40
5.0
 10
302.7125031745686
 20
24.50968064047994
 42
1.0
 10
302.7604109773859
 20
24.50557288463289
 42
1.0
 10
302.8224697242704
 20
24.49650561033552
 42
1.0
 10
302.8846514693661
 20
24.49557889569631
 42
1.0
 10
303.1332831261333
 20
24.4918735746181
 42
1.0
 10
303.2632153602819
 20
24.35030186610297
 42
1.0
 10
303.2668591822546
 20
24.11891186780057
 42
1.0
 10
303.2829750227277
 20
23.09531768874206
 42
1.0
 10
303.296603224403
 20
22.071496731734
 42
1.0
 10
303.2916556214044
 20
21.04785181591346
 42
1.0
 10
303.2897768237453
 20
20.65853557522151
 42
1.0
 10
303.1321361678242
 20
20.3494649042487
 42
1.0
 10
302.6973344203136
 20
20.2539775500868
 42
1.0
 97
        0
 75
     0
 76
     1
 98
        1
 10
0.0
 20
0.0
  0
HATCH
  5
7B
330
1F
100
AcDbEntity
  8
0
  6
Continuous
 62
     7
100
AcDbHatch
 10
0.0
 20
0.0
 30
0.0
210
0.0
220
0.0
230
1.0
  2
SOLID
 70
     1
 71
     0
 91
        1
 92
        0
 93
        4
 72
     1
 10
308.65963267846
 20
27.88697759989075
 11
307.1608133901539
 21
27.32540717062984
 72
     4
 94
        3
 73
     1
 74
     0
 95
       20
 96
       16
 40
5.0
 40
5.0
 40
5.0
 40
5.0
 40
6.0
 40
6.0
 40
6.0
 40
7.0
 40
7.0
 40
7.0
 40
8.0
 40
8.0
 40
8.0
 40
9.0
 40
9.0
 40
9.0
 40
10.0
 40
10.0
 40
10.0
 40
10.0
 10
307.1608133901539
 20
27.32540717062984
 42
1.0
 10
307.6774858212348
 20
27.28280885460759
 42
1.0
 10
307.7501131893193
 20
27.20350460556406
 42
1.0
 10
307.7547502218385
 20
26.63215658734291
 42
1.0
 10
307.7552944889174
 20
26.56503146731187
 42
1.0
 10
307.7550361926765
 20
26.49789904426262
 42
1.0
 10
307.7550361926765
 20
26.43077008053731
 42
1.0
 10
307.7550484924979
 20
24.69380511724257
 42
1.0
 10
307.7587445887104
 20
22.95682170421714
 42
1.0
 10
307.7500732149022
 20
21.21990094340409
 42
1.0
 10
307.7490584796685
 20
21.01681475508336
 42
1.0
 10
307.7285516030971
 20
20.78446498637255
 42
1.0
 10
307.6283941606454
 20
20.61954360515536
 42
1.0
 10
307.5293898264143
 20
20.45652254628292
 42
1.0
 10
307.3179589782804
 20
20.36177625633667
 42
1.0
 10
307.178408284104
 20
20.25443648715803
 42
1.0
 72
     1
 10
307.178408284104
 20
20.25443648715803
 11
309.3620693061908
 21
20.25443648715802
 72
     4
 94
        3
 73
     1
 74
     0
 95
       14
 96
       10
 40
1.0
 40
1.0
 40
1.0
 40
1.0
 40
2.0
 40
2.0
 40
2.0
 40
3.0
 40
3.0
 40
3.0
 40
4.0
 40
4.0
 40
4.0
 40
4.0
 10
309.3620693061908
 20
20.25443648715802
 42
1.0
 10
308.807415027844
 20
20.43200746554105
 42
1.0
 10
308.6597679764911
 20
20.6374237012035
 42
1.0
 10
308.6597187772069
 20
21.15880542625192
 42
1.0
 10
308.6595035303402
 20
23.32371921490944
 42
1.0
 10
308.65963267846
 20
25.48863300356693
 42
1.0
 10
308.65963267846
 20
27.65354698440997
 42
1.0
 10
308.65963267846
 20
27.74275854708867
 42
1.0
 10
308.65963267846
 20
27.83196991758182
 42
1.0
 10
308.65963267846
 20
27.88697759989075
 42
1.0
 97
        0
 75
     0
 76
     1
 98
        1
 10
0.0
 20
0.0
  0
HATCH
  5
7C
330
1F
100
AcDbEntity
  8
0
  6
Continuous
 62
     7
100
AcDbHatch
 10
0.0
 20
0.0
 30
0.0
210
0.0
220
0.0
230
1.0
  2
SOLID
 70
     1
 71
     0
 91
        1
 92
        0
 93
        4
 72
     1
 10
313.1781318226163
 20
27.87703492426926
 11
311.6691528821608
 21
27.32445797038016
 72
     4
 94
        3
 73
     1
 74
     0
 95
       17
 96
       13
 40
6.0
 40
6.0
 40
6.0
 40
6.0
 40
7.0
 40
7.0
 40
7.0
 40
8.0
 40
8.0
 40
8.0
 40
9.0
 40
9.0
 40
9.0
 40
10.0
 40
10.0
 40
10.0
 40
10.0
 10
311.6691528821608
 20
27.32445797038016
 42
1.0
 10
312.2096131670664
 20
27.27631108979181
 42
1.0
 10
312.2683694120104
 20
27.21300429544448
 42
1.0
 10
312.2823973578678
 20
26.60716642601487
 42
1.0
 10
312.2845313768121
 20
26.51487279724974
 42
1.0
 10
312.2871512386867
 20
26.42255802816857
 42
1.0
 10
312.2871819882395
 20
26.33025248395311
 42
1.0
 10
312.2877662297369
 20
24.60974045310045
 42
1.0
 10
312.2890700107628
 20
22.88922803787955
 42
1.0
 10
312.2876555313485
 20
21.16871754450475
 42
1.0
 10
312.2872188877024
 20
20.63608302071405
 42
1.0
 10
312.1185268426077
 20
20.41647125413319
 42
1.0
 10
311.6156486607861
 20
20.25320881127337
 42
1.0
 72
     1
 10
311.6156486607861
 20
20.25320881127337
 11
313.8867245107604
 21
20.25320881127337
 72
     4
 94
        3
 73
     1
 74
     0
 95
       17
 96
       13
 40
1.0
 40
1.0
 40
1.0
 40
1.0
 40
2.0
 40
2.0
 40
2.0
 40
3.0
 40
3.0
 40
3.0
 40
4.0
 40
4.0
 40
4.0
 40
5.0
 40
5.0
 40
5.0
 40
5.0
 10
313.8867245107604
 20
20.25320881127337
 42
1.0
 10
313.3266152617988
 20
20.4348325806782
 42
1.0
 10
313.1888880160859
 20
20.62648762285203
 42
1.0
 10
313.1786115156352
 20
21.17082388885262
 42
1.0
 10
313.1771847363981
 20
21.24633325874564
 42
1.0
 10
313.1781441224363
 20
21.32188875296783
 42
1.0
 10
313.1781441224363
 20
21.39742349124222
 42
1.0
 10
313.1781256727049
 20
23.48721689184593
 42
1.0
 10
313.1781318226163
 20
25.57700952371036
 42
1.0
 10
313.1781318226163
 20
27.66680273212925
 42
1.0
 10
313.1781318226163
 20
27.75161518695077
 42
1.0
 10
313.1781318226163
 20
27.83642744958889
 42
1.0
 10
313.1781318226163
 20
27.87703492426926
 42
1.0
 97
        0
 75
     0
 76
     1
 98
        1
 10
0.0
 20
0.0
  0
HATCH
  5
7D
330
1F
100
AcDbEntity
  8
0
  6
Continuous
 62
     7
100
AcDbHatch
 10
0.0
 20
0.0
 30
0.0
210
0.0
220
0.0
230
1.0
  2
SOLID
 70
     1
 71
     0
 91
        1
 92
        0
 93
       12
 72
     1
 10
296.2715297073844
 20
27.50458020069891
 11
293.841527870193
 21
27.50458020069891
 72
     4
 94
        3
 73
     1
 74
     0
 95
       17
 96
       13
 40
21.0
 40
21.0
 40
21.0
 40
21.0
 40
22.0
 40
22.0
 40
22.0
 40
23.0
 40
23.0
 40
23.0
 40
24.0
 40
24.0
 40
24.0
 40
25.0
 40
25.0
 40
25.0
 40
25.0
 10
293.841527870193
 20
27.50458020069891
 42
1.0
 10
294.4654639653083
 20
27.35271373418588
 42
1.0
 10
294.541848928711
 20
26.88863860486635
 42
1.0
 10
294.5396718603926
 20
26.35648992400541
 42
1.0
 10
294.5326947869268
 20
24.65236702027423
 42
1.0
 10
294.54232862173
 20
22.9481603240125
 42
1.0
 10
294.5304592944584
 20
21.24409084762873
 42
1.0
 10
294.52894334152
 20
21.02641399663968
 42
1.0
 10
294.4888489999954
 20
20.77588586122133
 42
1.0
 10
294.3739502220706
 20
20.60171040217499
 42
1.0
 10
294.2655211499942
 20
20.43733713173098
 42
1.0
 10
294.0348564567621
 20
20.35359533789035
 42
1.0
 10
293.8906841048422
 20
20.25643828302682
 42
1.0
 72
     1
 10
293.8906841048422
 20
20.25643828302682
 11
296.2880237673525
 21
20.25643828302682
 72
     4
 94
        3
 73
     1
 74
     0
 95
       14
 96
       10
 40
17.0
 40
17.0
 40
17.0
 40
17.0
 40
18.0
 40
18.0
 40
18.0
 40
19.0
 40
19.0
 40
19.0
 40
20.0
 40
20.0
 40
20.0
 40
20.0
 10
296.2880237673525
 20
20.25643828302682
 42
1.0
 10
295.7413366980624
 20
20.4024294709773
 42
1.0
 10
295.5628078711177
 20
20.63015527572819
 42
1.0
 10
295.5619960829322
 20
21.2138824872384
 42
1.0
 10
295.560827599936
 20
22.05336910178782
 42
1.0
 10
295.561359567195
 20
22.89285956003151
 42
1.0
 10
295.5621928800676
 20
23.73234771205876
 42
1.0
 10
295.5622759038603
 20
23.81306182808445
 42
1.0
 10
295.5696219719554
 20
23.89376787235267
 42
1.0
 10
295.5733857171835
 20
23.97022240661697
 42
1.0
 72
     1
 10
295.5733857171835
 20
23.97022240661697
 11
298.4851131190222
 21
23.97022240661697
 72
     4
 94
        3
 73
     1
 74
     0
 95
       11
 96
        7
 40
14.0
 40
14.0
 40
14.0
 40
14.0
 40
15.0
 40
15.0
 40
15.0
 40
16.0
 40
16.0
 40
16.0
 40
16.0
 10
298.4851131190222
 20
23.97022240661697
 42
1.0
 10
298.4851131190222
 20
23.04419117651474
 42
1.0
 10
298.4852207424561
 20
22.13796342697173
 42
1.0
 10
298.485073144605
 20
21.23173567742801
 42
1.0
 10
298.4849747460367
 20
20.62384393007452
 42
1.0
 10
298.3307257657572
 20
20.41986831094703
 42
1.0
 10
297.7632396991476
 20
20.25412130424438
 42
1.0
 72
     1
 10
297.7632396991476
 20
20.25412130424438
 11
300.2193725060648
 21
20.25412130424438
 72
     4
 94
        3
 73
     1
 74
     0
 95
       17
 96
       13
 40
9.0
 40
9.0
 40
9.0
 40
9.0
 40
10.0
 40
10.0
 40
10.0
 40
11.0
 40
11.0
 40
11.0
 40
12.0
 40
12.0
 40
12.0
 40
13.0
 40
13.0
 40
13.0
 40
13.0
 10
300.2193725060648
 20
20.25412130424438
 42
1.0
 10
299.739442715284
 20
20.41422423058344
 42
1.0
 10
299.5427163031618
 20
20.62720562490344
 42
1.0
 10
299.542119761843
 20
21.03839632851544
 42
1.0
 10
299.5393769017586
 20
22.92724217217554
 42
1.0
 10
299.5395583241182
 20
24.8160968563317
 42
1.0
 10
299.5421628112159
 20
26.70494346873036
 42
1.0
 10
299.5426363543262
 20
27.0468754177367
 42
1.0
 10
299.7248336028849
 20
27.28837413924314
 42
1.0
 10
300.049118383702
 20
27.40930924651266
 42
1.0
 10
300.1052670665942
 20
27.43024796211264
 42
1.0
 10
300.1600043450263
 20
27.45496618208605
 42
1.0
 10
300.2549312885929
 20
27.49433829349534
 42
1.0
 72
     1
 10
300.2549312885929
 20
27.49433829349534
 11
297.7186989723292
 21
27.49433829349534
 72
     4
 94
        3
 73
     1
 74
     0
 95
       14
 96
       10
 40
5.0
 40
5.0
 40
5.0
 40
5.0
 40
6.0
 40
6.0
 40
6.0
 40
7.0
 40
7.0
 40
7.0
 40
8.0
 40
8.0
 40
8.0
 40
8.0
 10
297.7186989723292
 20
27.49433829349534
 42
1.0
 10
298.3648823686909
 20
27.26685790861022
 42
1.0
 10
298.4850762195593
 20
27.0944786077999
 42
1.0
 10
298.4851069691121
 20
26.45733654080182
 42
1.0
 10
298.4851377186649
 20
25.7773505457302
 42
1.0
 10
298.4851131190222
 20
25.09736416629037
 42
1.0
 10
298.4851131190222
 20
24.41737817121947
 42
1.0
 10
298.4851131190222
 20
24.32893553953832
 42
1.0
 10
298.4851131190222
 20
24.24049329222682
 42
1.0
 10
298.4851131190222
 20
24.16049564077468
 42
1.0
 72
     1
 10
298.4851131190222
 20
24.16049564077468
 11
295.5632814142282
 21
24.16049564077468
 72
     4
 94
        3
 73
     1
 74
     0
 95
       14
 96
       10
 40
1.0
 40
1.0
 40
1.0
 40
1.0
 40
2.0
 40
2.0
 40
2.0
 40
3.0
 40
3.0
 40
3.0
 40
4.0
 40
4.0
 40
4.0
 40
4.0
 10
295.5632814142282
 20
24.16049564077468
 42
1.0
 10
295.5632814142282
 20
25.01272602299438
 42
1.0
 10
295.5627432970579
 20
25.84365465270932
 42
1.0
 10
295.5644406723573
 20
26.67457866999212
 42
1.0
 10
295.5645605956114
 20
26.73240397223375
 42
1.0
 10
295.5792681065788
 20
26.79059327230427
 42
1.0
 10
295.5906023916358
 20
26.8479388815276
 42
1.0
 10
295.6648994604227
 20
27.22384581892186
 42
1.0
 10
295.9411319155254
 20
27.38780204855992
 42
1.0
 10
296.2715297073844
 20
27.50458020069891
 42
1.0
 97
        0
 75
     0
 76
     1
 98
        1
 10
0.0
 20
0.0
  0
SPLINE
  5
7E
330
1F
100
AcDbEntity
  8
0
  6
Continuous
 62
   179
370
     0
100
AcDbSpline
210
0.0
220
0.0
230
1.0
 70
     8
 71
     3
 72
    14
 73
    10
 74
     0
 42
0.000000001
 43
0.00000001
 40
24.0
 40
24.0
 40
24.0
 40
24.0
 40
25.0
 40
25.0
 40
25.0
 40
26.0
 40
26.0
 40
26.0
 40
27.0
 40
27.0
 40
27.0
 40
27.0
 10
287.7314564875268
 20
22.4264857094768
 30
0.0
 10
288.0996055050067
 20
21.95463920731319
 30
0.0
 10
288.4270667146001
 20
21.47381844824843
 30
0.0
 10
288.8166481701822
 20
21.05011190802389
 30
0.0
 10
289.3841588364346
 20
20.43289382139212
 30
0.0
 10
289.9836367374808
 20
20.49110656799653
 30
0.0
 10
290.4735170834558
 20
21.16713932372221
 30
0.0
 10
290.5884281612034
 20
21.32571784099438
 30
0.0
 10
290.6825002672103
 20
21.49939669476813
 30
0.0
 10
290.8103661314317
 20
21.70506046432864
 30
0.0
  0
SPLINE
  5
7F
330
1F
100
AcDbEntity
  8
0
  6
Continuous
 62
   179
370
     0
100
AcDbSpline
210
0.0
220
0.0
230
1.0
 70
     8
 71
     3
 72
    11
 73
     7
 74
     0
 42
0.000000001
 43
0.00000001
 40
22.0
 40
22.0
 40
22.0
 40
22.0
 40
23.0
 40
23.0
 40
23.0
 40
24.0
 40
24.0
 40
24.0
 40
24.0
 10
290.7742138825406
 20
25.39867403457779
 30
0.0
 10
289.9536528488242
 20
25.26443186627322
 30
0.0
 10
289.4290162836425
 20
24.71923384406366
 30
0.0
 10
288.9612633156569
 20
24.10441845059237
 30
0.0
 10
288.5466855488353
 20
23.55949371503118
 30
0.0
 10
288.1508588591387
 20
23.00030157147278
 30
0.0
 10
287.7314564875268
 20
22.4264857094768
 30
0.0
  0
SPLINE
  5
80
330
1F
100
AcDbEntity
  8
0
  6
Continuous
 62
   179
370
     0
100
AcDbSpline
210
0.0
220
0.0
230
1.0
 70
     8
 71
     3
 72
    11
 73
     7
 74
     0
 42
0.000000001
 43
0.00000001
 40
20.0
 40
20.0
 40
20.0
 40
20.0
 40
21.0
 40
21.0
 40
21.0
 40
22.0
 40
22.0
 40
22.0
 40
22.0
 10
287.7715077796773
 20
25.39867403457779
 30
0.0
 10
288.2706160663608
 20
25.39867403457779
 30
0.0
 10
288.76972127809
 20
25.39867441894744
 30
0.0
 10
289.2688295647749
 20
25.39867441894744
 30
0.0
 10
289.7706253623487
 20
25.39867441894744
 30
0.0
 10
290.2724180849667
 20
25.39867403457779
 30
0.0
 10
290.7742138825406
 20
25.39867403457779
 30
0.0
  0
SPLINE
  5
81
330
1F
100
AcDbEntity
  8
0
  6
Continuous
 62
   179
370
     0
100
AcDbSpline
210
0.0
220
0.0
230
1.0
 70
     8
 71
     3
 72
    17
 73
    13
 74
     0
 42
0.000000001
 43
0.00000001
 40
16.0
 40
16.0
 40
16.0
 40
16.0
 40
17.0
 40
17.0
 40
17.0
 40
18.0
 40
18.0
 40
18.0
 40
19.0
 40
19.0
 40
19.0
 40
20.0
 40
20.0
 40
20.0
 40
20.0
 10
287.7233847299918
 20
22.54303496963325
 30
0.0
 10
288.0735790837579
 20
23.12311989664797
 30
0.0
 10
288.4211781752921
 20
23.692108847638
 30
0.0
 10
288.7595985254018
 20
24.26650702928458
 30
0.0
 10
288.8131334963293
 20
24.35736772890119
 30
0.0
 10
288.8373887433532
 20
24.47070865762303
 30
0.0
 10
288.8543009972361
 20
24.57697987985169
 30
0.0
 10
288.9174636530569
 20
24.97387165717582
 30
0.0
 10
288.7601181928394
 20
25.20759054971102
 30
0.0
 10
288.3670435880915
 20
25.28904726743022
 30
0.0
 10
288.1718392788191
 20
25.32949945687163
 30
0.0
 10
287.9710693005408
 20
25.34310267453518
 30
0.0
 10
287.7715077796773
 20
25.39867403457779
 30
0.0
  0
SPLINE
  5
82
330
1F
100
AcDbEntity
  8
0
  6
Continuous
 62
   179
370
     0
100
AcDbSpline
210
0.0
220
0.0
230
1.0
 70
     8
 71
     3
 72
     8
 73
     4
 74
     0
 42
0.000000001
 43
0.00000001
 40
15.0
 40
15.0
 40
15.0
 40
15.0
 40
16.0
 40
16.0
 40
16.0
 40
16.0
 10
285.8065406500282
 20
24.86455968857225
 30
0.0
 10
286.4380688096612
 20
24.09970377545334
 30
0.0
 10
287.0596648638312
 20
23.34687900912474
 30
0.0
 10
287.7233847299918
 20
22.54303496963325
 30
0.0
  0
SPLINE
  5
83
330
1F
100
AcDbEntity
  8
0
  6
Continuous
 62
   179
370
     0
100
AcDbSpline
210
0.0
220
0.0
230
1.0
 70
     8
 71
     3
 72
    26
 73
    22
 74
     0
 42
0.000000001
 43
0.00000001
 40
8.0
 40
8.0
 40
8.0
 40
8.0
 40
9.0
 40
9.0
 40
9.0
 40
10.0
 40
10.0
 40
10.0
 40
11.0
 40
11.0
 40
11.0
 40
12.0
 40
12.0
 40
12.0
 40
13.0
 40
13.0
 40
13.0
 40
14.0
 40
14.0
 40
14.0
 40
15.0
 40
15.0
 40
15.0
 40
15.0
 10
284.7027239634148
 20
24.46818604120849
 30
0.0
 10
284.5641388051866
 20
24.6300390014551
 30
0.0
 10
284.4323277733789
 20
24.77744812814591
 30
0.0
 10
284.3077767109179
 20
24.93075271279267
 30
0.0
 10
284.0198409761273
 20
25.28515591156022
 30
0.0
 10
283.7707819005811
 20
25.65802498535045
 30
0.0
 10
283.7149530130354
 20
26.1296866058298
 30
0.0
 10
283.6309452355653
 20
26.8393466878164
 30
0.0
 10
283.9109291360762
 20
27.37506654483262
 30
0.0
 10
284.558084218296
 20
27.68711127408746
 30
0.0
 10
285.1912113546599
 20
27.99239110178883
 30
0.0
 10
285.840402057257
 20
27.99583274545401
 30
0.0
 10
286.4793408590448
 20
27.71426216803416
 30
0.0
 10
287.361321048954
 20
27.32558686332681
 30
0.0
 10
287.5614237619422
 20
26.30921056516709
 30
0.0
 10
286.8815726805328
 20
25.62247811827483
 30
0.0
 10
286.6551698752792
 20
25.39378370261948
 30
0.0
 10
286.361711520857
 20
25.23088333574105
 30
0.0
 10
286.0959738880259
 20
25.04203380586477
 30
0.0
 10
286.0025259979348
 20
24.975621306713
 30
0.0
 10
285.9002991106001
 20
24.9215528310502
 30
0.0
 10
285.8065406500282
 20
24.86455968857225
 30
0.0
  0
SPLINE
  5
84
330
1F
100
AcDbEntity
  8
0
  6
Continuous
 62
   179
370
     0
100
AcDbSpline
210
0.0
220
0.0
230
1.0
 70
     8
 71
     3
 72
    20
 73
    16
 74
     0
 42
0.000000001
 43
0.00000001
 40
3.0
 40
3.0
 40
3.0
 40
3.0
 40
4.0
 40
4.0
 40
4.0
 40
5.0
 40
5.0
 40
5.0
 40
6.0
 40
6.0
 40
6.0
 40
7.0
 40
7.0
 40
7.0
 40
8.0
 40
8.0
 40
8.0
 40
8.0
 10
287.0539854214827
 20
21.61211917311517
 30
0.0
 10
286.8995550188436
 20
21.43851181205056
 30
0.0
 10
286.7443651022574
 20
21.26447318851251
 30
0.0
 10
286.5896302790503
 20
21.09003174583673
 30
0.0
 10
285.9488126796034
 20
20.36759637788916
 30
0.0
 10
285.1515567317372
 20
20.05360962220845
 30
0.0
 10
284.198169930981
 20
20.23446388406056
 30
0.0
 10
282.6109241545095
 20
20.5355588898502
 30
0.0
 10
282.3522343191156
 20
22.37884389028816
 30
0.0
 10
283.1417229300146
 20
23.34576433784628
 30
0.0
 10
283.460866385652
 20
23.73663343094009
 30
0.0
 10
283.8607304915963
 20
24.02105948868024
 30
0.0
 10
284.3005597909425
 20
24.25632085564481
 30
0.0
 10
284.4255536469583
 20
24.32317807019961
 30
0.0
 10
284.5513685160267
 20
24.38851087568819
 30
0.0
 10
284.7027239634148
 20
24.46818604120849
 30
0.0
  0
SPLINE
  5
85
330
1F
100
AcDbEntity
  8
0
  6
Continuous
 62
   179
370
     0
100
AcDbSpline
210
0.0
220
0.0
230
1.0
 70
     8
 71
     3
 72
    14
 73
    10
 74
     0
 42
0.000000001
 43
0.00000001
 40
0.0
 40
0.0
 40
0.0
 40
0.0
 40
1.0
 40
1.0
 40
1.0
 40
2.0
 40
2.0
 40
2.0
 40
3.0
 40
3.0
 40
3.0
 40
3.0
 10
290.8103661314317
 20
21.70506046432864
 30
0.0
 10
290.7160910783766
 20
21.04182259740494
 30
0.0
 10
289.9739444785289
 20
20.32342848939635
 30
0.0
 10
289.3271645408483
 20
20.20870037148624
 30
0.0
 10
288.7048673968812
 20
20.09831485913089
 30
0.0
 10
288.1784811821614
 20
20.26780485511384
 30
0.0
 10
287.7601488949774
 20
20.73592220529573
 30
0.0
 10
287.5152010346028
 20
21.01001756649998
 30
0.0
 10
287.2972697310664
 20
21.3082559388604
 30
0.0
 10
287.0539854214827
 20
21.61211917311517
 30
0.0
  0
SPLINE
  5
86
330
1F
100
AcDbEntity
  8
0
  6
Continuous
 62
   179
370
     0
100
AcDbSpline
210
0.0
220
0.0
230
1.0
 70
     8
 71
     3
 72
    14
 73
    10
 74
     0
 42
0.000000001
 43
0.00000001
 40
1.0
 40
1.0
 40
1.0
 40
1.0
 40
2.0
 40
2.0
 40
2.0
 40
3.0
 40
3.0
 40
3.0
 40
4.0
 40
4.0
 40
4.0
 40
4.0
 10
284.845288113738
 20
24.3712657578988
 30
0.0
 10
284.1054815548355
 20
23.90423117633508
 30
0.0
 10
283.6988925217564
 20
23.08417174469389
 30
0.0
 10
283.7780264951535
 20
22.28619625730053
 30
0.0
 10
283.8665083325146
 20
21.39392726712143
 30
0.0
 10
284.4974276510072
 20
20.83427541775252
 30
0.0
 10
285.3603677179978
 20
20.87638462370451
 30
0.0
 10
286.0339581905155
 20
20.90925282038733
 30
0.0
 10
286.5509442670314
 20
21.22618922689351
 30
0.0
 10
287.0009947176327
 20
21.77781006188367
 30
0.0
  0
SPLINE
  5
87
330
1F
100
AcDbEntity
  8
0
  6
Continuous
 62
   179
370
     0
100
AcDbSpline
210
0.0
220
0.0
230
1.0
 70
     8
 71
     3
 72
     8
 73
     4
 74
     0
 42
0.000000001
 43
0.00000001
 40
0.0
 40
0.0
 40
0.0
 40
0.0
 40
1.0
 40
1.0
 40
1.0
 40
1.0
 10
287.0009947176327
 20
21.77781006188367
 30
0.0
 10
286.2819902310067
 20
22.64282111123716
 30
0.0
 10
285.5612360948443
 20
23.50993158628786
 30
0.0
 10
284.845288113738
 20
24.3712657578988
 30
0.0
  0
SPLINE
  5
88
330
1F
100
AcDbEntity
  8
0
  6
Continuous
 62
   179
370
     0
100
AcDbSpline
210
0.0
220
0.0
230
1.0
 70
     8
 71
     3
 72
    11
 73
     7
 74
     0
 42
0.000000001
 43
0.00000001
 40
3.0
 40
3.0
 40
3.0
 40
3.0
 40
4.0
 40
4.0
 40
4.0
 40
5.0
 40
5.0
 40
5.0
 40
5.0
 10
284.688382372121
 20
27.15085253116304
 30
0.0
 10
284.5630810205802
 20
26.788679112661
 30
0.0
 10
284.5571094574822
 20
26.41068293535724
 30
0.0
 10
284.7721626029031
 20
26.08712768767229
 30
0.0
 10
285.0380140090768
 20
25.68714980838475
 30
0.0
 10
285.3510444536752
 20
25.31853032275095
 30
0.0
 10
285.6520579731507
 20
24.9254318870995
 30
0.0
  0
SPLINE
  5
89
330
1F
100
AcDbEntity
  8
0
  6
Continuous
 62
   179
370
     0
100
AcDbSpline
210
0.0
220
0.0
230
1.0
 70
     8
 71
     3
 72
    14
 73
    10
 74
     0
 42
0.000000001
 43
0.00000001
 40
0.0
 40
0.0
 40
0.0
 40
0.0
 40
1.0
 40
1.0
 40
1.0
 40
2.0
 40
2.0
 40
2.0
 40
3.0
 40
3.0
 40
3.0
 40
3.0
 10
285.6520579731507
 20
24.9254318870995
 30
0.0
 10
286.3259713159692
 20
25.4295804098103
 30
0.0
 10
286.5713650448558
 20
26.2298440482801
 30
0.0
 10
286.3549927436335
 20
27.06650131962916
 30
0.0
 10
286.2400293916459
 20
27.5110460628537
 30
0.0
 10
285.9916529561654
 20
27.74682017860581
 30
0.0
 10
285.6158934244382
 20
27.76810636414938
 30
0.0
 10
285.1818973152029
 20
27.79269159230804
 30
0.0
 10
284.8337724063213
 20
27.5710895609412
 30
0.0
 10
284.688382372121
 20
27.15085253116304
 30
0.0
  0
SPLINE
  5
8A
330
1F
100
AcDbEntity
  8
0
  6
Continuous
 62
   179
370
     0
100
AcDbSpline
210
0.0
220
0.0
230
1.0
 70
     8
 71
     3
 72
    17
 73
    13
 74
     0
 42
0.000000001
 43
0.00000001
 40
21.0
 40
21.0
 40
21.0
 40
21.0
 40
22.0
 40
22.0
 40
22.0
 40
23.0
 40
23.0
 40
23.0
 40
24.0
 40
24.0
 40
24.0
 40
25.0
 40
25.0
 40
25.0
 40
25.0
 10
293.8906841048422
 20
20.25643828302682
 30
0.0
 10
294.0348564567621
 20
20.35359533789035
 30
0.0
 10
294.2655211499942
 20
20.43733713173098
 30
0.0
 10
294.3739502220706
 20
20.60171040217499
 30
0.0
 10
294.4888489999954
 20
20.77588586122133
 30
0.0
 10
294.52894334152
 20
21.02641399663968
 30
0.0
 10
294.5304592944584
 20
21.24409084762873
 30
0.0
 10
294.54232862173
 20
22.9481603240125
 30
0.0
 10
294.5326947869268
 20
24.65236702027423
 30
0.0
 10
294.5396718603926
 20
26.35648992400541
 30
0.0
 10
294.541848928711
 20
26.88863860486635
 30
0.0
 10
294.4654639653083
 20
27.35271373418588
 30
0.0
 10
293.841527870193
 20
27.50458020069891
 30
0.0
  0
SPLINE
  5
8B
330
1F
100
AcDbEntity
  8
0
  6
Continuous
 62
   179
370
     0
100
AcDbSpline
210
0.0
220
0.0
230
1.0
 70
    24
 71
     3
 72
     8
 73
     4
 74
     0
 42
0.000000001
 43
0.00000001
 40
20.0
 40
20.0
 40
20.0
 40
20.0
 40
21.0
 40
21.0
 40
21.0
 40
21.0
 10
296.2880237673525
 20
20.25643828302682
 30
0.0
 10
295.4693261565182
 20
20.25643828302682
 30
0.0
 10
294.6506254707311
 20
20.25643828302682
 30
0.0
 10
293.8906841048422
 20
20.25643828302682
 30
0.0
  0
SPLINE
  5
8C
330
1F
100
AcDbEntity
  8
0
  6
Continuous
 62
   179
370
     0
100
AcDbSpline
210
0.0
220
0.0
230
1.0
 70
     8
 71
     3
 72
    14
 73
    10
 74
     0
 42
0.000000001
 43
0.00000001
 40
17.0
 40
17.0
 40
17.0
 40
17.0
 40
18.0
 40
18.0
 40
18.0
 40
19.0
 40
19.0
 40
19.0
 40
20.0
 40
20.0
 40
20.0
 40
20.0
 10
295.5733857171835
 20
23.97022240661697
 30
0.0
 10
295.5696219719554
 20
23.89376787235267
 30
0.0
 10
295.5622759038603
 20
23.81306182808445
 30
0.0
 10
295.5621928800676
 20
23.73234771205876
 30
0.0
 10
295.561359567195
 20
22.89285956003151
 30
0.0
 10
295.560827599936
 20
22.05336910178782
 30
0.0
 10
295.5619960829322
 20
21.2138824872384
 30
0.0
 10
295.5628078711177
 20
20.63015527572819
 30
0.0
 10
295.7413366980624
 20
20.4024294709773
 30
0.0
 10
296.2880237673525
 20
20.25643828302682
 30
0.0
  0
SPLINE
  5
8D
330
1F
100
AcDbEntity
  8
0
  6
Continuous
 62
   179
370
     0
100
AcDbSpline
210
0.0
220
0.0
230
1.0
 70
    24
 71
     3
 72
     8
 73
     4
 74
     0
 42
0.000000001
 43
0.00000001
 40
16.0
 40
16.0
 40
16.0
 40
16.0
 40
17.0
 40
17.0
 40
17.0
 40
17.0
 10
298.4851131190222
 20
23.97022240661697
 30
0.0
 10
297.5154382802974
 20
23.97022240661697
 30
0.0
 10
296.5557754958724
 20
23.97022240661697
 30
0.0
 10
295.5733857171835
 20
23.97022240661697
 30
0.0
  0
SPLINE
  5
8E
330
1F
100
AcDbEntity
  8
0
  6
Continuous
 62
   179
370
     0
100
AcDbSpline
210
0.0
220
0.0
230
1.0
 70
     8
 71
     3
 72
    11
 73
     7
 74
     0
 42
0.000000001
 43
0.00000001
 40
14.0
 40
14.0
 40
14.0
 40
14.0
 40
15.0
 40
15.0
 40
15.0
 40
16.0
 40
16.0
 40
16.0
 40
16.0
 10
297.7632396991476
 20
20.25412130424438
 30
0.0
 10
298.3307257657572
 20
20.41986831094703
 30
0.0
 10
298.4849747460367
 20
20.62384393007452
 30
0.0
 10
298.4850731446049
 20
21.23173567742801
 30
0.0
 10
298.4852207424561
 20
22.13796342697173
 30
0.0
 10
298.4851131190222
 20
23.04419117651474
 30
0.0
 10
298.4851131190222
 20
23.97022240661697
 30
0.0
  0
SPLINE
  5
8F
330
1F
100
AcDbEntity
  8
0
  6
Continuous
 62
   179
370
     0
100
AcDbSpline
210
0.0
220
0.0
230
1.0
 70
    24
 71
     3
 72
     8
 73
     4
 74
     0
 42
0.000000001
 43
0.00000001
 40
13.0
 40
13.0
 40
13.0
 40
13.0
 40
14.0
 40
14.0
 40
14.0
 40
14.0
 10
300.2193725060648
 20
20.25412130424438
 30
0.0
 10
299.4006625954106
 20
20.25412130424438
 30
0.0
 10
298.5819526847563
 20
20.25412130424438
 30
0.0
 10
297.7632396991476
 20
20.25412130424438
 30
0.0
  0
SPLINE
  5
90
330
1F
100
AcDbEntity
  8
0
  6
Continuous
 62
   179
370
     0
100
AcDbSpline
210
0.0
220
0.0
230
1.0
 70
     8
 71
     3
 72
    17
 73
    13
 74
     0
 42
0.000000001
 43
0.00000001
 40
9.0
 40
9.0
 40
9.0
 40
9.0
 40
10.0
 40
10.0
 40
10.0
 40
11.0
 40
11.0
 40
11.0
 40
12.0
 40
12.0
 40
12.0
 40
13.0
 40
13.0
 40
13.0
 40
13.0
 10
300.2549312885929
 20
27.49433829349534
 30
0.0
 10
300.1600043450263
 20
27.45496618208605
 30
0.0
 10
300.1052670665942
 20
27.43024796211264
 30
0.0
 10
300.0491183837019
 20
27.40930924651266
 30
0.0
 10
299.7248336028849
 20
27.28837413924314
 30
0.0
 10
299.5426363543262
 20
27.0468754177367
 30
0.0
 10
299.5421628112159
 20
26.70494346873036
 30
0.0
 10
299.5395583241182
 20
24.8160968563317
 30
0.0
 10
299.5393769017586
 20
22.92724217217554
 30
0.0
 10
299.542119761843
 20
21.03839632851544
 30
0.0
 10
299.5427163031618
 20
20.62720562490344
 30
0.0
 10
299.739442715284
 20
20.41422423058344
 30
0.0
 10
300.2193725060648
 20
20.25412130424438
 30
0.0
  0
SPLINE
  5
91
330
1F
100
AcDbEntity
  8
0
  6
Continuous
 62
   179
370
     0
100
AcDbSpline
210
0.0
220
0.0
230
1.0
 70
    24
 71
     3
 72
     8
 73
     4
 74
     0
 42
0.000000001
 43
0.00000001
 40
8.0
 40
8.0
 40
8.0
 40
8.0
 40
9.0
 40
9.0
 40
9.0
 40
9.0
 10
297.7186989723292
 20
27.49433829349534
 30
0.0
 10
298.5854396840106
 20
27.49433829349534
 30
0.0
 10
299.3949493285535
 20
27.49433829349534
 30
0.0
 10
300.2549312885929
 20
27.49433829349534
 30
0.0
  0
SPLINE
  5
92
330
1F
100
AcDbEntity
  8
0
  6
Continuous
 62
   179
370
     0
100
AcDbSpline
210
0.0
220
0.0
230
1.0
 70
     8
 71
     3
 72
    14
 73
    10
 74
     0
 42
0.000000001
 43
0.00000001
 40
5.0
 40
5.0
 40
5.0
 40
5.0
 40
6.0
 40
6.0
 40
6.0
 40
7.0
 40
7.0
 40
7.0
 40
8.0
 40
8.0
 40
8.0
 40
8.0
 10
298.4851131190222
 20
24.16049564077468
 30
0.0
 10
298.4851131190222
 20
24.24049329222682
 30
0.0
 10
298.4851131190222
 20
24.32893553953832
 30
0.0
 10
298.4851131190222
 20
24.41737817121947
 30
0.0
 10
298.4851131190222
 20
25.09736416629037
 30
0.0
 10
298.4851377186649
 20
25.7773505457302
 30
0.0
 10
298.4851069691121
 20
26.45733654080182
 30
0.0
 10
298.4850762195593
 20
27.0944786077999
 30
0.0
 10
298.3648823686909
 20
27.26685790861022
 30
0.0
 10
297.7186989723292
 20
27.49433829349534
 30
0.0
  0
SPLINE
  5
93
330
1F
100
AcDbEntity
  8
0
  6
Continuous
 62
   179
370
     0
100
AcDbSpline
210
0.0
220
0.0
230
1.0
 70
    24
 71
     3
 72
     8
 73
     4
 74
     0
 42
0.000000001
 43
0.00000001
 40
4.0
 40
4.0
 40
4.0
 40
4.0
 40
5.0
 40
5.0
 40
5.0
 40
5.0
 10
295.5632814142282
 20
24.16049564077468
 30
0.0
 10
296.5292663066504
 20
24.16049564077468
 30
0.0
 10
297.4889290910767
 20
24.16049564077468
 30
0.0
 10
298.4851131190222
 20
24.16049564077468
 30
0.0
  0
SPLINE
  5
94
330
1F
100
AcDbEntity
  8
0
  6
Continuous
 62
   179
370
     0
100
AcDbSpline
210
0.0
220
0.0
230
1.0
 70
     8
 71
     3
 72
    14
 73
    10
 74
     0
 42
0.000000001
 43
0.00000001
 40
1.0
 40
1.0
 40
1.0
 40
1.0
 40
2.0
 40
2.0
 40
2.0
 40
3.0
 40
3.0
 40
3.0
 40
4.0
 40
4.0
 40
4.0
 40
4.0
 10
296.2715297073844
 20
27.50458020069891
 30
0.0
 10
295.9411319155254
 20
27.38780204855992
 30
0.0
 10
295.6648994604227
 20
27.22384581892186
 30
0.0
 10
295.5906023916358
 20
26.8479388815276
 30
0.0
 10
295.5792681065788
 20
26.79059327230427
 30
0.0
 10
295.5645605956114
 20
26.73240397223375
 30
0.0
 10
295.5644406723573
 20
26.67457866999212
 30
0.0
 10
295.5627432970579
 20
25.84365465270932
 30
0.0
 10
295.5632814142282
 20
25.01272602299438
 30
0.0
 10
295.5632814142282
 20
24.16049564077468
 30
0.0
  0
SPLINE
  5
95
330
1F
100
AcDbEntity
  8
0
  6
Continuous
 62
   179
370
     0
100
AcDbSpline
210
0.0
220
0.0
230
1.0
 70
    24
 71
     3
 72
     8
 73
     4
 74
     0
 42
0.000000001
 43
0.00000001
 40
0.0
 40
0.0
 40
0.0
 40
0.0
 40
1.0
 40
1.0
 40
1.0
 40
1.0
 10
293.841527870193
 20
27.50458020069891
 30
0.0
 10
294.6515264326192
 20
27.50458020069891
 30
0.0
 10
295.4615280700011
 20
27.50458020069891
 30
0.0
 10
296.2715297073844
 20
27.50458020069891
 30
0.0
  0
SPLINE
  5
96
330
1F
100
AcDbEntity
  8
0
  6
Continuous
 62
   179
370
     0
100
AcDbSpline
210
0.0
220
0.0
230
1.0
 70
     8
 71
     3
 72
    14
 73
    10
 74
     0
 42
0.000000001
 43
0.00000001
 40
17.0
 40
17.0
 40
17.0
 40
17.0
 40
18.0
 40
18.0
 40
18.0
 40
19.0
 40
19.0
 40
19.0
 40
20.0
 40
20.0
 40
20.0
 40
20.0
 10
257.7053577757453
 20
20.25910042553502
 30
0.0
 10
258.2139995287706
 20
20.39587059142628
 30
0.0
 10
258.4104423723632
 20
20.62446660851326
 30
0.0
 10
258.4124688639662
 20
21.16843695483816
 30
0.0
 10
258.4191609275175
 20
22.96470127704905
 30
0.0
 10
258.4149081683119
 20
24.76100595804667
 30
0.0
 10
258.4151320634913
 20
26.55729487989966
 30
0.0
 10
258.4151924094879
 20
27.04153921726714
 30
0.0
 10
258.2057453879524
 20
27.36893835120056
 30
0.0
 10
257.7192638284546
 20
27.51463645747964
 30
0.0
  0
SPLINE
  5
97
330
1F
100
AcDbEntity
  8
0
  6
Continuous
 62
   179
370
     0
100
AcDbSpline
210
0.0
220
0.0
230
1.0
 70
    24
 71
     3
 72
     8
 73
     4
 74
     0
 42
0.000000001
 43
0.00000001
 40
16.0
 40
16.0
 40
16.0
 40
16.0
 40
17.0
 40
17.0
 40
17.0
 40
17.0
 10
260.1134120717832
 20
20.25910042553502
 30
0.0
 10
259.3107272904223
 20
20.25910042553502
 30
0.0
 10
258.5080426051526
 20
20.25910042553502
 30
0.0
 10
257.7053577757453
 20
20.25910042553502
 30
0.0
  0
SPLINE
  5
98
330
1F
100
AcDbEntity
  8
0
  6
Continuous
 62
   179
370
     0
100
AcDbSpline
210
0.0
220
0.0
230
1.0
 70
     8
 71
     3
 72
    14
 73
    10
 74
     0
 42
0.000000001
 43
0.00000001
 40
13.0
 40
13.0
 40
13.0
 40
13.0
 40
14.0
 40
14.0
 40
14.0
 40
15.0
 40
15.0
 40
15.0
 40
16.0
 40
16.0
 40
16.0
 40
16.0
 10
259.4607286043899
 20
23.57138302951071
 30
0.0
 10
259.4539911852495
 20
23.51939476107442
 30
0.0
 10
259.4406539512153
 20
23.46398560492077
 30
0.0
 10
259.4405559370167
 20
23.40855338660287
 30
0.0
 10
259.4392191002215
 20
22.65310606781492
 30
0.0
 10
259.4366701545022
 20
21.89763799307775
 30
0.0
 10
259.4408326829897
 20
21.14221143023692
 30
0.0
 10
259.4435911100346
 20
20.64162793377141
 30
0.0
 10
259.6377614656041
 20
20.40079128856704
 30
0.0
 10
260.1134120717832
 20
20.25910042553502
 30
0.0
  0
SPLINE
  5
99
330
1F
100
AcDbEntity
  8
0
  6
Continuous
 62
   179
370
     0
100
AcDbSpline
210
0.0
220
0.0
230
1.0
 70
     8
 71
     3
 72
    20
 73
    16
 74
     0
 42
0.000000001
 43
0.00000001
 40
8.0
 40
8.0
 40
8.0
 40
8.0
 40
9.0
 40
9.0
 40
9.0
 40
10.0
 40
10.0
 40
10.0
 40
11.0
 40
11.0
 40
11.0
 40
12.0
 40
12.0
 40
12.0
 40
13.0
 40
13.0
 40
13.0
 40
13.0
 10
263.9554858268652
 20
20.24609336482204
 30
0.0
 10
263.8909540472192
 20
20.24131411562171
 30
0.0
 10
263.8264337986554
 20
20.23257048036439
 30
0.0
 10
263.7618904879274
 20
20.2323936704376
 30
0.0
 10
263.3170171088603
 20
20.2311736819415
 30
0.0
 10
262.8718696744063
 20
20.24067529366942
 30
0.0
 10
262.427398730108
 20
20.22724465786873
 30
0.0
 10
262.2549406335689
 20
20.22203337745712
 30
0.0
 10
262.1765046750147
 20
20.28890135435546
 30
0.0
 10
262.1067370153144
 20
20.43629933433309
 30
0.0
 10
261.7451764738302
 20
21.200166649339
 30
0.0
 10
261.378026816807
 20
21.9614848264415
 30
0.0
 10
261.0037355762117
 20
22.71920223094413
 30
0.0
 10
260.6054131759577
 20
23.52556773374194
 30
0.0
 10
260.3725694925604
 20
23.65083910446931
 30
0.0
 10
259.4607286043899
 20
23.57138302951071
 30
0.0
  0
SPLINE
  5
9A
330
1F
100
AcDbEntity
  8
0
  6
Continuous
 62
   179
370
     0
100
AcDbSpline
210
0.0
220
0.0
230
1.0
 70
     8
 71
     3
 72
    14
 73
    10
 74
     0
 42
0.000000001
 43
0.00000001
 40
5.0
 40
5.0
 40
5.0
 40
5.0
 40
6.0
 40
6.0
 40
6.0
 40
7.0
 40
7.0
 40
7.0
 40
8.0
 40
8.0
 40
8.0
 40
8.0
 10
261.0219043336847
 20
23.63056361828031
 30
0.0
 10
261.7521543160346
 20
23.35408286053947
 30
0.0
 10
262.033208300972
 20
22.73079019980925
 30
0.0
 10
262.3739921385617
 20
22.16106556577572
 30
0.0
 10
262.6276890153665
 20
21.7369354504649
 30
0.0
 10
262.8739775562312
 20
21.30835818112304
 30
0.0
 10
263.1292772534607
 20
20.88520667032095
 30
0.0
 10
263.3178377375433
 20
20.57267359973515
 30
0.0
 10
263.5606000734738
 20
20.32757122285868
 30
0.0
 10
263.9554858268652
 20
20.24609336482204
 30
0.0
  0
SPLINE
  5
9B
330
1F
100
AcDbEntity
  8
0
  6
Continuous
 62
   179
370
     0
100
AcDbSpline
210
0.0
220
0.0
230
1.0
 70
     8
 71
     3
 72
    20
 73
    16
 74
     0
 42
0.000000001
 43
0.00000001
 40
0.0
 40
0.0
 40
0.0
 40
0.0
 40
1.0
 40
1.0
 40
1.0
 40
2.0
 40
2.0
 40
2.0
 40
3.0
 40
3.0
 40
3.0
 40
4.0
 40
4.0
 40
4.0
 40
5.0
 40
5.0
 40
5.0
 40
5.0
 10
257.7192638284546
 20
27.51463645747964
 30
0.0
 10
258.1174764912431
 20
27.51463645747964
 30
0.0
 10
258.5159962651877
 20
27.52468175973202
 30
0.0
 10
258.913837050576
 20
27.51251762112626
 30
0.0
 10
259.7094699986221
 20
27.48819126576296
 30
0.0
 10
260.5093946232761
 20
27.49481913962259
 30
0.0
 10
261.2989762515715
 20
27.40941936834727
 30
0.0
 10
262.3071445332423
 20
27.30037799580671
 30
0.0
 10
262.8488620904764
 20
26.74717259793779
 30
0.0
 10
262.9131259646454
 20
25.88395655371281
 30
0.0
 10
262.9966382899503
 20
24.76217905347502
 30
0.0
 10
262.5617362220245
 20
24.08644572151765
 30
0.0
 10
261.5515161764629
 20
23.77337299628437
 30
0.0
 10
261.3945785321864
 20
23.72473719781129
 30
0.0
 10
261.2341319795987
 20
23.68742184709604
 30
0.0
 10
261.0219043336847
 20
23.63056361828031
 30
0.0
  0
SPLINE
  5
9C
330
1F
100
AcDbEntity
  8
0
  6
Continuous
 62
   179
370
     0
100
AcDbSpline
210
0.0
220
0.0
230
1.0
 70
     8
 71
     3
 72
    20
 73
    16
 74
     0
 42
0.000000001
 43
0.00000001
 40
1.0
 40
1.0
 40
1.0
 40
1.0
 40
2.0
 40
2.0
 40
2.0
 40
3.0
 40
3.0
 40
3.0
 40
4.0
 40
4.0
 40
4.0
 40
5.0
 40
5.0
 40
5.0
 40
6.0
 40
6.0
 40
6.0
 40
6.0
 10
259.4558811296203
 20
23.74052094311722
 30
0.0
 10
259.8313410453958
 20
23.74052094311722
 30
0.0
 10
260.1942113256325
 20
23.70804326575078
 30
0.0
 10
260.5489927438957
 20
23.74778168120397
 30
0.0
 10
261.1506181168165
 20
23.81517009427841
 30
0.0
 10
261.608259863196
 20
24.13857044109259
 30
0.0
 10
261.7413862071132
 20
24.73962656292206
 30
0.0
 10
261.8389787525148
 20
25.18024881635489
 30
0.0
 10
261.8719876284001
 20
25.65810454981779
 30
0.0
 10
261.8164781518313
 20
26.10478869315943
 30
0.0
 10
261.7108519014664
 20
26.95476897687368
 30
0.0
 10
261.3230227860075
 20
27.28690123567825
 30
0.0
 10
260.4792308497364
 20
27.35420547185249
 30
0.0
 10
260.1467440101549
 20
27.38072599997261
 30
0.0
 10
259.8103733099057
 20
27.35855230546976
 30
0.0
 10
259.4558811296203
 20
27.35855230546976
 30
0.0
  0
SPLINE
  5
9D
330
1F
100
AcDbEntity
  8
0
  6
Continuous
 62
   179
370
     0
100
AcDbSpline
210
0.0
220
0.0
230
1.0
 70
    24
 71
     3
 72
     8
 73
     4
 74
     0
 42
0.000000001
 43
0.00000001
 40
0.0
 40
0.0
 40
0.0
 40
0.0
 40
1.0
 40
1.0
 40
1.0
 40
1.0
 10
259.4558811296203
 20
27.35855230546976
 30
0.0
 10
259.4558811296203
 20
26.13864548795524
 30
0.0
 10
259.4558811296203
 20
24.94385548148867
 30
0.0
 10
259.4558811296203
 20
23.74052094311722
 30
0.0
  0
SPLINE
  5
9E
330
1F
100
AcDbEntity
  8
0
  6
Continuous
 62
   179
370
     0
100
AcDbSpline
210
0.0
220
0.0
230
1.0
 70
     8
 71
     3
 72
    14
 73
    10
 74
     0
 42
0.000000001
 43
0.00000001
 40
3.0
 40
3.0
 40
3.0
 40
3.0
 40
4.0
 40
4.0
 40
4.0
 40
5.0
 40
5.0
 40
5.0
 40
6.0
 40
6.0
 40
6.0
 40
6.0
 10
267.2336118279071
 20
20.23490821509466
 30
0.0
 10
266.3034040398354
 20
20.48709452013179
 30
0.0
 10
265.5792320909092
 20
21.34541139190241
 30
0.0
 10
265.4837047623288
 20
22.29272284982232
 30
0.0
 10
265.4259332718035
 20
22.86561853145873
 30
0.0
 10
265.4879189885011
 20
23.41465794151554
 30
0.0
 10
265.7739382574312
 20
23.92202056120339
 30
0.0
 10
266.225828300013
 20
24.723612195973
 30
0.0
 10
266.9062728477855
 20
25.1505801106106
 30
0.0
 10
267.7758432870376
 20
25.16748813643033
 30
0.0
  0
SPLINE
  5
9F
330
1F
100
AcDbEntity
  8
0
  6
Continuous
 62
   179
370
     0
100
AcDbSpline
210
0.0
220
0.0
230
1.0
 70
     8
 71
     3
 72
    14
 73
    10
 74
     0
 42
0.000000001
 43
0.00000001
 40
0.0
 40
0.0
 40
0.0
 40
0.0
 40
1.0
 40
1.0
 40
1.0
 40
2.0
 40
2.0
 40
2.0
 40
3.0
 40
3.0
 40
3.0
 40
3.0
 10
267.7758432870376
 20
25.16748813643033
 30
0.0
 10
268.6216197225536
 20
25.16033694362372
 30
0.0
 10
269.2464106552308
 20
24.83848445240961
 30
0.0
 10
269.7103360726668
 20
24.21398909980579
 30
0.0
 10
270.372934348899
 20
23.32205720159637
 30
0.0
 10
270.3723808569537
 20
22.03321892002499
 30
0.0
 10
269.7215189161771
 20
21.13111084177937
 30
0.0
 10
269.1482911393735
 20
20.33660467264827
 30
0.0
 10
268.1650050112285
 20
19.98240211471103
 30
0.0
 10
267.2336118279071
 20
20.23490821509466
 30
0.0
  0
SPLINE
  5
A0
330
1F
100
AcDbEntity
  8
0
  6
Continuous
 62
   179
370
     0
100
AcDbSpline
210
0.0
220
0.0
230
1.0
 70
     8
 71
     3
 72
    17
 73
    13
 74
     0
 42
0.000000001
 43
0.00000001
 40
4.0
 40
4.0
 40
4.0
 40
4.0
 40
5.0
 40
5.0
 40
5.0
 40
6.0
 40
6.0
 40
6.0
 40
7.0
 40
7.0
 40
7.0
 40
8.0
 40
8.0
 40
8.0
 40
8.0
 10
266.4699528411193
 20
22.82140374989816
 30
0.0
 10
266.4269741915698
 20
22.16270989809668
 30
0.0
 10
266.5287029361534
 20
21.51524885782822
 30
0.0
 10
266.8746830637486
 20
20.93428603108956
 30
0.0
 10
267.1048165584611
 20
20.54785025472892
 30
0.0
 10
267.4153070900211
 20
20.27237193240103
 30
0.0
 10
267.9076604687568
 20
20.30531315927085
 30
0.0
 10
268.3388937306983
 20
20.33416469565678
 30
0.0
 10
268.6078393105943
 20
20.5966013640246
 30
0.0
 10
268.810867074766
 20
20.94311038392242
 30
0.0
 10
269.1208448575376
 20
21.47214721006825
 30
0.0
 10
269.202432645224
 20
22.05765558940843
 30
0.0
 10
269.218762963826
 20
22.68351122534059
 30
0.0
  0
SPLINE
  5
A1
330
1F
100
AcDbEntity
  8
0
  6
Continuous
 62
   179
370
     0
100
AcDbSpline
210
0.0
220
0.0
230
1.0
 70
     8
 71
     3
 72
    17
 73
    13
 74
     0
 42
0.000000001
 43
0.00000001
 40
0.0
 40
0.0
 40
0.0
 40
0.0
 40
1.0
 40
1.0
 40
1.0
 40
2.0
 40
2.0
 40
2.0
 40
3.0
 40
3.0
 40
3.0
 40
4.0
 40
4.0
 40
4.0
 40
4.0
 10
269.218762963826
 20
22.68351122534059
 30
0.0
 10
269.195680043492
 20
23.34551372899321
 30
0.0
 10
269.0963628325642
 20
24.01168817818241
 30
0.0
 10
268.6683621173312
 20
24.58056604641373
 30
0.0
 10
268.2143234497673
 20
25.18405330473933
 30
0.0
 10
267.4640605055332
 20
25.19142205062979
 30
0.0
 10
267.0072628343699
 20
24.59213287496141
 30
0.0
 10
266.882078331128
 20
24.42789874624283
 30
0.0
 10
266.7597204805012
 20
24.2414496033099
 30
0.0
 10
266.7072125446274
 20
24.04607386528146
 30
0.0
 10
266.5993976948625
 20
23.64490674705059
 30
0.0
 10
266.4968487059656
 20
23.23360918874381
 30
0.0
 10
266.4699528411193
 20
22.82140374989816
 30
0.0
  0
SPLINE
  5
A2
330
1F
100
AcDbEntity
  8
0
  6
Continuous
 62
   179
370
     0
100
AcDbSpline
210
0.0
220
0.0
230
1.0
 70
     8
 71
     3
 72
    17
 73
    13
 74
     0
 42
0.000000001
 43
0.00000001
 40
6.0
 40
6.0
 40
6.0
 40
6.0
 40
7.0
 40
7.0
 40
7.0
 40
8.0
 40
8.0
 40
8.0
 40
9.0
 40
9.0
 40
9.0
 40
10.0
 40
10.0
 40
10.0
 40
10.0
 10
311.6156486607861
 20
20.25320881127337
 30
0.0
 10
312.1185268426077
 20
20.41647125413319
 30
0.0
 10
312.2872188877024
 20
20.63608302071405
 30
0.0
 10
312.2876555313485
 20
21.16871754450475
 30
0.0
 10
312.2890700107628
 20
22.88922803787955
 30
0.0
 10
312.2877662297369
 20
24.60974045310045
 30
0.0
 10
312.2871819882395
 20
26.33025248395311
 30
0.0
 10
312.2871512386867
 20
26.42255802816857
 30
0.0
 10
312.2845313768121
 20
26.51487279724974
 30
0.0
 10
312.2823973578678
 20
26.60716642601487
 30
0.0
 10
312.2683694120104
 20
27.21300429544448
 30
0.0
 10
312.2096131670664
 20
27.27631108979181
 30
0.0
 10
311.6691528821608
 20
27.32445797038016
 30
0.0
  0
SPLINE
  5
A3
330
1F
100
AcDbEntity
  8
0
  6
Continuous
 62
   179
370
     0
100
AcDbSpline
210
0.0
220
0.0
230
1.0
 70
    24
 71
     3
 72
     8
 73
     4
 74
     0
 42
0.000000001
 43
0.00000001
 40
5.0
 40
5.0
 40
5.0
 40
5.0
 40
6.0
 40
6.0
 40
6.0
 40
6.0
 10
313.8867245107603
 20
20.25320881127337
 30
0.0
 10
313.0865658051385
 20
20.25320881127337
 30
0.0
 10
312.3511103079174
 20
20.25320881127337
 30
0.0
 10
311.6156486607861
 20
20.25320881127337
 30
0.0
  0
SPLINE
  5
A4
330
1F
100
AcDbEntity
  8
0
  6
Continuous
 62
   179
370
     0
100
AcDbSpline
210
0.0
220
0.0
230
1.0
 70
     8
 71
     3
 72
    17
 73
    13
 74
     0
 42
0.000000001
 43
0.00000001
 40
1.0
 40
1.0
 40
1.0
 40
1.0
 40
2.0
 40
2.0
 40
2.0
 40
3.0
 40
3.0
 40
3.0
 40
4.0
 40
4.0
 40
4.0
 40
5.0
 40
5.0
 40
5.0
 40
5.0
 10
313.1781318226163
 20
27.87703492426926
 30
0.0
 10
313.1781318226163
 20
27.83642744958889
 30
0.0
 10
313.1781318226163
 20
27.75161518695077
 30
0.0
 10
313.1781318226163
 20
27.66680273212925
 30
0.0
 10
313.1781318226163
 20
25.57700952371036
 30
0.0
 10
313.1781256727049
 20
23.48721689184593
 30
0.0
 10
313.1781441224363
 20
21.39742349124222
 30
0.0
 10
313.1781441224363
 20
21.32188875296783
 30
0.0
 10
313.1771847363981
 20
21.24633325874564
 30
0.0
 10
313.1786115156352
 20
21.17082388885262
 30
0.0
 10
313.1888880160859
 20
20.62648762285203
 30
0.0
 10
313.3266152617988
 20
20.4348325806782
 30
0.0
 10
313.8867245107603
 20
20.25320881127337
 30
0.0
  0
SPLINE
  5
A5
330
1F
100
AcDbEntity
  8
0
  6
Continuous
 62
   179
370
     0
100
AcDbSpline
210
0.0
220
0.0
230
1.0
 70
     8
 71
     3
 72
     8
 73
     4
 74
     0
 42
0.000000001
 43
0.00000001
 40
0.0
 40
0.0
 40
0.0
 40
0.0
 40
1.0
 40
1.0
 40
1.0
 40
1.0
 10
311.6691528821608
 20
27.32445797038016
 30
0.0
 10
312.1410908642435
 20
27.49727756634619
 30
0.0
 10
312.6458878181427
 20
27.68213176842718
 30
0.0
 10
313.1781318226163
 20
27.87703492426926
 30
0.0
  0
SPLINE
  5
A6
330
1F
100
AcDbEntity
  8
0
  6
Continuous
 62
   179
370
     0
100
AcDbSpline
210
0.0
220
0.0
230
1.0
 70
     8
 71
     3
 72
    14
 73
    10
 74
     0
 42
0.000000001
 43
0.00000001
 40
6.0
 40
6.0
 40
6.0
 40
6.0
 40
7.0
 40
7.0
 40
7.0
 40
8.0
 40
8.0
 40
8.0
 40
9.0
 40
9.0
 40
9.0
 40
9.0
 10
278.4819664915176
 20
27.88441039662488
 30
0.0
 10
278.4819664915176
 20
27.83987735719566
 30
0.0
 10
278.4819649540404
 20
27.75219577693941
 30
0.0
 10
278.4819649540404
 20
27.66451419668386
 30
0.0
 10
278.4819664915176
 20
25.48269219002111
 30
0.0
 10
278.4816605334703
 20
23.30086999117493
 30
0.0
 10
278.4822124879378
 20
21.11904779232805
 30
0.0
 10
278.4823339486704
 20
20.63637283524633
 30
0.0
 10
278.6550987719953
 20
20.40793364087759
 30
0.0
 10
279.1055120673172
 20
20.2549177176549
 30
0.0
  0
SPLINE
  5
A7
330
1F
100
AcDbEntity
  8
0
  6
Continuous
 62
   179
370
     0
100
AcDbSpline
210
0.0
220
0.0
230
1.0
 70
     8
 71
     3
 72
     8
 73
     4
 74
     0
 42
0.000000001
 43
0.00000001
 40
5.0
 40
5.0
 40
5.0
 40
5.0
 40
6.0
 40
6.0
 40
6.0
 40
6.0
 10
276.9846800684063
 20
27.3296354262854
 30
0.0
 10
277.4478728777531
 20
27.5012575193644
 30
0.0
 10
277.9568994326009
 20
27.68986239811422
 30
0.0
 10
278.4819664915176
 20
27.88441039662488
 30
0.0
  0
SPLINE
  5
A8
330
1F
100
AcDbEntity
  8
0
  6
Continuous
 62
   179
370
     0
100
AcDbSpline
210
0.0
220
0.0
230
1.0
 70
     8
 71
     3
 72
    17
 73
    13
 74
     0
 42
0.000000001
 43
0.00000001
 40
1.0
 40
1.0
 40
1.0
 40
1.0
 40
2.0
 40
2.0
 40
2.0
 40
3.0
 40
3.0
 40
3.0
 40
4.0
 40
4.0
 40
4.0
 40
5.0
 40
5.0
 40
5.0
 40
5.0
 10
276.9460186560295
 20
20.2549177176549
 30
0.0
 10
277.4179566381115
 20
20.4199152040148
 30
0.0
 10
277.5770686601204
 20
20.6342380475635
 30
0.0
 10
277.5771993457187
 20
21.13377529050539
 30
0.0
 10
277.5776652014392
 20
22.92958298186009
 30
0.0
 10
277.5773700057348
 20
24.72538990447762
 30
0.0
 10
277.577359243392
 20
26.52119721146337
 30
0.0
 10
277.577359243392
 20
26.53798031722657
 30
0.0
 10
277.5773838430333
 20
26.55476419172763
 30
0.0
 10
277.5772915943764
 20
26.57154691311976
 30
0.0
 10
277.5738092075535
 20
27.20775573119973
 30
0.0
 10
277.5366914227135
 20
27.25167954511983
 30
0.0
 10
276.9846800684063
 20
27.3296354262854
 30
0.0
  0
SPLINE
  5
A9
330
1F
100
AcDbEntity
  8
0
  6
Continuous
 62
   179
370
     0
100
AcDbSpline
210
0.0
220
0.0
230
1.0
 70
    24
 71
     3
 72
     8
 73
     4
 74
     0
 42
0.000000001
 43
0.00000001
 40
0.0
 40
0.0
 40
0.0
 40
0.0
 40
1.0
 40
1.0
 40
1.0
 40
1.0
 10
279.1055120673172
 20
20.2549177176549
 30
0.0
 10
278.3856819552066
 20
20.2549177176549
 30
0.0
 10
277.6658503056181
 20
20.2549177176549
 30
0.0
 10
276.9460186560295
 20
20.2549177176549
 30
0.0
  0
SPLINE
  5
AA
330
1F
100
AcDbEntity
  8
0
  6
Continuous
 62
   179
370
     0
100
AcDbSpline
210
0.0
220
0.0
230
1.0
 70
     8
 71
     3
 72
    20
 73
    16
 74
     0
 42
0.000000001
 43
0.00000001
 40
5.0
 40
5.0
 40
5.0
 40
5.0
 40
6.0
 40
6.0
 40
6.0
 40
7.0
 40
7.0
 40
7.0
 40
8.0
 40
8.0
 40
8.0
 40
9.0
 40
9.0
 40
9.0
 40
10.0
 40
10.0
 40
10.0
 40
10.0
 10
307.178408284104
 20
20.25443648715803
 30
0.0
 10
307.3179589782804
 20
20.36177625633667
 30
0.0
 10
307.5293898264143
 20
20.45652254628291
 30
0.0
 10
307.6283941606454
 20
20.61954360515536
 30
0.0
 10
307.7285516030971
 20
20.78446498637255
 30
0.0
 10
307.7490584796685
 20
21.01681475508336
 30
0.0
 10
307.7500732149022
 20
21.21990094340409
 30
0.0
 10
307.7587445887104
 20
22.95682170421714
 30
0.0
 10
307.7550484924979
 20
24.69380511724257
 30
0.0
 10
307.7550361926765
 20
26.43077008053731
 30
0.0
 10
307.7550361926765
 20
26.49789904426262
 30
0.0
 10
307.7552944889174
 20
26.56503146731187
 30
0.0
 10
307.7547502218385
 20
26.63215658734291
 30
0.0
 10
307.7501131893193
 20
27.20350460556406
 30
0.0
 10
307.6774858212348
 20
27.28280885460759
 30
0.0
 10
307.1608133901539
 20
27.32540717062984
 30
0.0
  0
SPLINE
  5
AB
330
1F
100
AcDbEntity
  8
0
  6
Continuous
 62
   179
370
     0
100
AcDbSpline
210
0.0
220
0.0
230
1.0
 70
    24
 71
     3
 72
     8
 73
     4
 74
     0
 42
0.000000001
 43
0.00000001
 40
4.0
 40
4.0
 40
4.0
 40
4.0
 40
5.0
 40
5.0
 40
5.0
 40
5.0
 10
309.3620693061908
 20
20.25443648715802
 30
0.0
 10
308.5715044609524
 20
20.25443648715802
 30
0.0
 10
307.8517004859624
 20
20.25443648715802
 30
0.0
 10
307.178408284104
 20
20.25443648715803
 30
0.0
  0
SPLINE
  5
AC
330
1F
100
AcDbEntity
  8
0
  6
Continuous
 62
   179
370
     0
100
AcDbSpline
210
0.0
220
0.0
230
1.0
 70
     8
 71
     3
 72
    14
 73
    10
 74
     0
 42
0.000000001
 43
0.00000001
 40
1.0
 40
1.0
 40
1.0
 40
1.0
 40
2.0
 40
2.0
 40
2.0
 40
3.0
 40
3.0
 40
3.0
 40
4.0
 40
4.0
 40
4.0
 40
4.0
 10
308.65963267846
 20
27.88697759989075
 30
0.0
 10
308.65963267846
 20
27.83196991758182
 30
0.0
 10
308.65963267846
 20
27.74275854708867
 30
0.0
 10
308.65963267846
 20
27.65354698440997
 30
0.0
 10
308.65963267846
 20
25.48863300356693
 30
0.0
 10
308.6595035303402
 20
23.32371921490944
 30
0.0
 10
308.6597187772069
 20
21.15880542625192
 30
0.0
 10
308.6597679764911
 20
20.6374237012035
 30
0.0
 10
308.807415027844
 20
20.43200746554105
 30
0.0
 10
309.3620693061908
 20
20.25443648715802
 30
0.0
  0
SPLINE
  5
AD
330
1F
100
AcDbEntity
  8
0
  6
Continuous
 62
   179
370
     0
100
AcDbSpline
210
0.0
220
0.0
230
1.0
 70
     8
 71
     3
 72
     8
 73
     4
 74
     0
 42
0.000000001
 43
0.00000001
 40
0.0
 40
0.0
 40
0.0
 40
0.0
 40
1.0
 40
1.0
 40
1.0
 40
1.0
 10
307.1608133901539
 20
27.32540717062984
 30
0.0
 10
307.6336123597077
 20
27.50255342081908
 30
0.0
 10
308.1420254609839
 20
27.69304267058278
 30
0.0
 10
308.65963267846
 20
27.88697759989075
 30
0.0
  0
SPLINE
  5
AE
330
1F
100
AcDbEntity
  8
0
  6
Continuous
 62
   179
370
     0
100
AcDbSpline
210
0.0
220
0.0
230
1.0
 70
     8
 71
     3
 72
    14
 73
    10
 74
     0
 42
0.000000001
 43
0.00000001
 40
6.0
 40
6.0
 40
6.0
 40
6.0
 40
7.0
 40
7.0
 40
7.0
 40
8.0
 40
8.0
 40
8.0
 40
9.0
 40
9.0
 40
9.0
 40
9.0
 10
272.426404840594
 20
20.2590796695872
 30
0.0
 10
273.0059923935969
 20
20.37668517687364
 30
0.0
 10
273.0805785081768
 20
20.81042375860576
 30
0.0
 10
273.0783845276048
 20
21.29462927466367
 30
0.0
 10
273.0702866329497
 20
23.08209538116094
 30
0.0
 10
273.0685846452182
 20
24.86961337752774
 30
0.0
 10
273.0527409382852
 20
26.65700799131587
 30
0.0
 10
273.0476395875227
 20
27.23250104921648
 30
0.0
 10
272.9826104338649
 20
27.28380667758701
 30
0.0
 10
272.4594267850393
 20
27.32510813123116
 30
0.0
  0
SPLINE
  5
AF
330
1F
100
AcDbEntity
  8
0
  6
Continuous
 62
   179
370
     0
100
AcDbSpline
210
0.0
220
0.0
230
1.0
 70
    24
 71
     3
 72
     8
 73
     4
 74
     0
 42
0.000000001
 43
0.00000001
 40
5.0
 40
5.0
 40
5.0
 40
5.0
 40
6.0
 40
6.0
 40
6.0
 40
6.0
 10
274.6224502449563
 20
20.2590796695872
 30
0.0
 10
273.8904356226618
 20
20.2590796695872
 30
0.0
 10
273.1584194628892
 20
20.2590796695872
 30
0.0
 10
272.426404840594
 20
20.2590796695872
 30
0.0
  0
SPLINE
  5
B0
330
1F
100
AcDbEntity
  8
0
  6
Continuous
 62
   179
370
     0
100
AcDbSpline
210
0.0
220
0.0
230
1.0
 70
     8
 71
     3
 72
    17
 73
    13
 74
     0
 42
0.000000001
 43
0.00000001
 40
1.0
 40
1.0
 40
1.0
 40
1.0
 40
2.0
 40
2.0
 40
2.0
 40
3.0
 40
3.0
 40
3.0
 40
4.0
 40
4.0
 40
4.0
 40
5.0
 40
5.0
 40
5.0
 40
5.0
 10
273.9540333846496
 20
27.87257450949275
 30
0.0
 10
273.9540333846496
 20
27.8074859707617
 30
0.0
 10
273.9540333846496
 20
27.71082379150879
 30
0.0
 10
273.9540333846496
 20
27.61416161225588
 30
0.0
 10
273.9540349221275
 20
25.51596282147274
 30
0.0
 10
273.9539872603212
 20
23.41776441505853
 30
0.0
 10
273.9542086570993
 20
21.31956562427539
 30
0.0
 10
273.954217881965
 20
21.22727776105204
 30
0.0
 10
273.9506540088286
 20
21.13443409966764
 30
0.0
 10
273.9590578615309
 20
21.04279505200226
 30
0.0
 10
274.0006220316647
 20
20.58964274029083
 30
0.0
 10
274.1836818051716
 20
20.38260600321025
 30
0.0
 10
274.6224502449563
 20
20.2590796695872
 30
0.0
  0
SPLINE
  5
B1
330
1F
100
AcDbEntity
  8
0
  6
Continuous
 62
   179
370
     0
100
AcDbSpline
210
0.0
220
0.0
230
1.0
 70
     8
 71
     3
 72
     8
 73
     4
 74
     0
 42
0.000000001
 43
0.00000001
 40
0.0
 40
0.0
 40
0.0
 40
0.0
 40
1.0
 40
1.0
 40
1.0
 40
1.0
 10
272.4594267850393
 20
27.32510813123116
 30
0.0
 10
272.932774634105
 20
27.4984925580398
 30
0.0
 10
273.4351023989377
 20
27.68249307566929
 30
0.0
 10
273.9540333846496
 20
27.87257450949275
 30
0.0
  0
SPLINE
  5
B2
330
1F
100
AcDbEntity
  8
0
  6
Continuous
 62
   179
370
     0
100
AcDbSpline
210
0.0
220
0.0
230
1.0
 70
     8
 71
     3
 72
    17
 73
    13
 74
     0
 42
0.000000001
 43
0.00000001
 40
6.0
 40
6.0
 40
6.0
 40
6.0
 40
7.0
 40
7.0
 40
7.0
 40
8.0
 40
8.0
 40
8.0
 40
9.0
 40
9.0
 40
9.0
 40
10.0
 40
10.0
 40
10.0
 40
10.0
 10
304.1706223551654
 20
25.06377258638473
 30
0.0
 10
304.1727133247369
 20
25.01792115989102
 30
0.0
 10
304.1800409430993
 20
24.93136078519359
 30
0.0
 10
304.1800932173391
 20
24.84479541369365
 30
0.0
 10
304.1808527312862
 20
23.65282014439031
 30
0.0
 10
304.1797703470369
 20
22.46084295323946
 30
0.0
 10
304.1818797663412
 20
21.26887114326077
 30
0.0
 10
304.1821011631179
 20
21.14380579453512
 30
0.0
 10
304.1922454404932
 20
21.01764883669525
 30
0.0
 10
304.2107535961514
 20
20.89393877449616
 30
0.0
 10
304.2621822227331
 20
20.55023795748124
 30
0.0
 10
304.4578262506061
 20
20.33981031349822
 30
0.0
 10
304.8038079156778
 20
20.2539775500868
 30
0.0
  0
SPLINE
  5
B3
330
1F
100
AcDbEntity
  8
0
  6
Continuous
 62
   179
370
     0
100
AcDbSpline
210
0.0
220
0.0
230
1.0
 70
     8
 71
     3
 72
     8
 73
     4
 74
     0
 42
0.000000001
 43
0.00000001
 40
5.0
 40
5.0
 40
5.0
 40
5.0
 40
6.0
 40
6.0
 40
6.0
 40
6.0
 10
302.7125031745686
 20
24.50968064047994
 30
0.0
 10
303.1898069535648
 20
24.69105879783349
 30
0.0
 10
303.6729961969132
 20
24.874672832025
 30
0.0
 10
304.1706223551654
 20
25.06377258638473
 30
0.0
  0
SPLINE
  5
B4
330
1F
100
AcDbEntity
  8
0
  6
Continuous
 62
   179
370
     0
100
AcDbSpline
210
0.0
220
0.0
230
1.0
 70
     8
 71
     3
 72
    17
 73
    13
 74
     0
 42
0.000000001
 43
0.00000001
 40
1.0
 40
1.0
 40
1.0
 40
1.0
 40
2.0
 40
2.0
 40
2.0
 40
3.0
 40
3.0
 40
3.0
 40
4.0
 40
4.0
 40
4.0
 40
5.0
 40
5.0
 40
5.0
 40
5.0
 10
302.6973344203136
 20
20.2539775500868
 30
0.0
 10
303.1321361678242
 20
20.3494649042487
 30
0.0
 10
303.2897768237453
 20
20.65853557522151
 30
0.0
 10
303.2916556214044
 20
21.04785181591346
 30
0.0
 10
303.296603224403
 20
22.071496731734
 30
0.0
 10
303.2829750227277
 20
23.09531768874206
 30
0.0
 10
303.2668591822546
 20
24.11891186780057
 30
0.0
 10
303.2632153602819
 20
24.35030186610297
 30
0.0
 10
303.1332831261333
 20
24.4918735746181
 30
0.0
 10
302.8846514693661
 20
24.49557889569631
 30
0.0
 10
302.8224697242704
 20
24.49650561033552
 30
0.0
 10
302.7604109773859
 20
24.50557288463289
 30
0.0
 10
302.7125031745686
 20
24.50968064047994
 30
0.0
  0
SPLINE
  5
B5
330
1F
100
AcDbEntity
  8
0
  6
Continuous
 62
   179
370
     0
100
AcDbSpline
210
0.0
220
0.0
230
1.0
 70
    24
 71
     3
 72
     8
 73
     4
 74
     0
 42
0.000000001
 43
0.00000001
 40
0.0
 40
0.0
 40
0.0
 40
0.0
 40
1.0
 40
1.0
 40
1.0
 40
1.0
 10
304.8038079156778
 20
20.2539775500868
 30
0.0
 10
304.1016511088749
 20
20.2539775500868
 30
0.0
 10
303.3994912271164
 20
20.2539775500868
 30
0.0
 10
302.6973344203136
 20
20.2539775500868
 30
0.0
  0
SPLINE
  5
B6
330
1F
100
AcDbEntity
  8
0
  6
Continuous
 62
   179
370
     0
100
AcDbSpline
210
0.0
220
0.0
230
1.0
 70
     8
 71
     3
 72
    11
 73
     7
 74
     0
 42
0.000000001
 43
0.00000001
 40
2.0
 40
2.0
 40
2.0
 40
2.0
 40
3.0
 40
3.0
 40
3.0
 40
4.0
 40
4.0
 40
4.0
 40
4.0
 10
303.0570519104932
 20
26.35430478392947
 30
0.0
 10
303.0511172468595
 20
26.75330175249256
 30
0.0
 10
303.3266947364936
 20
27.05519259513757
 30
0.0
 10
303.6924299141011
 20
27.05034857969325
 30
0.0
 10
304.0507636744179
 20
27.04560238626284
 30
0.0
 10
304.3255386007336
 20
26.75299425696746
 30
0.0
 10
304.327448147944
 20
26.37412133304796
 30
0.0
  0
SPLINE
  5
B7
330
1F
100
AcDbEntity
  8
0
  6
Continuous
 62
   179
370
     0
100
AcDbSpline
210
0.0
220
0.0
230
1.0
 70
     8
 71
     3
 72
    11
 73
     7
 74
     0
 42
0.000000001
 43
0.00000001
 40
0.0
 40
0.0
 40
0.0
 40
0.0
 40
1.0
 40
1.0
 40
1.0
 40
2.0
 40
2.0
 40
2.0
 40
2.0
 10
304.327448147944
 20
26.37412133304796
 30
0.0
 10
304.3293945946187
 20
25.98752450590587
 30
0.0
 10
304.0680572227529
 20
25.70828897263022
 30
0.0
 10
303.6993639381942
 20
25.70301926806731
 30
0.0
 10
303.3259905717407
 20
25.69768229885988
 30
0.0
 10
303.0628482011429
 20
25.96449808787493
 30
0.0
 10
303.0570519104932
 20
26.35430478392947
 30
0.0
  0
MTEXT
  5
B9
330
1F
100
AcDbEntity
  8
0
  6
Continuous
 62
     7
370
     0
100
AcDbMText
 10
257.9690483454
 20
40.3166048975
 30
0.0
 40
3.7041666667
 41
0.0
 71
     1
 72
     1
  1
RUDIPD_Rudi Double Loop
  7
SLDTEXTSTYLE0
 73
     1
 44
1.0
  0
MTEXT
  5
BA
330
1F
100
AcDbEntity
  8
0
  6
Continuous
 62
     7
370
     0
100
AcDbMText
 10
258.6105142387
 20
44.3546043689
 30
0.0
 40
1.5875
 41
0.0
 71
     1
 72
     1
  1
\LDESCRIPTION
  7
SLDTEXTSTYLE0
 73
     1
 44
1.0
  0
INSERT
  5
C1
330
1F
100
AcDbEntity
  8
0
  6
Continuous
 62
     7
370
     0
100
AcDbBlockReference
  2
SW_NOTE_0
 10
317.1049495712
 20
24.1495665419
 30
0.0
  0
MTEXT
  5
C2
330
1F
100
AcDbEntity
  8
0
  6
Continuous
 62
     7
370
     0
100
AcDbMText
 10
273.8048790106
 20
32.371143085
 30
0.0
 40
1.5875
 41
0.0
 71
     2
 72
     1
  1
\LSCALE
  7
SLDTEXTSTYLE0
 73
     1
 44
1.0
  0
MTEXT
  5
C3
330
1F
100
AcDbEntity
  8
0
  6
Continuous
 62
     7
370
     0
100
AcDbMText
 10
278.3960862508
 20
33.4394651033
 30
0.0
 40
2.6458333333
 41
0.0
 71
     1
 72
     1
  1
1:15
  7
SLDTEXTSTYLE0
 73
     1
 44
1.0
  0
MTEXT
  5
C4
330
1F
100
AcDbEntity
  8
0
  6
Continuous
 62
     7
370
     0
100
AcDbMText
 10
261.4913139704
 20
32.371143085
 30
0.0
 40
1.5875
 41
0.0
 71
     2
 72
     1
  1
\LSIZE
  7
SLDTEXTSTYLE0
 73
     1
 44
1.0
  0
MTEXT
  5
C5
330
1F
100
AcDbEntity
  8
0
  6
Continuous
 62
     7
370
     0
100
AcDbMText
 10
264.7495209372
 20
33.4394651033
 30
0.0
 40
2.6458333333
 41
0.0
 71
     1
 72
     1
  1
B
  7
SLDTEXTSTYLE0
 73
     1
 44
1.0
  0
INSERT
  5
CC
330
1F
100
AcDbEntity
  8
0
  6
Continuous
 62
     7
370
     0
100
AcDbBlockReference
  2
SW_NOTE_1
 10
258.0900415808
 20
15.6806800849
 30
0.0
  0
LINE
  5
CD
330
1F
100
AcDbEntity
  8
0
  6
Continuous
 62
     7
370
    15
100
AcDbLine
 10
104.8117439227
 20
175.0081322781
 30
0.0
 11
104.8117439227
 21
177.5482994772
 31
0.0
  0
LINE
  5
CE
330
1F
100
AcDbEntity
  8
0
  6
Continuous
 62
     7
370
    15
100
AcDbLine
 10
89.5717439227
 20
177.5482994772
 30
0.0
 11
89.5717439227
 21
175.0081322781
 31
0.0
  0
LINE
  5
CF
330
1F
100
AcDbEntity
  8
0
  6
Continuous
 62
     7
370
    15
100
AcDbLine
 10
97.954530195
 20
72.3422362906
 30
0.0
 11
97.954530195
 21
88.8523332235
 31
0.0
  0
LINE
  5
D0
330
1F
100
AcDbEntity
  8
0
  6
Continuous
 62
     7
370
    15
100
AcDbLine
 10
96.049530195
 20
88.8523332235
 30
0.0
 11
96.049530195
 21
72.3422362906
 31
0.0
  0
SPLINE
  5
D1
330
1F
100
AcDbEntity
  8
0
  6
Continuous
 62
     7
370
    15
100
AcDbSpline
210
0.0
220
0.0
230
1.0
 70
     8
 71
     3
 72
    12
 73
     8
 74
     0
 42
0.000000001
 43
0.00000001
 40
0.0
 40
0.0
 40
0.0
 40
0.0
 40
0.1034613330394617
 40
0.4157599195582574
 40
0.7159073306825898
 40
0.9697168414152416
 40
1.0
 40
1.0
 40
1.0
 40
1.0
 10
97.30257145783511
 20
94.80950144917962
 30
0.0
 10
97.27506136341476
 20
94.81867145611322
 30
0.0
 10
97.16451190201477
 20
94.85552117796644
 30
0.0
 10
96.96041656506439
 20
94.8713947511005
 30
0.0
 10
96.7204544133232
 20
94.8289628883418
 30
0.0
 10
96.56648058922403
 20
94.76383922187348
 30
0.0
 10
96.50096122950183
 20
94.72078755915126
 30
0.0
 10
96.49397712404917
 20
94.71619842162552
 30
0.0
  0
SPLINE
  5
D2
330
1F
100
AcDbEntity
  8
0
  6
Continuous
 62
     7
370
    15
100
AcDbSpline
210
0.0
220
0.0
230
1.0
 70
     8
 71
     3
 72
    22
 73
    18
 74
     0
 42
0.000000001
 43
0.00000001
 40
0.0
 40
0.0
 40
0.0
 40
0.0
 40
0.0966914615097885
 40
0.1885834625907342
 40
0.2741742780261793
 40
0.3522313338392892
 40
0.4218153173864018
 40
0.4822656249821728
 40
0.5334561718564805
 40
0.5831511533730531
 40
0.634811064910633
 40
0.7156858027610545
 40
0.8001632464318207
 40
0.858178484598668
 40
0.9154383094505453
 40
0.970955221477204
 40
1.0
 40
1.0
 40
1.0
 40
1.0
 10
97.94615371575458
 20
88.85233322350253
 30
0.0
 10
97.9461474731749
 20
89.07448940036974
 30
0.0
 10
97.94613529787757
 20
89.50777461930605
 30
0.0
 10
97.9460453607894
 20
90.12761337664561
 30
0.0
 10
97.94591682427901
 20
90.68822450908029
 30
0.0
 10
97.94575917122431
 20
91.17923282339562
 30
0.0
 10
97.94558817452423
 20
91.59626986892393
 30
0.0
 10
97.94541715458229
 20
91.94045310411845
 30
0.0
 10
97.94524773528846
 20
92.23052901869015
 30
0.0
 10
97.94507656774297
 20
92.48961987435572
 30
0.0
 10
97.94483718172677
 20
92.77964977693652
 30
0.0
 10
97.94462958867955
 20
93.09206934009178
 30
0.0
 10
97.94398131915591
 20
93.3702865494139
 30
0.0
 10
97.94451450737941
 20
93.57503446290455
 30
0.0
 10
97.94142663882329
 20
93.74247936925943
 30
0.0
 10
97.93413214133781
 20
93.89600942084681
 30
0.0
 10
97.91699458981213
 20
93.99912109081818
 30
0.0
 10
97.91110827905781
 20
94.03453731296293
 30
0.0
  0
LINE
  5
D3
330
1F
100
AcDbEntity
  8
0
  6
Continuous
 62
     7
370
    15
100
AcDbLine
 10
96.1553635284
 20
72.3425205007
 30
0.0
 11
96.1553635284
 21
41.7292501491
 31
0.0
  0
LINE
  5
D4
330
1F
100
AcDbEntity
  8
0
  6
Continuous
 62
     7
370
    15
100
AcDbLine
 10
97.8486968617
 20
41.7292501491
 30
0.0
 11
97.8486968617
 21
72.3425205007
 31
0.0
  0
SPLINE
  5
D5
330
1F
100
AcDbEntity
  8
0
  6
Continuous
 62
     7
370
    15
100
AcDbSpline
210
0.0
220
0.0
230
1.0
 70
     8
 71
     3
 72
    32
 73
    28
 74
     0
 42
0.000000001
 43
0.00000001
 40
0.0
 40
0.0
 40
0.0
 40
0.0
 40
0.022266349466712
 40
0.0645934428337944
 40
0.1069257607058267
 40
0.1492579484114062
 40
0.1915899320191776
 40
0.2339216300658507
 40
0.2762529471249192
 40
0.3185837677519057
 40
0.3609139481795121
 40
0.4032433045229377
 40
0.4455715955033527
 40
0.4878984963759737
 40
0.5302235583543287
 40
0.572546143319396
 40
0.6148653147532535
 40
0.657179647547862
 40
0.6994868792212368
 40
0.7417832306670632
 40
0.7840619827663893
 40
0.8263102079498258
 40
0.8685003283610631
 40
0.9105646045700235
 40
0.9522990889067267
 40
0.9845621904370095
 40
1.0
 40
1.0
 40
1.0
 40
1.0
 10
96.15536352837032
 20
41.72925014914568
 30
0.0
 10
96.15536310554306
 20
41.67191023306651
 30
0.0
 10
96.15536187894467
 20
41.5055703219422
 30
0.0
 10
96.15534824599281
 20
41.23061875706831
 30
0.0
 10
96.15531769737015
 20
40.906160188037
 30
0.0
 10
96.15527194124313
 20
40.58509562892566
 30
0.0
 10
96.15521143002282
 20
40.26877841466541
 30
0.0
 10
96.15513634516674
 20
39.95851860023142
 30
0.0
 10
96.15504701746757
 20
39.65560394033506
 30
0.0
 10
96.15494381328303
 20
39.36129114222408
 30
0.0
 10
96.15482716324925
 20
39.07680162754146
 30
0.0
 10
96.15469755256555
 20
38.80331628458218
 30
0.0
 10
96.15455552137095
 20
38.54197072743336
 30
0.0
 10
96.1544016622552
 20
38.29385069494345
 30
0.0
 10
96.15423661855398
 20
38.05998774298057
 30
0.0
 10
96.15406108235914
 20
37.84135523338929
 30
0.0
 10
96.15387579389524
 20
37.63886479467736
 30
0.0
 10
96.1536815386648
 20
37.45336307292011
 30
0.0
 10
96.15347915902548
 20
37.28563021313891
 30
0.0
 10
96.15326952572165
 20
37.13637617688494
 30
0.0
 10
96.15305369087955
 20
37.00625255813095
 30
0.0
 10
96.15283244512405
 20
36.89582142690109
 30
0.0
 10
96.15260832469393
 20
36.80571888721767
 30
0.0
 10
96.15237927411287
 20
36.73619028943008
 30
0.0
 10
96.15218071142048
 20
36.69241213531342
 30
0.0
 10
96.152007885099
 20
36.67067984319944
 30
0.0
 10
96.15198437120192
 20
36.66895006372395
 30
0.0
 10
96.15197676122013
 20
36.66839024200325
 30
0.0
  0
SPLINE
  5
D6
330
1F
100
AcDbEntity
  8
0
  6
Continuous
 62
     7
370
    15
100
AcDbSpline
210
0.0
220
0.0
230
1.0
 70
     8
 71
     3
 72
    89
 73
    85
 74
     0
 42
0.000000001
 43
0.00000001
 40
0.0
 40
0.0
 40
0.0
 40
0.0
 40
0.0093347343785881
 40
0.0270795574208032
 40
0.0448266155728221
 40
0.0625737204678848
 40
0.0803209006888194
 40
0.0980681889701434
 40
0.1158156232223994
 40
0.1335632488463448
 40
0.1513111218682472
 40
0.1690593133464494
 40
0.1868079157655005
 40
0.2045570525976405
 40
0.2223068930430985
 40
0.240057675508469
 40
0.2578097463869602
 40
0.2755636268315871
 40
0.2933201334522282
 40
0.3110806095105356
 40
0.3288474002599856
 40
0.3466249209887195
 40
0.3644223503175663
 40
0.3822615826438354
 40
0.4002069036338454
 40
0.418532318563782
 40
0.4239521618383009
 40
0.4271971474057581
 40
0.4297577689035286
 40
0.4315631992840617
 40
0.4339158993979668
 40
0.4369788601852468
 40
0.4422152678928313
 40
0.4486548520134814
 40
0.4552081519201329
 40
0.4610804751921565
 40
0.4674371397832116
 40
0.4740148000051691
 40
0.4807275684596314
 40
0.4875204484438864
 40
0.4943594419937516
 40
0.5018777114489361
 40
0.5090333731481215
 40
0.5158530560665706
 40
0.5223771791543564
 40
0.5286249247585347
 40
0.5346011579040019
 40
0.5402993611388686
 40
0.5457022275682076
 40
0.5507806483889918
 40
0.5554909532613251
 40
0.5597683567012118
 40
0.5635043114178633
 40
0.5664688356249847
 40
0.5684927722477661
 40
0.570065852197905
 40
0.5713855213754883
 40
0.57322942144086
 40
0.5763099389059106
 40
0.5814056244880835
 40
0.5916815882902912
 40
0.6091833541525288
 40
0.628045793815043
 40
0.6460851644526014
 40
0.6639509213075817
 40
0.6817585719408885
 40
0.699540673921287
 40
0.7173097039684554
 40
0.7350713282736977
 40
0.7528284334545648
 40
0.7705826201552971
 40
0.7883348362623416
 40
0.8060856735985139
 40
0.8238355182323835
 40
0.8415846315860218
 40
0.8593331965511379
 40
0.8770813448986264
 40
0.8948291742081989
 40
0.9125767586891437
 40
0.9303241563185428
 40
0.9480714136969195
 40
0.96581856945865
 40
0.9835656567556059
 40
1.0
 40
1.0
 40
1.0
 40
1.0
 10
96.14803361526747
 20
41.72925014914568
 30
0.0
 10
96.14803403819651
 20
41.67189643884682
 30
0.0
 10
96.14803526509071
 20
41.50551644040826
 30
0.0
 10
96.1480489013497
 20
41.23049812117819
 30
0.0
 10
96.1480794575692
 20
40.90595887905281
 30
0.0
 10
96.14812522561557
 20
40.58481093910654
 30
0.0
 10
96.14818575371709
 20
40.26840620567788
 30
0.0
 10
96.14826086147576
 20
39.95805320187461
 30
0.0
 10
96.14835021955237
 20
39.65503799189929
 30
0.0
 10
96.14845346358737
 20
39.36061537071095
 30
0.0
 10
96.14857016566035
 20
39.07600454162169
 30
0.0
 10
96.14869984427737
 20
38.80238375441738
 30
0.0
 10
96.14884196441366
 20
38.54088540401561
 30
0.0
 10
96.14899594062553
 20
38.29259120049394
 30
0.0
 10
96.14916113986887
 20
38.05852751353677
 30
0.0
 10
96.14933688488877
 20
37.83966086044845
 30
0.0
 10
96.14952245891683
 20
37.63689345469573
 30
0.0
 10
96.14971710953346
 20
37.45105889650026
 30
0.0
 10
96.14992006301918
 20
37.28291712749339
 30
0.0
 10
96.15013051376795
 20
37.13315069346268
 30
0.0
 10
96.1503477377261
 20
37.00235188796692
 30
0.0
 10
96.15057081821094
 20
36.89103288707704
 30
0.0
 10
96.1508000324554
 20
36.79952018182901
 30
0.0
 10
96.15103274561095
 20
36.72819105963575
 30
0.0
 10
96.15128321975834
 20
36.67606974042837
 30
0.0
 10
96.1514675701269
 20
36.65239242339996
 30
0.0
 10
96.15170498491285
 20
36.63616552718145
 30
0.0
 10
96.15199485564287
 20
36.62466348780887
 30
0.0
 10
96.15257832192813
 20
36.60767329510671
 30
0.0
 10
96.15463387864168
 20
36.57594581700059
 30
0.0
 10
96.15918283108708
 20
36.53325343034133
 30
0.0
 10
96.16984137480529
 20
36.46933769861766
 30
0.0
 10
96.19270994384057
 20
36.38154218318625
 30
0.0
 10
96.23460002008558
 20
36.27735125878932
 30
0.0
 10
96.29276095847823
 20
36.17663429081536
 30
0.0
 10
96.36360949497765
 20
36.08517172000965
 30
0.0
 10
96.44613482347584
 20
36.00376712455268
 30
0.0
 10
96.54345687324319
 20
35.93166372439912
 30
0.0
 10
96.65254945887081
 20
35.87307435902759
 30
0.0
 10
96.77058229814716
 20
35.83056314256593
 30
0.0
 10
96.89847155911589
 20
35.8050096605671
 30
0.0
 10
97.03114125700188
 20
35.79959843738639
 30
0.0
 10
97.16278849856576
 20
35.81536082148275
 30
0.0
 10
97.28457253254527
 20
35.8492510018259
 30
0.0
 10
97.39500752080971
 20
35.89814367634224
 30
0.0
 10
97.49315071380619
 20
35.95911796132263
 30
0.0
 10
97.57837849219733
 20
36.0293266149785
 30
0.0
 10
97.65042955268018
 20
36.10596315434432
 30
0.0
 10
97.70942026851111
 20
36.18625046270935
 30
0.0
 10
97.7558473912117
 20
36.26742564719802
 30
0.0
 10
97.79057961587921
 20
36.34669810970836
 30
0.0
 10
97.81482379017928
 20
36.42106672485135
 30
0.0
 10
97.83004338701237
 20
36.48667705934684
 30
0.0
 10
97.83825454033723
 20
36.53909859800411
 30
0.0
 10
97.84214714456563
 20
36.57727017479867
 30
0.0
 10
97.84370682315472
 20
36.60057100228324
 30
0.0
 10
97.84440592226522
 20
36.61521722316115
 30
0.0
 10
97.84479802612319
 20
36.62667083467526
 30
0.0
 10
97.84502380745755
 20
36.63651036103479
 30
0.0
 10
97.84519856252234
 20
36.64772728314539
 30
0.0
 10
97.84537240612553
 20
36.66581217842101
 30
0.0
 10
97.84558883186013
 20
36.70239739953156
 30
0.0
 10
97.84582911640716
 20
36.76562810131308
 30
0.0
 10
97.84606587893983
 20
36.8508024574898
 30
0.0
 10
97.84629281812329
 20
36.95475249719009
 30
0.0
 10
97.8465130975108
 20
37.07805334320174
 30
0.0
 10
97.84672662816703
 20
37.22043068894617
 30
0.0
 10
97.84693283626228
 20
37.38138093041264
 30
0.0
 10
97.84713099514904
 20
37.5602786981741
 30
0.0
 10
97.84732035051626
 20
37.75640571609498
 30
0.0
 10
97.84750015380979
 20
37.96896325337816
 30
0.0
 10
97.84766968142645
 20
38.19707955239626
 30
0.0
 10
97.84782824413318
 20
38.43981546901633
 30
0.0
 10
97.84797519343701
 20
38.6961694544008
 30
0.0
 10
97.84810992615039
 20
38.96508233325665
 30
0.0
 10
97.84823188773686
 20
39.24544207392362
 30
0.0
 10
97.84834057602606
 20
39.53608864222583
 30
0.0
 10
97.84843554071958
 20
39.83581895924824
 30
0.0
 10
97.84851639655471
 20
40.14339203520257
 30
0.0
 10
97.84858278381371
 20
40.45753404846224
 30
0.0
 10
97.84863452385554
 20
40.77694421107893
 30
0.0
 10
97.84867104544071
 20
41.10029822695881
 30
0.0
 10
97.8486929767391
 20
41.41822431948772
 30
0.0
 10
97.8486956003016
 20
41.628263739966
 30
0.0
 10
97.84869686170364
 20
41.72925014914565
 30
0.0
  0
SPLINE
  5
D7
330
1F
100
AcDbEntity
  8
0
  6
Continuous
 62
     7
370
    15
100
AcDbSpline
210
0.0
220
0.0
230
1.0
 70
     8
 71
     3
 72
    23
 73
    19
 74
     0
 42
0.000000001
 43
0.00000001
 40
0.0
 40
0.0
 40
0.0
 40
0.0
 40
0.0344650796573064
 40
0.1194634929516741
 40
0.2096903239499205
 40
0.3038706806848963
 40
0.3895521571434503
 40
0.4615965306325215
 40
0.5461706296333702
 40
0.611802667711266
 40
0.6670555512466518
 40
0.7086582242793454
 40
0.7494269053386426
 40
0.8130109308311213
 40
0.8534948848301053
 40
0.8997951819299853
 40
0.9518927019395866
 40
0.9999999999999999
 40
0.9999999999999999
 40
0.9999999999999999
 40
0.9999999999999999
 10
97.95284158612358
 20
93.1195205345578
 30
0.0
 10
97.96527401149908
 20
93.15231983814594
 30
0.0
 10
98.00836751297895
 20
93.26600938745158
 30
0.0
 10
98.05343710777326
 20
93.48498584963946
 30
0.0
 10
98.08334485204067
 20
93.77360067186714
 30
0.0
 10
98.07425621196259
 20
94.06713235999095
 30
0.0
 10
98.03260176164774
 20
94.33368953237624
 30
0.0
 10
97.9651350296322
 20
94.57745658870998
 30
0.0
 10
97.87870244864332
 20
94.78592195616403
 30
0.0
 10
97.77918332259235
 20
94.9590991001822
 30
0.0
 10
97.68876407703374
 20
95.08122036101767
 30
0.0
 10
97.6050493302575
 20
95.17368080663333
 30
0.0
 10
97.50743055887035
 20
95.26345926003573
 30
0.0
 10
97.40259072063562
 20
95.33764550970598
 30
0.0
 10
97.287964436583
 20
95.3971579870949
 30
0.0
 10
97.17866045319302
 20
95.43775242481898
 30
0.0
 10
97.06073384022808
 20
95.46561556948494
 30
0.0
 10
96.9794085297889
 20
95.46759043147252
 30
0.0
 10
96.94036508832065
 20
95.46853854231284
 30
0.0
  0
SPLINE
  5
D8
330
1F
100
AcDbEntity
  8
0
  6
Continuous
 62
     7
370
    15
100
AcDbSpline
210
0.0
220
0.0
230
1.0
 70
     8
 71
     3
 72
    13
 73
     9
 74
     0
 42
0.000000001
 43
0.00000001
 40
0.0
 40
0.0
 40
0.0
 40
0.0
 40
0.1829120763675561
 40
0.3952641890355163
 40
0.5722522239508577
 40
0.7184944382004207
 40
0.9786489396491134
 40
1.0
 40
1.0
 40
1.0
 40
1.0
 10
96.95406208565294
 20
95.00136545039823
 30
0.0
 10
96.97709855869164
 20
95.00014400997443
 30
0.0
 10
97.02687926762407
 20
94.99750453603617
 30
0.0
 10
97.0985361361686
 20
94.97105713951748
 30
0.0
 10
97.16609908928014
 20
94.93443000002362
 30
0.0
 10
97.24019785927825
 20
94.87743700777713
 30
0.0
 10
97.29490468773446
 20
94.82876169275718
 30
0.0
 10
97.32740311549604
 20
94.7822847661417
 30
0.0
 10
97.32986799003709
 20
94.77875967889743
 30
0.0
  0
SPLINE
  5
D9
330
1F
100
AcDbEntity
  8
0
  6
Continuous
 62
     7
370
    15
100
AcDbSpline
210
0.0
220
0.0
230
1.0
 70
     8
 71
     3
 72
    14
 73
    10
 74
     0
 42
0.000000001
 43
0.00000001
 40
0.0
 40
0.0
 40
0.0
 40
0.0
 40
0.1023232385230752
 40
0.3319102706790421
 40
0.4655534976671863
 40
0.5991687743369668
 40
0.7625376458247763
 40
0.9054089680650926
 40
1.0
 40
1.0
 40
1.0
 40
1.0
 10
95.65623037050959
 20
93.75517977776164
 30
0.0
 10
95.65665345088811
 20
93.71392807069519
 30
0.0
 10
95.6580258148299
 20
93.58011814192409
 30
0.0
 10
95.6965585692661
 20
93.3969040813265
 30
0.0
 10
95.75122770848323
 20
93.20931950988098
 30
0.0
 10
95.812767903858
 20
93.05298283243094
 30
0.0
 10
95.89033272703072
 20
92.90247702510193
 30
0.0
 10
95.97186677948906
 20
92.77365311997855
 30
0.0
 10
96.02904272108609
 20
92.70724821707489
 30
0.0
 10
96.05181825254368
 20
92.6807964103748
 30
0.0
  0
LINE
  5
DA
330
1F
100
AcDbEntity
  8
0
  6
Continuous
 62
     7
370
    15
100
AcDbLine
 10
95.6545154135
 20
93.8116415741
 30
0.0
 11
95.6562303705
 21
93.7551797778
 31
0.0
  0
SPLINE
  5
DB
330
1F
100
AcDbEntity
  8
0
  6
Continuous
 62
     7
370
    15
100
AcDbSpline
210
0.0
220
0.0
230
1.0
 70
     8
 71
     3
 72
    22
 73
    18
 74
     0
 42
0.000000001
 43
0.00000001
 40
0.0
 40
0.0
 40
0.0
 40
0.0
 40
0.0468975605933371
 40
0.1088813791173619
 40
0.1706177840198767
 40
0.2475169165426512
 40
0.3360019885399157
 40
0.4140402445091007
 40
0.4778201952464596
 40
0.5320114306113423
 40
0.595371000960867
 40
0.6699129038403924
 40
0.7331500214480612
 40
0.8026537089012397
 40
0.8757801618632547
 40
0.9450739256890434
 40
1.0
 40
1.0
 40
1.0
 40
1.0
 10
96.93953247152773
 20
95.46927494515528
 30
0.0
 10
96.906411168339
 20
95.46868766550776
 30
0.0
 10
96.82951392413854
 20
95.46732418695704
 30
0.0
 10
96.70945519549423
 20
95.44685084426798
 30
0.0
 10
96.57160736220189
 20
95.40725779197393
 30
0.0
 10
96.42164889243107
 20
95.340807523218
 30
0.0
 10
96.27048258491851
 20
95.24352280697627
 30
0.0
 10
96.13938514348627
 20
95.1290740557389
 30
0.0
 10
96.0380993350529
 20
95.01723679258623
 30
0.0
 10
95.95362379389584
 20
94.90428710494108
 30
0.0
 10
95.87386618903838
 20
94.77523359800213
 30
0.0
 10
95.80255599596315
 20
94.62967306088494
 30
0.0
 10
95.74257283233182
 20
94.4707177598886
 30
0.0
 10
95.69618588233449
 20
94.30569327481733
 30
0.0
 10
95.66507173030998
 20
94.1301698031838
 30
0.0
 10
95.64613779183962
 20
93.96347947775759
 30
0.0
 10
95.65194683763971
 20
93.85819502240484
 30
0.0
 10
95.65451541352967
 20
93.81164157405688
 30
0.0
  0
SPLINE
  5
DC
330
1F
100
AcDbEntity
  8
0
  6
Continuous
 62
     7
370
    15
100
AcDbSpline
210
0.0
220
0.0
230
1.0
 70
     8
 71
     3
 72
     9
 73
     5
 74
     0
 42
0.000000001
 43
0.00000001
 40
0.0
 40
0.0
 40
0.0
 40
0.0
 40
0.8083749032172836
 40
1.0
 40
1.0
 40
1.0
 40
1.0
 10
97.04381264848641
 20
95.46310044478868
 30
0.0
 10
97.01573430633272
 20
95.4668114596524
 30
0.0
 10
96.98099999921611
 20
95.47140216979066
 30
0.0
 10
96.94620085995633
 20
95.46961702390786
 30
0.0
 10
96.93953247152773
 20
95.46927494515528
 30
0.0
  0
SPLINE
  5
DD
330
1F
100
AcDbEntity
  8
0
  6
Continuous
 62
     7
370
    15
100
AcDbSpline
210
0.0
220
0.0
230
1.0
 70
     8
 71
     3
 72
    11
 73
     7
 74
     0
 42
0.000000001
 43
0.00000001
 40
0.0
 40
0.0
 40
0.0
 40
0.0
 40
0.0728537380019457
 40
0.425217564809305
 40
0.7743581521584633
 40
0.9999999999999999
 40
0.9999999999999999
 40
0.9999999999999999
 40
0.9999999999999999
 10
97.95447319990528
 20
94.85198094924131
 30
0.0
 10
97.94502811466614
 20
94.86911286574392
 30
0.0
 10
97.88990100307305
 20
94.96910487734876
 30
0.0
 10
97.75505978939012
 20
95.11822193599079
 30
0.0
 10
97.5791383135087
 20
95.27349405326513
 30
0.0
 10
97.45266383157512
 20
95.33435417196766
 30
0.0
 10
97.4030138526247
 20
95.35824597659342
 30
0.0
  0
SPLINE
  5
DE
330
1F
100
AcDbEntity
  8
0
  6
Continuous
 62
     7
370
    15
100
AcDbSpline
210
0.0
220
0.0
230
1.0
 70
     8
 71
     3
 72
     9
 73
     5
 74
     0
 42
0.000000001
 43
0.00000001
 40
0.0
 40
0.0
 40
0.0
 40
0.0
 40
0.7877562753882391
 40
1.0
 40
1.0
 40
1.0
 40
1.0
 10
97.94860766403258
 20
92.8414955626775
 30
0.0
 10
97.96356456142493
 20
92.86318240993457
 30
0.0
 10
97.98255126817632
 20
92.89071230456646
 30
0.0
 10
97.99770784369309
 20
92.92150480132413
 30
0.0
 10
98.00092473173312
 20
92.92804031552608
 30
0.0
  0
SPLINE
  5
DF
330
1F
100
AcDbEntity
  8
0
  6
Continuous
 62
     7
370
    15
100
AcDbSpline
210
0.0
220
0.0
230
1.0
 70
     8
 71
     3
 72
    18
 73
    14
 74
     0
 42
0.000000001
 43
0.00000001
 40
0.0
 40
0.0
 40
0.0
 40
0.0
 40
0.1012537454575311
 40
0.1870452917602646
 40
0.2995021455975515
 40
0.4339590696250404
 40
0.5248699019316871
 40
0.601804991028189
 40
0.6649267530764884
 40
0.730720908435513
 40
0.8297708740478891
 40
0.9625497442012418
 40
1.0
 40
1.0
 40
1.0
 40
1.0
 10
96.2234896888568
 20
94.4166127541623
 30
0.0
 10
96.23867547490767
 20
94.45316216788933
 30
0.0
 10
96.2667280646628
 20
94.52067962833829
 30
0.0
 10
96.32288469113733
 20
94.61642364658135
 30
0.0
 10
96.3910295742946
 20
94.71354408910938
 30
0.0
 10
96.46882331858134
 20
94.79801596676208
 30
0.0
 10
96.54342529367935
 20
94.86141937264442
 30
0.0
 10
96.60266697754726
 20
94.90248424602206
 30
0.0
 10
96.65628909315829
 20
94.9331296897338
 30
0.0
 10
96.71613188254378
 20
94.961299435434
 30
0.0
 10
96.79706632637928
 20
94.98774576770788
 30
0.0
 10
96.87203130238971
 20
95.00504949442254
 30
0.0
 10
96.91993041815628
 20
95.00177233583982
 30
0.0
 10
96.93046818088025
 20
95.00105136387612
 30
0.0
  0
SPLINE
  5
E0
330
1F
100
AcDbEntity
  8
0
  6
Continuous
 62
     7
370
    15
100
AcDbSpline
210
0.0
220
0.0
230
1.0
 70
     8
 71
     3
 72
    11
 73
     7
 74
     0
 42
0.000000001
 43
0.00000001
 40
0.0
 40
0.0
 40
0.0
 40
0.0
 40
0.0412491597106767
 40
0.293344962560398
 40
0.6418988129542822
 40
1.0
 40
1.0
 40
1.0
 40
1.0
 10
96.63720434635363
 20
94.87170139314988
 30
0.0
 10
96.6410815608488
 20
94.8753857862448
 30
0.0
 10
96.66865451867147
 20
94.90158748737211
 30
0.0
 10
96.72858926646154
 20
94.9434179440915
 30
0.0
 10
96.8202545831005
 20
94.99166241530517
 30
0.0
 10
96.89016764788441
 20
94.9971838309797
 30
0.0
 10
96.9255964641564
 20
94.9999818376484
 30
0.0
  0
SPLINE
  5
E1
330
1F
100
AcDbEntity
  8
0
  6
Continuous
 62
     7
370
    15
100
AcDbSpline
210
0.0
220
0.0
230
1.0
 70
     8
 71
     3
 72
    31
 73
    27
 74
     0
 42
0.000000001
 43
0.00000001
 40
0.0
 40
0.0
 40
0.0
 40
0.0
 40
0.0619511175599774
 40
0.122800064752835
 40
0.1813175887843908
 40
0.2229190206820706
 40
0.2619695375502835
 40
0.2979677311019444
 40
0.330449846357714
 40
0.3679608512093847
 40
0.4044946522735455
 40
0.4421776312897395
 40
0.4810016033551599
 40
0.5209501378792439
 40
0.5619977630400377
 40
0.6126516736213036
 40
0.6647101280337518
 40
0.7167547198404002
 40
0.7679774823879916
 40
0.8181528328297253
 40
0.8532389948184662
 40
0.8876146512801216
 40
0.9212163712135191
 40
0.9528682426452495
 40
0.980938870802695
 40
1.0
 40
1.0
 40
1.0
 40
1.0
 10
106.7350296188935
 20
85.30888329968293
 30
0.0
 10
106.7270709307252
 20
85.60569601449937
 30
0.0
 10
106.7112951471572
 20
86.19404085853927
 30
0.0
 10
106.5865672951021
 20
87.0552866508912
 30
0.0
 10
106.4130402713376
 20
87.80723889694875
 30
0.0
 10
106.2136374123334
 20
88.44373079981085
 30
0.0
 10
106.0147734621941
 20
88.96614648131343
 30
0.0
 10
105.8046148689313
 20
89.43659656354532
 30
0.0
 10
105.5739678436825
 20
89.88901420924952
 30
0.0
 10
105.3185654799149
 20
90.33099942328016
 30
0.0
 10
105.0253875357841
 20
90.77895270232813
 30
0.0
 10
104.7039907840059
 20
91.21498142304581
 30
0.0
 10
104.3476540094022
 20
91.64446147125943
 30
0.0
 10
103.9555477240606
 20
92.06394320608993
 30
0.0
 10
103.4975361794804
 20
92.49783241972503
 30
0.0
 10
102.9658047372635
 20
92.93629995825364
 30
0.0
 10
102.358745519321
 20
93.3628481840823
 30
0.0
 10
101.7179018319666
 20
93.74212362772435
 30
0.0
 10
101.0577619335415
 20
94.06666436106553
 30
0.0
 10
100.4503246316518
 20
94.30987229263135
 30
0.0
 10
99.90563830310288
 20
94.48850380481011
 30
0.0
 10
99.4290168220664
 20
94.61770002749175
 30
0.0
 10
98.962534680531
 20
94.71911097268872
 30
0.0
 10
98.52143243723447
 20
94.792028712577
 30
0.0
 10
98.14681380163618
 20
94.8385599618455
 30
0.0
 10
97.92168057130984
 20
94.85524431106339
 30
0.0
 10
97.83063169406219
 20
94.86199183234974
 30
0.0
  0
SPLINE
  5
E2
330
1F
100
AcDbEntity
  8
0
  6
Continuous
 62
     7
370
    15
100
AcDbSpline
210
0.0
220
0.0
230
1.0
 70
     8
 71
     3
 72
    10
 73
     6
 74
     0
 42
0.000000001
 43
0.00000001
 40
0.0
 40
0.0
 40
0.0
 40
0.0
 40
0.31854633766928
 40
0.9495992949342115
 40
1.0
 40
1.0
 40
1.0
 40
1.0
 10
97.22940073137839
 20
94.88402596268791
 30
0.0
 10
97.15758316872034
 20
94.88492276262942
 30
0.0
 10
96.94349215966032
 20
94.88759615890321
 30
0.0
 10
96.71775774185954
 20
94.88123808260136
 30
0.0
 10
96.56467226462902
 20
94.86792242175345
 30
0.0
 10
96.55334997462715
 20
94.86693758781352
 30
0.0
  0
SPLINE
  5
E3
330
1F
100
AcDbEntity
  8
0
  6
Continuous
 62
     7
370
    15
100
AcDbSpline
210
0.0
220
0.0
230
1.0
 70
     8
 71
     3
 72
    30
 73
    26
 74
     0
 42
0.000000001
 43
0.00000001
 40
0.0
 40
0.0
 40
0.0
 40
0.0
 40
0.0262638226147558
 40
0.0727555379248042
 40
0.1153758838903039
 40
0.1613238615723793
 40
0.2078450032389694
 40
0.2529857441028591
 40
0.2966996293095702
 40
0.338954872308723
 40
0.3739997706360541
 40
0.4079547243172726
 40
0.4408210869199767
 40
0.4726183232214244
 40
0.5074392940837403
 40
0.5481862921191749
 40
0.5942667926306437
 40
0.6384202043519606
 40
0.6856038903623882
 40
0.7352544222671314
 40
0.7867826422484794
 40
0.8395913969326414
 40
0.8930944053396185
 40
0.9467345563768275
 40
1.0
 40
1.0
 40
1.0
 40
1.0
 10
95.89117030737049
 20
94.79885130985498
 30
0.0
 10
95.77160894520318
 20
94.78308919009423
 30
0.0
 10
95.44040235174192
 20
94.7394252680959
 30
0.0
 10
94.92184902369526
 20
94.6281219914943
 30
0.0
 10
94.32341635947239
 20
94.46507524526943
 30
0.0
 10
93.73664698582806
 20
94.26270619087313
 30
0.0
 10
93.15386349294829
 20
94.01772244117903
 30
0.0
 10
92.59770614108515
 20
93.73937683444622
 30
0.0
 10
92.07740527864789
 20
93.43600453937985
 30
0.0
 10
91.61539815477518
 20
93.12685865814649
 30
0.0
 10
91.20718375307573
 20
92.81955510146501
 30
0.0
 10
90.84783559305711
 20
92.51999837863893
 30
0.0
 10
90.51428342241887
 20
92.21362643381171
 30
0.0
 10
90.19253960712075
 20
91.88926888290456
 30
0.0
 10
89.86244429342025
 20
91.52296671282441
 30
0.0
 10
89.5114727108701
 20
91.08816741336099
 30
0.0
 10
89.16346113413238
 20
90.59725481469714
 30
0.0
 10
88.83254143882712
 20
90.05967804281417
 30
0.0
 10
88.52992392414673
 20
89.48697574912404
 30
0.0
 10
88.25414129989068
 20
88.86357157650795
 30
0.0
 10
88.0157543192214
 20
88.19739162573981
 30
0.0
 10
87.82298397688604
 20
87.4981129151929
 30
0.0
 10
87.68341180505537
 20
86.77662638077078
 30
0.0
 10
87.59548262587624
 20
86.04438212159353
 30
0.0
 10
87.5846153622279
 20
85.55348492592691
 30
0.0
 10
87.57920077545123
 20
85.3088966330165
 30
0.0
  0
SPLINE
  5
E4
330
1F
100
AcDbEntity
  8
0
  6
Continuous
 62
     7
370
    15
100
AcDbSpline
210
0.0
220
0.0
230
1.0
 70
     8
 71
     3
 72
    29
 73
    25
 74
     0
 42
0.000000001
 43
0.00000001
 40
0.0
 40
0.0
 40
0.0
 40
0.0
 40
0.0566210401213006
 40
0.1118416882357976
 40
0.1647184251957288
 40
0.2142937477177584
 40
0.2596363798218519
 40
0.2998785599574682
 40
0.3342469390397391
 40
0.3624534130607835
 40
0.3921104098874094
 40
0.4266589617524254
 40
0.459418428066143
 40
0.4959987164171295
 40
0.5366088492866552
 40
0.581459586305544
 40
0.6307542906017138
 40
0.6846767580644858
 40
0.7433756485279075
 40
0.8069454542616172
 40
0.8754044607116583
 40
0.9299229096523962
 40
0.9870706160049623
 40
1.0
 40
1.0
 40
1.0
 40
1.0
 10
89.48420077498164
 20
85.30889663301647
 30
0.0
 10
89.48888386910528
 20
85.51274191184535
 30
0.0
 10
89.49813423172368
 20
85.91539082246722
 30
0.0
 10
89.57099179952858
 20
86.50467815754132
 30
0.0
 10
89.68018825980937
 20
87.06197377880706
 30
0.0
 10
89.82068353508194
 20
87.57552168893343
 30
0.0
 10
89.98002169142639
 20
88.03549310913861
 30
0.0
 10
90.14576620597795
 20
88.43440101890273
 30
0.0
 10
90.30554900297349
 20
88.76834816852359
 30
0.0
 10
90.46190960661883
 20
89.06127501418348
 30
0.0
 10
90.63039685202334
 20
89.34816266104664
 30
0.0
 10
90.82062434930342
 20
89.64092890413988
 30
0.0
 10
91.0390421878088
 20
89.94457735692791
 30
0.0
 10
91.28562800412672
 20
90.25431747311808
 30
0.0
 10
91.57762215932719
 20
90.58278534275006
 30
0.0
 10
91.92129446694827
 20
90.9254795526681
 30
0.0
 10
92.32307391330438
 20
91.2762542167789
 30
0.0
 10
92.78918604764431
 20
91.62697125405475
 30
0.0
 10
93.32510554604116
 20
91.96739787802382
 30
0.0
 10
93.93491918673232
 20
92.28437943195807
 30
0.0
 10
94.55757961949936
 20
92.53917423384475
 30
0.0
 10
95.17796496794878
 20
92.72770399607235
 30
0.0
 10
95.61452115483287
 20
92.83570273300512
 30
0.0
 10
95.86457171383282
 20
92.86908312974296
 30
0.0
 10
95.9107066158307
 20
92.87524188954862
 30
0.0
  0
LINE
  5
E5
330
1F
100
AcDbEntity
  8
0
  6
Continuous
 62
     7
370
    15
100
AcDbLine
 10
89.4842007752
 20
75.5722299663
 30
0.0
 11
89.4842007752
 21
85.308896633
 31
0.0
  0
LINE
  5
E6
330
1F
100
AcDbEntity
  8
0
  6
Continuous
 62
     7
370
    15
100
AcDbLine
 10
87.5792007752
 20
85.308896633
 30
0.0
 11
87.5792007752
 21
75.5722299663
 31
0.0
  0
SPLINE
  5
E7
330
1F
100
AcDbEntity
  8
0
  6
Continuous
 62
     7
370
    15
100
AcDbSpline
210
0.0
220
0.0
230
1.0
 70
     8
 71
     3
 72
    26
 73
    22
 74
     0
 42
0.000000001
 43
0.00000001
 40
0.0
 40
0.0
 40
0.0
 40
0.0
 40
0.0329956641816345
 40
0.0894311394514006
 40
0.1446498453882033
 40
0.1985038619121247
 40
0.2515539048799808
 40
0.3054279506678982
 40
0.359971511687838
 40
0.3965821454772636
 40
0.4332950054269665
 40
0.4702557092027894
 40
0.5122576013074116
 40
0.5607305895679093
 40
0.6148494527831264
 40
0.673657164989441
 40
0.7360943591374706
 40
0.8010426071322897
 40
0.867377123864727
 40
0.934021966994266
 40
1.0
 40
1.0
 40
1.0
 40
1.0
 10
97.9486883603957
 20
92.93373324093037
 30
0.0
 10
98.07197893303395
 20
92.92198387112978
 30
0.0
 10
98.40614454746009
 20
92.89013848916328
 30
0.0
 10
98.93867023212195
 20
92.77935203940876
 30
0.0
 10
99.53713563918278
 20
92.61238284636437
 30
0.0
 10
100.1079675171781
 20
92.40011093209502
 30
0.0
 10
100.6559218529245
 20
92.14652722381749
 30
0.0
 10
101.1845577323288
 20
91.84934496851125
 30
0.0
 10
101.6367140053942
 20
91.54553964236212
 30
0.0
 10
102.0163111630058
 20
91.25183876564883
 30
0.0
 10
102.3296394042998
 20
90.98127716167308
 30
0.0
 10
102.6424692856338
 20
90.6801552556261
 30
0.0
 10
102.9673708484978
 20
90.32897168986766
 30
0.0
 10
103.3088517105228
 20
89.90684203674536
 30
0.0
 10
103.6535784513606
 20
89.40821775747375
 30
0.0
 10
103.9820960719851
 20
88.83720513485427
 30
0.0
 10
104.2756144825414
 20
88.20224047706391
 30
0.0
 10
104.5183961510395
 20
87.51590315275229
 30
0.0
 10
104.6964767646523
 20
86.79403254788382
 30
0.0
 10
104.8091652204734
 20
86.05429931201344
 30
0.0
 10
104.8230981707381
 20
85.5565210495667
 30
0.0
 10
104.8300296193631
 20
85.30888329968296
 30
0.0
  0
LINE
  5
E8
330
1F
100
AcDbEntity
  8
0
  6
Continuous
 62
     7
370
    15
100
AcDbLine
 10
106.7350296191
 20
75.5722299663
 30
0.0
 11
106.7350296191
 21
85.3088832997
 31
0.0
  0
LINE
  5
E9
330
1F
100
AcDbEntity
  8
0
  6
Continuous
 62
     7
370
    15
100
AcDbLine
 10
104.8300296191
 20
85.3088832997
 30
0.0
 11
104.8300296191
 21
75.5722299663
 31
0.0
  0
LINE
  5
EA
330
1F
100
AcDbEntity
  8
0
  6
Continuous
 62
     7
370
    15
100
AcDbLine
 10
87.6850341085
 20
75.5722299663
 30
0.0
 11
87.6850341085
 21
42.7437838561
 31
0.0
  0
LINE
  5
EB
330
1F
100
AcDbEntity
  8
0
  6
Continuous
 62
     7
370
    15
100
AcDbLine
 10
89.3783674419
 20
42.7437838561
 30
0.0
 11
89.3783674419
 21
75.5722299663
 31
0.0
  0
SPLINE
  5
EC
330
1F
100
AcDbEntity
  8
0
  6
Continuous
 62
     7
370
    15
100
AcDbSpline
210
0.0
220
0.0
230
1.0
 70
     8
 71
     3
 72
    75
 73
    71
 74
     0
 42
0.000000001
 43
0.00000001
 40
0.0
 40
0.0
 40
0.0
 40
0.0
 40
0.0082755947602745
 40
0.0232845772245589
 40
0.0382945273225737
 40
0.053304477597924
 40
0.0683144278692284
 40
0.0833243781343817
 40
0.0983343283913616
 40
0.1133442786382191
 40
0.1283542288731053
 40
0.143364179094261
 40
0.1583741293000614
 40
0.1733840794890113
 40
0.1883940296597695
 40
0.2034039798111596
 40
0.2184139299421714
 40
0.2334238800519691
 40
0.2484338301399227
 40
0.2634437802055863
 40
0.2784537302487078
 40
0.2934636802692495
 40
0.3084736302673584
 40
0.3234835802433881
 40
0.3384935301978982
 40
0.3535034801316194
 40
0.368513430045481
 40
0.3835233799405855
 40
0.3985333298181982
 40
0.4135432796797553
 40
0.4285532295268136
 40
0.4435631793610683
 40
0.458573129184339
 40
0.473583078998524
 40
0.488593028805614
 40
0.503602978607664
 40
0.5186129284067689
 40
0.5336228782045306
 40
0.54863282800289
 40
0.5636427778039879
 40
0.5786527276099243
 40
0.5936626774227618
 40
0.6086726272445022
 40
0.6236825770770612
 40
0.6386925269222652
 40
0.6537024767818307
 40
0.6687124266573411
 40
0.6837223765502429
 40
0.6987323264618194
 40
0.71374227639319
 40
0.7287522263453126
 40
0.7437621763189418
 40
0.7587721263146534
 40
0.7737820763328147
 40
0.7887920263736089
 40
0.8038019764370127
 40
0.8188119265227946
 40
0.8338218766305251
 40
0.8488318267595898
 40
0.8638417769091774
 40
0.8788517270782942
 40
0.8938616772657741
 40
0.9088716274702872
 40
0.9238815776903534
 40
0.938891527924351
 40
0.9539014781705457
 40
0.9689114284270738
 40
0.9839213786920051
 40
0.9981416608265595
 40
1.0
 40
1.0
 40
1.0
 40
1.0
 10
87.68503410854929
 20
42.74378385610469
 30
0.0
 10
87.68567617693928
 20
42.66170330588913
 30
0.0
 10
87.68748272878761
 20
42.43075786142356
 30
0.0
 10
87.70704652701835
 20
42.05125891406094
 30
0.0
 10
87.74996204483065
 20
41.6065783090287
 30
0.0
 10
87.81408641452235
 20
41.16441200826702
 30
0.0
 10
87.89890344090753
 20
40.72575813669656
 30
0.0
 10
88.00432442640583
 20
40.29159042552092
 30
0.0
 10
88.13008823958062
 20
39.86287451444537
 30
0.0
 10
88.27592245252764
 20
39.44056341794457
 30
0.0
 10
88.4415009253925
 20
39.02559604656619
 30
0.0
 10
88.62645605892618
 20
38.61889494804488
 30
0.0
 10
88.8303765229525
 20
38.22136430224717
 30
0.0
 10
89.052808998474
 20
37.83388789868512
 30
0.0
 10
89.29325896372667
 20
37.45732717497491
 30
0.0
 10
89.5511918530228
 20
37.09251930080428
 30
0.0
 10
89.82603422927598
 20
36.74027531697414
 30
0.0
 10
90.11717506313329
 20
36.40137833222892
 30
0.0
 10
90.42396709027315
 20
36.07658178226643
 30
0.0
 10
90.7457282507102
 20
35.76660775469545
 30
0.0
 10
91.08174320506943
 20
35.47214538369192
 30
0.0
 10
91.43126492495112
 20
35.1938493179161
 30
0.0
 10
91.79351635371901
 20
34.9323382650981
 30
0.0
 10
92.16769213405449
 20
34.68819361652763
 30
0.0
 10
92.55296039842675
 20
34.46195815450509
 30
0.0
 10
92.94846461850116
 20
34.25413484562912
 30
0.0
 10
93.35332550937295
 20
34.0651857226017
 30
0.0
 10
93.76664298439357
 20
33.89553085703785
 30
0.0
 10
94.18749815624338
 20
33.74554742556302
 30
0.0
 10
94.61495537980139
 20
33.61556887127512
 30
0.0
 10
95.04806433227155
 20
33.50588416243425
 30
0.0
 10
95.48586212593986
 20
33.41673715002931
 30
0.0
 10
95.92737544886587
 20
33.34832602564923
 30
0.0
 10
96.37162272874936
 20
33.30080288086387
 30
0.0
 10
96.81761631516102
 20
33.27427336909483
 30
0.0
 10
97.26436467528646
 20
33.26879647072703
 30
0.0
 10
97.7108745982958
 20
33.28438436198398
 30
0.0
 10
98.15615340345256
 20
33.32100238785665
 30
0.0
 10
98.59921114704292
 20
33.37856913914857
 30
0.0
 10
99.03906282322285
 20
33.45695663346618
 30
0.0
 10
99.47473055387879
 20
33.55599059974988
 30
0.0
 10
99.90524576264355
 20
33.67545086571302
 30
0.0
 10
100.3296513282344
 20
33.81507184732882
 30
0.0
 10
100.747003712324
 20
33.97454313927664
 30
0.0
 10
101.1563750572146
 20
34.15351020503464
 30
0.0
 10
101.5568552486498
 20
34.35157516508494
 30
0.0
 10
101.9475539391802
 20
34.56829768147888
 30
0.0
 10
102.3276025275829
 20
34.80319593679558
 30
0.0
 10
102.6961560899356
 20
35.05574770531781
 30
0.0
 10
103.0523952580505
 20
35.32539151404352
 30
0.0
 10
103.3955280410937
 20
35.61152789095173
 30
0.0
 10
103.7247915863387
 20
35.91352069774802
 30
0.0
 10
104.0394538751407
 20
36.23069854412614
 30
0.0
 10
104.3388153503586
 20
36.56235628040228
 30
0.0
 10
104.6222104716179
 20
36.90775656520321
 30
0.0
 10
104.889009194913
 20
37.26613150472148
 30
0.0
 10
105.1386183734215
 20
37.63668435990181
 30
0.0
 10
105.3704830758146
 20
38.01859131772806
 30
0.0
 10
105.5840878213775
 20
38.4110033228099
 30
0.0
 10
105.7789577208133
 20
38.81304796467936
 30
0.0
 10
105.954659551473
 20
39.22383141853815
 30
0.0
 10
106.1108026478888
 20
39.64244042791199
 30
0.0
 10
106.2470400412781
 20
40.06794435178364
 30
0.0
 10
106.363068219628
 20
40.49939717096364
 30
0.0
 10
106.4586315766776
 20
40.93583982501965
 30
0.0
 10
106.5335088946239
 20
41.37630147213115
 30
0.0
 10
106.587566403954
 20
41.81980490303869
 30
0.0
 10
106.6199832673221
 20
42.2575431255587
 30
0.0
 10
106.6288614687354
 20
42.56588159442642
 30
0.0
 10
106.6291615974393
 20
42.72535248685089
 30
0.0
 10
106.6291962857945
 20
42.74378385610444
 30
0.0
  0
SPLINE
  5
ED
330
1F
100
AcDbEntity
  8
0
  6
Continuous
 62
     7
370
    15
100
AcDbSpline
210
0.0
220
0.0
230
1.0
 70
     8
 71
     3
 72
    68
 73
    64
 74
     0
 42
0.000000001
 43
0.00000001
 40
0.0
 40
0.0
 40
0.0
 40
0.0
 40
0.0082757598629635
 40
0.0248379959241618
 40
0.0414016336745448
 40
0.057965271744617
 40
0.0745289098223644
 40
0.0910925479118349
 40
0.1076561860170325
 40
0.1242198241417765
 40
0.1407834622896831
 40
0.1573471004641142
 40
0.1739107386681489
 40
0.1904743769045357
 40
0.2070380151756943
 40
0.2236016534836395
 40
0.2401652918300158
 40
0.2567289302160291
 40
0.2732925686424713
 40
0.2898562071096876
 40
0.3064198456175996
 40
0.3229834841656531
 40
0.3395471227529001
 40
0.3561107613779358
 40
0.3726744000389755
 40
0.3892380387338137
 40
0.4058016774599046
 40
0.4223653162143541
 40
0.4389289549939596
 40
0.4554925937952574
 40
0.4720562326145256
 40
0.4886198714478818
 40
0.5051835102912502
 40
0.5217471491404813
 40
0.5383107879902029
 40
0.5548744268359223
 40
0.5714380656734538
 40
0.5880017044986896
 40
0.6045653433076719
 40
0.6211289820966116
 40
0.6376926208619323
 40
0.6542562596003035
 40
0.6708198983087178
 40
0.6873835369844644
 40
0.7039471756251972
 40
0.7205108142289455
 40
0.7370744527941383
 40
0.7536380913196251
 40
0.7702017298046802
 40
0.7867653682490305
 40
0.8033290066528227
 40
0.819892645016649
 40
0.8364562833415374
 40
0.8530199216289425
 40
0.8695835598807117
 40
0.886147198099082
 40
0.9027108362866635
 40
0.9192744744463839
 40
0.9358381125814804
 40
0.9524017506954537
 40
0.9689653887920366
 40
0.9855290268751479
 40
1.0
 40
1.0
 40
1.0
 40
1.0
 10
104.9358629524612
 20
42.74378385610446
 30
0.0
 10
104.9353323111292
 20
42.67637711809946
 30
0.0
 10
104.9337397000022
 20
42.47406961866098
 30
0.0
 10
104.91552198651
 20
42.13714502701396
 30
0.0
 10
104.8736872206137
 20
41.73443633158963
 30
0.0
 10
104.8106848333576
 20
41.33444334211426
 30
0.0
 10
104.7270370669282
 20
40.93826710901584
 30
0.0
 10
104.6228764522334
 20
40.54697831380341
 30
0.0
 10
104.4985101339898
 20
40.16163672984207
 30
0.0
 10
104.354268048917
 20
39.78328540732618
 30
0.0
 10
104.1905424903864
 20
39.4129486396495
 30
0.0
 10
104.0077762057751
 20
39.05162897877901
 30
0.0
 10
103.80646410262
 20
38.70030457791057
 30
0.0
 10
103.5871511305015
 20
38.35992652825146
 30
0.0
 10
103.3504310143284
 20
38.0314162883366
 30
0.0
 10
103.0969445911498
 20
37.7156631884001
 30
0.0
 10
102.8273780902794
 20
37.41352202310772
 30
0.0
 10
102.5424612715517
 20
37.12581073741113
 30
0.0
 10
102.2429654508206
 20
36.85330821225977
 30
0.0
 10
101.9297014115957
 20
36.59675215603797
 30
0.0
 10
101.6035172101991
 20
36.35683710747067
 30
0.0
 10
101.2652958799204
 20
36.13421255539308
 30
0.0
 10
100.9159530405093
 20
35.92948118047926
 30
0.0
 10
100.5564344194443
 20
35.74319722368656
 30
0.0
 10
100.1877132916971
 20
35.5758649858351
 30
0.0
 10
99.81078784491993
 20
35.42793746238227
 30
0.0
 10
99.4266784771911
 20
35.29981511708979
 30
0.0
 10
99.03642503463215
 20
35.19184479790209
 30
0.0
 10
98.64108399637647
 20
35.10431879797164
 30
0.0
 10
98.24172561450943
 20
35.0374740643727
 30
0.0
 10
97.83943101672217
 20
34.9914915566462
 30
0.0
 10
97.43528927952393
 20
34.96649575691178
 30
0.0
 10
97.03039447993466
 20
34.96255433287358
 30
0.0
 10
96.62584273365042
 20
34.97967795463153
 30
0.0
 10
96.22272922767213
 20
35.01782026579306
 30
0.0
 10
95.82214525545385
 20
35.07687800896654
 30
0.0
 10
95.42517526258418
 20
35.15669130529821
 30
0.0
 10
95.03289391102274
 20
35.25704408729033
 30
0.0
 10
94.64636316981743
 20
35.37766468373086
 30
0.0
 10
94.26662944018142
 20
35.5182265551518
 30
0.0
 10
93.89472072271496
 20
35.67834917782476
 30
0.0
 10
93.53164383444033
 20
35.85759907390119
 30
0.0
 10
93.17838168318488
 20
36.05549098490782
 30
0.0
 10
92.83589060668955
 20
36.27148918542074
 30
0.0
 10
92.50509778364845
 20
36.50500893336202
 30
0.0
 10
92.18689872368357
 20
36.75541805299208
 30
0.0
 10
91.8821548430632
 20
37.02203864631297
 30
0.0
 10
91.5916911326804
 20
37.30414892824918
 30
0.0
 10
91.31629392477555
 20
37.60098518063736
 30
0.0
 10
91.05670876381298
 20
37.91174381973742
 30
0.0
 10
90.81363838964829
 20
38.23558357165955
 30
0.0
 10
90.58774082958988
 20
38.57162774984894
 30
0.0
 10
90.3796276375736
 20
38.91896662834642
 30
0.0
 10
90.1898621618572
 20
39.27665990483514
 30
0.0
 10
90.01895830631238
 20
39.64373924518082
 30
0.0
 10
89.86737807047406
 20
40.01921090864074
 30
0.0
 10
89.7355342873935
 20
40.4020584240047
 30
0.0
 10
89.62377462052807
 20
40.79124539387947
 30
0.0
 10
89.53243617602554
 20
41.18571810432846
 30
0.0
 10
89.46163726177389
 20
41.58440910913418
 30
0.0
 10
89.41205082706142
 20
41.98623738884602
 30
0.0
 10
89.38327985018421
 20
42.37311244230539
 30
0.0
 10
89.37992960902216
 20
42.62590873932758
 30
0.0
 10
89.37836744188262
 20
42.74378385610467
 30
0.0
  0
LINE
  5
EE
330
1F
100
AcDbEntity
  8
0
  6
Continuous
 62
     7
370
    15
100
AcDbLine
 10
104.9358629525
 20
75.5722299663
 30
0.0
 11
104.9358629525
 21
42.7437838561
 31
0.0
  0
LINE
  5
EF
330
1F
100
AcDbEntity
  8
0
  6
Continuous
 62
     7
370
    15
100
AcDbLine
 10
106.6291962858
 20
42.7437838561
 30
0.0
 11
106.6291962858
 21
75.5722299663
 31
0.0
  0
LINE
  5
F0
330
1F
100
AcDbEntity
  8
0
  6
Continuous
 62
     7
370
    15
100
AcDbLine
 10
97.6489439227
 20
174.8557322781
 30
0.0
 11
97.6489439227
 21
175.0082994772
 31
0.0
  0
LINE
  5
F1
330
1F
100
AcDbEntity
  8
0
  6
Continuous
 62
     7
370
    15
100
AcDbLine
 10
96.7345439227
 20
175.0082994772
 30
0.0
 11
96.7345439227
 21
174.8557322781
 31
0.0
  0
LINE
  5
F2
330
1F
100
AcDbEntity
  8
0
  6
Continuous
 62
     7
370
    15
100
AcDbLine
 10
96.9796805193
 20
174.8601711594
 30
0.0
 11
96.9796805193
 21
95.4684017929
 31
0.0
  0
LINE
  5
F3
330
1F
100
AcDbEntity
  8
0
  6
Continuous
 62
     7
370
    15
100
AcDbLine
 10
97.4030138526
 20
95.3513069593
 30
0.0
 11
97.4030138526
 21
174.8601711594
 31
0.0
  0
LINE
  5
F4
330
1F
100
AcDbEntity
  8
0
  6
Continuous
 62
     7
370
    15
100
AcDbLine
 10
96.0422002819
 20
88.8523198902
 30
0.0
 11
96.0422002819
 21
72.3422362906
 31
0.0
  0
LINE
  5
F5
330
1F
100
AcDbEntity
  8
0
  6
Continuous
 62
     7
370
    15
100
AcDbLine
 10
96.1480336153
 20
72.3425205007
 30
0.0
 11
96.1480336153
 21
41.7292501491
 31
0.0
  0
SPLINE
  5
F6
330
1F
100
AcDbEntity
  8
0
  6
Continuous
 62
     7
370
    15
100
AcDbSpline
210
0.0
220
0.0
230
1.0
 70
    24
 71
     3
 72
    23
 73
    19
 74
     0
 42
0.000000001
 43
0.00000001
 40
0.0
 40
0.0
 40
0.0
 40
0.0
 40
0.0519708265919109
 40
0.1151727714857834
 40
0.178374716379656
 40
0.2415766612735286
 40
0.3047786061674013
 40
0.3679805510612737
 40
0.4311824959551463
 40
0.494384440849019
 40
0.5575863857428919
 40
0.6207883306367644
 40
0.6839902755306367
 40
0.7471922204245094
 40
0.8103941653183823
 40
0.8735961102122546
 40
0.9367980551061273
 40
1.0
 40
1.0
 40
1.0
 40
1.0
 10
104.8063803930729
 20
175.008215877654
 30
0.0
 10
104.8037568868915
 20
175.008215877654
 30
0.0
 10
104.7979429236022
 20
175.008215877654
 30
0.0
 10
104.7008726470752
 20
175.008215877654
 30
0.0
 10
104.5332588241634
 20
175.008215877654
 30
0.0
 10
104.2928293224074
 20
175.008215877654
 30
0.0
 10
103.9845786302691
 20
175.008215877654
 30
0.0
 10
103.610757528156
 20
175.008215877654
 30
0.0
 10
103.1751584657637
 20
175.008215877654
 30
0.0
 10
102.6819249499274
 20
175.008215877654
 30
0.0
 10
102.1358209419356
 20
175.008215877654
 30
0.0
 10
101.5421018605657
 20
175.008215877654
 30
0.0
 10
100.9064871376311
 20
175.008215877654
 30
0.0
 10
100.2350955817261
 20
175.008215877654
 30
0.0
 10
99.53440150265382
 20
175.008215877654
 30
0.0
 10
98.8111217076847
 20
175.008215877654
 30
0.0
 10
98.07233837352727
 20
175.008215877654
 30
0.0
 10
97.57393363098019
 20
175.008215877654
 30
0.0
 10
97.32473125970664
 20
175.008215877654
 30
0.0
  0
SPLINE
  5
F7
330
1F
100
AcDbEntity
  8
0
  6
Continuous
 62
     7
370
    15
100
AcDbSpline
210
0.0
220
0.0
230
1.0
 70
    24
 71
     3
 72
    24
 73
    20
 74
     0
 42
0.000000001
 43
0.00000001
 40
0.0
 40
0.0
 40
0.0
 40
0.0
 40
0.0618134759712944
 40
0.1236269519425888
 40
0.1854404279138832
 40
0.2472539038851777
 40
0.3090673798564723
 40
0.3708808558277668
 40
0.4326943317990612
 40
0.4945078077703555
 40
0.5563212837416497
 40
0.6181347597129446
 40
0.6799482356842388
 40
0.7417617116555332
 40
0.8035751876268279
 40
0.8653886635981222
 40
0.9272021395694169
 40
0.9890156155407112
 40
1.0
 40
1.0
 40
1.0
 40
1.0
 10
97.32473125970664
 20
175.008215877654
 30
0.0
 10
97.07528201353088
 20
175.008215877654
 30
0.0
 10
96.57638352117937
 20
175.008215877654
 30
0.0
 10
95.83361886603063
 20
175.008215877654
 30
0.0
 10
95.10402565156123
 20
175.008215877654
 30
0.0
 10
94.39451366315373
 20
175.008215877654
 30
0.0
 10
93.71194714591587
 20
175.008215877654
 30
0.0
 10
93.06289115744386
 20
175.008215877654
 30
0.0
 10
92.45359892929044
 20
175.008215877654
 30
0.0
 10
91.88993683948479
 20
175.008215877654
 30
0.0
 10
91.37733655131085
 20
175.008215877654
 30
0.0
 10
90.92072296804025
 20
175.008215877654
 30
0.0
 10
90.52453710973742
 20
175.008215877654
 30
0.0
 10
90.19243185392568
 20
175.008215877654
 30
0.0
 10
89.92821240959609
 20
175.008215877654
 30
0.0
 10
89.73215854798222
 20
175.008215877654
 30
0.0
 10
89.61461074692451
 20
175.008215877654
 30
0.0
 10
89.56419376940416
 20
175.008215877654
 30
0.0
 10
89.57541438639244
 20
175.008215877654
 30
0.0
 10
89.57710745223449
 20
175.008215877654
 30
0.0
  0
SPLINE
  5
F8
330
1F
100
AcDbEntity
  8
0
  6
Continuous
 62
     7
370
    15
100
AcDbSpline
210
0.0
220
0.0
230
1.0
 70
    24
 71
     3
 72
    23
 73
    19
 74
     0
 42
0.000000001
 43
0.00000001
 40
0.0
 40
0.0
 40
0.0
 40
0.0
 40
0.0519708265919111
 40
0.1151727714857836
 40
0.1783747163796562
 40
0.2415766612735287
 40
0.3047786061674013
 40
0.3679805510612739
 40
0.4311824959551466
 40
0.4943844408490192
 40
0.5575863857428918
 40
0.6207883306367642
 40
0.683990275530637
 40
0.7471922204245095
 40
0.8103941653183824
 40
0.8735961102122547
 40
0.9367980551061272
 40
1.0
 40
1.0
 40
1.0
 40
1.0
 10
104.8063803930729
 20
177.548215877654
 30
0.0
 10
104.8037568868915
 20
177.548215877654
 30
0.0
 10
104.7979429236022
 20
177.5482158776539
 30
0.0
 10
104.7008726470752
 20
177.548215877654
 30
0.0
 10
104.5332588241634
 20
177.5482158776539
 30
0.0
 10
104.2928293224074
 20
177.548215877654
 30
0.0
 10
103.9845786302691
 20
177.548215877654
 30
0.0
 10
103.610757528156
 20
177.548215877654
 30
0.0
 10
103.1751584657637
 20
177.548215877654
 30
0.0
 10
102.6819249499274
 20
177.548215877654
 30
0.0
 10
102.1358209419356
 20
177.548215877654
 30
0.0
 10
101.5421018605657
 20
177.548215877654
 30
0.0
 10
100.9064871376311
 20
177.548215877654
 30
0.0
 10
100.235095581726
 20
177.548215877654
 30
0.0
 10
99.53440150265384
 20
177.548215877654
 30
0.0
 10
98.81112170768469
 20
177.548215877654
 30
0.0
 10
98.07233837352727
 20
177.548215877654
 30
0.0
 10
97.57393363098019
 20
177.548215877654
 30
0.0
 10
97.32473125970664
 20
177.548215877654
 30
0.0
  0
SPLINE
  5
F9
330
1F
100
AcDbEntity
  8
0
  6
Continuous
 62
     7
370
    15
100
AcDbSpline
210
0.0
220
0.0
230
1.0
 70
    24
 71
     3
 72
    24
 73
    20
 74
     0
 42
0.000000001
 43
0.00000001
 40
0.0
 40
0.0
 40
0.0
 40
0.0
 40
0.0618134759712945
 40
0.1236269519425889
 40
0.1854404279138834
 40
0.2472539038851777
 40
0.3090673798564719
 40
0.3708808558277666
 40
0.4326943317990607
 40
0.4945078077703554
 40
0.5563212837416498
 40
0.6181347597129446
 40
0.6799482356842389
 40
0.7417617116555332
 40
0.8035751876268279
 40
0.8653886635981222
 40
0.9272021395694164
 40
0.9890156155407112
 40
1.0
 40
1.0
 40
1.0
 40
1.0
 10
97.32473125970664
 20
177.548215877654
 30
0.0
 10
97.07528201353088
 20
177.548215877654
 30
0.0
 10
96.57638352117937
 20
177.548215877654
 30
0.0
 10
95.83361886603063
 20
177.5482158776539
 30
0.0
 10
95.10402565156123
 20
177.548215877654
 30
0.0
 10
94.39451366315375
 20
177.548215877654
 30
0.0
 10
93.71194714591587
 20
177.548215877654
 30
0.0
 10
93.06289115744387
 20
177.548215877654
 30
0.0
 10
92.45359892929044
 20
177.548215877654
 30
0.0
 10
91.88993683948479
 20
177.548215877654
 30
0.0
 10
91.37733655131085
 20
177.548215877654
 30
0.0
 10
90.92072296804025
 20
177.548215877654
 30
0.0
 10
90.52453710973742
 20
177.548215877654
 30
0.0
 10
90.19243185392568
 20
177.548215877654
 30
0.0
 10
89.9282124095961
 20
177.5482158776539
 30
0.0
 10
89.73215854798222
 20
177.548215877654
 30
0.0
 10
89.61461074692451
 20
177.5482158776539
 30
0.0
 10
89.56419376940416
 20
177.548215877654
 30
0.0
 10
89.57541438639244
 20
177.548215877654
 30
0.0
 10
89.57710745223449
 20
177.548215877654
 30
0.0
  0
LINE
  5
FA
330
1F
100
AcDbEntity
  8
0
  6
Continuous
 62
     7
370
    15
100
AcDbLine
 10
96.0495304429
 20
88.8523332235
 30
0.0
 11
97.9545299472
 21
88.8523332235
 31
0.0
  0
SPLINE
  5
FB
330
1F
100
AcDbEntity
  8
0
  6
Continuous
 62
     7
370
    15
100
AcDbSpline
210
0.0
220
0.0
230
1.0
 70
    24
 71
     3
 72
    22
 73
    18
 74
     0
 42
0.000000001
 43
0.00000001
 40
0.0
 40
0.0
 40
0.0
 40
0.0
 40
0.125
 40
0.125
 40
0.25
 40
0.25
 40
0.375
 40
0.375
 40
0.5
 40
0.5
 40
0.625
 40
0.625
 40
0.75
 40
0.75
 40
0.875
 40
0.875
 40
1.0
 40
1.0
 40
1.0
 40
1.0
 10
96.04953044291956
 20
72.34231989016924
 30
0.0
 10
96.04962039448657
 20
72.34231989016924
 30
0.0
 10
96.07450132968319
 20
72.34231989016924
 30
0.0
 10
96.17009495329128
 20
72.34231989016924
 30
0.0
 10
96.2407700296939
 20
72.34231989016924
 30
0.0
 10
96.41722411114009
 20
72.34231989016924
 30
0.0
 10
96.52293368903756
 20
72.34231989016925
 30
0.0
 10
96.7533846939819
 20
72.34231989016925
 30
0.0
 10
96.87803544839905
 20
72.34231989016924
 30
0.0
 10
97.12739930038232
 20
72.34231989016924
 30
0.0
 10
97.25201428392104
 20
72.34231989016924
 30
0.0
 10
97.48232759696775
 20
72.34231989016924
 30
0.0
 10
97.58793530802191
 20
72.34231989016924
 30
0.0
 10
97.76413496801608
 20
72.34231989016924
 30
0.0
 10
97.83465758991397
 20
72.34231989016924
 30
0.0
 10
97.92991879587538
 20
72.34231989016924
 30
0.0
 10
97.95461989872221
 20
72.34231989016924
 30
0.0
 10
97.95452994715522
 20
72.34231989016924
 30
0.0
  0
LWPOLYLINE
  5
FC
330
1F
100
AcDbEntity
  8
0
  6
Continuous
 62
     7
370
    15
100
AcDbPolyline
 90
       20
 70
   128
 43
0.0
 10
96.0495304429
 20
88.8523332235
 10
96.0495212405
 20
89.2120936848
 10
96.0494936803
 20
89.5700475273
 10
96.0494479006
 20
89.924397238
 10
96.0493841313
 20
90.2733634023
 10
96.0493026927
 20
90.6151936399
 10
96.0492039937
 20
90.9481714046
 10
96.04908853
 20
91.2706246041
 10
96.0489568812
 20
91.5809339963
 10
96.0488097087
 20
91.8775413212
 10
96.0486477513
 20
92.1589571254
 10
96.0484718224
 20
92.4237682418
 10
96.0482828055
 20
92.670644886
 10
96.0480816496
 20
92.8983473338
 10
96.047869365
 20
93.1057321469
 10
96.0476470177
 20
93.2917579148
 10
96.0474157241
 20
93.4554904842
 10
96.0471766459
 20
93.59610765
 10
96.0469309834
 20
93.7129032844
 10
96.0466799704
 20
93.8052908825
  0
SPLINE
  5
FD
330
1F
100
AcDbEntity
  8
0
  6
Continuous
 62
     7
370
    15
100
AcDbSpline
210
0.0
220
0.0
230
1.0
 70
     8
 71
     3
 72
    24
 73
    20
 74
     0
 42
0.000000001
 43
0.00000001
 40
0.0
 40
0.0
 40
0.0
 40
0.0
 40
0.03097103861475
 40
0.0616786439735667
 40
0.0921064299481011
 40
0.1222380791276626
 40
0.2416334424806007
 40
0.356038590650532
 40
0.4637767440218151
 40
0.5512902943130031
 40
0.6347493444492486
 40
0.7231855211345029
 40
0.8057975128774862
 40
0.8516210844890554
 40
0.8944609850210852
 40
0.9372950416324288
 40
0.9746919422509736
 40
0.9877648285693101
 40
1.0
 40
1.0
 40
1.0
 40
1.0
 10
96.04667997044989
 20
93.80529088249293
 30
0.0
 10
96.04673137404502
 20
93.8130165066249
 30
0.0
 10
96.04683374400695
 20
93.82840204232613
 30
0.0
 10
96.04764850927418
 20
93.85135248049363
 30
0.0
 10
96.04892059293442
 20
93.87404946460722
 30
0.0
 10
96.05240863538681
 20
93.91867007518032
 30
0.0
 10
96.0609454233866
 20
93.983569410611
 30
0.0
 10
96.07821866205126
 20
94.0652275401925
 30
0.0
 10
96.09852364244131
 20
94.13647153956694
 30
0.0
 10
96.11978707436603
 20
94.19776005759589
 30
0.0
 10
96.14146971124575
 20
94.25207903061687
 30
0.0
 10
96.16396345771541
 20
94.30221294263255
 30
0.0
 10
96.1833791210791
 20
94.34167615090578
 30
0.0
 10
96.19807493635672
 20
94.37023140872431
 30
0.0
 10
96.20858271962308
 20
94.39035038002248
 30
0.0
 10
96.2170899777922
 20
94.4068806320548
 30
0.0
 10
96.22149363833047
 20
94.41648606255481
 30
0.0
 10
96.22260319652487
 20
94.42040151573892
 30
0.0
 10
96.2223015628486
 20
94.42092661046527
 30
0.0
 10
96.22215573815612
 20
94.42118046732217
 30
0.0
  0
SPLINE
  5
FE
330
1F
100
AcDbEntity
  8
0
  6
Continuous
 62
     7
370
    15
100
AcDbSpline
210
0.0
220
0.0
230
1.0
 70
     8
 71
     3
 72
    10
 73
     6
 74
     0
 42
0.000000001
 43
0.00000001
 40
0.0
 40
0.0
 40
0.0
 40
0.0
 40
0.4351244208279119
 40
0.8699462740065542
 40
1.0
 40
1.0
 40
1.0
 40
1.0
 10
96.95796222733384
 20
94.88381888484399
 30
0.0
 10
96.88879440822608
 20
94.87444487922593
 30
0.0
 10
96.7505068664709
 20
94.85570338628828
 30
0.0
 10
96.59376269654233
 20
94.79244010168487
 30
0.0
 10
96.51495024758323
 20
94.72704635137318
 30
0.0
 10
96.49680491962124
 20
94.7119904679215
 30
0.0
  0
SPLINE
  5
FF
330
1F
100
AcDbEntity
  8
0
  6
Continuous
 62
     7
370
    15
100
AcDbSpline
210
0.0
220
0.0
230
1.0
 70
     8
 71
     3
 72
    17
 73
    13
 74
     0
 42
0.000000001
 43
0.00000001
 40
0.0
 40
0.0
 40
0.0
 40
0.0
 40
0.0198739735428442
 40
0.0943218301131183
 40
0.1641897445489809
 40
0.3036924210099119
 40
0.4420748949738273
 40
0.583011165357062
 40
0.6445731310291641
 40
0.7106962576688962
 40
0.856838382256018
 40
1.0
 40
1.0
 40
1.0
 40
1.0
 10
97.33120577712472
 20
94.77970380237227
 30
0.0
 10
97.33219338538458
 20
94.7781419023168
 30
0.0
 10
97.33688057178462
 20
94.77072912845112
 30
0.0
 10
97.36596215161038
 20
94.74883438345567
 30
0.0
 10
97.42545595251693
 20
94.70345656105857
 30
0.0
 10
97.52095825953464
 20
94.6279265687275
 30
0.0
 10
97.64875408898699
 20
94.50459983981507
 30
0.0
 10
97.7493307180259
 20
94.37711002721736
 30
0.0
 10
97.81783581194611
 20
94.26455858809912
 30
0.0
 10
97.87870338064351
 20
94.1429295863251
 30
0.0
 10
97.93813850610631
 20
93.97242391961048
 30
0.0
 10
97.94729274163628
 20
93.82751876712611
 30
0.0
 10
97.95182270435684
 20
93.75581262229043
 30
0.0
  0
LWPOLYLINE
  5
100
330
1F
100
AcDbEntity
  8
0
  6
Continuous
 62
     7
370
    15
100
AcDbPolyline
 90
       20
 70
   128
 43
0.0
 10
97.9518227044
 20
93.7558126223
 10
97.9520634901
 20
93.6530220332
 10
97.9522986119
 20
93.5275440683
 10
97.9525269587
 20
93.379971718
 10
97.9527474512
 20
93.2110023872
 10
97.9529590475
 20
93.0214346
 10
97.9531607476
 20
92.8121642257
 10
97.9533515983
 20
92.5841802452
 10
97.9535306976
 20
92.3385600768
 10
97.9536971992
 20
92.0764644852
 10
97.9538503163
 20
91.7991320953
 10
97.9539893251
 20
91.5078735388
 10
97.9541135687
 20
91.2040652607
 10
97.9542224601
 20
90.8891430138
 10
97.9543154846
 20
90.5645950739
 10
97.9543922025
 20
90.2319552067
 10
97.9544522513
 20
89.8927954189
 10
97.9544953473
 20
89.5487185292
 10
97.9545212868
 20
89.2013505943
 10
97.9545299472
 20
88.8523332235
  0
LINE
  5
101
330
1F
100
AcDbEntity
  8
0
  6
Continuous
 62
     7
370
    15
100
AcDbLine
 10
96.9403544605
 20
95.003989041
 30
0.0
 11
96.9405124595
 21
95.003989062
 31
0.0
  0
SPLINE
  5
102
330
1F
100
AcDbEntity
  8
0
  6
Continuous
 62
     7
370
    15
100
AcDbSpline
210
0.0
220
0.0
230
1.0
 70
     8
 71
     3
 72
    32
 73
    28
 74
     0
 42
0.000000001
 43
0.00000001
 40
0.0
 40
0.0
 40
0.0
 40
0.0
 40
0.0216562802829307
 40
0.0438385105899336
 40
0.0664466675197674
 40
0.0893796388383949
 40
0.1125352771942674
 40
0.135810430282839
 40
0.1591010547862914
 40
0.1823025319116547
 40
0.205310321564459
 40
0.2280211215360952
 40
0.2503347405984515
 40
0.2721569543047381
 40
0.3332220585162378
 40
0.3878127140929226
 40
0.4385516678090765
 40
0.4880248369513405
 40
0.5565873578804118
 40
0.633151566991339
 40
0.7203635689554682
 40
0.7897202855431043
 40
0.860186933582257
 40
0.8965253691060046
 40
0.9316126909117634
 40
0.9659476750139879
 40
1.0
 40
1.0
 40
1.0
 40
1.0
 10
96.9403419905959
 20
95.00398895739927
 30
0.0
 10
96.93982792796578
 20
95.00404832874815
 30
0.0
 10
96.93878731804757
 20
95.00416851335387
 30
0.0
 10
96.93719595351565
 20
95.00519285902709
 30
0.0
 10
96.93559019242213
 20
95.00689394853465
 30
0.0
 10
96.93398372690562
 20
95.00938207712518
 30
0.0
 10
96.93238729004679
 20
95.01268584669324
 30
0.0
 10
96.93080526429195
 20
95.01684960614766
 30
0.0
 10
96.9292394271122
 20
95.02190440760249
 30
0.0
 10
96.92769134827957
 20
95.02787382833856
 30
0.0
 10
96.92616520519515
 20
95.03477092538414
 30
0.0
 10
96.92467200376997
 20
95.04259747053533
 30
0.0
 10
96.92322880606498
 20
95.05134569240778
 30
0.0
 10
96.92105233041087
 20
95.06686523076223
 30
0.0
 10
96.91849915100269
 20
95.0918691912426
 30
0.0
 10
96.91598717783683
 20
95.13072172733244
 30
0.0
 10
96.91451806997965
 20
95.17333094999059
 30
0.0
 10
96.91402355789421
 20
95.22340892427461
 30
0.0
 10
96.91484403182346
 20
95.28113823922342
 30
0.0
 10
96.91751598663365
 20
95.34238084995782
 30
0.0
 10
96.9214224357312
 20
95.39201712476275
 30
0.0
 10
96.92594997036213
 20
95.42850667480127
 30
0.0
 10
96.92980508988713
 20
95.4487170725388
 30
0.0
 10
96.93302597437496
 20
95.4600204663608
 30
0.0
 10
96.93548124098616
 20
95.46593606202104
 30
0.0
 10
96.93791104484455
 20
95.46954670672993
 30
0.0
 10
96.93952218547315
 20
95.4700040871144
 30
0.0
 10
96.94032442619609
 20
95.47023183208205
 30
0.0
  0
SPLINE
  5
103
330
1F
100
AcDbEntity
  8
0
  6
Continuous
 62
     7
370
    15
100
AcDbSpline
210
0.0
220
0.0
230
1.0
 70
     8
 71
     3
 72
     9
 73
     5
 74
     0
 42
0.000000001
 43
0.00000001
 40
0.0
 40
0.0
 40
0.0
 40
0.0
 40
0.1615722186420435
 40
1.0
 40
1.0
 40
1.0
 40
1.0
 10
97.08063644446892
 20
95.4565734804497
 30
0.0
 10
97.07850446132345
 20
95.45740410438101
 30
0.0
 10
97.06530922786442
 20
95.46254498774746
 30
0.0
 10
97.05375567537679
 20
95.46387741780617
 30
0.0
 10
97.04406885599778
 20
95.46499456418411
 30
0.0
  0
LINE
  5
104
330
1F
100
AcDbEntity
  8
0
  6
Continuous
 62
     7
370
    15
100
AcDbLine
 10
95.6486177038
 20
93.8012496568
 30
0.0
 11
95.6516344522
 21
93.9064919126
 31
0.0
  0
LINE
  5
105
330
1F
100
AcDbEntity
  8
0
  6
Continuous
 62
     7
370
    15
100
AcDbLine
 10
96.9403544605
 20
95.003989041
 30
0.0
 11
96.9401964578
 21
95.003989062
 31
0.0
  0
ARC
  5
106
330
1F
100
AcDbEntity
  8
0
  6
Continuous
 62
     7
370
    15
100
AcDbCircle
 10
97.1578039823
 20
85.3088908309
 30
0.0
 40
8.625416027740561
100
AcDbArc
 50
100.0768936512
 51
179.9999614582
  0
SPLINE
  5
107
330
1F
100
AcDbEntity
  8
0
  6
Continuous
 62
     7
370
    15
100
AcDbSpline
210
0.0
220
0.0
230
1.0
 70
     8
 71
     3
 72
    11
 73
     7
 74
     0
 42
0.000000001
 43
0.00000001
 40
0.0
 40
0.0
 40
0.0
 40
0.0
 40
0.1514302869573989
 40
0.5056738401178235
 40
0.6757231743466894
 40
0.9999999999999999
 40
0.9999999999999999
 40
0.9999999999999999
 40
0.9999999999999999
 10
96.98288206240389
 20
94.88457985188023
 30
0.0
 10
96.98155816441954
 20
94.88456607159603
 30
0.0
 10
96.97713724842498
 20
94.88452005484879
 30
0.0
 10
96.97117158766392
 20
94.88433970447412
 30
0.0
 10
96.96416272162801
 20
94.88410163378394
 30
0.0
 10
96.96036637373486
 20
94.88392970948999
 30
0.0
 10
96.95787597823532
 20
94.88381692754798
 30
0.0
  0
SPLINE
  5
108
330
1F
100
AcDbEntity
  8
0
  6
Continuous
 62
     7
370
    15
100
AcDbSpline
210
0.0
220
0.0
230
1.0
 70
     8
 71
     3
 72
    13
 73
     9
 74
     0
 42
0.000000001
 43
0.00000001
 40
0.0
 40
0.0
 40
0.0
 40
0.0
 40
0.2166081888513121
 40
0.4776812039231172
 40
0.7387351103622091
 40
0.8850607696845533
 40
0.9411328028140781
 40
1.0
 40
1.0
 40
1.0
 40
1.0
 10
96.23246429733867
 20
94.43685338726323
 30
0.0
 10
96.27405513405044
 20
94.49574242834107
 30
0.0
 10
96.36577447789433
 20
94.6256091161571
 30
0.0
 10
96.54273049735718
 20
94.76014681587473
 30
0.0
 10
96.71263850663955
 20
94.84046235518291
 30
0.0
 10
96.83605040385736
 20
94.87014221559
 30
0.0
 10
96.9058457525292
 20
94.88033290086462
 30
0.0
 10
96.94031068910786
 20
94.8826382029253
 30
0.0
 10
96.95796222733384
 20
94.88381888484399
 30
0.0
  0
LINE
  5
109
330
1F
100
AcDbEntity
  8
0
  6
Continuous
 62
     7
370
    15
100
AcDbLine
 10
89.4842007752
 20
75.5722299663
 30
0.0
 11
87.5792007752
 21
75.5722299663
 31
0.0
  0
LINE
  5
10A
330
1F
100
AcDbEntity
  8
0
  6
Continuous
 62
     7
370
    15
100
AcDbLine
 10
106.7350296191
 20
75.5722299663
 30
0.0
 11
104.8300296191
 21
75.5722299663
 31
0.0
  0
SPLINE
  5
10B
330
1F
100
AcDbEntity
  8
0
  6
Continuous
 62
     7
370
    15
100
AcDbSpline
210
0.0
220
0.0
230
1.0
 70
    24
 71
     3
 72
    12
 73
     8
 74
     0
 42
0.000000001
 43
0.00000001
 40
0.0
 40
0.0
 40
0.0
 40
0.0
 40
0.2472832388636351
 40
0.4945664777272699
 40
0.7418497165909052
 40
0.9891329554545407
 40
1.0
 40
1.0
 40
1.0
 40
1.0
 10
97.19972316287685
 20
174.855815877654
 30
0.0
 10
97.13988370352521
 20
174.855815877654
 30
0.0
 10
97.02020478482193
 20
174.855815877654
 30
0.0
 10
96.8645350686077
 20
174.855815877654
 30
0.0
 10
96.7665316348265
 20
174.855815877654
 30
0.0
 10
96.72401149780423
 20
174.855815877654
 30
0.0
 10
96.73552392120708
 20
174.855815877654
 30
0.0
 10
96.73600854596243
 20
174.855815877654
 30
0.0
  0
SPLINE
  5
10C
330
1F
100
AcDbEntity
  8
0
  6
Continuous
 62
     7
370
    15
100
AcDbSpline
210
0.0
220
0.0
230
1.0
 70
    24
 71
     3
 72
    11
 73
     7
 74
     0
 42
0.000000001
 43
0.00000001
 40
0.0
 40
0.0
 40
0.0
 40
0.0
 40
0.2416686421164151
 40
0.4944457614109428
 40
0.7472228807054706
 40
1.0
 40
1.0
 40
1.0
 40
1.0
 10
97.64747929934494
 20
174.855815877654
 30
0.0
 10
97.6418145090305
 20
174.855815877654
 30
0.0
 10
97.63022454214145
 20
174.855815877654
 30
0.0
 10
97.52823159103711
 20
174.855815877654
 30
0.0
 10
97.37908930697104
 20
174.855815877654
 30
0.0
 10
97.25951187757492
 20
174.855815877654
 30
0.0
 10
97.19972316287685
 20
174.855815877654
 30
0.0
  0
SPLINE
  5
10D
330
1F
100
AcDbEntity
  8
0
  6
Continuous
 62
     8
370
    15
100
AcDbSpline
210
0.0
220
0.0
230
1.0
 70
     8
 71
     3
 72
     9
 73
     5
 74
     0
 42
0.000000001
 43
0.00000001
 40
0.0
 40
0.0
 40
0.0
 40
0.0
 40
0.4493518623118403
 40
1.0
 40
1.0
 40
1.0
 40
1.0
 10
96.49680491962124
 20
94.7119904679215
 30
0.0
 10
96.45250093384708
 20
94.68082836646069
 30
0.0
 10
96.35390562471397
 20
94.6114793683271
 30
0.0
 10
96.27567731740187
 20
94.49906342734177
 30
0.0
 10
96.23260104566596
 20
94.43716179879175
 30
0.0
  0
LINE
  5
10E
330
1F
100
AcDbEntity
  8
0
  6
Continuous
 62
     8
370
    15
100
AcDbLine
 10
96.1553635284
 20
41.7292501491
 30
0.0
 11
97.8486968617
 21
41.7292501491
 31
0.0
  0
LINE
  5
10F
330
1F
100
AcDbEntity
  8
0
  6
Continuous
 62
     8
370
    15
100
AcDbLine
 10
96.1480336203
 20
41.7292501491
 30
0.0
 11
96.1553635284
 21
41.7292501491
 31
0.0
  0
LINE
  5
110
330
1F
100
AcDbEntity
  8
0
  6
Continuous
 62
     8
370
    15
100
AcDbLine
 10
88.5323879546
 20
85.308896633
 30
0.0
 11
87.5792007753
 21
85.308896633
 31
0.0
  0
LINE
  5
111
330
1F
100
AcDbEntity
  8
0
  6
Continuous
 62
     8
370
    15
100
AcDbLine
 10
106.735029619
 20
85.3088832997
 30
0.0
 11
105.7832167985
 21
85.3088832997
 31
0.0
  0
ARC
  5
112
330
1F
100
AcDbEntity
  8
0
  6
Continuous
 62
     8
370
    15
100
AcDbCircle
 10
97.1578009722
 20
85.308890936
 30
0.0
 40
8.625415826320987
100
AcDbArc
 50
359.9999492746
 51
83.9048196404
  0
SPLINE
  5
113
330
1F
100
AcDbEntity
  8
0
  6
Continuous
 62
     8
370
    15
100
AcDbSpline
210
0.0
220
0.0
230
1.0
 70
     8
 71
     3
 72
    20
 73
    16
 74
     0
 42
0.000000001
 43
0.00000001
 40
0.0
 40
0.0
 40
0.0
 40
0.0
 40
0.0650420631138299
 40
0.1685337299233015
 40
0.2561230126382936
 40
0.3376664546734604
 40
0.4177161273900427
 40
0.4998458904115756
 40
0.5883684634529063
 40
0.691199305362174
 40
0.7546052597172871
 40
0.8393927759432059
 40
0.909014202150787
 40
0.9867806269000684
 40
1.0
 40
1.0
 40
1.0
 40
1.0
 10
95.76824451438912
 20
94.5325456287367
 30
0.0
 10
95.75038162123069
 20
94.53560503527007
 30
0.0
 10
95.70409618889522
 20
94.54353241594858
 30
0.0
 10
95.64814297647433
 20
94.57156554668246
 30
0.0
 10
95.60299166381697
 20
94.60473152828239
 30
0.0
 10
95.57708823021235
 20
94.6372268305102
 30
0.0
 10
95.56735993101744
 20
94.66812440326711
 30
0.0
 10
95.57360943697422
 20
94.69728693948637
 30
0.0
 10
95.59926586197082
 20
94.72487298393511
 30
0.0
 10
95.64091398676872
 20
94.74585025447317
 30
0.0
 10
95.69441371787869
 20
94.76293043740377
 30
0.0
 10
95.7492493581356
 20
94.77559555280054
 30
0.0
 10
95.81355413315869
 20
94.7869759016233
 30
0.0
 10
95.8604436567361
 20
94.79413801449881
 30
0.0
 10
95.88661762365655
 20
94.7971948448142
 30
0.0
 10
95.89042045269588
 20
94.797638973254
 30
0.0
  0
LINE
  5
114
330
1F
100
AcDbEntity
  8
0
  6
Continuous
 62
     8
370
    15
100
AcDbLine
 10
89.4842007714
 20
85.308896633
 30
0.0
 11
88.5323879546
 21
85.308896633
 31
0.0
  0
LINE
  5
115
330
1F
100
AcDbEntity
  8
0
  6
Continuous
 62
     8
370
    15
100
AcDbLine
 10
105.7832167985
 20
85.3088832997
 30
0.0
 11
104.8300296245
 21
85.3088832997
 31
0.0
  0
LINE
  5
116
330
1F
100
AcDbEntity
  8
0
  6
Continuous
 62
     8
370
    15
100
AcDbLine
 10
89.3783674419
 20
42.7437838561
 30
0.0
 11
87.6850341085
 21
42.7437838561
 31
0.0
  0
LINE
  5
117
330
1F
100
AcDbEntity
  8
0
  6
Continuous
 62
     8
370
    15
100
AcDbLine
 10
106.6291962858
 20
42.7437838561
 30
0.0
 11
104.9358629525
 21
42.7437838561
 31
0.0
  0
LINE
  5
118
330
1F
100
AcDbEntity
  8
0
  6
Continuous
 62
     8
370
    15
100
AcDbLine
 10
96.0422005298
 20
88.8523198902
 30
0.0
 11
96.049530195
 21
88.8523198902
 31
0.0
  0
LWPOLYLINE
  5
119
330
1F
100
AcDbEntity
  8
0
  6
Continuous
 62
     8
370
    15
100
AcDbPolyline
 90
       14
 70
   128
 43
0.0
 10
96.043472263
 20
92.6996966985
 10
96.0434217368
 20
92.6381829796
 10
96.0432364937
 20
92.3917197292
 10
96.0430641552
 20
92.1278830907
 10
96.0429055673
 20
91.8479681266
 10
96.0427615084
 20
91.5533488216
 10
96.0426326855
 20
91.2454713376
 10
96.0425197312
 20
90.9258469152
 10
96.0424231997
 20
90.596044456
 10
96.042343565
 20
90.257682821
 10
96.0422812179
 20
89.9124228849
 10
96.0422364644
 20
89.5619593831
 10
96.0422095243
 20
89.208012593
 10
96.0422005298
 20
88.8523198902
  0
SPLINE
  5
11A
330
1F
100
AcDbEntity
  8
0
  6
Continuous
 62
     7
370
    15
100
AcDbSpline
210
0.0
220
0.0
230
1.0
 70
     8
 71
     3
 72
    24
 73
    20
 74
     0
 42
0.000000001
 43
0.00000001
 40
0.0
 40
0.0
 40
0.0
 40
0.0
 40
0.0852979562822268
 40
0.1555025543088251
 40
0.2112223344022796
 40
0.2346876714234827
 40
0.2562313282773325
 40
0.3000138804252711
 40
0.3534561525450589
 40
0.4168949448327754
 40
0.4832247361992285
 40
0.5494847211163955
 40
0.6107361223950042
 40
0.6621805943556398
 40
0.7068010442552498
 40
0.7602837639926149
 40
0.8271007021155626
 40
0.907385295866506
 40
1.0
 40
1.0
 40
1.0
 40
1.0
 10
106.0498794299411
 20
216.1404510669088
 30
0.0
 10
106.0817489352086
 20
216.1508781779646
 30
0.0
 10
106.1398486797941
 20
216.1698873368463
 30
0.0
 10
106.2338549331019
 20
216.2179761472935
 30
0.0
 10
106.315615614015
 20
216.2731885539572
 30
0.0
 10
106.3803517757818
 20
216.3269865881574
 30
0.0
 10
106.4419411230382
 20
216.3843463695848
 30
0.0
 10
106.5227676105629
 20
216.4736905995832
 30
0.0
 10
106.6100560974767
 20
216.6079026351526
 30
0.0
 10
106.681007362402
 20
216.7776763983313
 30
0.0
 10
106.7183505115751
 20
216.9708621126658
 30
0.0
 10
106.7151344525279
 20
217.1654205326572
 30
0.0
 10
106.6763705524431
 20
217.3408576801723
 30
0.0
 10
106.6163417792095
 20
217.4857366158576
 30
0.0
 10
106.5376708664757
 20
217.6152830684474
 30
0.0
 10
106.4446083092251
 20
217.7310152474174
 30
0.0
 10
106.3304095411936
 20
217.8335657236991
 30
0.0
 10
106.1940953352012
 20
217.9192466740393
 30
0.0
 10
106.0993246266312
 20
217.9518123084928
 30
0.0
 10
106.0485600414528
 20
217.9692563157082
 30
0.0
  0
SPLINE
  5
11B
330
1F
100
AcDbEntity
  8
0
  6
Continuous
 62
     7
370
    15
100
AcDbSpline
210
0.0
220
0.0
230
1.0
 70
     8
 71
     3
 72
    38
 73
    34
 74
     0
 42
0.000000001
 43
0.00000001
 40
0.0
 40
0.0
 40
0.0
 40
0.0
 40
0.0625
 40
0.0625
 40
0.125
 40
0.125
 40
0.1875000000000001
 40
0.1875000000000001
 40
0.2500000000000001
 40
0.2500000000000001
 40
0.3125000000000001
 40
0.3125000000000001
 40
0.375
 40
0.375
 40
0.4375
 40
0.4375
 40
0.4999999999999999
 40
0.4999999999999999
 40
0.5624999999999999
 40
0.5624999999999999
 40
0.6249999999999998
 40
0.6249999999999998
 40
0.6874999999999997
 40
0.6874999999999997
 40
0.7499999999999997
 40
0.7499999999999997
 40
0.8124999999999998
 40
0.8124999999999998
 40
0.8749999999999998
 40
0.8749999999999998
 40
0.9374999999999998
 40
0.9374999999999998
 40
1.0
 40
1.0
 40
1.0
 40
1.0
 10
97.05875658560073
 20
224.7894808046474
 30
0.0
 10
97.55740846069338
 20
224.7981848055038
 30
0.0
 10
98.05690525369727
 20
224.7577768825858
 30
0.0
 10
99.03844222462976
 20
224.5802860846554
 30
0.0
 10
99.52045813212253
 20
224.4432075984527
 30
0.0
 10
100.4485084084615
 20
224.0776388727055
 30
0.0
 10
100.8945198294359
 20
223.8491576725682
 30
0.0
 10
101.7334189595183
 20
223.3095596201215
 30
0.0
 10
102.1262859251922
 20
222.9984561104372
 30
0.0
 10
102.843795485909
 20
222.3055651818364
 30
0.0
 10
103.1684203391141
 20
221.9237948960135
 30
0.0
 10
103.7369668404309
 20
221.104238501067
 30
0.0
 10
103.9808744301101
 20
220.6664726570903
 30
0.0
 10
104.3786089488259
 20
219.7517458884434
 30
0.0
 10
104.5324260430928
 20
219.2748075821951
 30
0.0
 10
104.7440638647054
 20
218.3000628765822
 30
0.0
 10
104.801879358889
 20
217.8022805797013
 30
0.0
 10
104.8192873606018
 20
216.804976829516
 30
0.0
 10
104.7788794376838
 20
216.3054800365121
 30
0.0
 10
104.6013886397534
 20
215.3239430655796
 30
0.0
 10
104.4643101535506
 20
214.8419271580869
 30
0.0
 10
104.0987414278035
 20
213.9138768817479
 30
0.0
 10
103.8702602276662
 20
213.4678654607735
 30
0.0
 10
103.3306621752195
 20
212.6289663306911
 30
0.0
 10
103.0195586655352
 20
212.2360993650172
 30
0.0
 10
102.3266677369344
 20
211.5185898043004
 30
0.0
 10
101.9448974511115
 20
211.1939649510953
 30
0.0
 10
101.125341056165
 20
210.6254184497785
 30
0.0
 10
100.6875752121883
 20
210.3815108600993
 30
0.0
 10
99.7728484435414
 20
209.9837763413835
 30
0.0
 10
99.29591013729308
 20
209.8299592471166
 30
0.0
 10
98.3211654316802
 20
209.618321425504
 30
0.0
 10
97.8233831347993
 20
209.5605059313204
 30
0.0
 10
97.32473125970664
 20
209.551801930464
 30
0.0
  0
SPLINE
  5
11C
330
1F
100
AcDbEntity
  8
0
  6
Continuous
 62
     7
370
    15
100
AcDbSpline
210
0.0
220
0.0
230
1.0
 70
     8
 71
     3
 72
    38
 73
    34
 74
     0
 42
0.000000001
 43
0.00000001
 40
0.0
 40
0.0
 40
0.0
 40
0.0
 40
0.0625
 40
0.0625
 40
0.1249999999999999
 40
0.1249999999999999
 40
0.1874999999999999
 40
0.1874999999999999
 40
0.2499999999999998
 40
0.2499999999999998
 40
0.3124999999999998
 40
0.3124999999999998
 40
0.3749999999999998
 40
0.3749999999999998
 40
0.4374999999999998
 40
0.4374999999999998
 40
0.4999999999999998
 40
0.4999999999999998
 40
0.5624999999999998
 40
0.5624999999999998
 40
0.6249999999999998
 40
0.6249999999999998
 40
0.6874999999999998
 40
0.6874999999999998
 40
0.7499999999999998
 40
0.7499999999999998
 40
0.8124999999999999
 40
0.8124999999999999
 40
0.875
 40
0.875
 40
0.9375
 40
0.9375
 40
1.0
 40
1.0
 40
1.0
 40
1.0
 10
97.32473125970664
 20
209.551801930464
 30
0.0
 10
96.82607938461399
 20
209.5430979296077
 30
0.0
 10
96.3265825916101
 20
209.5835058525256
 30
0.0
 10
95.34504562067761
 20
209.7609966504561
 30
0.0
 10
94.86302971318484
 20
209.8980751366588
 30
0.0
 10
93.93497943684582
 20
210.263643862406
 30
0.0
 10
93.4889680158715
 20
210.4921250625432
 30
0.0
 10
92.65006888578908
 20
211.0317231149899
 30
0.0
 10
92.25720192011515
 20
211.3428266246742
 30
0.0
 10
91.53969235939834
 20
212.035717553275
 30
0.0
 10
91.21506750619331
 20
212.417487839098
 30
0.0
 10
90.64652100487645
 20
213.2370442340444
 30
0.0
 10
90.40261341519728
 20
213.6748100780211
 30
0.0
 10
90.00487889648146
 20
214.589536846668
 30
0.0
 10
89.85106180221457
 20
215.0664751529163
 30
0.0
 10
89.63942398060193
 20
216.0412198585292
 30
0.0
 10
89.58160848641838
 20
216.5390021554101
 30
0.0
 10
89.56420048470562
 20
217.5363059055954
 30
0.0
 10
89.60460840762356
 20
218.0358026985993
 30
0.0
 10
89.782099205554
 20
219.0173396695318
 30
0.0
 10
89.91917769175677
 20
219.4993555770246
 30
0.0
 10
90.28474641750392
 20
220.4274058533636
 30
0.0
 10
90.51322761764119
 20
220.8734172743379
 30
0.0
 10
91.05282567008791
 20
221.7123164044203
 30
0.0
 10
91.36392917977216
 20
222.1051833700943
 30
0.0
 10
92.05682010837297
 20
222.8226929308111
 30
0.0
 10
92.4385903941959
 20
223.1473177840161
 30
0.0
 10
93.25814678914239
 20
223.7158642853329
 30
0.0
 10
93.69591263311906
 20
223.9597718750121
 30
0.0
 10
94.61063940176597
 20
224.357506393728
 30
0.0
 10
95.08757770801428
 20
224.5113234879948
 30
0.0
 10
96.06232241362717
 20
224.7229613096075
 30
0.0
 10
96.56010471050807
 20
224.780776803791
 30
0.0
 10
97.05875658560072
 20
224.7894808046474
 30
0.0
  0
SPLINE
  5
11D
330
1F
100
AcDbEntity
  8
0
  6
Continuous
 62
     7
370
    15
100
AcDbSpline
210
0.0
220
0.0
230
1.0
 70
     8
 71
     3
 72
    59
 73
    55
 74
     0
 42
0.000000001
 43
0.00000001
 40
0.0
 40
0.0
 40
0.0
 40
0.0
 40
0.0031279247287379
 40
0.0062546160227747
 40
0.0093803748873686
 40
0.0125055025972063
 40
0.0156303006095311
 40
0.0187550704770076
 40
0.021880113760448
 40
0.0250057319415266
 40
0.0281322263356088
 40
0.0312598980048213
 40
0.0468876385720328
 40
0.0625167857790424
 40
0.0781445263465373
 40
0.0937736735532747
 40
0.1094014141230869
 40
0.1250305613275008
 40
0.1562780237601224
 40
0.1875254861927442
 40
0.2187729486253659
 40
0.2500204110579873
 40
0.2812678734906088
 40
0.3125153359232307
 40
0.3437627983558522
 40
0.3750102607884737
 40
0.4062577232210955
 40
0.437505185653717
 40
0.4687526480863388
 40
0.5000001105189603
 40
0.5312475729515818
 40
0.5624950353842036
 40
0.5937424978168251
 40
0.624989960249447
 40
0.6562374226820685
 40
0.68748488511469
 40
0.7187323475473115
 40
0.7499798099799332
 40
0.781227272412555
 40
0.8124747348451765
 40
0.8437221972777982
 40
0.8749696597104196
 40
0.8905973651567456
 40
0.9062265475695062
 40
0.9218542881358434
 40
0.9374834353437297
 40
0.9531111406980638
 40
0.9687403230330733
 40
0.9739519510247852
 40
0.9791610453196291
 40
0.9843690012915518
 40
0.9895772152294304
 40
0.9947870832147314
 40
1.0
 40
1.0
 40
1.0
 40
1.0
 10
97.32354915004395
 20
209.6195249476826
 30
0.0
 10
97.29882165301773
 20
209.6191634989302
 30
0.0
 10
97.24937640976034
 20
209.6184407439554
 30
0.0
 10
97.1752118339485
 20
209.6182788782623
 30
0.0
 10
97.10107186019562
 20
209.6187926535081
 30
0.0
 10
97.02695533735047
 20
209.620048183543
 30
0.0
 10
96.95286257457673
 20
209.6220277608867
 30
0.0
 10
96.87879349834003
 20
209.6247361272255
 30
0.0
 10
96.80474810610819
 20
209.6281720187942
 30
0.0
 10
96.73072649396376
 20
209.6323357488965
 30
0.0
 10
96.65672829234404
 20
209.6372273270567
 30
0.0
 10
96.48422221991036
 20
209.6503310139005
 30
0.0
 10
96.21375043157967
 20
209.678895379708
 30
0.0
 10
95.84734026163773
 20
209.7359216750534
 30
0.0
 10
95.48414413917736
 20
209.810829672899
 30
0.0
 10
95.12508401877119
 20
209.9034958280115
 30
0.0
 10
94.7709748864546
 20
210.0136464890004
 30
0.0
 10
94.3067342720677
 20
210.1834878614797
 30
0.0
 10
93.7428558595502
 20
210.4382178725256
 30
0.0
 10
93.0995982109121
 20
210.8086774987608
 30
0.0
 10
92.49571402694696
 20
211.2404149198995
 30
0.0
 10
91.9370648604734
 20
211.729261357806
 30
0.0
 10
91.42901853145437
 20
212.2705118775817
 30
0.0
 10
90.97647109334994
 20
212.8589531574863
 30
0.0
 10
90.58377994393483
 20
213.4889183962194
 30
0.0
 10
90.25472714982648
 20
214.1543406279156
 30
0.0
 10
89.99248160602559
 20
214.8488114877968
 30
0.0
 10
89.7995688974357
 20
215.5656428378085
 30
0.0
 10
89.6778468743475
 20
216.2979312012703
 30
0.0
 10
89.62848778762401
 20
217.0386242406492
 30
0.0
 10
89.65196699183994
 20
217.7805886771257
 30
0.0
 10
89.74805836983448
 20
218.5166789876456
 30
0.0
 10
89.91583650787825
 20
219.2398062198047
 30
0.0
 10
90.15368561529583
 20
219.9430062642917
 30
0.0
 10
90.45931505834835
 20
220.6195069156522
 30
0.0
 10
90.82978152116591
 20
221.2627931200358
 30
0.0
 10
91.26151697504397
 20
221.8666696153154
 30
0.0
 10
91.75036444541047
 20
222.4253209807857
 30
0.0
 10
92.29161280260712
 20
222.9333662025033
 30
0.0
 10
92.88006170036803
 20
223.3859158708168
 30
0.0
 10
93.5099986302548
 20
223.778599206697
 30
0.0
 10
94.06463338648165
 20
224.052848006562
 30
0.0
 10
94.52266332355896
 20
224.2387888081019
 30
0.0
 10
94.87270181079565
 20
224.3612276349227
 30
0.0
 10
95.22831992399819
 20
224.466372437911
 30
0.0
 10
95.5886690618183
 20
224.5539080846466
 30
0.0
 10
95.9528774964529
 20
224.623690786259
 30
0.0
 10
96.23850707503838
 20
224.6639777507944
 30
0.0
 10
96.44327995909507
 20
224.6860695018813
 30
0.0
 10
96.56633678846963
 20
224.6973092745616
 30
0.0
 10
96.68953340332651
 20
224.7065409732667
 30
0.0
 10
96.81287150883114
 20
224.713715588254
 30
0.0
 10
96.93634764119916
 20
224.7190166317978
 30
0.0
 10
97.01873364424989
 20
224.7208438907195
 30
0.0
 10
97.05993869526341
 20
224.7217577874288
 30
0.0
  0
SPLINE
  5
11E
330
1F
100
AcDbEntity
  8
0
  6
Continuous
 62
     7
370
    15
100
AcDbSpline
210
0.0
220
0.0
230
1.0
 70
     8
 71
     3
 72
    59
 73
    55
 74
     0
 42
0.000000001
 43
0.00000001
 40
0.0
 40
0.0
 40
0.0
 40
0.0
 40
0.0031279247281852
 40
0.0062546160217922
 40
0.0093803748860792
 40
0.0125055025957326
 40
0.0156303006079963
 40
0.0187550704755343
 40
0.0218801137591587
 40
0.0250057319405437
 40
0.0281322263350546
 40
0.0312598980048175
 40
0.0468876385711512
 40
0.062516785779045
 40
0.0781445263452644
 40
0.0937736735532721
 40
0.1094014141208103
 40
0.1250305613275029
 40
0.1562780237601256
 40
0.1875254861927483
 40
0.2187729486253711
 40
0.2500204110579938
 40
0.2812678734906162
 40
0.3125153359232389
 40
0.3437627983558617
 40
0.3750102607884844
 40
0.406257723221107
 40
0.4375051856537296
 40
0.4687526480863523
 40
0.5000001105189751
 40
0.5312475729515977
 40
0.5624950353842203
 40
0.593742497816843
 40
0.6249899602494656
 40
0.6562374226820882
 40
0.6874848851147108
 40
0.7187323475473336
 40
0.7499798099799563
 40
0.781227272412579
 40
0.8124747348452016
 40
0.8437221972778243
 40
0.8749696597104469
 40
0.8905973651575082
 40
0.9062265475695296
 40
0.9218542529242508
 40
0.9374834352588729
 40
0.9531111054933141
 40
0.9687403230330716
 40
0.9739519510245565
 40
0.9791610453192643
 40
0.9843690012911415
 40
0.9895772152290657
 40
0.9947870832145034
 40
1.0
 40
1.0
 40
1.0
 40
1.0
 10
97.05993869526341
 20
224.7217577874288
 30
0.0
 10
97.08466619228525
 20
224.7221192361812
 30
0.0
 10
97.13411143553488
 20
224.7228419911558
 30
0.0
 10
97.20827601133652
 20
224.7230038568487
 30
0.0
 10
97.28241598508212
 20
224.7224900816028
 30
0.0
 10
97.35653250792289
 20
224.7212345515678
 30
0.0
 10
97.4306252706952
 20
224.719254974224
 30
0.0
 10
97.50469434693335
 20
224.7165466078853
 30
0.0
 10
97.57873973916956
 20
224.7131107163166
 30
0.0
 10
97.65276135132126
 20
224.7089469862144
 30
0.0
 10
97.72675955295118
 20
224.7040554080544
 30
0.0
 10
97.89926562538588
 20
224.6909517212137
 30
0.0
 10
98.16973741372124
 20
224.6623873554078
 30
0.0
 10
98.53614758365295
 20
224.6053610600613
 30
0.0
 10
98.89934370611911
 20
224.5304530622101
 30
0.0
 10
99.25840382650924
 20
224.4377869071079
 30
0.0
 10
99.61251295883659
 20
224.3276362461194
 30
0.0
 10
100.0767535732227
 20
224.1577948736377
 30
0.0
 10
100.6406319857574
 20
223.9030648625863
 30
0.0
 10
101.2838896343952
 20
223.5326052363505
 30
0.0
 10
101.8877738183604
 20
223.100867815212
 30
0.0
 10
102.446422984834
 20
222.6120213773054
 30
0.0
 10
102.954469313853
 20
222.0707708575297
 30
0.0
 10
103.4070167519574
 20
221.4823295776251
 30
0.0
 10
103.7997079013725
 20
220.852364338892
 30
0.0
 10
104.1287606954809
 20
220.1869421071958
 30
0.0
 10
104.3910062392818
 20
219.4924712473146
 30
0.0
 10
104.5839189478717
 20
218.775639897303
 30
0.0
 10
104.7056409709599
 20
218.0433515338411
 30
0.0
 10
104.7550000576833
 20
217.3026584944623
 30
0.0
 10
104.7315208534674
 20
216.5606940579858
 30
0.0
 10
104.6354294754729
 20
215.8246037474658
 30
0.0
 10
104.4676513374291
 20
215.1014765153068
 30
0.0
 10
104.2298022300116
 20
214.3982764708197
 30
0.0
 10
103.9241727869589
 20
213.7217758194596
 30
0.0
 10
103.5537063241418
 20
213.0784896150744
 30
0.0
 10
103.1219708702621
 20
212.4746131198005
 30
0.0
 10
102.6331233999017
 20
211.915961754309
 30
0.0
 10
102.0918750426823
 20
211.4079165326706
 30
0.0
 10
101.5034261450063
 20
210.955366864062
 30
0.0
 10
100.8734892148026
 20
210.5626835292828
 30
0.0
 10
100.3188544595562
 20
210.2884347259909
 30
0.0
 10
99.8608245204683
 20
210.102493931436
 30
0.0
 10
99.510786302255
 20
209.9800551752505
 30
0.0
 10
99.15516817294835
 20
209.8749104329918
 30
0.0
 10
98.79481932733191
 20
209.7873747691903
 30
0.0
 10
98.43061063447884
 20
209.7175919271443
 30
0.0
 10
98.1449810462134
 20
209.6773050195431
 30
0.0
 10
97.94020788633235
 20
209.6552132324506
 30
0.0
 10
97.81715105681478
 20
209.6439734607587
 30
0.0
 10
97.69395444199813
 20
209.6347417617889
 30
0.0
 10
97.57061633648193
 20
209.6275671468725
 30
0.0
 10
97.44714020411342
 20
209.62226610331
 30
0.0
 10
97.36475420105945
 20
209.6204388443907
 30
0.0
 10
97.32354915004395
 20
209.6195249476826
 30
0.0
  0
SPLINE
  5
11F
330
1F
100
AcDbEntity
  8
0
  6
Continuous
 62
     7
370
    15
100
AcDbSpline
210
0.0
220
0.0
230
1.0
 70
     8
 71
     3
 72
    22
 73
    18
 74
     0
 42
0.000000001
 43
0.00000001
 40
0.0
 40
0.0
 40
0.0
 40
0.0
 40
0.1249999999999999
 40
0.1249999999999999
 40
0.2499999999999999
 40
0.2499999999999999
 40
0.3749999999999998
 40
0.3749999999999998
 40
0.4999999999999998
 40
0.4999999999999998
 40
0.6249999999999998
 40
0.6249999999999998
 40
0.7499999999999998
 40
0.7499999999999998
 40
0.8749999999999998
 40
0.8749999999999998
 40
1.0
 40
1.0
 40
1.0
 40
1.0
 10
97.19765447096715
 20
216.8320262814628
 30
0.0
 10
97.1533298598478
 20
216.8312525924977
 30
0.0
 10
97.10886885281815
 20
216.839292452277
 30
0.0
 10
97.02637549492135
 20
216.8717874501212
 30
0.0
 10
96.9883756016679
 20
216.8962298027921
 30
0.0
 10
96.92459697404864
 20
216.9578201075566
 30
0.0
 10
96.89884333384931
 20
216.9949438264954
 30
0.0
 10
96.8634891544079
 20
217.0762528725973
 30
0.0
 10
96.85390252552573
 20
217.1204062081229
 30
0.0
 10
96.85235514759572
 20
217.2090554303616
 30
0.0
 10
96.86039500737499
 20
217.2535164373913
 30
0.0
 10
96.89289000521919
 20
217.336009795288
 30
0.0
 10
96.91733235789005
 20
217.3740096885415
 30
0.0
 10
96.97892266265455
 20
217.4377883161608
 30
0.0
 10
97.01604638159333
 20
217.4635419563601
 30
0.0
 10
97.09735542769528
 20
217.4988961358015
 30
0.0
 10
97.14150876322088
 20
217.5084827646837
 30
0.0
 10
97.18583337434022
 20
217.5092564536487
 30
0.0
  0
SPLINE
  5
120
330
1F
100
AcDbEntity
  8
0
  6
Continuous
 62
     7
370
    15
100
AcDbSpline
210
0.0
220
0.0
230
1.0
 70
     8
 71
     3
 72
    22
 73
    18
 74
     0
 42
0.000000001
 43
0.00000001
 40
0.0
 40
0.0
 40
0.0
 40
0.0
 40
0.125
 40
0.125
 40
0.25
 40
0.25
 40
0.375
 40
0.375
 40
0.5
 40
0.5
 40
0.625
 40
0.625
 40
0.75
 40
0.75
 40
0.875
 40
0.875
 40
1.0
 40
1.0
 40
1.0
 40
1.0
 10
97.18583337434022
 20
217.5092564536487
 30
0.0
 10
97.23015798545957
 20
217.5100301426137
 30
0.0
 10
97.27461899248921
 20
217.5019902828344
 30
0.0
 10
97.357112350386
 20
217.4694952849902
 30
0.0
 10
97.39511224363947
 20
217.4450529323194
 30
0.0
 10
97.45889087125873
 20
217.3834626275548
 30
0.0
 10
97.48464451145807
 20
217.3463389086161
 30
0.0
 10
97.51999869089947
 20
217.2650298625142
 30
0.0
 10
97.52958531978163
 20
217.2208765269885
 30
0.0
 10
97.53113269771166
 20
217.1322273047498
 30
0.0
 10
97.52309283793238
 20
217.0877662977202
 30
0.0
 10
97.49059784008818
 20
217.0052729398234
 30
0.0
 10
97.46615548741732
 20
216.9672730465699
 30
0.0
 10
97.4045651826528
 20
216.9034944189507
 30
0.0
 10
97.36744146371404
 20
216.8777407787514
 30
0.0
 10
97.2861324176121
 20
216.8423865993099
 30
0.0
 10
97.2419790820865
 20
216.8327999704278
 30
0.0
 10
97.19765447096715
 20
216.8320262814628
 30
0.0
  0
LINE
  5
121
330
1F
100
AcDbEntity
  8
0
  6
Continuous
 62
     7
370
    15
100
AcDbLine
 10
89.645899684
 20
216.0905192956
 30
0.0
 11
88.5323879546
 21
216.0897159544
 31
0.0
  0
ARC
  5
122
330
1F
100
AcDbEntity
  8
0
  6
Continuous
 62
     7
370
    15
100
AcDbCircle
 10
88.5317007752
 20
217.0422157065
 30
0.0
 40
0.9524999999999961
100
AcDbArc
 50
90.0413359371
 51
270.0413359371
  0
LINE
  5
123
330
1F
100
AcDbEntity
  8
0
  6
Continuous
 62
     7
370
    15
100
AcDbLine
 10
88.5310135959
 20
217.9947154587
 30
0.0
 11
89.6197154227
 21
217.9955009008
 31
0.0
  0
LINE
  5
124
330
1F
100
AcDbEntity
  8
0
  6
Continuous
 62
     7
370
    15
100
AcDbLine
 10
105.7818424398
 20
218.0071610403
 30
0.0
 11
104.7725190379
 21
218.0064328656
 31
0.0
  0
LWPOLYLINE
  5
125
330
1F
100
AcDbEntity
  8
0
  6
Continuous
 62
     7
370
    15
100
AcDbPolyline
 90
        3
 70
   128
 43
0.0
 10
105.7818424398
 20
218.0071610403
 10
105.9308546893
 20
217.9955416863
 10
106.0491625967
 20
217.9690808337
  0
LWPOLYLINE
  5
126
330
1F
100
AcDbEntity
  8
0
  6
Continuous
 62
     7
370
    15
100
AcDbPolyline
 90
        3
 70
   128
 43
0.0
 10
106.0502438881
 20
216.1405577272
 10
105.9322121273
 20
216.1139958871
 10
105.7832167985
 20
216.1021615361
  0
LINE
  5
127
330
1F
100
AcDbEntity
  8
0
  6
Continuous
 62
     7
370
    15
100
AcDbLine
 10
104.7371847919
 20
216.101406878
 30
0.0
 11
105.7832167985
 21
216.1021615361
 31
0.0
  0
SPLINE
  5
128
330
1F
100
AcDbEntity
  8
0
  6
Continuous
 62
     7
370
    15
100
AcDbSpline
210
0.0
220
0.0
230
1.0
 70
     8
 71
     3
 72
    10
 73
     6
 74
     0
 42
0.000000001
 43
0.00000001
 40
0.0
 40
0.0
 40
0.0
 40
0.0
 40
0.2751796954954336
 40
0.7269568833035371
 40
1.0
 40
1.0
 40
1.0
 40
1.0
 10
215.3999836737821
 20
94.86481707193951
 30
0.0
 10
215.366507115522
 20
94.87174056406687
 30
0.0
 10
215.2780703054855
 20
94.89003072261006
 30
0.0
 10
215.1521683651791
 20
94.89017208658264
 30
0.0
 10
215.063934443998
 20
94.87222206413986
 30
0.0
 10
215.0306963232005
 20
94.86546020876402
 30
0.0
  0
SPLINE
  5
129
330
1F
100
AcDbEntity
  8
0
  6
Continuous
 62
     7
370
    15
100
AcDbSpline
210
0.0
220
0.0
230
1.0
 70
     8
 71
     3
 72
    26
 73
    22
 74
     0
 42
0.000000001
 43
0.00000001
 40
0.0
 40
0.0
 40
0.0
 40
0.0
 40
0.0595426029732193
 40
0.1210996282428392
 40
0.18428752626574
 40
0.2486388278716536
 40
0.3136108730147215
 40
0.3786007765188817
 40
0.4429657705668131
 40
0.5060471457296738
 40
0.5671953474277245
 40
0.6257935625267651
 40
0.6812774180117026
 40
0.7331491261121893
 40
0.7809853480892728
 40
0.8244389758378077
 40
0.8633554063929024
 40
0.8993208175428229
 40
0.9328567411482735
 40
0.9639328620786103
 40
1.0
 40
1.0
 40
1.0
 40
1.0
 10
216.1641798676132
 20
85.30888329968295
 30
0.0
 10
216.1641741563224
 20
85.56186874882674
 30
0.0
 10
216.1641625405187
 20
86.07639855290572
 30
0.0
 10
216.1640806494298
 20
86.85344416978774
 30
0.0
 10
216.1639474133564
 20
87.63796872874927
 30
0.0
 10
216.1637567329727
 20
88.4165180419307
 30
0.0
 10
216.1635108996583
 20
89.17480230643598
 30
0.0
 10
216.1632131092562
 20
89.8986591935067
 30
0.0
 10
216.1628695632904
 20
90.5750985447915
 30
0.0
 10
216.1624884806752
 20
91.19328594127468
 30
0.0
 10
216.1620800541144
 20
91.745310160435
 30
0.0
 10
216.1616544768706
 20
92.22663871491012
 30
0.0
 10
216.1612255138329
 20
92.63615714000562
 30
0.0
 10
216.1607950675165
 20
92.97600737003465
 30
0.0
 10
216.1604022450892
 20
93.25065100708626
 30
0.0
 10
216.1599591512584
 20
93.46764314475307
 30
0.0
 10
216.1597758588524
 20
93.63495275880426
 30
0.0
 10
216.1584962580204
 20
93.77271387848374
 30
0.0
 10
216.1553439026839
 20
93.8901671208743
 30
0.0
 10
216.1506073783218
 20
94.00004453733786
 30
0.0
 10
216.141447798294
 20
94.07229028932149
 30
0.0
 10
216.1365275748522
 20
94.11109831779062
 30
0.0
  0
LINE
  5
12A
330
1F
100
AcDbEntity
  8
0
  6
Continuous
 62
     7
370
    15
100
AcDbLine
 10
216.1725563469
 20
75.5722299663
 30
0.0
 11
216.1725563469
 21
85.3088832997
 31
0.0
  0
LINE
  5
12B
330
1F
100
AcDbEntity
  8
0
  6
Continuous
 62
     7
370
    15
100
AcDbLine
 10
214.2675563469
 20
85.3088832997
 30
0.0
 11
214.2675563469
 21
75.5722299663
 31
0.0
  0
LINE
  5
12C
330
1F
100
AcDbEntity
  8
0
  6
Continuous
 62
     7
370
    15
100
AcDbLine
 10
214.3733896802
 20
75.5722299663
 30
0.0
 11
214.3733896802
 21
42.7437838561
 31
0.0
  0
LINE
  5
12D
330
1F
100
AcDbEntity
  8
0
  6
Continuous
 62
     7
370
    15
100
AcDbLine
 10
216.0667230136
 20
42.7437838561
 30
0.0
 11
216.0667230136
 21
75.5722299663
 31
0.0
  0
SPLINE
  5
12E
330
1F
100
AcDbEntity
  8
0
  6
Continuous
 62
     7
370
    15
100
AcDbSpline
210
0.0
220
0.0
230
1.0
 70
     8
 71
     3
 72
    21
 73
    17
 74
     0
 42
0.000000001
 43
0.00000001
 40
0.0
 40
0.0
 40
0.0
 40
0.0
 40
0.0405406017706026
 40
0.1175903134981184
 40
0.1946457208088133
 40
0.271701197860764
 40
0.3487567859199459
 40
0.4258125302768193
 40
0.5028684804536213
 40
0.5799246918028208
 40
0.6569812274522873
 40
0.7340381607386061
 40
0.8110955783222141
 40
0.8881535842572713
 40
0.9652123054068951
 40
1.0
 40
1.0
 40
1.0
 40
1.0
 10
214.3609440986071
 20
42.74378385610468
 30
0.0
 10
214.3609445217361
 20
42.66903492067271
 30
0.0
 10
214.3609457490459
 20
42.45222139627482
 30
0.0
 10
214.3609593873957
 20
42.09364116864707
 30
0.0
 10
214.3609899706945
 20
41.66939752168042
 30
0.0
 10
214.3610358424845
 20
41.24776092289678
 30
0.0
 10
214.361096628811
 20
40.82977683906842
 30
0.0
 10
214.3611722517708
 20
40.41646404083038
 30
0.0
 10
214.3612625069987
 20
40.00883035824879
 30
0.0
 10
214.3613671840205
 20
39.60787514094646
 30
0.0
 10
214.3614860093694
 20
39.21455925473101
 30
0.0
 10
214.3616187570753
 20
38.82990802021724
 30
0.0
 10
214.3617648674444
 20
38.45461506968508
 30
0.0
 10
214.3619248658676
 20
38.09050986589724
 30
0.0
 10
214.362063950235
 20
37.80006408265027
 30
0.0
 10
214.3621540475744
 20
37.63591466895787
 30
0.0
 10
214.3621820706335
 20
37.5848591243233
 30
0.0
  0
SPLINE
  5
12F
330
1F
100
AcDbEntity
  8
0
  6
Continuous
 62
     7
370
    15
100
AcDbSpline
210
0.0
220
0.0
230
1.0
 70
     8
 71
     3
 72
    85
 73
    81
 74
     0
 42
0.000000001
 43
0.00000001
 40
0.0
 40
0.0
 40
0.0
 40
0.0
 40
0.0168068389497529
 40
0.0365876067350863
 40
0.0563699643280556
 40
0.0761545322640372
 40
0.095942271641297
 40
0.1157347387058281
 40
0.1355345942032227
 40
0.1553467085814402
 40
0.1751808231864891
 40
0.1950589184345069
 40
0.215040146933771
 40
0.2353378173546124
 40
0.2463637678402114
 40
0.2508449121159027
 40
0.2543722256576911
 40
0.2563351161785979
 40
0.2580600782771915
 40
0.2603977708862671
 40
0.2634378835007871
 40
0.2677774724282671
 40
0.2732991850269956
 40
0.2784256676292879
 40
0.283624697216675
 40
0.289125544153722
 40
0.2947914040455082
 40
0.3005563252459925
 40
0.3063797537560032
 40
0.3122361657087257
 40
0.3185769728973077
 40
0.3246161373970391
 40
0.3303793114071961
 40
0.3358955080013168
 40
0.3411774938191299
 40
0.3462267116177709
 40
0.3510351158698818
 40
0.3555851867106614
 40
0.3598483135626524
 40
0.3637801705369803
 40
0.3673055580359967
 40
0.3702675269648267
 40
0.3724619114539306
 40
0.3741183773653515
 40
0.3755791538893544
 40
0.3772890420341742
 40
0.3798567167929321
 40
0.3837547130790237
 40
0.3904609944618536
 40
0.4043045196275482
 40
0.4238256464232075
 40
0.4446695697769794
 40
0.464771647248947
 40
0.4846893945255258
 40
0.5045404174329102
 40
0.5243608529129553
 40
0.5441652034991457
 40
0.5639602624358587
 40
0.5837495684675196
 40
0.6035351165065901
 40
0.6233181025295712
 40
0.6430992799472692
 40
0.6628791431728812
 40
0.6826580280144615
 40
0.7024361693760701
 40
0.7222137358443164
 40
0.7419908511804565
 40
0.7617676081004967
 40
0.7815440773575282
 40
0.8013203138764374
 40
0.8210963609901812
 40
0.8408722534249471
 40
0.8606480194436303
 40
0.8804236824129646
 40
0.9001992619698332
 40
0.9199747749052724
 40
0.9397502358479092
 40
0.959525657804328
 40
0.9793010525976945
 40
1.0
 40
1.0
 40
1.0
 40
1.0
 10
214.3634125005052
 20
35.86636223572282
 30
0.0
 10
214.3634823884825
 20
35.79420238630153
 30
0.0
 10
214.3636345309428
 20
35.63711417949578
 30
0.0
 10
214.3638796047177
 20
35.41590927439469
 30
0.0
 10
214.3641447580438
 20
35.19919252004683
 30
0.0
 10
214.3644176224794
 20
35.0013192017506
 30
0.0
 10
214.3646972523019
 20
34.82218058786825
 30
0.0
 10
214.3649831343868
 20
34.6623533100882
 30
0.0
 10
214.3652746076826
 20
34.52216032989536
 30
0.0
 10
214.3655714419588
 20
34.40190918700797
 30
0.0
 10
214.365872552318
 20
34.30181403519242
 30
0.0
 10
214.3661818315297
 20
34.22192029145197
 30
0.0
 10
214.366490415251
 20
34.16204846481232
 30
0.0
 10
214.366800851795
 20
34.12756790412936
 30
0.0
 10
214.3670133566465
 20
34.10985123713071
 30
0.0
 10
214.3674227733242
 20
34.09429110418605
 30
0.0
 10
214.3679347110263
 20
34.07896607605942
 30
0.0
 10
214.3696034410278
 20
34.05187804042653
 30
0.0
 10
214.3730155825291
 20
34.01624740481884
 30
0.0
 10
214.3800287052263
 20
33.96761713307272
 30
0.0
 10
214.3945145743391
 20
33.90000787896555
 30
0.0
 10
214.422295387907
 20
33.81158719018732
 30
0.0
 10
214.4673060146162
 20
33.7134544021574
 30
0.0
 10
214.5284756543706
 20
33.61709285832526
 30
0.0
 10
214.6016730416307
 20
33.52967409373557
 30
0.0
 10
214.6889823314444
 20
33.4503634955179
 30
0.0
 10
214.7900530235542
 20
33.38192973598078
 30
0.0
 10
214.9020931451259
 20
33.32786741826495
 30
0.0
 10
215.0221907464133
 20
33.2904622261334
 30
0.0
 10
215.1506060226811
 20
33.27063855870928
 30
0.0
 10
215.2822016979163
 20
33.27093435751437
 30
0.0
 10
215.4113852636992
 20
33.29178333975796
 30
0.0
 10
215.5302863874775
 20
33.32991706779072
 30
0.0
 10
215.6375617736997
 20
33.38227259321097
 30
0.0
 10
215.7323471135912
 20
33.44595382349612
 30
0.0
 10
215.8141107885084
 20
33.51812488839933
 30
0.0
 10
215.8826886322834
 20
33.5959850045007
 30
0.0
 10
215.9382932998804
 20
33.67675287471708
 30
0.0
 10
215.9815091431841
 20
33.75763183431643
 30
0.0
 10
216.013262448824
 20
33.8356647971536
 30
0.0
 10
216.0347473533127
 20
33.90723804192289
 30
0.0
 10
216.0475912225415
 20
33.96765786020165
 30
0.0
 10
216.0543741848304
 20
34.01422746548435
 30
0.0
 10
216.0575580618106
 20
34.04618358975253
 30
0.0
 10
216.0590288412849
 20
34.06699814123088
 30
0.0
 10
216.0598177316191
 20
34.08231925684052
 30
0.0
 10
216.06026052025
 20
34.09453781799272
 30
0.0
 10
216.0605437751952
 20
34.10569980441333
 30
0.0
 10
216.0607774932492
 20
34.11949305434467
 30
0.0
 10
216.061017025393
 20
34.14199588152891
 30
0.0
 10
216.061310278169
 20
34.18563375888396
 30
0.0
 10
216.0616243259609
 20
34.25476816139489
 30
0.0
 10
216.0619353930945
 20
34.34589210729461
 30
0.0
 10
216.0622366371876
 20
34.45622136016637
 30
0.0
 10
216.0625317466604
 20
34.58633178758312
 30
0.0
 10
216.0628210469137
 20
34.73613573636197
 30
0.0
 10
216.063104248977
 20
34.90535910462299
 30
0.0
 10
216.0633808423719
 20
35.09363411496727
 30
0.0
 10
216.0636502481514
 20
35.30052695971085
 30
0.0
 10
216.0639118620671
 20
35.52554847639833
 30
0.0
 10
216.0641650777626
 20
35.76815979084057
 30
0.0
 10
216.0644092974113
 20
36.0277758272954
 30
0.0
 10
216.0646439381985
 20
36.30376794573934
 30
0.0
 10
216.0648684364023
 20
36.59546617642043
 30
0.0
 10
216.0650822503259
 20
36.9021612845053
 30
0.0
 10
216.065284862548
 20
37.22310677495416
 30
0.0
 10
216.0654757817677
 20
37.55752089561783
 30
0.0
 10
216.0656545443749
 20
37.90458866870035
 30
0.0
 10
216.0658207158331
 20
38.26346396628846
 30
0.0
 10
216.065973891891
 20
38.63327163748551
 30
0.0
 10
216.0661136997447
 20
39.01310968971094
 30
0.0
 10
216.0662397988035
 20
39.40205152451631
 30
0.0
 10
216.0663518824201
 20
39.79914822373011
 30
0.0
 10
216.0664496755438
 20
40.20343089054352
 30
0.0
 10
216.066532947129
 20
40.61391301193944
 30
0.0
 10
216.066601467035
 20
41.02959294780832
 30
0.0
 10
216.0666551696437
 20
41.44945613100687
 30
0.0
 10
216.066693545563
 20
41.87247850549755
 30
0.0
 10
216.0667182930651
 20
42.30424401184664
 30
0.0
 10
216.0667214163081
 20
42.59505861707774
 30
0.0
 10
216.0667230135631
 20
42.74378385610446
 30
0.0
  0
SPLINE
  5
130
330
1F
100
AcDbEntity
  8
0
  6
Continuous
 62
     7
370
    15
100
AcDbSpline
210
0.0
220
0.0
230
1.0
 70
     8
 71
     3
 72
    40
 73
    36
 74
     0
 42
0.000000001
 43
0.00000001
 40
0.0
 40
0.0
 40
0.0
 40
0.0
 40
0.0170008200929697
 40
0.0493118350853142
 40
0.0816252103297204
 40
0.1139385515193049
 40
0.1462518400639132
 40
0.178565056474476
 40
0.2108781792813996
 40
0.2431911843227907
 40
0.2755040438701424
 40
0.3078167255259511
 40
0.3401291908026778
 40
0.3724413932551452
 40
0.4047532759814868
 40
0.4370647682204609
 40
0.4693757806358768
 40
0.5016861986604595
 40
0.53399587291362
 40
0.5663046051073476
 40
0.5986121268175393
 40
0.6309180666475364
 40
0.6632218978851427
 40
0.6955228521436548
 40
0.7278197710930567
 40
0.7601108397420091
 40
0.7923930792832606
 40
0.8246613158597549
 40
0.8569059026234592
 40
0.8891071313122406
 40
0.921219506746313
 40
0.9531184345738805
 40
0.9800239960891812
 40
0.9962079729852348
 40
1.0
 40
1.0
 40
1.0
 40
1.0
 10
214.3733896802297
 20
42.74378385610446
 30
0.0
 10
214.3733892571606
 20
42.6690455084298
 30
0.0
 10
214.3733880300248
 20
42.45226272648595
 30
0.0
 10
214.3733743936173
 20
42.09373356371274
 30
0.0
 10
214.3733438147321
 20
41.66955119233466
 30
0.0
 10
214.3732979497669
 20
41.24797706049893
 30
0.0
 10
214.3732371727868
 20
40.83005734914731
 30
0.0
 10
214.373161562369
 20
40.41681113806117
 30
0.0
 10
214.3730713221127
 20
40.0092482060294
 30
0.0
 10
214.3729666676292
 20
39.60836392719547
 30
0.0
 10
214.3728478561817
 20
39.21513755921946
 30
0.0
 10
214.3727151779985
 20
38.83052967301064
 30
0.0
 10
214.372568957757
 20
38.45547987161783
 30
0.0
 10
214.3724095532483
 20
38.09090449909727
 30
0.0
 10
214.3722373547114
 20
37.73769442808217
 30
0.0
 10
214.3720527839107
 20
37.39671291126346
 30
0.0
 10
214.3718562932184
 20
37.06879351044666
 30
0.0
 10
214.371648364653
 20
36.75473811038284
 30
0.0
 10
214.3714295089169
 20
36.45531502837326
 30
0.0
 10
214.3712002644621
 20
36.17125723253437
 30
0.0
 10
214.3709611966781
 20
35.9032606881449
 30
0.0
 10
214.3707128972177
 20
35.65198285409971
 30
0.0
 10
214.3704559840146
 20
35.41804138832042
 30
0.0
 10
214.3701911010583
 20
35.20201306850941
 30
0.0
 10
214.3699189235591
 20
35.0044332911692
 30
0.0
 10
214.369640151806
 20
34.82579550076399
 30
0.0
 10
214.3693555653144
 20
34.66655434503561
 30
0.0
 10
214.3690658917292
 20
34.52712128946168
 30
0.0
 10
214.3687724611262
 20
34.40790132825376
 30
0.0
 10
214.3684751855677
 20
34.30920630903285
 30
0.0
 10
214.3681812729887
 20
34.23170579122324
 30
0.0
 10
214.3678909832781
 20
34.17770801269187
 30
0.0
 10
214.3677008260851
 20
34.15108106182662
 30
0.0
 10
214.367534543888
 20
34.13969378503634
 30
0.0
 10
214.3675682091456
 20
34.14126643440274
 30
0.0
 10
214.3675745997915
 20
34.14156496903001
 30
0.0
  0
LINE
  5
131
330
1F
100
AcDbEntity
  8
0
  6
Continuous
 62
     7
370
    15
100
AcDbLine
 10
222.9560364263
 20
175.0081322781
 30
0.0
 11
222.9560364263
 21
177.5482994772
 31
0.0
  0
LINE
  5
132
330
1F
100
AcDbEntity
  8
0
  6
Continuous
 62
     7
370
    15
100
AcDbLine
 10
207.7160364263
 20
177.5482994772
 30
0.0
 11
207.7160364263
 21
175.0081322781
 31
0.0
  0
SPLINE
  5
133
330
1F
100
AcDbEntity
  8
0
  6
Continuous
 62
     7
370
    15
100
AcDbSpline
210
0.0
220
0.0
230
1.0
 70
     8
 71
     3
 72
    12
 73
     8
 74
     0
 42
0.000000001
 43
0.00000001
 40
0.0
 40
0.0
 40
0.0
 40
0.0
 40
0.080898970105284
 40
0.3296356536741444
 40
0.6264602335586258
 40
0.908027013891444
 40
1.0
 40
1.0
 40
1.0
 40
1.0
 10
215.1510787191628
 20
95.00148017111492
 30
0.0
 10
215.1590932702562
 20
95.00186154629291
 30
0.0
 10
215.1917498267632
 20
95.0034155197975
 30
0.0
 10
215.256154343083
 20
94.98635201721876
 30
0.0
 10
215.3424972980422
 20
94.94541825309366
 30
0.0
 10
215.4117260776146
 20
94.89802570812884
 30
0.0
 10
215.4483759460541
 20
94.85636251179858
 30
0.0
 10
215.457399879096
 20
94.84610419683032
 30
0.0
  0
SPLINE
  5
134
330
1F
100
AcDbEntity
  8
0
  6
Continuous
 62
     7
370
    15
100
AcDbSpline
210
0.0
220
0.0
230
1.0
 70
     8
 71
     3
 72
    12
 73
     8
 74
     0
 42
0.000000001
 43
0.00000001
 40
0.0
 40
0.0
 40
0.0
 40
0.0
 40
0.040357550314977
 40
0.3444205388235769
 40
0.6123697839590975
 40
0.8617844688076712
 40
1.0
 40
1.0
 40
1.0
 40
1.0
 10
214.8423297231117
 20
94.87050058132763
 30
0.0
 10
214.8461142151046
 20
94.87460032183459
 30
0.0
 10
214.8784119329097
 20
94.90958844235786
 30
0.0
 10
214.9385119714627
 20
94.94722727405998
 30
0.0
 10
215.0173749274765
 20
94.98470730317987
 30
0.0
 10
215.0771234244484
 20
95.00160914667555
 30
0.0
 10
215.1128515862539
 20
95.00111697072444
 30
0.0
 10
215.1255910133112
 20
95.0009414777992
 30
0.0
  0
SPLINE
  5
135
330
1F
100
AcDbEntity
  8
0
  6
Continuous
 62
     7
370
    15
100
AcDbSpline
210
0.0
220
0.0
230
1.0
 70
     8
 71
     3
 72
    17
 73
    13
 74
     0
 42
0.000000001
 43
0.00000001
 40
0.0
 40
0.0
 40
0.0
 40
0.0
 40
0.0322007983684541
 40
0.169688601595833
 40
0.3028083533867587
 40
0.3892841478857156
 40
0.4739966180679825
 40
0.5624211084853151
 40
0.6460567496659029
 40
0.7465898299416595
 40
0.8644429670153814
 40
1.0
 40
1.0
 40
1.0
 40
1.0
 10
216.1604697177213
 20
93.18844204929866
 30
0.0
 10
216.1679504038241
 20
93.20889335718535
 30
0.0
 10
216.2073713880255
 20
93.31666564892761
 30
0.0
 10
216.2434953605351
 20
93.53072816648397
 30
0.0
 10
216.2648103272269
 20
93.78548471061872
 30
0.0
 10
216.2588931358571
 20
94.00444223955992
 30
0.0
 10
216.2399348754309
 20
94.1890372246707
 30
0.0
 10
216.2070048876463
 20
94.36748836642403
 30
0.0
 10
216.1568181027608
 20
94.55121719081491
 30
0.0
 10
216.0832183807092
 20
94.74382604707031
 30
0.0
 10
215.9752907907853
 20
94.95282722633844
 30
0.0
 10
215.876334271456
 20
95.07406538329985
 30
0.0
 10
215.823399331427
 20
95.1389194688262
 30
0.0
  0
SPLINE
  5
136
330
1F
100
AcDbEntity
  8
0
  6
Continuous
 62
     7
370
    15
100
AcDbSpline
210
0.0
220
0.0
230
1.0
 70
     8
 71
     3
 72
     9
 73
     5
 74
     0
 42
0.000000001
 43
0.00000001
 40
0.0
 40
0.0
 40
0.0
 40
0.0
 40
0.87462901189893
 40
1.0
 40
1.0
 40
1.0
 40
1.0
 10
215.1376897369657
 20
95.4694361904211
 30
0.0
 10
215.1017747210545
 20
95.46954878128183
 30
0.0
 10
215.0607115783705
 20
95.46967751113095
 30
0.0
 10
215.0202258642828
 20
95.4608324128298
 30
0.0
 10
215.0151501303037
 20
95.45972349411593
 30
0.0
  0
SPLINE
  5
137
330
1F
100
AcDbEntity
  8
0
  6
Continuous
 62
     7
370
    15
100
AcDbSpline
210
0.0
220
0.0
230
1.0
 70
     8
 71
     3
 72
    10
 73
     6
 74
     0
 42
0.000000001
 43
0.00000001
 40
0.0
 40
0.0
 40
0.0
 40
0.0
 40
0.4008880969258629
 40
0.7653849464054915
 40
1.0
 40
1.0
 40
1.0
 40
1.0
 10
215.823399331427
 20
95.1389194688262
 30
0.0
 10
215.7873369487364
 20
95.17562769890684
 30
0.0
 10
215.7184858028565
 20
95.24571191175419
 30
0.0
 10
215.6203088612722
 20
95.31987538242562
 30
0.0
 10
215.558137990795
 20
95.3536235867354
 30
0.0
 10
215.5337915839982
 20
95.3668395430905
 30
0.0
  0
SPLINE
  5
138
330
1F
100
AcDbEntity
  8
0
  6
Continuous
 62
     7
370
    15
100
AcDbSpline
210
0.0
220
0.0
230
1.0
 70
     8
 71
     3
 72
    14
 73
    10
 74
     0
 42
0.000000001
 43
0.00000001
 40
0.0
 40
0.0
 40
0.0
 40
0.0
 40
0.0459464719936705
 40
0.164638133596951
 40
0.3102570187468953
 40
0.4503197901705254
 40
0.6202267610386814
 40
0.8196149825522533
 40
1.0
 40
1.0
 40
1.0
 40
1.0
 10
214.5031630036753
 20
94.5670594569212
 30
0.0
 10
214.5101869319549
 20
94.57976278501097
 30
0.0
 10
214.535355489894
 20
94.62528210643913
 30
0.0
 10
214.5891395734531
 20
94.70166733442764
 30
0.0
 10
214.6656983320825
 20
94.79036627107972
 30
0.0
 10
214.7579441961117
 20
94.8718988123363
 30
0.0
 10
214.8668364614781
 20
94.94129344753533
 30
0.0
 10
214.989816388175
 20
94.99181950538745
 30
0.0
 10
215.0773491058126
 20
94.99731666484048
 30
0.0
 10
215.1189254708074
 20
94.99992771033321
 30
0.0
  0
SPLINE
  5
139
330
1F
100
AcDbEntity
  8
0
  6
Continuous
 62
     7
370
    15
100
AcDbSpline
210
0.0
220
0.0
230
1.0
 70
     8
 71
     3
 72
    12
 73
     8
 74
     0
 42
0.000000001
 43
0.00000001
 40
0.0
 40
0.0
 40
0.0
 40
0.0
 40
0.1173875816223663
 40
0.4395171139315011
 40
0.6555906973701507
 40
0.9261248964338286
 40
1.0
 40
1.0
 40
1.0
 40
1.0
 10
213.9722128853661
 20
93.19269372157744
 30
0.0
 10
213.9791952923608
 20
93.1696779666323
 30
0.0
 10
214.0053384953147
 20
93.08350344928871
 30
0.0
 10
214.0637474968103
 20
92.96608935657491
 30
0.0
 10
214.1435976603904
 20
92.82859597801465
 30
0.0
 10
214.2044856410166
 20
92.73710200408085
 30
0.0
 10
214.248645053741
 20
92.68927966281919
 30
0.0
 10
214.2581171590632
 20
92.67902186668388
 30
0.0
  0
SPLINE
  5
13A
330
1F
100
AcDbEntity
  8
0
  6
Continuous
 62
     7
370
    15
100
AcDbSpline
210
0.0
220
0.0
230
1.0
 70
     8
 71
     3
 72
    18
 73
    14
 74
     0
 42
0.000000001
 43
0.00000001
 40
0.0
 40
0.0
 40
0.0
 40
0.0
 40
0.0948525685749708
 40
0.1967452932897711
 40
0.2904501642925112
 40
0.3759697993401715
 40
0.4753467343655242
 40
0.5558804923857189
 40
0.6194047696821212
 40
0.6912344082287846
 40
0.779837344722105
 40
0.8795827535502956
 40
1.0
 40
1.0
 40
1.0
 40
1.0
 10
215.1375730244656
 20
95.46813919966539
 30
0.0
 10
215.0827772267207
 20
95.46638193050225
 30
0.0
 10
214.9691185724498
 20
95.46273696398121
 30
0.0
 10
214.8050294437176
 20
95.41931933526045
 30
0.0
 10
214.6526385009785
 20
95.35496220566519
 30
0.0
 10
214.5103326439546
 20
95.26883203036539
 30
0.0
 10
214.3845418613016
 20
95.16742472581058
 30
0.0
 10
214.2790192880751
 20
95.05826760761279
 30
0.0
 10
214.1938189509891
 20
94.95145931968975
 30
0.0
 10
214.1140817529903
 20
94.83198506461508
 30
0.0
 10
214.0339760776106
 20
94.68176710166902
 30
0.0
 10
213.9540412404911
 20
94.49110355633934
 30
0.0
 10
213.9205593722255
 20
94.34369625173872
 30
0.0
 10
213.9022465735475
 20
94.26307230711843
 30
0.0
  0
LINE
  5
13B
330
1F
100
AcDbEntity
  8
0
  6
Continuous
 62
     7
370
    15
100
AcDbLine
 10
211.0862203482
 20
72.3422362906
 30
0.0
 11
211.0862203482
 21
88.8523332235
 31
0.0
  0
LINE
  5
13C
330
1F
100
AcDbEntity
  8
0
  6
Continuous
 62
     7
370
    15
100
AcDbLine
 10
209.1812203482
 20
88.8523332235
 30
0.0
 11
209.1812203482
 21
72.3422362906
 31
0.0
  0
LINE
  5
13D
330
1F
100
AcDbEntity
  8
0
  6
Continuous
 62
     7
370
    15
100
AcDbLine
 10
221.2462177042
 20
72.3422362906
 30
0.0
 11
221.2462177042
 21
88.8523198902
 31
0.0
  0
LINE
  5
13E
330
1F
100
AcDbEntity
  8
0
  6
Continuous
 62
     7
370
    15
100
AcDbLine
 10
219.3412177042
 20
88.8523198902
 30
0.0
 11
219.3412177042
 21
72.3422362906
 31
0.0
  0
LINE
  5
13F
330
1F
100
AcDbEntity
  8
0
  6
Continuous
 62
     7
370
    15
100
AcDbLine
 10
215.1161559125
 20
94.8805852317
 30
0.0
 11
214.7581255221
 21
94.8673994538
 31
0.0
  0
SPLINE
  5
140
330
1F
100
AcDbEntity
  8
0
  6
Continuous
 62
     7
370
    15
100
AcDbSpline
210
0.0
220
0.0
230
1.0
 70
     8
 71
     3
 72
    26
 73
    22
 74
     0
 42
0.000000001
 43
0.00000001
 40
0.0
 40
0.0
 40
0.0
 40
0.0
 40
0.007628474643442
 40
0.0413908133449577
 40
0.0765962509409906
 40
0.1133638037219639
 40
0.1714338357014797
 40
0.2326046563151146
 40
0.2939051022204416
 40
0.3545067001968222
 40
0.4023341766672526
 40
0.4494569380458323
 40
0.495774899016334
 40
0.5459627886830171
 40
0.6044653657698452
 40
0.6592889516957745
 40
0.7192700915462765
 40
0.7839562615917608
 40
0.8527778943281071
 40
0.9250525016210732
 40
1.0
 40
1.0
 40
1.0
 40
1.0
 10
214.0882966718927
 20
94.77749638812112
 30
0.0
 10
214.0673792790044
 20
94.77397398079404
 30
0.0
 10
213.9538850425849
 20
94.75486199432038
 30
0.0
 10
213.7465664904612
 20
94.70517545618453
 30
0.0
 10
213.4628638062561
 20
94.62800830756001
 30
0.0
 10
213.1194651792111
 20
94.51421123584034
 30
0.0
 10
212.7169056384186
 20
94.35141880150923
 30
0.0
 10
212.2681732798265
 20
94.12506905065426
 30
0.0
 10
211.8341785279157
 20
93.8579344794026
 30
0.0
 10
211.4540968786387
 20
93.57724572385636
 30
0.0
 10
211.1261812371081
 20
93.29478188034591
 30
0.0
 10
210.8458409303053
 20
93.0192640836428
 30
0.0
 10
210.5795098549313
 20
92.7213358946887
 30
0.0
 10
210.3141253339639
 20
92.38131569408004
 30
0.0
 10
210.0618213852729
 20
92.00249679245367
 30
0.0
 10
209.8266936991749
 20
91.58137197631139
 30
0.0
 10
209.6185473443731
 20
91.12718054225948
 30
0.0
 10
209.4368638638457
 20
90.61997063692661
 30
0.0
 10
209.295266895379
 20
90.06493763875767
 30
0.0
 10
209.199681231226
 20
89.47033613433933
 30
0.0
 10
209.1874480094757
 20
89.06081256232117
 30
0.0
 10
209.1812203484657
 20
88.85233322350254
 30
0.0
  0
SPLINE
  5
141
330
1F
100
AcDbEntity
  8
0
  6
Continuous
 62
     7
370
    15
100
AcDbSpline
210
0.0
220
0.0
230
1.0
 70
     8
 71
     3
 72
    23
 73
    19
 74
     0
 42
0.000000001
 43
0.00000001
 40
0.0
 40
0.0
 40
0.0
 40
0.0
 40
0.079553720844655
 40
0.156283025325685
 40
0.2293565194932507
 40
0.2980467936354219
 40
0.3617469317901113
 40
0.4199750018633819
 40
0.4821172352297041
 40
0.5354358669297457
 40
0.5846079319117184
 40
0.6346334921527301
 40
0.6854055882567779
 40
0.7713336783883601
 40
0.8583168809275852
 40
0.9413077801661847
 40
0.9879358923783466
 40
1.0
 40
1.0
 40
1.0
 40
1.0
 10
211.0862203479961
 20
88.85233322350254
 30
0.0
 10
211.0905116185353
 20
88.99547966706464
 30
0.0
 10
211.0989418055238
 20
89.27669038891362
 30
0.0
 10
211.1648169169121
 20
89.68498767189304
 30
0.0
 10
211.262416884703
 20
90.06610935086451
 30
0.0
 10
211.3876610549623
 20
90.41435515983582
 30
0.0
 10
211.5311568331973
 20
90.72614024752033
 30
0.0
 10
211.6932614224736
 20
91.01515625678289
 30
0.0
 10
211.867215649567
 20
91.27505682954306
 30
0.0
 10
212.050149404471
 20
91.50818760568158
 30
0.0
 10
212.2336750371053
 20
91.71230856877155
 30
0.0
 10
212.4267787510938
 20
91.90090913496778
 30
0.0
 10
212.6821151940386
 20
92.11940382753846
 30
0.0
 10
213.0107038621258
 20
92.35301048806748
 30
0.0
 10
213.4141468229866
 20
92.57681199655103
 30
0.0
 10
213.7750572810741
 20
92.72501367794214
 30
0.0
 10
214.0171295453541
 20
92.80563736438334
 30
0.0
 10
214.1195571256925
 20
92.83121239801098
 30
0.0
 10
214.14061097842
 20
92.83646931211278
 30
0.0
  0
SPLINE
  5
142
330
1F
100
AcDbEntity
  8
0
  6
Continuous
 62
     7
370
    15
100
AcDbSpline
210
0.0
220
0.0
230
1.0
 70
     8
 71
     3
 72
    27
 73
    23
 74
     0
 42
0.000000001
 43
0.00000001
 40
0.0
 40
0.0
 40
0.0
 40
0.0
 40
0.0722676363060315
 40
0.1419580482979377
 40
0.2083190208657419
 40
0.2706924472478917
 40
0.3285291081287266
 40
0.3813926482158566
 40
0.4289543068796168
 40
0.4709808915824872
 40
0.5084344669246682
 40
0.5459343026726264
 40
0.5839517393470764
 40
0.6224294844615704
 40
0.700485783141351
 40
0.7795082392729331
 40
0.8548975568665929
 40
0.8903504216743702
 40
0.9242970152156305
 40
0.9568520569352059
 40
0.9948059634564163
 40
1.0
 40
1.0
 40
1.0
 40
1.0
 10
221.2462177039197
 20
88.8523198901692
 30
0.0
 10
221.2399901640744
 20
89.06080498653279
 30
0.0
 10
221.2277571722772
 20
89.47034013797528
 30
0.0
 10
221.1321673353816
 20
90.06495871811148
 30
0.0
 10
220.9905636274996
 20
90.62000733838173
 30
0.0
 10
220.8088697597457
 20
91.12723257108743
 30
0.0
 10
220.6007147761932
 20
91.58143267116634
 30
0.0
 10
220.3780169829031
 20
91.98027839412231
 30
0.0
 10
220.1523071156408
 20
92.32386315167962
 30
0.0
 10
219.9317909740018
 20
92.61667416341396
 30
0.0
 10
219.7137399377528
 20
92.87425622446892
 30
0.0
 10
219.4901024007919
 20
93.11133935180584
 30
0.0
 10
219.2518072202355
 20
93.33801477858611
 30
0.0
 10
218.9124116233896
 20
93.62713479897693
 30
0.0
 10
218.4530671564841
 20
93.95645633351036
 30
0.0
 10
217.8665820260797
 20
94.28393394938024
 30
0.0
 10
217.3609204741092
 20
94.49690309931525
 30
0.0
 10
216.9643181579571
 20
94.62774820890569
 30
0.0
 10
216.6808430048429
 20
94.70637196786781
 30
0.0
 10
216.3867190915725
 20
94.77112848871631
 30
0.0
 10
216.1720311640589
 20
94.81267179235442
 30
0.0
 10
216.0483086870584
 20
94.82592276916668
 30
0.0
 10
216.033415298842
 20
94.82751788710077
 30
0.0
  0
LINE
  5
143
330
1F
100
AcDbEntity
  8
0
  6
Continuous
 62
     7
370
    15
100
AcDbLine
 10
215.4298644087
 20
94.8762175555
 30
0.0
 11
215.3208730568
 21
94.8802270169
 31
0.0
  0
SPLINE
  5
144
330
1F
100
AcDbEntity
  8
0
  6
Continuous
 62
     7
370
    15
100
AcDbSpline
210
0.0
220
0.0
230
1.0
 70
     8
 71
     3
 72
    23
 73
    19
 74
     0
 42
0.000000001
 43
0.00000001
 40
0.0
 40
0.0
 40
0.0
 40
0.0
 40
0.0337821000806242
 40
0.0793851762201425
 40
0.1605516708735671
 40
0.2456227078536024
 40
0.3296618322522233
 40
0.3793178020726923
 40
0.4282436478294044
 40
0.4763347609332734
 40
0.5284812848034377
 40
0.5892574401458055
 40
0.6462054761331468
 40
0.7085052843217203
 40
0.7756855250344799
 40
0.8471526219180847
 40
0.9221951535024753
 40
1.0
 40
1.0
 40
1.0
 40
1.0
 10
216.1693181392455
 20
92.86646809406615
 30
0.0
 10
216.2296873849616
 20
92.85173935210038
 30
0.0
 10
216.3715501820643
 20
92.81712801137071
 30
0.0
 10
216.6525854415024
 20
92.72574790636888
 30
0.0
 10
217.0132245467666
 20
92.57655551234672
 30
0.0
 10
217.4167573798163
 20
92.35307793445914
 30
0.0
 10
217.7453244135692
 20
92.11939005671375
 30
0.0
 10
218.0006645395521
 20
91.90090701386687
 30
0.0
 10
218.1937676507182
 20
91.71230304812718
 30
0.0
 10
218.3772935321476
 20
91.5081820211798
 30
0.0
 10
218.5602271933589
 20
91.27505016944572
 30
0.0
 10
218.7341812863028
 20
91.01514873332007
 30
0.0
 10
218.89628557822
 20
90.72613171627576
 30
0.0
 10
219.0397809137324
 20
90.4143456261858
 30
0.0
 10
219.1650244415777
 20
90.0660987752325
 30
0.0
 10
219.2626235440081
 20
89.68497607724052
 30
0.0
 10
219.3284975733149
 20
89.27667784359654
 30
0.0
 10
219.3369268814957
 20
88.99546659290151
 30
0.0
 10
219.3412177043893
 20
88.8523198901692
 30
0.0
  0
LINE
  5
145
330
1F
100
AcDbEntity
  8
0
  6
Continuous
 62
     7
370
    15
100
AcDbLine
 10
215.1570948593
 20
95.0013780182
 30
0.0
 11
215.1883112065
 21
94.9990893888
 31
0.0
  0
SPLINE
  5
146
330
1F
100
AcDbEntity
  8
0
  6
Continuous
 62
     7
370
    15
100
AcDbSpline
210
0.0
220
0.0
230
1.0
 70
     8
 71
     3
 72
    13
 73
     9
 74
     0
 42
0.000000001
 43
0.00000001
 40
0.0
 40
0.0
 40
0.0
 40
0.0
 40
0.0806529689669338
 40
0.2611033052514036
 40
0.483084669492635
 40
0.6965699846666462
 40
0.9541481507369723
 40
1.0
 40
1.0
 40
1.0
 40
1.0
 10
216.1729236461742
 20
94.80620296835751
 30
0.0
 10
216.1611727720372
 20
94.82697086439687
 30
0.0
 10
216.123130873319
 20
94.8942041772984
 30
0.0
 10
216.0406078140947
 20
95.00786084840794
 30
0.0
 10
215.9240030233626
 20
95.13899887363159
 30
0.0
 10
215.775611810258
 20
95.26111934503497
 30
0.0
 10
215.6575024228626
 20
95.34232262275005
 30
0.0
 10
215.5818622442164
 20
95.36849020547719
 30
0.0
 10
215.5704321222961
 20
95.37244443544176
 30
0.0
  0
LINE
  5
147
330
1F
100
AcDbEntity
  8
0
  6
Continuous
 62
     7
370
    15
100
AcDbLine
 10
209.2870536816
 20
72.3425205007
 30
0.0
 11
209.2870536816
 21
41.7292501491
 31
0.0
  0
LINE
  5
148
330
1F
100
AcDbEntity
  8
0
  6
Continuous
 62
     7
370
    15
100
AcDbLine
 10
210.9803870149
 20
41.7292501491
 30
0.0
 11
210.9803870149
 21
72.3425205007
 31
0.0
  0
LINE
  5
149
330
1F
100
AcDbEntity
  8
0
  6
Continuous
 62
     7
370
    15
100
AcDbLine
 10
219.4470510375
 20
72.3425205007
 30
0.0
 11
219.4470510375
 21
41.7292501491
 31
0.0
  0
LINE
  5
14A
330
1F
100
AcDbEntity
  8
0
  6
Continuous
 62
     7
370
    15
100
AcDbLine
 10
221.1403843708
 20
41.7292501491
 30
0.0
 11
221.1403843708
 21
72.3425205007
 31
0.0
  0
SPLINE
  5
14B
330
1F
100
AcDbEntity
  8
0
  6
Continuous
 62
     7
370
    15
100
AcDbSpline
210
0.0
220
0.0
230
1.0
 70
     8
 71
     3
 72
    32
 73
    28
 74
     0
 42
0.000000001
 43
0.00000001
 40
0.0
 40
0.0
 40
0.0
 40
0.0
 40
0.0237391615613221
 40
0.0655195336975059
 40
0.107304094346407
 40
0.1490886562236749
 40
0.1908732180749647
 40
0.2326577798861654
 40
0.2744423416440815
 40
0.3162269033362899
 40
0.3580114649513026
 40
0.3997960264787109
 40
0.4415805879093775
 40
0.4833651492355047
 40
0.5251497104508052
 40
0.5669342715505464
 40
0.6087188325316616
 40
0.6505033933927408
 40
0.6922879541341037
 40
0.734072514757743
 40
0.7758570752673608
 40
0.8176416356682493
 40
0.8594261959672407
 40
0.9012107561726137
 40
0.9429953162940204
 40
0.9847798763422417
 40
1.0
 40
1.0
 40
1.0
 40
1.0
 10
209.2870536815641
 20
41.72925014914566
 30
0.0
 10
209.2877341080841
 20
41.66234528689325
 30
0.0
 10
209.2896120694512
 20
41.47768942339314
 30
0.0
 10
209.3096201815374
 20
41.17569982920655
 30
0.0
 10
209.3528525932107
 20
40.82491091943706
 30
0.0
 10
209.4172102765871
 20
40.477318222609
 30
0.0
 10
209.5020836292438
 20
40.13417524790673
 30
0.0
 10
209.6072727657971
 20
39.79669943157175
 30
0.0
 10
209.7323766876054
 20
39.46609035956502
 30
0.0
 10
209.8769581821873
 20
39.14352260581659
 30
0.0
 10
210.0405015736476
 20
38.83014233663749
 30
0.0
 10
210.2224262919325
 20
38.52706302969726
 30
0.0
 10
210.4220857908193
 20
38.2353615739009
 30
0.0
 10
210.63877068767
 20
37.95607442663675
 30
0.0
 10
210.8717110589352
 20
37.69019394047016
 30
0.0
 10
211.1200792334965
 20
37.43866481603954
 30
0.0
 10
211.3829927278034
 20
37.20238082051626
 30
0.0
 10
211.6595173466017
 20
36.98218133255259
 30
0.0
 10
211.9486706474564
 20
36.77884940217818
 30
0.0
 10
212.2494248856464
 20
36.59310507853546
 30
0.0
 10
212.5607127042006
 20
36.42561736899323
 30
0.0
 10
212.8814233190352
 20
36.27694768181792
 30
0.0
 10
213.2104348568052
 20
36.14775003484223
 30
0.0
 10
213.5465123841591
 20
36.03801409815554
 30
0.0
 10
213.8887077322928
 20
35.94988156132105
 30
0.0
 10
214.1615261734982
 20
35.89254550553463
 30
0.0
 10
214.3208684637121
 20
35.87187990505065
 30
0.0
 10
214.3634125005053
 20
35.86636223572282
 30
0.0
  0
SPLINE
  5
14C
330
1F
100
AcDbEntity
  8
0
  6
Continuous
 62
     7
370
    15
100
AcDbSpline
210
0.0
220
0.0
230
1.0
 70
     8
 71
     3
 72
    32
 73
    28
 74
     0
 42
0.000000001
 43
0.00000001
 40
0.0
 40
0.0
 40
0.0
 40
0.0
 40
0.0335802808021928
 40
0.0753656110345877
 40
0.1171509412979594
 40
0.1589362716059635
 40
0.2007216019715928
 40
0.2425069324070787
 40
0.2842922629235885
 40
0.3260775935311757
 40
0.3678629242386022
 40
0.4096482550532206
 40
0.4514335859808403
 40
0.4932189170256771
 40
0.5350042481902653
 40
0.5767895794754802
 40
0.6185749108804351
 40
0.6603602424025776
 40
0.7021455740376624
 40
0.7439309057798753
 40
0.7857162376218499
 40
0.827501569554827
 40
0.8692869015687392
 40
0.9110722336523769
 40
0.9528575657935271
 40
0.9924458696316837
 40
1.0
 40
1.0
 40
1.0
 40
1.0
 10
216.0642525841687
 20
35.86561004363743
 30
0.0
 10
216.1578382236706
 20
35.87983456976075
 30
0.0
 10
216.3678763393929
 20
35.91175926119722
 30
0.0
 10
216.6898787254431
 20
35.98613776898394
 30
0.0
 10
217.0295381640496
 20
36.08380539311779
 30
0.0
 10
217.3626520563611
 20
36.20215547413752
 30
0.0
 10
217.6881555667715
 20
36.33997712401807
 30
0.0
 10
218.0048603089061
 20
36.49699242152041
 30
0.0
 10
218.3116495106182
 20
36.67258672164719
 30
0.0
 10
218.6074308191613
 20
36.86615131672207
 30
0.0
 10
218.8911538915328
 20
37.07699436863832
 30
0.0
 10
219.1618104531776
 20
37.30436781222176
 30
0.0
 10
219.4184388647674
 20
37.54746346315314
 30
0.0
 10
219.6601272754531
 20
37.80541764465656
 30
0.0
 10
219.8860169329598
 20
38.07731378597033
 30
0.0
 10
220.09530521785
 20
38.36218580516558
 30
0.0
 10
220.2872484932482
 20
38.65902150764655
 30
0.0
 10
220.4611647725225
 20
38.96676619304554
 30
0.0
 10
220.6164360428803
 20
39.28432639518851
 30
0.0
 10
220.7525108342607
 20
39.61057378708885
 30
0.0
 10
220.8689047864034
 20
39.94434911861759
 30
0.0
 10
220.9652075664131
 20
40.28446660151978
 30
0.0
 10
221.0410649328925
 20
40.62971713002936
 30
0.0
 10
221.0962523734347
 20
40.97887628164737
 30
0.0
 10
221.1298071976361
 20
41.32452875981563
 30
0.0
 10
221.1398556980019
 20
41.57510514774855
 30
0.0
 10
221.1403113559356
 20
41.70796121728622
 30
0.0
 10
221.140384370821
 20
41.72925014914566
 30
0.0
  0
SPLINE
  5
14D
330
1F
100
AcDbEntity
  8
0
  6
Continuous
 62
     7
370
    15
100
AcDbSpline
210
0.0
220
0.0
230
1.0
 70
     8
 71
     3
 72
    27
 73
    23
 74
     0
 42
0.000000001
 43
0.00000001
 40
0.0
 40
0.0
 40
0.0
 40
0.0
 40
0.0247574678764164
 40
0.0763101645358387
 40
0.1278710813164672
 40
0.1794320015482615
 40
0.2309929218711295
 40
0.2825538423293197
 40
0.3341147629658009
 40
0.3856756838200027
 40
0.4372366049270127
 40
0.4887975263169115
 40
0.5403584480141531
 40
0.591919370037072
 40
0.6434802923975766
 40
0.695041215100786
 40
0.7466021381450725
 40
0.7981630615220179
 40
0.8497239852165819
 40
0.9012849092074178
 40
0.9528458334672986
 40
1.0
 40
1.0
 40
1.0
 40
1.0
 10
219.4470510374877
 20
41.72925014914566
 30
0.0
 10
219.4465597563641
 20
41.68146136558602
 30
0.0
 10
219.4450454761653
 20
41.53416157084899
 30
0.0
 10
219.4273253379299
 20
41.28770651386662
 30
0.0
 10
219.3859386235264
 20
40.99181568342325
 30
0.0
 10
219.3235259983204
 20
40.69956981575078
 30
0.0
 10
219.2407416918155
 20
40.41244803108693
 30
0.0
 10
219.1379059861092
 20
40.13187601283367
 30
0.0
 10
219.015554951407
 20
39.85925013303434
 30
0.0
 10
218.8742906404903
 20
39.59592635990755
 30
0.0
 10
218.7148175213579
 20
39.34321461889667
 30
0.0
 10
218.5379284032216
 20
39.10237200462247
 30
0.0
 10
218.3445033440522
 20
38.87459650918861
 30
0.0
 10
218.135504437324
 20
38.66102140840695
 30
0.0
 10
217.9119715168534
 20
38.46270826070982
 30
0.0
 10
217.6750158570286
 20
38.2806467358399
 30
0.0
 10
217.4258186630757
 20
38.11573061826849
 30
0.0
 10
217.1656102497139
 20
37.96882454605416
 30
0.0
 10
216.8957196850888
 20
37.8404940436802
 30
0.0
 10
216.6173600689303
 20
37.73199418837178
 30
0.0
 10
216.3405174278633
 20
37.64413940610696
 30
0.0
 10
216.1543935219607
 20
37.60298892035044
 30
0.0
 10
216.0654859640161
 20
37.58333218050766
 30
0.0
  0
SPLINE
  5
14E
330
1F
100
AcDbEntity
  8
0
  6
Continuous
 62
     7
370
    15
100
AcDbSpline
210
0.0
220
0.0
230
1.0
 70
     8
 71
     3
 72
    28
 73
    24
 74
     0
 42
0.000000001
 43
0.00000001
 40
0.0
 40
0.0
 40
0.0
 40
0.0
 40
0.0175561093294567
 40
0.0691175561478785
 40
0.1206790028285671
 40
0.1722404493288742
 40
0.2238018956097234
 40
0.2753633416363852
 40
0.3269247873792859
 40
0.3784862328143664
 40
0.430047677923739
 40
0.4816091226960098
 40
0.5331705671264403
 40
0.5847320112171047
 40
0.6362934549768428
 40
0.6878548984210539
 40
0.7394163415714005
 40
0.7909777844553997
 40
0.8425392271058603
 40
0.894100669560234
 40
0.9456621118598623
 40
0.9945119510871603
 40
0.9999999999999999
 40
0.9999999999999999
 40
0.9999999999999999
 40
0.9999999999999999
 10
214.3621820706336
 20
37.5848591243233
 30
0.0
 10
214.3288577511925
 20
37.59104513258642
 30
0.0
 10
214.1976615119327
 20
37.61539914892531
 30
0.0
 10
213.9731338494129
 20
37.67904139864818
 30
0.0
 10
213.6904524811789
 20
37.77544896475539
 30
0.0
 10
213.4156316119335
 20
37.89294861627673
 30
0.0
 10
213.1496792968414
 20
38.02914997312183
 30
0.0
 10
212.8940146898237
 20
38.18385940027697
 30
0.0
 10
212.6498837951384
 20
38.35617765262437
 30
0.0
 10
212.418507926476
 20
38.54528228998823
 30
0.0
 10
212.2010361916674
 20
38.75022331937912
 30
0.0
 10
211.9985508792243
 20
38.96998377449684
 30
0.0
 10
211.8120591038765
 20
39.20346980809001
 30
0.0
 10
211.6424885769725
 20
39.4495201451786
 30
0.0
 10
211.4906828415892
 20
39.70691077828063
 30
0.0
 10
211.3573968965213
 20
39.97436136990194
 30
0.0
 10
211.2432943102406
 20
40.25054144781487
 30
0.0
 10
211.1489406214219
 20
40.53407740419235
 30
0.0
 10
211.0748128505786
 20
40.82355797887041
 30
0.0
 10
211.0212511263946
 20
41.11754629721842
 30
0.0
 10
210.9892005408813
 20
41.40936152649251
 30
0.0
 10
210.9806676138569
 20
41.61377380882905
 30
0.0
 10
210.9804127552517
 20
41.71865708808968
 30
0.0
 10
210.9803870148975
 20
41.72925014914566
 30
0.0
  0
LINE
  5
14F
330
1F
100
AcDbEntity
  8
0
  6
Continuous
 62
     7
370
    15
100
AcDbLine
 10
215.7932364263
 20
174.8557322781
 30
0.0
 11
215.7932364263
 21
175.0082994772
 31
0.0
  0
LINE
  5
150
330
1F
100
AcDbEntity
  8
0
  6
Continuous
 62
     7
370
    15
100
AcDbLine
 10
214.8788364263
 20
175.0082994772
 30
0.0
 11
214.8788364263
 21
174.8557322781
 31
0.0
  0
LINE
  5
151
330
1F
100
AcDbEntity
  8
0
  6
Continuous
 62
     7
370
    15
100
AcDbLine
 10
215.147098789
 20
174.8601711594
 30
0.0
 11
215.147098789
 21
95.3982354598
 31
0.0
  0
LINE
  5
152
330
1F
100
AcDbEntity
  8
0
  6
Continuous
 62
     7
370
    15
100
AcDbLine
 10
215.5704321223
 20
95.3459812386
 30
0.0
 11
215.5704321223
 21
174.8601711594
 31
0.0
  0
LINE
  5
153
330
1F
100
AcDbEntity
  8
0
  6
Continuous
 62
     7
370
    15
100
AcDbLine
 10
214.2551107653
 20
85.308896633
 30
0.0
 11
214.2551107653
 21
75.5722299663
 31
0.0
  0
LINE
  5
154
330
1F
100
AcDbEntity
  8
0
  6
Continuous
 62
     7
370
    15
100
AcDbLine
 10
214.3609440986
 20
75.5722299663
 30
0.0
 11
214.3609440986
 21
42.7437838561
 31
0.0
  0
SPLINE
  5
155
330
1F
100
AcDbEntity
  8
0
  6
Continuous
 62
     7
370
    15
100
AcDbSpline
210
0.0
220
0.0
230
1.0
 70
     8
 71
     3
 72
    12
 73
     8
 74
     0
 42
0.000000001
 43
0.00000001
 40
0.0
 40
0.0
 40
0.0
 40
0.0
 40
0.2636547451425156
 40
0.4612223376323611
 40
0.6045970814647513
 40
0.7491715349656252
 40
1.0
 40
1.0
 40
1.0
 40
1.0
 10
215.4501391757439
 20
94.8540756715665
 30
0.0
 10
215.4375198776042
 20
94.85843386245995
 30
0.0
 10
215.4154444084745
 20
94.86605782913891
 30
0.0
 10
215.3859495259036
 20
94.87114545273633
 30
0.0
 10
215.3623456623878
 20
94.8751863854988
 30
0.0
 10
215.3361588235
 20
94.87891037757404
 30
0.0
 10
215.3171821407805
 20
94.88073664974469
 30
0.0
 10
215.3051440601926
 20
94.88189516685176
 30
0.0
  0
SPLINE
  5
156
330
1F
100
AcDbEntity
  8
0
  6
Continuous
 62
     7
370
    15
100
AcDbSpline
210
0.0
220
0.0
230
1.0
 70
     8
 71
     3
 72
    16
 73
    12
 74
     0
 42
0.000000001
 43
0.00000001
 40
0.0
 40
0.0
 40
0.0
 40
0.0
 40
0.3101323387975799
 40
0.5839531320685142
 40
0.7037339960711965
 40
0.7107487634260146
 40
0.7132492348991939
 40
0.7184544846061107
 40
0.7366601824319021
 40
0.8894359117123125
 40
1.0
 40
1.0
 40
1.0
 40
1.0
 10
215.2903730579309
 20
94.88299199689271
 30
0.0
 10
215.2860375935862
 20
94.88330906040831
 30
0.0
 10
215.2778742785547
 20
94.88390606436384
 30
0.0
 10
215.2686304484026
 20
94.88428499225704
 30
0.0
 10
215.2636020097518
 20
94.88446106948528
 30
0.0
 10
215.2620490285337
 20
94.88450788393034
 30
0.0
 10
215.261868395282
 20
94.88451341565336
 30
0.0
 10
215.2615436217567
 20
94.8845235188422
 30
0.0
 10
215.2593778287812
 20
94.88458835060295
 30
0.0
 10
215.2560049661895
 20
94.88467476371136
 30
0.0
 10
215.2538374856457
 20
94.8846779784234
 30
0.0
 10
215.2529274618125
 20
94.88467932813083
 30
0.0
  0
SPLINE
  5
157
330
1F
100
AcDbEntity
  8
0
  6
Continuous
 62
     7
370
    15
100
AcDbSpline
210
0.0
220
0.0
230
1.0
 70
     8
 71
     3
 72
    23
 73
    19
 74
     0
 42
0.000000001
 43
0.00000001
 40
0.0
 40
0.0
 40
0.0
 40
0.0
 40
0.1122002374841376
 40
0.2499367222976453
 40
0.330859323074891
 40
0.407883596614068
 40
0.4765623616088236
 40
0.5438927637573769
 40
0.6100068348215036
 40
0.6776400822226858
 40
0.7486927064687428
 40
0.8098328292608438
 40
0.850814892694884
 40
0.9009347567999224
 40
0.9531138949860793
 40
0.9708789227636455
 40
0.9962010930732119
 40
1.0
 40
1.0
 40
1.0
 40
1.0
 10
216.1670768912908
 20
93.87250537021927
 30
0.0
 10
216.1638401233694
 20
93.93234221340192
 30
0.0
 10
216.1566299143426
 20
94.06563448437262
 30
0.0
 10
216.1019801852244
 20
94.23567997768421
 30
0.0
 10
216.0305582950336
 20
94.37535978154735
 30
0.0
 10
215.9637037316431
 20
94.47367713980209
 30
0.0
 10
215.8932443481872
 20
94.55668145953594
 30
0.0
 10
215.8220179420977
 20
94.62605006273357
 30
0.0
 10
215.7497088203679
 20
94.68522330019466
 30
0.0
 10
215.6775479461351
 20
94.73530297294089
 30
0.0
 10
215.6116868239477
 20
94.77423725905648
 30
0.0
 10
215.5608458760499
 20
94.80048760517776
 30
0.0
 10
215.5217535537418
 20
94.81901097770772
 30
0.0
 10
215.4905242922208
 20
94.83289982152677
 30
0.0
 10
215.4708922055602
 20
94.84143324063744
 30
0.0
 10
215.4618217999172
 20
94.84601831536543
 30
0.0
 10
215.4579829244911
 20
94.8480463941286
 30
0.0
 10
215.4592940680526
 20
94.84823418975671
 30
0.0
 10
215.4594651095398
 20
94.84825868809884
 30
0.0
  0
LWPOLYLINE
  5
158
330
1F
100
AcDbEntity
  8
0
  6
Continuous
 62
     7
370
    15
100
AcDbPolyline
 90
       28
 70
   128
 43
0.0
 10
216.172556099
 20
85.3088832997
 10
216.1725471153
 20
85.7722020468
 10
216.1725201896
 20
86.2341830075
 10
216.1724753996
 20
86.6934922387
 10
216.1724128747
 20
87.1488035121
 10
216.1723327954
 20
87.5988021429
 10
216.1722353929
 20
88.0421887867
 10
216.1721209486
 20
88.4776831903
 10
216.1719897927
 20
88.9040278893
 10
216.1718423041
 20
89.3199918383
 10
216.1716789085
 20
89.7243739659
 10
216.1715000779
 20
90.1160066423
 10
216.1713063285
 20
90.4937590511
 10
216.1710982198
 20
90.8565404545
 10
216.1708763528
 20
91.2033033423
 10
216.1706413679
 20
91.5330464571
 10
216.1703939438
 20
91.844817685
 10
216.1701347948
 20
92.1377168047
 10
216.1698646692
 20
92.4108980874
 10
216.1695843471
 20
92.663572738
 10
216.1692946378
 20
92.8950111734
 10
216.1689963778
 20
93.1045451285
 10
216.1686904283
 20
93.2915695864
 10
216.1683776728
 20
93.455544525
 10
216.1680590143
 20
93.5959964761
 10
216.167735373
 20
93.7125198931
 10
216.1674076832
 20
93.8047783214
 10
216.1670768913
 20
93.8725053702
  0
LINE
  5
159
330
1F
100
AcDbEntity
  8
0
  6
Continuous
 62
     7
370
    15
100
AcDbLine
 10
216.172556099
 20
85.3088832997
 30
0.0
 11
216.1641920539
 21
85.3088832997
 31
0.0
  0
LWPOLYLINE
  5
15A
330
1F
100
AcDbEntity
  8
0
  6
Continuous
 62
     7
370
    15
100
AcDbPolyline
 90
       29
 70
   128
 43
0.0
 10
214.2619437643
 20
93.8927701406
 10
214.2622684733
 20
93.8364554409
 10
214.2625905975
 20
93.7565582473
 10
214.2629092462
 20
93.6532995109
 10
214.263223538
 20
93.5269647878
 10
214.2635326039
 20
93.3779034494
 10
214.2638355892
 20
93.2065277163
 10
214.2641316559
 20
93.0133115184
 10
214.2644199853
 20
92.7987891839
 10
214.26469978
 20
92.563553962
 10
214.2649702663
 20
92.3082563824
 10
214.2652306962
 20
92.0336024557
 10
214.2654803495
 20
91.7403517219
 10
214.2657185357
 20
91.4293151488
 10
214.2659445962
 20
91.1013528905
 10
214.2661579059
 20
90.7573719077
 10
214.2663578747
 20
90.3983234601
 10
214.2665439498
 20
90.0252004757
 10
214.2667156165
 20
89.6390348046
 10
214.2668724001
 20
89.240894366
 10
214.2670138671
 20
88.8318801944
 10
214.2671396261
 20
88.4131233951
 10
214.2672493295
 20
87.9857820161
 10
214.2673426738
 20
87.5510378453
 10
214.267419401
 20
87.1100931431
 10
214.2674792988
 20
86.6641673166
 10
214.2675222015
 20
86.2144935482
 10
214.2675479906
 20
85.7623153849
 10
214.2675565948
 20
85.3088832997
  0
SPLINE
  5
15B
330
1F
100
AcDbEntity
  8
0
  6
Continuous
 62
     7
370
    15
100
AcDbSpline
210
0.0
220
0.0
230
1.0
 70
     8
 71
     3
 72
    21
 73
    17
 74
     0
 42
0.000000001
 43
0.00000001
 40
0.0
 40
0.0
 40
0.0
 40
0.0
 40
0.012340621864065
 40
0.0235526824599123
 40
0.0330463329650036
 40
0.0402058076681172
 40
0.0443986379156691
 40
0.121813449884576
 40
0.1864849668051569
 40
0.2603986901329704
 40
0.3283691945955087
 40
0.5071223684179166
 40
0.6616764114758
 40
0.8400996560681119
 40
0.9950385441569675
 40
1.0
 40
1.0
 40
1.0
 40
1.0
 10
214.4766644091884
 20
94.52059034354167
 30
0.0
 10
214.4759447449328
 20
94.51953100027225
 30
0.0
 10
214.4745712303826
 20
94.5175091916539
 30
0.0
 10
214.4722755119556
 20
94.51420171743948
 30
0.0
 10
214.4701916213366
 20
94.51121428496401
 30
0.0
 10
214.4685341172857
 20
94.5088456639285
 30
0.0
 10
214.4612233388666
 20
94.49840790434446
 30
0.0
 10
214.4471480117359
 20
94.47813426534897
 30
0.0
 10
214.4246623276854
 20
94.44360877227409
 30
0.0
 10
214.4027121508248
 20
94.40720459074838
 30
0.0
 10
214.3692333927976
 20
94.34628957206152
 30
0.0
 10
214.3303337181783
 20
94.26134992853626
 30
0.0
 10
214.2915471280698
 20
94.14236469329913
 30
0.0
 10
214.2677374611092
 20
94.02138149845493
 30
0.0
 10
214.2619987225262
 20
93.9348671832818
 30
0.0
 10
214.2619454182453
 20
93.89403703573275
 30
0.0
 10
214.2619437642974
 20
93.89277014055824
 30
0.0
  0
SPLINE
  5
15C
330
1F
100
AcDbEntity
  8
0
  6
Continuous
 62
     7
370
    15
100
AcDbSpline
210
0.0
220
0.0
230
1.0
 70
     8
 71
     3
 72
    13
 73
     9
 74
     0
 42
0.000000001
 43
0.00000001
 40
0.0
 40
0.0
 40
0.0
 40
0.0
 40
0.0560239371560818
 40
0.1985103163419115
 40
0.2877629177910462
 40
0.2981444137969679
 40
0.6479870035873357
 40
1.0
 40
1.0
 40
1.0
 40
1.0
 10
215.1747808182684
 20
94.8846911873977
 30
0.0
 10
215.1743511516355
 20
94.88469145809688
 30
0.0
 10
215.1728287084879
 20
94.8846924172687
 30
0.0
 10
215.1697037868877
 20
94.8846278213506
 30
0.0
 10
215.1669645435765
 20
94.88455571427704
 30
0.0
 10
215.1615474275189
 20
94.88438902941827
 30
0.0
 10
215.1527873164853
 20
94.88406330884793
 30
0.0
 10
215.1433935489655
 20
94.8834714287312
 30
0.0
 10
215.1386821406399
 20
94.88317457351268
 30
0.0
  0
SPLINE
  5
15D
330
1F
100
AcDbEntity
  8
0
  6
Continuous
 62
     7
370
    15
100
AcDbSpline
210
0.0
220
0.0
230
1.0
 70
     8
 71
     3
 72
    19
 73
    15
 74
     0
 42
0.000000001
 43
0.00000001
 40
0.0
 40
0.0
 40
0.0
 40
0.0
 40
0.0071576307406664
 40
0.028435135733027
 40
0.0617313602224586
 40
0.0936291291942481
 40
0.1252565995609281
 40
0.1873190063008583
 40
0.2665804219971876
 40
0.3449091314181822
 40
0.6423822524812711
 40
0.7371746854646107
 40
0.8689099385007103
 40
0.9999999999999999
 40
0.9999999999999999
 40
0.9999999999999999
 40
0.9999999999999999
 10
215.1248405811615
 20
94.88212228345405
 30
0.0
 10
215.1232060050463
 20
94.88199652319928
 30
0.0
 10
215.1167123208388
 20
94.88149691515238
 30
0.0
 10
215.1023025746458
 20
94.8800307361117
 30
0.0
 10
215.0820882878728
 20
94.87762006145584
 30
0.0
 10
215.0593277815063
 20
94.87424637731456
 30
0.0
 10
215.0297634721221
 20
94.86908121239897
 30
0.0
 10
214.9891188431783
 20
94.86034686937094
 30
0.0
 10
214.9377931741527
 20
94.84614337205231
 30
0.0
 10
214.8325756114882
 20
94.80949785444433
 30
0.0
 10
214.7269555814482
 20
94.75357748717117
 30
0.0
 10
214.6181017999216
 20
94.6701624230107
 30
0.0
 10
214.5470295197784
 20
94.60547596114476
 30
0.0
 10
214.5000810291932
 20
94.5488392048682
 30
0.0
 10
214.4766644091884
 20
94.52059034354167
 30
0.0
  0
LINE
  5
15E
330
1F
100
AcDbEntity
  8
0
  6
Continuous
 62
     7
370
    15
100
AcDbLine
 10
215.236679764
 20
75.5722299663
 30
0.0
 11
214.2675563469
 21
75.5722299663
 31
0.0
  0
LINE
  5
15F
330
1F
100
AcDbEntity
  8
0
  6
Continuous
 62
     7
370
    15
100
AcDbLine
 10
216.1725563469
 20
75.5722299663
 30
0.0
 11
215.236679764
 21
75.5722299663
 31
0.0
  0
LINE
  5
160
330
1F
100
AcDbEntity
  8
0
  6
Continuous
 62
     7
370
    15
100
AcDbLine
 10
207.7171969892
 20
177.5482158777
 30
0.0
 11
207.7213999559
 21
177.5482158777
 31
0.0
  0
LINE
  5
161
330
1F
100
AcDbEntity
  8
0
  6
Continuous
 62
     7
370
    15
100
AcDbLine
 10
222.9506728967
 20
177.5482158777
 30
0.0
 11
207.7171969892
 21
177.5482158777
 31
0.0
  0
LINE
  5
162
330
1F
100
AcDbEntity
  8
0
  6
Continuous
 62
     7
370
    15
100
AcDbLine
 10
222.9506728967
 20
175.0082158777
 30
0.0
 11
207.7171969892
 21
175.0082158777
 31
0.0
  0
SPLINE
  5
163
330
1F
100
AcDbEntity
  8
0
  6
Continuous
 62
     7
370
    15
100
AcDbSpline
210
0.0
220
0.0
230
1.0
 70
     8
 71
     3
 72
    19
 73
    15
 74
     0
 42
0.000000001
 43
0.00000001
 40
0.0
 40
0.0
 40
0.0
 40
0.0
 40
0.0537221341293319
 40
0.1258309490345821
 40
0.1986348998007205
 40
0.2759077261243694
 40
0.3618547448009423
 40
0.5171031245212008
 40
0.5950486961526537
 40
0.6759014980272419
 40
0.7185332427363689
 40
0.7646544530810334
 40
0.8478728495603395
 40
1.0
 40
1.0
 40
1.0
 40
1.0
 10
215.534060040139
 20
95.36742108585238
 30
0.0
 10
215.5284595587579
 20
95.3694550324317
 30
0.0
 10
215.5153418020148
 20
95.37421905442203
 30
0.0
 10
215.486735153942
 20
95.37605502266854
 30
0.0
 10
215.4507067081643
 20
95.3738084309042
 30
0.0
 10
215.408786529818
 20
95.36599317748232
 30
0.0
 10
215.3505922395586
 20
95.34997510522352
 30
0.0
 10
215.2933400399772
 20
95.32781122450157
 30
0.0
 10
215.2423043347895
 20
95.31040659437132
 30
0.0
 10
215.2120377951959
 20
95.30682377742897
 30
0.0
 10
215.1911228712623
 20
95.31320061094553
 30
0.0
 10
215.1738725548759
 20
95.32509617585082
 30
0.0
 10
215.1536373732615
 20
95.35340087661335
 30
0.0
 10
215.1496855085963
 20
95.37956240507259
 30
0.0
 10
215.1471310268213
 20
95.39647319360354
 30
0.0
  0
LINE
  5
164
330
1F
100
AcDbEntity
  8
0
  6
Continuous
 62
     7
370
    15
100
AcDbLine
 10
215.1382884083
 20
95.003989041
 30
0.0
 11
215.1383010508
 21
95.003989062
 31
0.0
  0
LINE
  5
165
330
1F
100
AcDbEntity
  8
0
  6
Continuous
 62
     7
370
    15
100
AcDbLine
 10
215.1382884083
 20
95.003989041
 30
0.0
 11
215.1381325478
 21
95.0039889574
 31
0.0
  0
SPLINE
  5
166
330
1F
100
AcDbEntity
  8
0
  6
Continuous
 62
     7
370
    15
100
AcDbSpline
210
0.0
220
0.0
230
1.0
 70
     8
 71
     3
 72
    26
 73
    22
 74
     0
 42
0.000000001
 43
0.00000001
 40
0.0
 40
0.0
 40
0.0
 40
0.0
 40
0.0188635455645902
 40
0.0380878704996576
 40
0.057631032679707
 40
0.1662871354760856
 40
0.2725019052489087
 40
0.2726653279143714
 40
0.333540454028862
 40
0.3877978686330565
 40
0.4381339422568908
 40
0.4872221747161342
 40
0.4873438663648583
 40
0.5555097445597902
 40
0.6318628540698386
 40
0.7190434921052795
 40
0.7193184827804957
 40
0.8186661894384636
 40
0.9185800526832874
 40
0.9997503481744192
 40
1.0
 40
1.0
 40
1.0
 40
1.0
 10
215.1382757659026
 20
95.003989061981
 30
0.0
 10
215.1378268135032
 20
95.00403643796842
 30
0.0
 10
215.1369203221552
 20
95.00413209604434
 30
0.0
 10
215.1355480302011
 20
95.0048961898282
 30
0.0
 10
215.1320414752697
 20
95.00806599532208
 30
0.0
 10
215.1264819605057
 20
95.01991964223386
 30
0.0
 10
215.1216440439638
 20
95.04420315801481
 30
0.0
 10
215.1182306554312
 20
95.070173247902
 30
0.0
 10
215.1160324041977
 20
95.09103508992565
 30
0.0
 10
215.1134744519236
 20
95.12970201712231
 30
0.0
 10
215.1119671078758
 20
95.17221270394232
 30
0.0
 10
215.1116642697745
 20
95.20205966066759
 30
0.0
 10
215.1116531491574
 20
95.23704817890994
 30
0.0
 10
215.1122706567276
 20
95.28039910374717
 30
0.0
 10
215.1149438870591
 20
95.34173567947136
 30
0.0
 10
215.1177000831272
 20
95.37680162687772
 30
0.0
 10
215.121161807576
 20
95.41115744670581
 30
0.0
 10
215.1252789946027
 20
95.44144508598349
 30
0.0
 10
215.1316658171346
 20
95.46541266455091
 30
0.0
 10
215.1359717222317
 20
95.47022743683004
 30
0.0
 10
215.1379070796481
 20
95.47023181864813
 30
0.0
 10
215.1379130138882
 20
95.47023183208377
 30
0.0
  0
SPLINE
  5
167
330
1F
100
AcDbEntity
  8
0
  6
Continuous
 62
     7
370
    15
100
AcDbSpline
210
0.0
220
0.0
230
1.0
 70
     8
 71
     3
 72
    12
 73
     8
 74
     0
 42
0.000000001
 43
0.00000001
 40
0.0
 40
0.0
 40
0.0
 40
0.0
 40
0.0865414533214333
 40
0.2520736693007972
 40
0.4281754860329884
 40
0.7388565291774164
 40
1.0
 40
1.0
 40
1.0
 40
1.0
 10
213.9722791988025
 20
93.19271253899822
 30
0.0
 10
213.9667714976621
 20
93.20512242236697
 30
0.0
 10
213.9507289379105
 20
93.24126931748253
 30
0.0
 10
213.9357940217294
 20
93.31782008317327
 30
0.0
 10
213.9152541818756
 20
93.43737507499716
 30
0.0
 10
213.8994459900326
 20
93.58587523554345
 30
0.0
 10
213.8908460194964
 20
93.70253561788256
 30
0.0
 10
213.8869185450703
 20
93.75581262229106
 30
0.0
  0
SPLINE
  5
168
330
1F
100
AcDbEntity
  8
0
  6
Continuous
 62
     7
370
    15
100
AcDbSpline
210
0.0
220
0.0
230
1.0
 70
     8
 71
     3
 72
    10
 73
     6
 74
     0
 42
0.000000001
 43
0.00000001
 40
0.0
 40
0.0
 40
0.0
 40
0.0
 40
0.183044356443853
 40
0.595730457497094
 40
1.0
 40
1.0
 40
1.0
 40
1.0
 10
213.899452364142
 20
94.26398884219728
 30
0.0
 10
213.8945919431206
 20
94.23552292237137
 30
0.0
 10
213.8787733683499
 20
94.14287862690975
 30
0.0
 10
213.8745152371399
 20
93.97224143981292
 30
0.0
 10
213.8828126032017
 20
93.8274583597376
 30
0.0
 10
213.8869185450705
 20
93.75581262229042
 30
0.0
  0
LINE
  5
169
330
1F
100
AcDbEntity
  8
0
  6
Continuous
 62
     7
370
    15
100
AcDbLine
 10
214.4766672181
 20
94.5205876185
 30
0.0
 11
214.503571057
 21
94.5668379976
 31
0.0
  0
SPLINE
  5
16A
330
1F
100
AcDbEntity
  8
0
  6
Continuous
 62
     7
370
    15
100
AcDbSpline
210
0.0
220
0.0
230
1.0
 70
    24
 71
     3
 72
    16
 73
    12
 74
     0
 42
0.000000001
 43
0.00000001
 40
0.0
 40
0.0
 40
0.0
 40
0.0
 40
0.0004576183729455
 40
0.1254004160763277
 40
0.2503432137797099
 40
0.3752860114830914
 40
0.5002288091864726
 40
0.625171606889855
 40
0.7501144045932363
 40
0.8750572022966182
 40
1.0
 40
1.0
 40
1.0
 40
1.0
 10
209.181287138479
 20
72.34231989016924
 30
0.0
 10
209.1812648832972
 20
72.34231989016924
 30
0.0
 10
209.1751663321237
 20
72.34231989016928
 30
0.0
 10
209.1964481309884
 20
72.34231989016922
 30
0.0
 10
209.2475637326567
 20
72.34231989016925
 30
0.0
 10
209.3372267064689
 20
72.34231989016924
 30
0.0
 10
209.4562945915434
 20
72.34231989016924
 30
0.0
 10
209.6017182690201
 20
72.34231989016924
 30
0.0
 10
209.7674995788528
 20
72.34231989016924
 30
0.0
 10
209.9473794837876
 20
72.34231989016924
 30
0.0
 10
210.0720648463186
 20
72.34231989016924
 30
0.0
 10
210.1344075275841
 20
72.34231989016924
 30
0.0
  0
SPLINE
  5
16B
330
1F
100
AcDbEntity
  8
0
  6
Continuous
 62
     7
370
    15
100
AcDbSpline
210
0.0
220
0.0
230
1.0
 70
    24
 71
     3
 72
    15
 73
    11
 74
     0
 42
0.000000001
 43
0.00000001
 40
0.0
 40
0.0
 40
0.0
 40
0.0
 40
0.1250572546982306
 40
0.2501145093964613
 40
0.3751717640946919
 40
0.5002290187929228
 40
0.6252862734911536
 40
0.7503435281893842
 40
0.8754007828876149
 40
1.0
 40
1.0
 40
1.0
 40
1.0
 10
210.1344075275843
 20
72.34231989016924
 30
0.0
 10
210.1967456060666
 20
72.34231989016924
 30
0.0
 10
210.3214217630311
 20
72.34231989016924
 30
0.0
 10
210.5012122622113
 20
72.34231989016924
 30
0.0
 10
210.6668957499518
 20
72.34231989016924
 30
0.0
 10
210.8120380952813
 20
72.34231989016924
 30
0.0
 10
210.9313036161984
 20
72.34231989016924
 30
0.0
 10
211.0192077853415
 20
72.34231989016924
 30
0.0
 10
211.0756663059489
 20
72.34231989016924
 30
0.0
 10
211.0826620856237
 20
72.34231989016924
 30
0.0
 10
211.0861535579827
 20
72.34231989016924
 30
0.0
  0
SPLINE
  5
16C
330
1F
100
AcDbEntity
  8
0
  6
Continuous
 62
     7
370
    15
100
AcDbSpline
210
0.0
220
0.0
230
1.0
 70
    24
 71
     3
 72
    16
 73
    12
 74
     0
 42
0.000000001
 43
0.00000001
 40
0.0
 40
0.0
 40
0.0
 40
0.0
 40
0.000457618373014
 40
0.1254004160763871
 40
0.2503432137797607
 40
0.3752860114831331
 40
0.5002288091865071
 40
0.6251716068898803
 40
0.7501144045932534
 40
0.8750572022966266
 40
1.0
 40
1.0
 40
1.0
 40
1.0
 10
219.3412844944027
 20
72.34231989016924
 30
0.0
 10
219.3412622392208
 20
72.34231989016924
 30
0.0
 10
219.3351636880471
 20
72.34231989016929
 30
0.0
 10
219.3564454869122
 20
72.34231989016921
 30
0.0
 10
219.4075610885804
 20
72.34231989016924
 30
0.0
 10
219.4972240623926
 20
72.34231989016924
 30
0.0
 10
219.6162919474671
 20
72.34231989016924
 30
0.0
 10
219.7617156249438
 20
72.34231989016924
 30
0.0
 10
219.9274969347766
 20
72.34231989016924
 30
0.0
 10
220.1073768397114
 20
72.34231989016924
 30
0.0
 10
220.2320622022424
 20
72.34231989016924
 30
0.0
 10
220.2944048835079
 20
72.34231989016924
 30
0.0
  0
SPLINE
  5
16D
330
1F
100
AcDbEntity
  8
0
  6
Continuous
 62
     7
370
    15
100
AcDbSpline
210
0.0
220
0.0
230
1.0
 70
    24
 71
     3
 72
    15
 73
    11
 74
     0
 42
0.000000001
 43
0.00000001
 40
0.0
 40
0.0
 40
0.0
 40
0.0
 40
0.1250572546982289
 40
0.2501145093964585
 40
0.3751717640946879
 40
0.5002290187929177
 40
0.6252862734911464
 40
0.7503435281893752
 40
0.8754007828876053
 40
1.0
 40
1.0
 40
1.0
 40
1.0
 10
220.2944048835079
 20
72.34231989016924
 30
0.0
 10
220.3567429619901
 20
72.34231989016924
 30
0.0
 10
220.4814191189547
 20
72.34231989016924
 30
0.0
 10
220.6612096181349
 20
72.34231989016924
 30
0.0
 10
220.8268931058755
 20
72.34231989016924
 30
0.0
 10
220.972035451205
 20
72.34231989016924
 30
0.0
 10
221.091300972122
 20
72.34231989016924
 30
0.0
 10
221.1792051412651
 20
72.34231989016924
 30
0.0
 10
221.2356636618725
 20
72.34231989016924
 30
0.0
 10
221.2426594415473
 20
72.34231989016924
 30
0.0
 10
221.2461509139064
 20
72.34231989016924
 30
0.0
  0
ARC
  5
16E
330
1F
100
AcDbEntity
  8
0
  6
Continuous
 62
     7
370
    15
100
AcDbCircle
 10
215.2144073363
 20
88.8523269676
 30
0.0
 40
5.079999808686293
100
AcDbArc
 50
105.1482048709
 51
179.9999294419
  0
ARC
  5
16F
330
1F
100
AcDbEntity
  8
0
  6
Continuous
 62
     7
370
    15
100
AcDbCircle
 10
215.2144052067
 20
88.8523270395
 30
0.0
 40
5.079999676830084
100
AcDbArc
 50
359.999919365
 51
78.16893224
  0
SPLINE
  5
170
330
1F
100
AcDbEntity
  8
0
  6
Continuous
 62
     7
370
    15
100
AcDbSpline
210
0.0
220
0.0
230
1.0
 70
    24
 71
     3
 72
    33
 73
    29
 74
     0
 42
0.000000001
 43
0.00000001
 40
0.0
 40
0.0
 40
0.0
 40
0.0
 40
0.0125366164437748
 40
0.0250422273183745
 40
0.0375361147163494
 40
0.050037614976617
 40
0.0625660291891003
 40
0.0938257744548208
 40
0.1251111687590105
 40
0.1563709140251046
 40
0.1876563083289103
 40
0.2501257453187868
 40
0.3125951823086622
 40
0.3750646192985372
 40
0.4375340562884126
 40
0.500003493278288
 40
0.5624729302681633
 40
0.6249423672580386
 40
0.6874118042479139
 40
0.749881241237789
 40
0.812350678227665
 40
0.8436104234930113
 40
0.8748958177975683
 40
0.9061555630629199
 40
0.9374409573674728
 40
0.9582918156369288
 40
0.9791149613002207
 40
0.9999999999999999
 40
0.9999999999999999
 40
0.9999999999999999
 40
0.9999999999999999
 10
215.7931667925076
 20
174.855815877654
 30
0.0
 10
215.7932031834457
 20
174.855815877654
 30
0.0
 10
215.7932758753199
 20
174.855815877654
 30
0.0
 10
215.7924938110875
 20
174.855815877654
 30
0.0
 10
215.791057977736
 20
174.855815877654
 30
0.0
 10
215.7889045988209
 20
174.855815877654
 30
0.0
 10
215.7846345780653
 20
174.855815877654
 30
0.0
 10
215.776517184663
 20
174.855815877654
 30
0.0
 10
215.762107732026
 20
174.855815877654
 30
0.0
 10
215.7436144061336
 20
174.855815877654
 30
0.0
 10
215.7137296536083
 20
174.855815877654
 30
0.0
 10
215.6670353621635
 20
174.855815877654
 30
0.0
 10
215.598319713385
 20
174.855815877654
 30
0.0
 10
215.5195194611436
 20
174.855815877654
 30
0.0
 10
215.4336694456092
 20
174.855815877654
 30
0.0
 10
215.3440671043719
 20
174.855815877654
 30
0.0
 10
215.2541561359348
 20
174.855815877654
 30
0.0
 10
215.1673921756377
 20
174.855815877654
 30
0.0
 10
215.0871075540571
 20
174.855815877654
 30
0.0
 10
215.01639499597
 20
174.855815877654
 30
0.0
 10
214.9676781753173
 20
174.855815877654
 30
0.0
 10
214.935999536561
 20
174.855815877654
 30
0.0
 10
214.9160906731565
 20
174.855815877654
 30
0.0
 10
214.9002015993525
 20
174.855815877654
 30
0.0
 10
214.8898204566572
 20
174.855815877654
 30
0.0
 10
214.8835552623852
 20
174.855815877654
 30
0.0
 10
214.8799928952039
 20
174.855815877654
 30
0.0
 10
214.8792686966648
 20
174.855815877654
 30
0.0
 10
214.8789060600566
 20
174.855815877654
 30
0.0
  0
LINE
  5
171
330
1F
100
AcDbEntity
  8
0
  6
Continuous
 62
     7
370
    15
100
AcDbLine
 10
214.2675563469
 20
75.5722299663
 30
0.0
 11
214.2551107653
 21
75.5722299663
 31
0.0
  0
LWPOLYLINE
  5
172
330
1F
100
AcDbEntity
  8
0
  6
Continuous
 62
     8
370
    15
100
AcDbPolyline
 90
       21
 70
   128
 43
0.0
 10
214.2581128483
 20
92.6889595982
 10
214.2580736456
 20
92.6558128601
 10
214.257794101
 20
92.4029149058
 10
214.2575247426
 20
92.1296023502
 10
214.2572663456
 20
91.8366617098
 10
214.2570196536
 20
91.524935985
 10
214.2567853765
 20
91.1953222345
 10
214.2565641885
 20
90.8487689936
 10
214.2563567261
 20
90.4862735447
 10
214.2561635864
 20
90.1088790473
 10
214.255985325
 20
89.7176715364
 10
214.2558224551
 20
89.3137767967
 10
214.2556754453
 20
88.8983571232
 10
214.2555447187
 20
88.4726079765
 10
214.2554306513
 20
88.0377545424
 10
214.2553335717
 20
87.5950482064
 10
214.2552537589
 20
87.1457629523
 10
214.2551914429
 20
86.6911916963
 10
214.2551468028
 20
86.2326425662
 10
214.2551199671
 20
85.7714351368
 10
214.2551110132
 20
85.308896633
  0
LINE
  5
173
330
1F
100
AcDbEntity
  8
0
  6
Continuous
 62
     8
370
    15
100
AcDbLine
 10
216.1641920539
 20
85.3088832997
 30
0.0
 11
214.2675565948
 21
85.3088832997
 31
0.0
  0
LINE
  5
174
330
1F
100
AcDbEntity
  8
0
  6
Continuous
 62
     8
370
    15
100
AcDbLine
 10
215.2348327177
 20
42.7437838561
 30
0.0
 11
214.3733896802
 21
42.7437838561
 31
0.0
  0
LINE
  5
175
330
1F
100
AcDbEntity
  8
0
  6
Continuous
 62
     8
370
    15
100
AcDbLine
 10
216.0667230136
 20
42.7437838561
 30
0.0
 11
215.2348327177
 21
42.7437838561
 31
0.0
  0
LINE
  5
176
330
1F
100
AcDbEntity
  8
0
  6
Continuous
 62
     8
370
    15
100
AcDbLine
 10
214.3733896802
 20
42.7437838561
 30
0.0
 11
214.3609441081
 21
42.7437838561
 31
0.0
  0
LINE
  5
177
330
1F
100
AcDbEntity
  8
0
  6
Continuous
 62
     8
370
    15
100
AcDbLine
 10
210.1344075276
 20
88.8523332235
 30
0.0
 11
211.0862203482
 21
88.8523332235
 31
0.0
  0
LINE
  5
178
330
1F
100
AcDbEntity
  8
0
  6
Continuous
 62
     8
370
    15
100
AcDbLine
 10
209.1812203482
 20
88.8523332235
 30
0.0
 11
210.1344075276
 21
88.8523332235
 31
0.0
  0
LINE
  5
179
330
1F
100
AcDbEntity
  8
0
  6
Continuous
 62
     8
370
    15
100
AcDbLine
 10
219.3412177042
 20
88.8523198902
 30
0.0
 11
220.2944048835
 21
88.8523198902
 31
0.0
  0
LINE
  5
17A
330
1F
100
AcDbEntity
  8
0
  6
Continuous
 62
     8
370
    15
100
AcDbLine
 10
220.2944048835
 20
88.8523198902
 30
0.0
 11
221.2462177042
 21
88.8523198902
 31
0.0
  0
LINE
  5
17B
330
1F
100
AcDbEntity
  8
0
  6
Continuous
 62
     8
370
    15
100
AcDbLine
 10
209.2870536816
 20
41.7292501491
 30
0.0
 11
210.9803870149
 21
41.7292501491
 31
0.0
  0
LINE
  5
17C
330
1F
100
AcDbEntity
  8
0
  6
Continuous
 62
     8
370
    15
100
AcDbLine
 10
219.4470510375
 20
41.7292501491
 30
0.0
 11
221.1403843708
 21
41.7292501491
 31
0.0
  0
LINE
  5
17D
330
1F
100
AcDbEntity
  8
0
  6
Continuous
 62
     8
370
    15
100
AcDbLine
 10
214.2675565948
 20
85.308896633
 30
0.0
 11
214.2551110132
 21
85.308896633
 31
0.0
  0
ENDSEC
  0
SECTION
  2
OBJECTS
  0
DICTIONARY
  5
C
330
0
100
AcDbDictionary
281
     1
  3
ACAD_GROUP
350
D
  3
ACAD_LAYOUT
350
1A
  3
ACAD_MLINESTYLE
350
17
  3
ACAD_PLOTSETTINGS
350
19
  3
ACAD_PLOTSTYLENAME
350
E
  3
ACAD_SCALELIST
350
47
  0
DICTIONARY
  5
D
102
{ACAD_REACTORS
330
C
102
}
330
C
100
AcDbDictionary
281
     1
  0
DICTIONARY
  5
1A
102
{ACAD_REACTORS
330
C
102
}
330
C
100
AcDbDictionary
281
     1
  3
Layout1
350
1E
  3
Layout2
350
26
  3
Model
350
22
  0
DICTIONARY
  5
17
102
{ACAD_REACTORS
330
C
102
}
330
C
100
AcDbDictionary
281
     1
  3
Standard
350
18
  0
DICTIONARY
  5
19
102
{ACAD_REACTORS
330
C
102
}
330
C
100
AcDbDictionary
281
     1
  0
ACDBDICTIONARYWDFLT
  5
E
102
{ACAD_REACTORS
330
C
102
}
330
C
100
AcDbDictionary
281
     1
  3
Normal
350
F
100
AcDbDictionaryWithDefault
340
F
  0
DICTIONARY
  5
47
102
{ACAD_REACTORS
330
C
102
}
330
C
100
AcDbDictionary
281
     1
  3
A0
350
48
  3
A1
350
49
  3
A2
350
4A
  3
A3
350
4B
  3
A4
350
4C
  3
A5
350
4D
  3
A6
350
4E
  3
A7
350
4F
  3
A8
350
50
  3
A9
350
51
  3
B0
350
52
  3
B1
350
53
  3
B2
350
54
  3
B3
350
55
  3
B4
350
56
  3
B5
350
57
  3
B6
350
58
  3
B7
350
59
  3
B8
350
5A
  3
B9
350
5B
  3
C0
350
5C
  3
C1
350
5D
  3
C2
350
5E
  3
C3
350
5F
  3
C4
350
60
  3
C5
350
61
  3
C6
350
62
  3
C7
350
63
  3
C8
350
64
  3
C9
350
65
  3
D0
350
66
  3
D1
350
67
  3
D2
350
68
  0
LAYOUT
  5
1E
102
{ACAD_REACTORS
330
1A
102
}
330
1A
100
AcDbPlotSettings
  1

  2
none_device
  4

  6

 40
0.0
 41
0.0
 42
0.0
 43
0.0
 44
0.0
 45
0.0
 46
0.0
 47
0.0
 48
0.0
 49
0.0
140
0.0
141
0.0
142
1.0
143
1.0
 70
   688
 72
     1
 73
     0
 74
     5
  7

 75
    16
147
1.0
148
0.0
149
0.0
100
AcDbLayout
  1
Layout1
 70
     1
 71
     1
 10
0.0
 20
0.0
 11
420.0
 21
297.0
 12
0.0
 22
0.0
 32
0.0
 14
1.0000000000E+20
 24
1.0000000000E+20
 34
1.0000000000E+20
 15
-1.0000000000E+20
 25
-1.0000000000E+20
 35
-1.0000000000E+20
146
0.0
 13
0.0
 23
0.0
 33
0.0
 16
1.0
 26
0.0
 36
0.0
 17
0.0
 27
1.0
 37
0.0
 76
     0
330
1B
  0
LAYOUT
  5
26
102
{ACAD_REACTORS
330
1A
102
}
330
1A
100
AcDbPlotSettings
  1

  2
none_device
  4

  6

 40
0.0
 41
0.0
 42
0.0
 43
0.0
 44
0.0
 45
0.0
 46
0.0
 47
0.0
 48
0.0
 49
0.0
140
0.0
141
0.0
142
1.0
143
1.0
 70
   688
 72
     1
 73
     0
 74
     5
  7

 75
    16
147
1.0
148
0.0
149
0.0
100
AcDbLayout
  1
Layout2
 70
     1
 71
     2
 10
0.0
 20
0.0
 11
0.0
 21
0.0
 12
0.0
 22
0.0
 32
0.0
 14
0.0
 24
0.0
 34
0.0
 15
0.0
 25
0.0
 35
0.0
146
0.0
 13
0.0
 23
0.0
 33
0.0
 16
1.0
 26
0.0
 36
0.0
 17
0.0
 27
1.0
 37
0.0
 76
     0
330
23
  0
LAYOUT
  5
22
102
{ACAD_REACTORS
330
1A
102
}
330
1A
100
AcDbPlotSettings
  1

  2
none_device
  4
Letter_(8.50_x_11.00_Inches)
  6

 40
6.35
 41
6.35
 42
6.35000508
 43
6.35000508
 44
215.9
 45
279.4
 46
0.0
 47
0.0
 48
0.0
 49
0.0
140
0.0
141
0.0
142
1.0
143
1.0
 70
  1712
 72
     1
 73
     0
 74
     0
  7

 75
     0
147
1.0
148
0.0
149
0.0
100
AcDbLayout
  1
Model
 70
     1
 71
     0
 10
0.0
 20
0.0
 11
431.8
 21
279.4
 12
0.0
 22
0.0
 32
0.0
 14
0.0
 24
0.0
 34
0.0
 15
431.8
 25
279.4
 35
0.0
146
0.0
 13
0.0
 23
0.0
 33
0.0
 16
1.0
 26
0.0
 36
0.0
 17
0.0
 27
1.0
 37
0.0
 76
     0
330
1F
331
29
  0
MLINESTYLE
  5
18
102
{ACAD_REACTORS
330
17
102
}
330
17
100
AcDbMlineStyle
  2
Standard
 70
     0
  3

 62
   256
 51
90.0
 52
90.0
 71
     2
 49
0.5
 62
   256
  6
BYLAYER
 49
-0.5
 62
   256
  6
BYLAYER
  0
ACDBPLACEHOLDER
  5
F
102
{ACAD_REACTORS
330
E
102
}
330
E
  0
SCALE
  5
48
102
{ACAD_REACTORS
330
47
102
}
330
47
100
AcDbScale
 70
     0
300
1:1
140
1.0
141
1.0
290
     1
  0
SCALE
  5
49
102
{ACAD_REACTORS
330
47
102
}
330
47
100
AcDbScale
 70
     0
300
1:2
140
1.0
141
2.0
290
     0
  0
SCALE
  5
4A
102
{ACAD_REACTORS
330
47
102
}
330
47
100
AcDbScale
 70
     0
300
1:4
140
1.0
141
4.0
290
     0
  0
SCALE
  5
4B
102
{ACAD_REACTORS
330
47
102
}
330
47
100
AcDbScale
 70
     0
300
1:5
140
1.0
141
5.0
290
     0
  0
SCALE
  5
4C
102
{ACAD_REACTORS
330
47
102
}
330
47
100
AcDbScale
 70
     0
300
1:8
140
1.0
141
8.0
290
     0
  0
SCALE
  5
4D
102
{ACAD_REACTORS
330
47
102
}
330
47
100
AcDbScale
 70
     0
300
1:10
140
1.0
141
10.0
290
     0
  0
SCALE
  5
4E
102
{ACAD_REACTORS
330
47
102
}
330
47
100
AcDbScale
 70
     0
300
1:16
140
1.0
141
16.0
290
     0
  0
SCALE
  5
4F
102
{ACAD_REACTORS
330
47
102
}
330
47
100
AcDbScale
 70
     0
300
1:20
140
1.0
141
20.0
290
     0
  0
SCALE
  5
50
102
{ACAD_REACTORS
330
47
102
}
330
47
100
AcDbScale
 70
     0
300
1:30
140
1.0
141
30.0
290
     0
  0
SCALE
  5
51
102
{ACAD_REACTORS
330
47
102
}
330
47
100
AcDbScale
 70
     0
300
1:40
140
1.0
141
40.0
290
     0
  0
SCALE
  5
52
102
{ACAD_REACTORS
330
47
102
}
330
47
100
AcDbScale
 70
     0
300
1:50
140
1.0
141
50.0
290
     0
  0
SCALE
  5
53
102
{ACAD_REACTORS
330
47
102
}
330
47
100
AcDbScale
 70
     0
300
1:100
140
1.0
141
100.0
290
     0
  0
SCALE
  5
54
102
{ACAD_REACTORS
330
47
102
}
330
47
100
AcDbScale
 70
     0
300
2:1
140
2.0
141
1.0
290
     0
  0
SCALE
  5
55
102
{ACAD_REACTORS
330
47
102
}
330
47
100
AcDbScale
 70
     0
300
4:1
140
4.0
141
1.0
290
     0
  0
SCALE
  5
56
102
{ACAD_REACTORS
330
47
102
}
330
47
100
AcDbScale
 70
     0
300
8:1
140
8.0
141
1.0
290
     0
  0
SCALE
  5
57
102
{ACAD_REACTORS
330
47
102
}
330
47
100
AcDbScale
 70
     0
300
10:1
140
10.0
141
1.0
290
     0
  0
SCALE
  5
58
102
{ACAD_REACTORS
330
47
102
}
330
47
100
AcDbScale
 70
     0
300
100:1
140
100.0
141
1.0
290
     0
  0
SCALE
  5
59
102
{ACAD_REACTORS
330
47
102
}
330
47
100
AcDbScale
 70
     0
300
1/128" = 1'-0"
140
0.0078125
141
12.0
290
     0
  0
SCALE
  5
5A
102
{ACAD_REACTORS
330
47
102
}
330
47
100
AcDbScale
 70
     0
300
1/64" = 1'-0"
140
0.015625
141
12.0
290
     0
  0
SCALE
  5
5B
102
{ACAD_REACTORS
330
47
102
}
330
47
100
AcDbScale
 70
     0
300
1/32" = 1'-0"
140
0.03125
141
12.0
290
     0
  0
SCALE
  5
5C
102
{ACAD_REACTORS
330
47
102
}
330
47
100
AcDbScale
 70
     0
300
1/16" = 1'-0"
140
0.0625
141
12.0
290
     0
  0
SCALE
  5
5D
102
{ACAD_REACTORS
330
47
102
}
330
47
100
AcDbScale
 70
     0
300
3/32" = 1'-0"
140
0.09375
141
12.0
290
     0
  0
SCALE
  5
5E
102
{ACAD_REACTORS
330
47
102
}
330
47
100
AcDbScale
 70
     0
300
1/8" = 1'-0"
140
0.125
141
12.0
290
     0
  0
SCALE
  5
5F
102
{ACAD_REACTORS
330
47
102
}
330
47
100
AcDbScale
 70
     0
300
3/16" = 1'-0"
140
0.1875
141
12.0
290
     0
  0
SCALE
  5
60
102
{ACAD_REACTORS
330
47
102
}
330
47
100
AcDbScale
 70
     0
300
1/4" = 1'-0"
140
0.25
141
12.0
290
     0
  0
SCALE
  5
61
102
{ACAD_REACTORS
330
47
102
}
330
47
100
AcDbScale
 70
     0
300
3/8" = 1'-0"
140
0.375
141
12.0
290
     0
  0
SCALE
  5
62
102
{ACAD_REACTORS
330
47
102
}
330
47
100
AcDbScale
 70
     0
300
1/2" = 1'-0"
140
0.5
141
12.0
290
     0
  0
SCALE
  5
63
102
{ACAD_REACTORS
330
47
102
}
330
47
100
AcDbScale
 70
     0
300
3/4" = 1'-0"
140
0.75
141
12.0
290
     0
  0
SCALE
  5
64
102
{ACAD_REACTORS
330
47
102
}
330
47
100
AcDbScale
 70
     0
300
1" = 1'-0"
140
1.0
141
12.0
290
     0
  0
SCALE
  5
65
102
{ACAD_REACTORS
330
47
102
}
330
47
100
AcDbScale
 70
     0
300
1-1/2" = 1'-0"
140
1.5
141
12.0
290
     0
  0
SCALE
  5
66
102
{ACAD_REACTORS
330
47
102
}
330
47
100
AcDbScale
 70
     0
300
3" = 1'-0"
140
3.0
141
12.0
290
     0
  0
SCALE
  5
67
102
{ACAD_REACTORS
330
47
102
}
330
47
100
AcDbScale
 70
     0
300
6" = 1'-0"
140
6.0
141
12.0
290
     0
  0
SCALE
  5
68
102
{ACAD_REACTORS
330
47
102
}
330
47
100
AcDbScale
 70
     0
300
1'-0" = 1'-0"
140
12.0
141
12.0
290
     0
  0
ENDSEC
  0
EOF
