  0
SECTION
  2
HEADER
  9
$ACADVER
  1
AC1015
  9
$ACADMAINTVER
 70
     6
  9
$DWGCODEPAGE
  3
ANSI_1252
  9
$INSBASE
 10
0.0
 20
0.0
 30
0.0
  9
$EXTMIN
 10
0.0
 20
0.0
 30
0.0
  9
$EXTMAX
 10
431.8
 20
279.4
 30
0.0
  9
$LIMMIN
 10
0.0
 20
0.0
  9
$LIMMAX
 10
431.8
 20
279.4
  9
$ORTHOMODE
 70
     0
  9
$REGENMODE
 70
     1
  9
$FILLMODE
 70
     1
  9
$QTEXTMODE
 70
     0
  9
$MIRRTEXT
 70
     1
  9
$LTSCALE
 40
1.0
  9
$ATTMODE
 70
     1
  9
$TEXTSIZE
 40
3.175
  9
$TRACEWID
 40
1.0
  9
$TEXTSTYLE
  7
Standard
  9
$CLAYER
  8
0
  9
$CELTYPE
  6
ByLayer
  9
$CECOLOR
 62
   256
  9
$CELTSCALE
 40
1.0
  9
$DISPSILH
 70
     0
  9
$DIMSCALE
 40
1.0
  9
$DIMASZ
 40
3.302
  9
$DIMEXO
 40
1.27
  9
$DIMDLI
 40
3.75
  9
$DIMRND
 40
0.0
  9
$DIMDLE
 40
0.0
  9
$DIMEXE
 40
3.175
  9
$DIMTP
 40
0.0
  9
$DIMTM
 40
0.0
  9
$DIMTXT
 40
3.175
  9
$DIMCEN
 40
2.5
  9
$DIMTSZ
 40
0.0
  9
$DIMTOL
 70
     0
  9
$DIMLIM
 70
     0
  9
$DIMTIH
 70
     1
  9
$DIMTOH
 70
     1
  9
$DIMSE1
 70
     0
  9
$DIMSE2
 70
     0
  9
$DIMTAD
 70
     0
  9
$DIMZIN
 70
     0
  9
$DIMBLK
  1

  9
$DIMASO
 70
     1
  9
$DIMSHO
 70
     1
  9
$DIMPOST
  1

  9
$DIMAPOST
  1

  9
$DIMALT
 70
     0
  9
$DIMALTD
 70
     3
  9
$DIMALTF
 40
0.0393700787
  9
$DIMLFAC
 40
3.0
  9
$DIMTOFL
 70
     1
  9
$DIMTVP
 40
0.0
  9
$DIMTIX
 70
     0
  9
$DIMSOXD
 70
     0
  9
$DIMSAH
 70
     0
  9
$DIMBLK1
  1

  9
$DIMBLK2
  1

  9
$DIMSTYLE
  2
ISO-25
  9
$DIMCLRD
 70
     0
  9
$DIMCLRE
 70
     0
  9
$DIMCLRT
 70
     0
  9
$DIMTFAC
 40
1.0
  9
$DIMGAP
 40
1.524
  9
$DIMJUST
 70
     0
  9
$DIMSD1
 70
     0
  9
$DIMSD2
 70
     0
  9
$DIMTOLJ
 70
     0
  9
$DIMTZIN
 70
     0
  9
$DIMALTZ
 70
     0
  9
$DIMALTTZ
 70
     0
  9
$DIMUPT
 70
     0
  9
$DIMDEC
 70
     0
  9
$DIMTDEC
 70
     0
  9
$DIMALTU
 70
     2
  9
$DIMALTTD
 70
     3
  9
$DIMTXSTY
  7
Standard
  9
$DIMAUNIT
 70
     0
  9
$DIMADEC
 70
     0
  9
$DIMALTRND
 40
0.0
  9
$DIMAZIN
 70
     0
  9
$DIMDSEP
 70
    44
  9
$DIMATFIT
 70
     3
  9
$DIMFRAC
 70
     0
  9
$DIMLDRBLK
  1

  9
$DIMLUNIT
 70
     2
  9
$DIMLWD
 70
    -2
  9
$DIMLWE
 70
    -2
  9
$DIMTMOVE
 70
     0
  9
$LUNITS
 70
     2
  9
$LUPREC
 70
     2
  9
$SKETCHINC
 40
1.0
  9
$FILLETRAD
 40
10.0
  9
$AUNITS
 70
     0
  9
$AUPREC
 70
     2
  9
$MENU
  1
.
  9
$ELEVATION
 40
0.0
  9
$PELEVATION
 40
0.0
  9
$THICKNESS
 40
0.0
  9
$LIMCHECK
 70
     0
  9
$CHAMFERA
 40
0.0
  9
$CHAMFERB
 40
0.0
  9
$CHAMFERC
 40
0.0
  9
$CHAMFERD
 40
0.0
  9
$SKPOLY
 70
     0
  9
$TDCREATE
 40
2458652.424896771
  9
$TDUCREATE
 40
2458652.591563438
  9
$TDUPDATE
 40
2458652.424898044
  9
$TDUUPDATE
 40
2458652.591564711
  9
$TDINDWG
 40
0.0000000116
  9
$TDUSRTIMER
 40
0.0000000116
  9
$USRTIMER
 70
     1
  9
$ANGBASE
 50
0.0
  9
$ANGDIR
 70
     0
  9
$PDMODE
 70
     0
  9
$PDSIZE
 40
-1.0
  9
$PLINEWID
 40
0.0
  9
$SPLFRAME
 70
     0
  9
$SPLINETYPE
 70
     6
  9
$SPLINESEGS
 70
     8
  9
$HANDSEED
  5
147
  9
$SURFTAB1
 70
     6
  9
$SURFTAB2
 70
     6
  9
$SURFTYPE
 70
     6
  9
$SURFU
 70
     6
  9
$SURFV
 70
     6
  9
$UCSBASE
  2

  9
$UCSNAME
  2

  9
$UCSORG
 10
0.0
 20
0.0
 30
0.0
  9
$UCSXDIR
 10
1.0
 20
0.0
 30
0.0
  9
$UCSYDIR
 10
0.0
 20
1.0
 30
0.0
  9
$UCSORTHOREF
  2

  9
$UCSORTHOVIEW
 70
     0
  9
$UCSORGTOP
 10
0.0
 20
0.0
 30
0.0
  9
$UCSORGBOTTOM
 10
0.0
 20
0.0
 30
0.0
  9
$UCSORGLEFT
 10
0.0
 20
0.0
 30
0.0
  9
$UCSORGRIGHT
 10
0.0
 20
0.0
 30
0.0
  9
$UCSORGFRONT
 10
0.0
 20
0.0
 30
0.0
  9
$UCSORGBACK
 10
0.0
 20
0.0
 30
0.0
  9
$PUCSBASE
  2

  9
$PUCSNAME
  2

  9
$PUCSORG
 10
0.0
 20
0.0
 30
0.0
  9
$PUCSXDIR
 10
1.0
 20
0.0
 30
0.0
  9
$PUCSYDIR
 10
0.0
 20
1.0
 30
0.0
  9
$PUCSORTHOREF
  2

  9
$PUCSORTHOVIEW
 70
     0
  9
$PUCSORGTOP
 10
0.0
 20
0.0
 30
0.0
  9
$PUCSORGBOTTOM
 10
0.0
 20
0.0
 30
0.0
  9
$PUCSORGLEFT
 10
0.0
 20
0.0
 30
0.0
  9
$PUCSORGRIGHT
 10
0.0
 20
0.0
 30
0.0
  9
$PUCSORGFRONT
 10
0.0
 20
0.0
 30
0.0
  9
$PUCSORGBACK
 10
0.0
 20
0.0
 30
0.0
  9
$USERI1
 70
     0
  9
$USERI2
 70
     0
  9
$USERI3
 70
     0
  9
$USERI4
 70
     0
  9
$USERI5
 70
     0
  9
$USERR1
 40
0.0
  9
$USERR2
 40
0.0
  9
$USERR3
 40
0.0
  9
$USERR4
 40
0.0
  9
$USERR5
 40
0.0
  9
$WORLDVIEW
 70
     1
  9
$SHADEDGE
 70
     3
  9
$SHADEDIF
 70
    70
  9
$TILEMODE
 70
     1
  9
$MAXACTVP
 70
    64
  9
$PINSBASE
 10
0.0
 20
0.0
 30
0.0
  9
$PLIMCHECK
 70
     0
  9
$PEXTMIN
 10
1.0000000000E+20
 20
1.0000000000E+20
 30
1.0000000000E+20
  9
$PEXTMAX
 10
-1.0000000000E+20
 20
-1.0000000000E+20
 30
-1.0000000000E+20
  9
$PLIMMIN
 10
0.0
 20
0.0
  9
$PLIMMAX
 10
420.0
 20
297.0
  9
$UNITMODE
 70
     0
  9
$VISRETAIN
 70
     1
  9
$PLINEGEN
 70
     0
  9
$PSLTSCALE
 70
     1
  9
$TREEDEPTH
 70
  3020
  9
$CMLSTYLE
  2
Standard
  9
$CMLJUST
 70
     0
  9
$CMLSCALE
 40
20.0
  9
$PROXYGRAPHICS
 70
     1
  9
$MEASUREMENT
 70
     1
  9
$CELWEIGHT
370
    -1
  9
$ENDCAPS
280
     0
  9
$JOINSTYLE
280
     0
  9
$LWDISPLAY
290
     1
  9
$INSUNITS
 70
     4
  9
$HYPERLINKBASE
  1

  9
$STYLESHEET
  1

  9
$XEDIT
290
     1
  9
$CEPSNTYPE
380
     0
  9
$PSTYLEMODE
290
     1
  9
$FINGERPRINTGUID
  2
{07E02FB3-6B33-4433-8E10-D127B23E4E14}
  9
$VERSIONGUID
  2
{FAEB1C32-E019-11D5-929B-00C0DF256EC4}
  9
$EXTNAMES
290
     1
  9
$PSVPSCALE
 40
0.0
  9
$OLESTARTUP
290
     0
  0
ENDSEC
  0
SECTION
  2
CLASSES
  0
CLASS
  1
ACDBDICTIONARYWDFLT
  2
AcDbDictionaryWithDefault
  3
ObjectDBX Classes
 90
        0
280
     0
281
     0
  0
CLASS
  1
VISUALSTYLE
  2
AcDbVisualStyle
  3
ObjectDBX Classes
 90
     4095
280
     0
281
     0
  0
CLASS
  1
MATERIAL
  2
AcDbMaterial
  3
ObjectDBX Classes
 90
     1153
280
     0
281
     0
  0
CLASS
  1
SCALE
  2
AcDbScale
  3
ObjectDBX Classes
 90
     1153
280
     0
281
     0
  0
CLASS
  1
TABLESTYLE
  2
AcDbTableStyle
  3
ObjectDBX Classes
 90
     4095
280
     0
281
     0
  0
CLASS
  1
MLEADERSTYLE
  2
AcDbMLeaderStyle
  3
ACDB_MLEADERSTYLE_CLASS
 90
     4095
280
     0
281
     0
  0
CLASS
  1
SUN
  2
AcDbSun
  3
SCENEOE
 90
     1153
280
     0
281
     0
  0
CLASS
  1
ACDBPLACEHOLDER
  2
AcDbPlaceHolder
  3
ObjectDBX Classes
 90
        0
280
     0
281
     0
  0
CLASS
  1
LAYOUT
  2
AcDbLayout
  3
ObjectDBX Classes
 90
        0
280
     0
281
     0
  0
ENDSEC
  0
SECTION
  2
TABLES
  0
TABLE
  2
VPORT
  5
8
330
0
100
AcDbSymbolTable
 70
     1
  0
VPORT
  5
29
330
8
100
AcDbSymbolTableRecord
100
AcDbViewportTableRecord
  2
*Active
 70
     0
 10
0.0
 20
0.0
 11
1.0
 21
1.0
 12
215.9
 22
139.7
 13
0.0
 23
0.0
 14
10.0
 24
10.0
 15
10.0
 25
10.0
 16
0.0
 26
0.0
 36
1.0
 17
0.0
 27
0.0
 37
0.0
 40
279.4
 41
1.5454545455
 42
50.0
 43
0.0
 44
0.0
 50
0.0
 51
0.0
 71
     0
 72
  2000
 73
     1
 74
     3
 75
     0
 76
     0
 77
     0
 78
     0
281
     0
 65
     1
110
0.0
120
0.0
130
0.0
111
1.0
121
0.0
131
0.0
112
0.0
122
1.0
132
0.0
 79
     0
146
0.0
  0
ENDTAB
  0
TABLE
  2
LTYPE
  5
5
330
0
100
AcDbSymbolTable
 70
     6
  0
LTYPE
  5
14
330
5
100
AcDbSymbolTableRecord
100
AcDbLinetypeTableRecord
  2
ByBlock
 70
     0
  3

 72
    65
 73
     0
 40
0.0
  0
LTYPE
  5
15
330
5
100
AcDbSymbolTableRecord
100
AcDbLinetypeTableRecord
  2
ByLayer
 70
     0
  3

 72
    65
 73
     0
 40
0.0
  0
LTYPE
  5
16
330
5
100
AcDbSymbolTableRecord
100
AcDbLinetypeTableRecord
  2
Continuous
 70
     0
  3
Solid line
 72
    65
 73
     0
 40
0.0
  0
LTYPE
  5
6E
330
5
100
AcDbSymbolTableRecord
100
AcDbLinetypeTableRecord
  2
HIDDEN
 70
     0
  3
Hidden __ __ __ __ __ __ __ __ __ __ __ __ __ __
 72
    65
 73
     2
 40
1.905
 49
1.27
 74
     0
 49
-0.635
 74
     0
  0
LTYPE
  5
6F
330
5
100
AcDbSymbolTableRecord
100
AcDbLinetypeTableRecord
  2
PHANTOM
 70
     0
  3
Phantom ______  __  __  ______  __  __  ______
 72
    65
 73
     6
 40
12.7
 49
6.35
 74
     0
 49
-1.27
 74
     0
 49
1.27
 74
     0
 49
-1.27
 74
     0
 49
1.27
 74
     0
 49
-1.27
 74
     0
  0
LTYPE
  5
70
330
5
100
AcDbSymbolTableRecord
100
AcDbLinetypeTableRecord
  2
CENTER
 70
     0
  3
Center ____ _ ____ _ ____ _ ____ _ ____ _ ____
 72
    65
 73
     4
 40
10.16
 49
6.35
 74
     0
 49
-1.27
 74
     0
 49
1.27
 74
     0
 49
-1.27
 74
     0
  0
LTYPE
  5
71
330
5
100
AcDbSymbolTableRecord
100
AcDbLinetypeTableRecord
  2
CENTERX2
 70
     0
  3
Center (2x) ________  __  ________  __  _____
 72
    65
 73
     4
 40
20.32
 49
12.7
 74
     0
 49
-2.54
 74
     0
 49
2.54
 74
     0
 49
-2.54
 74
     0
  0
LTYPE
  5
72
330
5
100
AcDbSymbolTableRecord
100
AcDbLinetypeTableRecord
  2
DOT2
 70
     0
  3
Dot (.5x) ........................................
 72
    65
 73
     2
 40
0.635
 49
0.0
 74
     0
 49
-0.635
 74
     0
  0
ENDTAB
  0
TABLE
  2
LAYER
  5
2
330
0
100
AcDbSymbolTable
 70
     2
  0
LAYER
  5
10
330
2
100
AcDbSymbolTableRecord
100
AcDbLayerTableRecord
  2
0
 70
     0
 62
     7
  6
Continuous
370
    -3
390
F
  0
LAYER
  5
73
330
2
100
AcDbSymbolTableRecord
100
AcDbLayerTableRecord
  2
FORMAT
 70
     0
 62
     7
  6
Continuous
370
    -3
390
F
  0
ENDTAB
  0
TABLE
  2
STYLE
  5
3
330
0
100
AcDbSymbolTable
 70
     2
  0
STYLE
  5
11
330
3
100
AcDbSymbolTableRecord
100
AcDbTextStyleTableRecord
  2
Standard
 70
     0
 40
0.0
 41
1.0
 50
0.0
 71
     0
 42
3.175
  3
txt
  4

  0
STYLE
  5
B8
330
3
100
AcDbSymbolTableRecord
100
AcDbTextStyleTableRecord
  2
SLDTEXTSTYLE0
 70
     0
 40
0.0
 41
0.7
 50
0.0
 71
     0
 42
3.175
  3
TXT
  4

  0
ENDTAB
  0
TABLE
  2
VIEW
  5
6
330
0
100
AcDbSymbolTable
 70
     0
  0
ENDTAB
  0
TABLE
  2
UCS
  5
7
330
0
100
AcDbSymbolTable
 70
     0
  0
ENDTAB
  0
TABLE
  2
APPID
  5
9
330
0
100
AcDbSymbolTable
 70
     1
  0
APPID
  5
12
330
9
100
AcDbSymbolTableRecord
100
AcDbRegAppTableRecord
  2
ACAD
 70
     0
  0
ENDTAB
  0
TABLE
  2
DIMSTYLE
  5
A
330
0
100
AcDbSymbolTable
 70
     1
100
AcDbDimStyleTable
  0
DIMSTYLE
105
27
330
A
100
AcDbSymbolTableRecord
100
AcDbDimStyleTableRecord
  2
ISO-25
 70
     0
 41
2.5
 42
0.625
 43
3.75
 44
1.25
 73
     0
 74
     0
 77
     1
 78
     8
140
2.5
141
2.5
143
0.0393700787
147
0.625
171
     3
172
     1
178
     0
271
     2
272
     2
274
     3
278
    44
283
     0
284
     8
340
11
  0
ENDTAB
  0
TABLE
  2
BLOCK_RECORD
  5
1
330
0
100
AcDbSymbolTable
 70
     3
  0
BLOCK_RECORD
  5
1F
330
1
100
AcDbSymbolTableRecord
100
AcDbBlockTableRecord
  2
*Model_Space
340
22
  0
BLOCK_RECORD
  5
1B
330
1
100
AcDbSymbolTableRecord
100
AcDbBlockTableRecord
  2
*Paper_Space
340
1E
  0
BLOCK_RECORD
  5
23
330
1
100
AcDbSymbolTableRecord
100
AcDbBlockTableRecord
  2
*Paper_Space0
340
26
  0
BLOCK_RECORD
  5
BB
330
1
100
AcDbSymbolTableRecord
100
AcDbBlockTableRecord
  2
SW_NOTE_0
340
0
102
{BLKREFS
331
C1
102
}
  0
BLOCK_RECORD
  5
C6
330
1
100
AcDbSymbolTableRecord
100
AcDbBlockTableRecord
  2
SW_NOTE_1
340
0
102
{BLKREFS
331
CC
102
}
  0
ENDTAB
  0
ENDSEC
  0
SECTION
  2
BLOCKS
  0
BLOCK
  5
20
330
1F
100
AcDbEntity
  8
0
100
AcDbBlockBegin
  2
*Model_Space
 70
     0
 10
0.0
 20
0.0
 30
0.0
  3
*Model_Space
  1

  0
ENDBLK
  5
21
330
1F
100
AcDbEntity
  8
0
100
AcDbBlockEnd
  0
BLOCK
  5
1C
330
1B
100
AcDbEntity
 67
     1
  8
0
100
AcDbBlockBegin
  2
*Paper_Space
 70
     0
 10
0.0
 20
0.0
 30
0.0
  3
*Paper_Space
  1

  0
ENDBLK
  5
1D
330
1B
100
AcDbEntity
 67
     1
  8
0
100
AcDbBlockEnd
  0
BLOCK
  5
24
330
23
100
AcDbEntity
  8
0
100
AcDbBlockBegin
  2
*Paper_Space0
 70
     0
 10
0.0
 20
0.0
 30
0.0
  3
*Paper_Space0
  1

  0
ENDBLK
  5
25
330
23
100
AcDbEntity
  8
0
100
AcDbBlockEnd
  0
BLOCK
  5
BC
330
BB
100
AcDbEntity
  8
0
100
AcDbBlockBegin
  2
SW_NOTE_0
 70
     0
 10
0.0
 20
0.0
 30
0.0
  3
SW_NOTE_0
  1

  0
MTEXT
  5
BE
330
BB
100
AcDbEntity
  8
0
  6
Continuous
 62
     0
370
     0
100
AcDbMText
 10
0.0
 20
2.0463950369
 30
0.0
 40
1.5875
 41
0.0
 71
     1
 72
     1
  1
87 34th Street, Unit 11, Brooklyn, NY 11232
  7
SLDTEXTSTYLE0
 73
     1
 44
1.0
  0
MTEXT
  5
BF
330
BB
100
AcDbEntity
  8
0
  6
Continuous
 62
     0
370
     0
100
AcDbMText
 10
0.0
 20
-0.0702716042
 30
0.0
 40
1.5875
 41
0.0
 71
     1
 72
     1
  1
T +1 718-387-6132
  7
SLDTEXTSTYLE0
 73
     1
 44
1.0
  0
MTEXT
  5
C0
330
BB
100
AcDbEntity
  8
0
  6
Continuous
 62
     0
370
     0
100
AcDbMText
 10
0.0
 20
-2.1869382453
 30
0.0
 40
1.5875
 41
0.0
 71
     1
 72
     1
  1
www.rollandhill.com
  7
SLDTEXTSTYLE0
 73
     1
 44
1.0
  0
ENDBLK
  5
BD
330
BB
100
AcDbEntity
  8
0
100
AcDbBlockEnd
  0
BLOCK
  5
C7
330
C6
100
AcDbEntity
  8
0
100
AcDbBlockBegin
  2
SW_NOTE_1
 70
     0
 10
0.0
 20
0.0
 30
0.0
  3
SW_NOTE_1
  1

  0
MTEXT
  5
C9
330
C6
100
AcDbEntity
  8
0
  6
Continuous
 62
     0
370
     0
100
AcDbMText
 10
0.0
 20
2.0463950369
 30
0.0
 40
1.5875
 41
0.0
 71
     1
 72
     1
  1
\LPROPRIETARY AND CONFIDENTIAL
  7
SLDTEXTSTYLE0
 73
     1
 44
1.0
  0
MTEXT
  5
CA
330
C6
100
AcDbEntity
  8
0
  6
Continuous
 62
     0
370
     0
100
AcDbMText
 10
37.3117625713
 20
2.0463950369
 30
0.0
 40
1.5875
 41
0.0
 71
     1
 72
     1
  1
THE INFORMATION CONTAINED IN THIS DRAWING IS THE SOLE PROPERTY OF ROLL & HILL LLC. ANY REPRODUCTION IN
  7
SLDTEXTSTYLE0
 73
     1
 44
1.0
  0
MTEXT
  5
CB
330
C6
100
AcDbEntity
  8
0
  6
Continuous
 62
     0
370
     0
100
AcDbMText
 10
0.0
 20
-0.0702716042
 30
0.0
 40
1.5875
 41
0.0
 71
     1
 72
     1
  1
PART OR AS A WHOLE WITHOUT THE WRITTEN PERMISSION OF ROLL & HILL LLC. IS PROHIBITED.
  7
SLDTEXTSTYLE0
 73
     1
 44
1.0
  0
ENDBLK
  5
C8
330
C6
100
AcDbEntity
  8
0
100
AcDbBlockEnd
  0
ENDSEC
  0
SECTION
  2
ENTITIES
  0
HATCH
  5
74
330
1F
100
AcDbEntity
  8
0
  6
Continuous
 62
     7
100
AcDbHatch
 10
0.0
 20
0.0
 30
0.0
210
0.0
220
0.0
230
1.0
  2
SOLID
 70
     1
 71
     0
 91
        2
 92
        0
 93
        6
 72
     4
 94
        3
 73
     1
 74
     0
 95
       20
 96
       16
 40
0.0
 40
0.0
 40
0.0
 40
0.0
 40
1.0
 40
1.0
 40
1.0
 40
2.0
 40
2.0
 40
2.0
 40
3.0
 40
3.0
 40
3.0
 40
4.0
 40
4.0
 40
4.0
 40
5.0
 40
5.0
 40
5.0
 40
5.0
 10
261.0219043336847
 20
23.63056361828031
 42
1.0
 10
261.2341319795987
 20
23.68742184709604
 42
1.0
 10
261.3945785321864
 20
23.72473719781129
 42
1.0
 10
261.5515161764629
 20
23.77337299628437
 42
1.0
 10
262.5617362220245
 20
24.08644572151765
 42
1.0
 10
262.9966382899503
 20
24.76217905347502
 42
1.0
 10
262.9131259646454
 20
25.88395655371281
 42
1.0
 10
262.8488620904764
 20
26.74717259793779
 42
1.0
 10
262.3071445332423
 20
27.30037799580671
 42
1.0
 10
261.2989762515715
 20
27.40941936834727
 42
1.0
 10
260.5093946232761
 20
27.49481913962259
 42
1.0
 10
259.7094699986221
 20
27.48819126576296
 42
1.0
 10
258.913837050576
 20
27.51251762112626
 42
1.0
 10
258.5159962651877
 20
27.52468175973202
 42
1.0
 10
258.1174764912431
 20
27.51463645747964
 42
1.0
 10
257.7192638284546
 20
27.51463645747964
 42
1.0
 72
     4
 94
        3
 73
     1
 74
     0
 95
       14
 96
       10
 40
17.0
 40
17.0
 40
17.0
 40
17.0
 40
18.0
 40
18.0
 40
18.0
 40
19.0
 40
19.0
 40
19.0
 40
20.0
 40
20.0
 40
20.0
 40
20.0
 10
257.7192638284546
 20
27.51463645747964
 42
1.0
 10
258.2057453879524
 20
27.36893835120056
 42
1.0
 10
258.4151924094879
 20
27.04153921726714
 42
1.0
 10
258.4151320634913
 20
26.55729487989966
 42
1.0
 10
258.4149081683119
 20
24.76100595804667
 42
1.0
 10
258.4191609275175
 20
22.96470127704905
 42
1.0
 10
258.4124688639662
 20
21.16843695483816
 42
1.0
 10
258.4104423723632
 20
20.62446660851326
 42
1.0
 10
258.2139995287706
 20
20.39587059142628
 42
1.0
 10
257.7053577757453
 20
20.25910042553502
 42
1.0
 72
     1
 10
257.7053577757453
 20
20.25910042553502
 11
260.1134120717832
 21
20.25910042553502
 72
     4
 94
        3
 73
     1
 74
     0
 95
       14
 96
       10
 40
13.0
 40
13.0
 40
13.0
 40
13.0
 40
14.0
 40
14.0
 40
14.0
 40
15.0
 40
15.0
 40
15.0
 40
16.0
 40
16.0
 40
16.0
 40
16.0
 10
260.1134120717832
 20
20.25910042553502
 42
1.0
 10
259.6377614656041
 20
20.40079128856704
 42
1.0
 10
259.4435911100346
 20
20.64162793377141
 42
1.0
 10
259.4408326829897
 20
21.14221143023692
 42
1.0
 10
259.4366701545022
 20
21.89763799307775
 42
1.0
 10
259.4392191002215
 20
22.65310606781492
 42
1.0
 10
259.4405559370167
 20
23.40855338660287
 42
1.0
 10
259.4406539512153
 20
23.46398560492077
 42
1.0
 10
259.4539911852495
 20
23.51939476107442
 42
1.0
 10
259.4607286043899
 20
23.57138302951071
 42
1.0
 72
     4
 94
        3
 73
     1
 74
     0
 95
       20
 96
       16
 40
8.0
 40
8.0
 40
8.0
 40
8.0
 40
9.0
 40
9.0
 40
9.0
 40
10.0
 40
10.0
 40
10.0
 40
11.0
 40
11.0
 40
11.0
 40
12.0
 40
12.0
 40
12.0
 40
13.0
 40
13.0
 40
13.0
 40
13.0
 10
259.4607286043899
 20
23.57138302951071
 42
1.0
 10
260.3725694925604
 20
23.65083910446931
 42
1.0
 10
260.6054131759577
 20
23.52556773374194
 42
1.0
 10
261.0037355762117
 20
22.71920223094413
 42
1.0
 10
261.378026816807
 20
21.9614848264415
 42
1.0
 10
261.7451764738302
 20
21.200166649339
 42
1.0
 10
262.1067370153144
 20
20.43629933433309
 42
1.0
 10
262.1765046750147
 20
20.28890135435546
 42
1.0
 10
262.2549406335689
 20
20.22203337745712
 42
1.0
 10
262.427398730108
 20
20.22724465786873
 42
1.0
 10
262.8718696744063
 20
20.24067529366942
 42
1.0
 10
263.3170171088603
 20
20.2311736819415
 42
1.0
 10
263.7618904879274
 20
20.2323936704376
 42
1.0
 10
263.8264337986554
 20
20.23257048036439
 42
1.0
 10
263.8909540472192
 20
20.24131411562171
 42
1.0
 10
263.9554858268652
 20
20.24609336482204
 42
1.0
 72
     4
 94
        3
 73
     1
 74
     0
 95
       14
 96
       10
 40
5.0
 40
5.0
 40
5.0
 40
5.0
 40
6.0
 40
6.0
 40
6.0
 40
7.0
 40
7.0
 40
7.0
 40
8.0
 40
8.0
 40
8.0
 40
8.0
 10
263.9554858268652
 20
20.24609336482204
 42
1.0
 10
263.5606000734738
 20
20.32757122285868
 42
1.0
 10
263.3178377375433
 20
20.57267359973515
 42
1.0
 10
263.1292772534607
 20
20.88520667032095
 42
1.0
 10
262.8739775562312
 20
21.30835818112304
 42
1.0
 10
262.6276890153665
 20
21.7369354504649
 42
1.0
 10
262.3739921385617
 20
22.16106556577572
 42
1.0
 10
262.033208300972
 20
22.73079019980925
 42
1.0
 10
261.7521543160346
 20
23.35408286053947
 42
1.0
 10
261.0219043336847
 20
23.63056361828031
 42
1.0
 97
        0
 92
        0
 93
        2
 72
     1
 10
259.4558811296203
 20
23.74052094311722
 11
259.4558811296203
 21
27.35855230546976
 72
     4
 94
        3
 73
     1
 74
     0
 95
       20
 96
       16
 40
1.0
 40
1.0
 40
1.0
 40
1.0
 40
2.0
 40
2.0
 40
2.0
 40
3.0
 40
3.0
 40
3.0
 40
4.0
 40
4.0
 40
4.0
 40
5.0
 40
5.0
 40
5.0
 40
6.0
 40
6.0
 40
6.0
 40
6.0
 10
259.4558811296203
 20
27.35855230546976
 42
1.0
 10
259.8103733099057
 20
27.35855230546976
 42
1.0
 10
260.1467440101549
 20
27.38072599997261
 42
1.0
 10
260.4792308497364
 20
27.35420547185249
 42
1.0
 10
261.3230227860075
 20
27.28690123567825
 42
1.0
 10
261.7108519014664
 20
26.95476897687368
 42
1.0
 10
261.8164781518313
 20
26.10478869315943
 42
1.0
 10
261.8719876284001
 20
25.65810454981779
 42
1.0
 10
261.8389787525148
 20
25.18024881635489
 42
1.0
 10
261.7413862071132
 20
24.73962656292206
 42
1.0
 10
261.608259863196
 20
24.13857044109259
 42
1.0
 10
261.1506181168165
 20
23.81517009427841
 42
1.0
 10
260.5489927438957
 20
23.74778168120397
 42
1.0
 10
260.1942113256325
 20
23.70804326575078
 42
1.0
 10
259.8313410453958
 20
23.74052094311722
 42
1.0
 10
259.4558811296203
 20
23.74052094311722
 42
1.0
 97
        0
 75
     0
 76
     1
 98
        1
 10
0.0
 20
0.0
  0
HATCH
  5
75
330
1F
100
AcDbEntity
  8
0
  6
Continuous
 62
     7
100
AcDbHatch
 10
0.0
 20
0.0
 30
0.0
210
0.0
220
0.0
230
1.0
  2
SOLID
 70
     1
 71
     0
 91
        2
 92
        0
 93
        2
 72
     4
 94
        3
 73
     1
 74
     0
 95
       14
 96
       10
 40
0.0
 40
0.0
 40
0.0
 40
0.0
 40
1.0
 40
1.0
 40
1.0
 40
2.0
 40
2.0
 40
2.0
 40
3.0
 40
3.0
 40
3.0
 40
3.0
 10
267.2336118279071
 20
20.23490821509466
 42
1.0
 10
268.1650050112285
 20
19.98240211471103
 42
1.0
 10
269.1482911393735
 20
20.33660467264827
 42
1.0
 10
269.7215189161771
 20
21.13111084177937
 42
1.0
 10
270.3723808569537
 20
22.03321892002499
 42
1.0
 10
270.372934348899
 20
23.32205720159637
 42
1.0
 10
269.7103360726668
 20
24.21398909980579
 42
1.0
 10
269.2464106552308
 20
24.83848445240961
 42
1.0
 10
268.6216197225536
 20
25.16033694362372
 42
1.0
 10
267.7758432870376
 20
25.16748813643033
 42
1.0
 72
     4
 94
        3
 73
     1
 74
     0
 95
       14
 96
       10
 40
3.0
 40
3.0
 40
3.0
 40
3.0
 40
4.0
 40
4.0
 40
4.0
 40
5.0
 40
5.0
 40
5.0
 40
6.0
 40
6.0
 40
6.0
 40
6.0
 10
267.7758432870376
 20
25.16748813643033
 42
1.0
 10
266.9062728477855
 20
25.1505801106106
 42
1.0
 10
266.225828300013
 20
24.723612195973
 42
1.0
 10
265.7739382574312
 20
23.92202056120339
 42
1.0
 10
265.4879189885011
 20
23.41465794151554
 42
1.0
 10
265.4259332718035
 20
22.86561853145873
 42
1.0
 10
265.4837047623288
 20
22.29272284982232
 42
1.0
 10
265.5792320909092
 20
21.34541139190241
 42
1.0
 10
266.3034040398354
 20
20.48709452013179
 42
1.0
 10
267.2336118279071
 20
20.23490821509466
 42
1.0
 97
        0
 92
        0
 93
        2
 72
     4
 94
        3
 73
     1
 74
     0
 95
       17
 96
       13
 40
0.0
 40
0.0
 40
0.0
 40
0.0
 40
1.0
 40
1.0
 40
1.0
 40
2.0
 40
2.0
 40
2.0
 40
3.0
 40
3.0
 40
3.0
 40
4.0
 40
4.0
 40
4.0
 40
4.0
 10
266.4699528411193
 20
22.82140374989816
 42
1.0
 10
266.4968487059656
 20
23.23360918874381
 42
1.0
 10
266.5993976948625
 20
23.64490674705059
 42
1.0
 10
266.7072125446274
 20
24.04607386528146
 42
1.0
 10
266.7597204805012
 20
24.2414496033099
 42
1.0
 10
266.882078331128
 20
24.42789874624283
 42
1.0
 10
267.0072628343699
 20
24.59213287496141
 42
1.0
 10
267.4640605055332
 20
25.19142205062979
 42
1.0
 10
268.2143234497673
 20
25.18405330473933
 42
1.0
 10
268.6683621173312
 20
24.58056604641373
 42
1.0
 10
269.0963628325642
 20
24.01168817818241
 42
1.0
 10
269.195680043492
 20
23.34551372899321
 42
1.0
 10
269.218762963826
 20
22.68351122534059
 42
1.0
 72
     4
 94
        3
 73
     1
 74
     0
 95
       17
 96
       13
 40
4.0
 40
4.0
 40
4.0
 40
4.0
 40
5.0
 40
5.0
 40
5.0
 40
6.0
 40
6.0
 40
6.0
 40
7.0
 40
7.0
 40
7.0
 40
8.0
 40
8.0
 40
8.0
 40
8.0
 10
269.218762963826
 20
22.68351122534059
 42
1.0
 10
269.202432645224
 20
22.05765558940843
 42
1.0
 10
269.1208448575376
 20
21.47214721006825
 42
1.0
 10
268.810867074766
 20
20.94311038392242
 42
1.0
 10
268.6078393105943
 20
20.5966013640246
 42
1.0
 10
268.3388937306983
 20
20.33416469565678
 42
1.0
 10
267.9076604687568
 20
20.30531315927085
 42
1.0
 10
267.4153070900211
 20
20.27237193240103
 42
1.0
 10
267.1048165584612
 20
20.54785025472892
 42
1.0
 10
266.8746830637486
 20
20.93428603108956
 42
1.0
 10
266.5287029361534
 20
21.51524885782822
 42
1.0
 10
266.4269741915698
 20
22.16270989809668
 42
1.0
 10
266.4699528411193
 20
22.82140374989816
 42
1.0
 97
        0
 75
     0
 76
     1
 98
        1
 10
0.0
 20
0.0
  0
HATCH
  5
76
330
1F
100
AcDbEntity
  8
0
  6
Continuous
 62
     7
100
AcDbHatch
 10
0.0
 20
0.0
 30
0.0
210
0.0
220
0.0
230
1.0
  2
SOLID
 70
     1
 71
     0
 91
        1
 92
        0
 93
        4
 72
     1
 10
273.9540333846496
 20
27.87257450949275
 11
272.4594267850394
 21
27.32510813123116
 72
     4
 94
        3
 73
     1
 74
     0
 95
       14
 96
       10
 40
6.0
 40
6.0
 40
6.0
 40
6.0
 40
7.0
 40
7.0
 40
7.0
 40
8.0
 40
8.0
 40
8.0
 40
9.0
 40
9.0
 40
9.0
 40
9.0
 10
272.4594267850394
 20
27.32510813123116
 42
1.0
 10
272.9826104338649
 20
27.28380667758701
 42
1.0
 10
273.0476395875227
 20
27.23250104921648
 42
1.0
 10
273.0527409382852
 20
26.65700799131587
 42
1.0
 10
273.0685846452182
 20
24.86961337752774
 42
1.0
 10
273.0702866329497
 20
23.08209538116094
 42
1.0
 10
273.0783845276048
 20
21.29462927466367
 42
1.0
 10
273.0805785081768
 20
20.81042375860576
 42
1.0
 10
273.0059923935969
 20
20.37668517687364
 42
1.0
 10
272.426404840594
 20
20.2590796695872
 42
1.0
 72
     1
 10
272.426404840594
 20
20.2590796695872
 11
274.6224502449564
 21
20.2590796695872
 72
     4
 94
        3
 73
     1
 74
     0
 95
       17
 96
       13
 40
1.0
 40
1.0
 40
1.0
 40
1.0
 40
2.0
 40
2.0
 40
2.0
 40
3.0
 40
3.0
 40
3.0
 40
4.0
 40
4.0
 40
4.0
 40
5.0
 40
5.0
 40
5.0
 40
5.0
 10
274.6224502449564
 20
20.2590796695872
 42
1.0
 10
274.1836818051716
 20
20.38260600321025
 42
1.0
 10
274.0006220316647
 20
20.58964274029083
 42
1.0
 10
273.9590578615309
 20
21.04279505200226
 42
1.0
 10
273.9506540088286
 20
21.13443409966764
 42
1.0
 10
273.954217881965
 20
21.22727776105204
 42
1.0
 10
273.9542086570993
 20
21.31956562427539
 42
1.0
 10
273.9539872603212
 20
23.41776441505853
 42
1.0
 10
273.9540349221275
 20
25.51596282147274
 42
1.0
 10
273.9540333846496
 20
27.61416161225588
 42
1.0
 10
273.9540333846496
 20
27.71082379150879
 42
1.0
 10
273.9540333846496
 20
27.8074859707617
 42
1.0
 10
273.9540333846496
 20
27.87257450949275
 42
1.0
 97
        0
 75
     0
 76
     1
 98
        1
 10
0.0
 20
0.0
  0
HATCH
  5
77
330
1F
100
AcDbEntity
  8
0
  6
Continuous
 62
     7
100
AcDbHatch
 10
0.0
 20
0.0
 30
0.0
210
0.0
220
0.0
230
1.0
  2
SOLID
 70
     1
 71
     0
 91
        1
 92
        0
 93
        4
 72
     1
 10
276.9460186560295
 20
20.2549177176549
 11
279.1055120673172
 21
20.2549177176549
 72
     4
 94
        3
 73
     1
 74
     0
 95
       14
 96
       10
 40
6.0
 40
6.0
 40
6.0
 40
6.0
 40
7.0
 40
7.0
 40
7.0
 40
8.0
 40
8.0
 40
8.0
 40
9.0
 40
9.0
 40
9.0
 40
9.0
 10
279.1055120673172
 20
20.2549177176549
 42
1.0
 10
278.6550987719953
 20
20.40793364087759
 42
1.0
 10
278.4823339486704
 20
20.63637283524633
 42
1.0
 10
278.4822124879378
 20
21.11904779232805
 42
1.0
 10
278.4816605334703
 20
23.30086999117493
 42
1.0
 10
278.4819664915176
 20
25.48269219002111
 42
1.0
 10
278.4819649540404
 20
27.66451419668386
 42
1.0
 10
278.4819649540404
 20
27.75219577693941
 42
1.0
 10
278.4819664915176
 20
27.83987735719566
 42
1.0
 10
278.4819664915176
 20
27.88441039662488
 42
1.0
 72
     1
 10
278.4819664915176
 20
27.88441039662488
 11
276.9846800684063
 21
27.3296354262854
 72
     4
 94
        3
 73
     1
 74
     0
 95
       17
 96
       13
 40
1.0
 40
1.0
 40
1.0
 40
1.0
 40
2.0
 40
2.0
 40
2.0
 40
3.0
 40
3.0
 40
3.0
 40
4.0
 40
4.0
 40
4.0
 40
5.0
 40
5.0
 40
5.0
 40
5.0
 10
276.9846800684063
 20
27.3296354262854
 42
1.0
 10
277.5366914227135
 20
27.25167954511983
 42
1.0
 10
277.5738092075535
 20
27.20775573119973
 42
1.0
 10
277.5772915943764
 20
26.57154691311976
 42
1.0
 10
277.5773838430334
 20
26.55476419172763
 42
1.0
 10
277.577359243392
 20
26.53798031722657
 42
1.0
 10
277.577359243392
 20
26.52119721146337
 42
1.0
 10
277.5773700057348
 20
24.72538990447762
 42
1.0
 10
277.5776652014392
 20
22.92958298186009
 42
1.0
 10
277.5771993457187
 20
21.13377529050539
 42
1.0
 10
277.5770686601204
 20
20.6342380475635
 42
1.0
 10
277.4179566381115
 20
20.4199152040148
 42
1.0
 10
276.9460186560295
 20
20.2549177176549
 42
1.0
 97
        0
 75
     0
 76
     1
 98
        1
 10
0.0
 20
0.0
  0
HATCH
  5
78
330
1F
100
AcDbEntity
  8
0
  6
Continuous
 62
     7
100
AcDbHatch
 10
0.0
 20
0.0
 30
0.0
210
0.0
220
0.0
230
1.0
  2
SOLID
 70
     1
 71
     0
 91
        3
 92
        0
 93
        9
 72
     4
 94
        3
 73
     1
 74
     0
 95
       14
 96
       10
 40
0.0
 40
0.0
 40
0.0
 40
0.0
 40
1.0
 40
1.0
 40
1.0
 40
2.0
 40
2.0
 40
2.0
 40
3.0
 40
3.0
 40
3.0
 40
3.0
 10
287.0539854214827
 20
21.61211917311517
 42
1.0
 10
287.2972697310664
 20
21.3082559388604
 42
1.0
 10
287.5152010346028
 20
21.01001756649998
 42
1.0
 10
287.7601488949774
 20
20.73592220529573
 42
1.0
 10
288.1784811821614
 20
20.26780485511384
 42
1.0
 10
288.7048673968812
 20
20.09831485913089
 42
1.0
 10
289.3271645408483
 20
20.20870037148624
 42
1.0
 10
289.9739444785289
 20
20.32342848939635
 42
1.0
 10
290.7160910783766
 20
21.04182259740494
 42
1.0
 10
290.8103661314317
 20
21.70506046432864
 42
1.0
 72
     4
 94
        3
 73
     1
 74
     0
 95
       14
 96
       10
 40
24.0
 40
24.0
 40
24.0
 40
24.0
 40
25.0
 40
25.0
 40
25.0
 40
26.0
 40
26.0
 40
26.0
 40
27.0
 40
27.0
 40
27.0
 40
27.0
 10
290.8103661314317
 20
21.70506046432864
 42
1.0
 10
290.6825002672103
 20
21.49939669476813
 42
1.0
 10
290.5884281612034
 20
21.32571784099438
 42
1.0
 10
290.4735170834558
 20
21.16713932372221
 42
1.0
 10
289.9836367374808
 20
20.49110656799653
 42
1.0
 10
289.3841588364346
 20
20.43289382139212
 42
1.0
 10
288.8166481701822
 20
21.05011190802389
 42
1.0
 10
288.4270667146001
 20
21.47381844824843
 42
1.0
 10
288.0996055050067
 20
21.95463920731319
 42
1.0
 10
287.7314564875268
 20
22.4264857094768
 42
1.0
 72
     4
 94
        3
 73
     1
 74
     0
 95
       11
 96
        7
 40
22.0
 40
22.0
 40
22.0
 40
22.0
 40
23.0
 40
23.0
 40
23.0
 40
24.0
 40
24.0
 40
24.0
 40
24.0
 10
287.7314564875268
 20
22.4264857094768
 42
1.0
 10
288.1508588591387
 20
23.00030157147278
 42
1.0
 10
288.5466855488353
 20
23.55949371503118
 42
1.0
 10
288.9612633156569
 20
24.10441845059237
 42
1.0
 10
289.4290162836425
 20
24.71923384406366
 42
1.0
 10
289.9536528488242
 20
25.26443186627322
 42
1.0
 10
290.7742138825406
 20
25.39867403457779
 42
1.0
 72
     1
 10
290.7742138825406
 20
25.39867403457779
 11
287.7715077796773
 21
25.39867403457779
 72
     4
 94
        3
 73
     1
 74
     0
 95
       17
 96
       13
 40
16.0
 40
16.0
 40
16.0
 40
16.0
 40
17.0
 40
17.0
 40
17.0
 40
18.0
 40
18.0
 40
18.0
 40
19.0
 40
19.0
 40
19.0
 40
20.0
 40
20.0
 40
20.0
 40
20.0
 10
287.7715077796773
 20
25.39867403457779
 42
1.0
 10
287.9710693005408
 20
25.34310267453518
 42
1.0
 10
288.1718392788191
 20
25.32949945687163
 42
1.0
 10
288.3670435880915
 20
25.28904726743022
 42
1.0
 10
288.7601181928394
 20
25.20759054971102
 42
1.0
 10
288.9174636530569
 20
24.97387165717582
 42
1.0
 10
288.8543009972361
 20
24.57697987985169
 42
1.0
 10
288.8373887433532
 20
24.47070865762303
 42
1.0
 10
288.8131334963293
 20
24.35736772890119
 42
1.0
 10
288.7595985254019
 20
24.26650702928458
 42
1.0
 10
288.4211781752921
 20
23.692108847638
 42
1.0
 10
288.0735790837579
 20
23.12311989664797
 42
1.0
 10
287.7233847299918
 20
22.54303496963325
 42
1.0
 72
     1
 10
287.7233847299918
 20
22.54303496963325
 11
285.8065406500284
 21
24.86455968857224
 72
     4
 94
        3
 73
     1
 74
     0
 95
       20
 96
       16
 40
10.0
 40
10.0
 40
10.0
 40
10.0
 40
11.0
 40
11.0
 40
11.0
 40
12.0
 40
12.0
 40
12.0
 40
13.0
 40
13.0
 40
13.0
 40
14.0
 40
14.0
 40
14.0
 40
15.0
 40
15.0
 40
15.0
 40
15.0
 10
285.8065406500283
 20
24.86455968857225
 42
1.0
 10
285.9002991106001
 20
24.9215528310502
 42
1.0
 10
286.0025259979348
 20
24.975621306713
 42
1.0
 10
286.0959738880259
 20
25.04203380586477
 42
1.0
 10
286.361711520857
 20
25.23088333574105
 42
1.0
 10
286.6551698752792
 20
25.39378370261948
 42
1.0
 10
286.8815726805328
 20
25.62247811827483
 42
1.0
 10
287.5614237619422
 20
26.30921056516709
 42
1.0
 10
287.361321048954
 20
27.32558686332681
 42
1.0
 10
286.4793408590448
 20
27.71426216803416
 42
1.0
 10
285.840402057257
 20
27.99583274545401
 42
1.0
 10
285.1912113546599
 20
27.99239110178883
 42
1.0
 10
284.558084218296
 20
27.68711127408746
 42
1.0
 10
283.9109291360762
 20
27.37506654483262
 42
1.0
 10
283.6309452355653
 20
26.8393466878164
 42
1.0
 10
283.7149530130354
 20
26.1296866058298
 42
1.0
 72
     4
 94
        3
 73
     1
 74
     0
 95
       11
 96
        7
 40
8.0
 40
8.0
 40
8.0
 40
8.0
 40
9.0
 40
9.0
 40
9.0
 40
10.0
 40
10.0
 40
10.0
 40
10.0
 10
283.7149530130354
 20
26.1296866058298
 42
1.0
 10
283.7707819005811
 20
25.65802498535045
 42
1.0
 10
284.0198409761273
 20
25.28515591156022
 42
1.0
 10
284.3077767109179
 20
24.93075271279267
 42
1.0
 10
284.4323277733789
 20
24.77744812814591
 42
1.0
 10
284.5641388051866
 20
24.6300390014551
 42
1.0
 10
284.7027239634148
 20
24.46818604120849
 42
1.0
 72
     4
 94
        3
 73
     1
 74
     0
 95
       20
 96
       16
 40
3.0
 40
3.0
 40
3.0
 40
3.0
 40
4.0
 40
4.0
 40
4.0
 40
5.0
 40
5.0
 40
5.0
 40
6.0
 40
6.0
 40
6.0
 40
7.0
 40
7.0
 40
7.0
 40
8.0
 40
8.0
 40
8.0
 40
8.0
 10
284.7027239634148
 20
24.46818604120849
 42
1.0
 10
284.5513685160267
 20
24.38851087568819
 42
1.0
 10
284.4255536469583
 20
24.32317807019961
 42
1.0
 10
284.3005597909425
 20
24.25632085564481
 42
1.0
 10
283.8607304915963
 20
24.02105948868024
 42
1.0
 10
283.460866385652
 20
23.73663343094009
 42
1.0
 10
283.1417229300147
 20
23.34576433784628
 42
1.0
 10
282.3522343191156
 20
22.37884389028816
 42
1.0
 10
282.6109241545095
 20
20.5355588898502
 42
1.0
 10
284.198169930981
 20
20.23446388406056
 42
1.0
 10
285.1515567317372
 20
20.05360962220845
 42
1.0
 10
285.9488126796034
 20
20.36759637788916
 42
1.0
 10
286.5896302790503
 20
21.09003174583673
 42
1.0
 10
286.7443651022574
 20
21.26447318851251
 42
1.0
 10
286.8995550188436
 20
21.43851181205056
 42
1.0
 10
287.0539854214827
 20
21.61211917311517
 42
1.0
 97
        0
 92
        0
 93
        2
 72
     4
 94
        3
 73
     1
 74
     0
 95
       14
 96
       10
 40
0.0
 40
0.0
 40
0.0
 40
0.0
 40
1.0
 40
1.0
 40
1.0
 40
2.0
 40
2.0
 40
2.0
 40
3.0
 40
3.0
 40
3.0
 40
3.0
 10
284.688382372121
 20
27.15085253116304
 42
1.0
 10
284.8337724063213
 20
27.5710895609412
 42
1.0
 10
285.1818973152029
 20
27.79269159230804
 42
1.0
 10
285.6158934244382
 20
27.76810636414938
 42
1.0
 10
285.9916529561654
 20
27.74682017860581
 42
1.0
 10
286.2400293916459
 20
27.5110460628537
 42
1.0
 10
286.3549927436335
 20
27.06650131962916
 42
1.0
 10
286.5713650448558
 20
26.2298440482801
 42
1.0
 10
286.3259713159692
 20
25.4295804098103
 42
1.0
 10
285.6520579731507
 20
24.9254318870995
 42
1.0
 72
     4
 94
        3
 73
     1
 74
     0
 95
       11
 96
        7
 40
3.0
 40
3.0
 40
3.0
 40
3.0
 40
4.0
 40
4.0
 40
4.0
 40
5.0
 40
5.0
 40
5.0
 40
5.0
 10
285.6520579731507
 20
24.9254318870995
 42
1.0
 10
285.3510444536752
 20
25.31853032275095
 42
1.0
 10
285.0380140090768
 20
25.68714980838475
 42
1.0
 10
284.7721626029031
 20
26.08712768767229
 42
1.0
 10
284.5571094574822
 20
26.41068293535724
 42
1.0
 10
284.5630810205802
 20
26.788679112661
 42
1.0
 10
284.688382372121
 20
27.15085253116304
 42
1.0
 97
        0
 92
        0
 93
        2
 72
     1
 10
284.845288113738
 20
24.3712657578988
 11
287.0009947176327
 21
21.77781006188367
 72
     4
 94
        3
 73
     1
 74
     0
 95
       14
 96
       10
 40
1.0
 40
1.0
 40
1.0
 40
1.0
 40
2.0
 40
2.0
 40
2.0
 40
3.0
 40
3.0
 40
3.0
 40
4.0
 40
4.0
 40
4.0
 40
4.0
 10
287.0009947176327
 20
21.77781006188367
 42
1.0
 10
286.5509442670314
 20
21.22618922689351
 42
1.0
 10
286.0339581905155
 20
20.90925282038733
 42
1.0
 10
285.3603677179978
 20
20.87638462370451
 42
1.0
 10
284.4974276510072
 20
20.83427541775252
 42
1.0
 10
283.8665083325146
 20
21.39392726712143
 42
1.0
 10
283.7780264951535
 20
22.28619625730053
 42
1.0
 10
283.6988925217564
 20
23.08417174469389
 42
1.0
 10
284.1054815548355
 20
23.90423117633508
 42
1.0
 10
284.845288113738
 20
24.3712657578988
 42
1.0
 97
        0
 75
     0
 76
     1
 98
        1
 10
0.0
 20
0.0
  0
HATCH
  5
79
330
1F
100
AcDbEntity
  8
0
  6
Continuous
 62
     7
100
AcDbHatch
 10
0.0
 20
0.0
 30
0.0
210
0.0
220
0.0
230
1.0
  2
SOLID
 70
     1
 71
     0
 91
        1
 92
        0
 93
        2
 72
     4
 94
        3
 73
     1
 74
     0
 95
       11
 96
        7
 40
0.0
 40
0.0
 40
0.0
 40
0.0
 40
1.0
 40
1.0
 40
1.0
 40
2.0
 40
2.0
 40
2.0
 40
2.0
 10
303.0570519104932
 20
26.35430478392947
 42
1.0
 10
303.0628482011429
 20
25.96449808787493
 42
1.0
 10
303.3259905717408
 20
25.69768229885988
 42
1.0
 10
303.6993639381942
 20
25.70301926806731
 42
1.0
 10
304.0680572227529
 20
25.70828897263022
 42
1.0
 10
304.3293945946187
 20
25.98752450590587
 42
1.0
 10
304.327448147944
 20
26.37412133304796
 42
1.0
 72
     4
 94
        3
 73
     1
 74
     0
 95
       11
 96
        7
 40
2.0
 40
2.0
 40
2.0
 40
2.0
 40
3.0
 40
3.0
 40
3.0
 40
4.0
 40
4.0
 40
4.0
 40
4.0
 10
304.327448147944
 20
26.37412133304796
 42
1.0
 10
304.3255386007336
 20
26.75299425696746
 42
1.0
 10
304.0507636744179
 20
27.04560238626284
 42
1.0
 10
303.6924299141011
 20
27.05034857969325
 42
1.0
 10
303.3266947364936
 20
27.05519259513757
 42
1.0
 10
303.0511172468595
 20
26.75330175249256
 42
1.0
 10
303.0570519104932
 20
26.35430478392947
 42
1.0
 97
        0
 75
     0
 76
     1
 98
        1
 10
0.0
 20
0.0
  0
HATCH
  5
7A
330
1F
100
AcDbEntity
  8
0
  6
Continuous
 62
     7
100
AcDbHatch
 10
0.0
 20
0.0
 30
0.0
210
0.0
220
0.0
230
1.0
  2
SOLID
 70
     1
 71
     0
 91
        1
 92
        0
 93
        4
 72
     1
 10
302.6973344203136
 20
20.2539775500868
 11
304.8038079156778
 21
20.2539775500868
 72
     4
 94
        3
 73
     1
 74
     0
 95
       17
 96
       13
 40
6.0
 40
6.0
 40
6.0
 40
6.0
 40
7.0
 40
7.0
 40
7.0
 40
8.0
 40
8.0
 40
8.0
 40
9.0
 40
9.0
 40
9.0
 40
10.0
 40
10.0
 40
10.0
 40
10.0
 10
304.8038079156778
 20
20.2539775500868
 42
1.0
 10
304.4578262506061
 20
20.33981031349822
 42
1.0
 10
304.2621822227331
 20
20.55023795748124
 42
1.0
 10
304.2107535961514
 20
20.89393877449616
 42
1.0
 10
304.1922454404932
 20
21.01764883669525
 42
1.0
 10
304.1821011631179
 20
21.14380579453512
 42
1.0
 10
304.1818797663412
 20
21.26887114326077
 42
1.0
 10
304.1797703470369
 20
22.46084295323946
 42
1.0
 10
304.1808527312862
 20
23.65282014439031
 42
1.0
 10
304.1800932173391
 20
24.84479541369365
 42
1.0
 10
304.1800409430993
 20
24.93136078519359
 42
1.0
 10
304.1727133247369
 20
25.01792115989102
 42
1.0
 10
304.1706223551654
 20
25.06377258638473
 42
1.0
 72
     1
 10
304.1706223551654
 20
25.06377258638473
 11
302.7125031745686
 21
24.50968064047992
 72
     4
 94
        3
 73
     1
 74
     0
 95
       17
 96
       13
 40
1.0
 40
1.0
 40
1.0
 40
1.0
 40
2.0
 40
2.0
 40
2.0
 40
3.0
 40
3.0
 40
3.0
 40
4.0
 40
4.0
 40
4.0
 40
5.0
 40
5.0
 40
5.0
 40
5.0
 10
302.7125031745686
 20
24.50968064047994
 42
1.0
 10
302.7604109773859
 20
24.50557288463289
 42
1.0
 10
302.8224697242704
 20
24.49650561033552
 42
1.0
 10
302.8846514693661
 20
24.49557889569631
 42
1.0
 10
303.1332831261333
 20
24.4918735746181
 42
1.0
 10
303.2632153602819
 20
24.35030186610297
 42
1.0
 10
303.2668591822546
 20
24.11891186780057
 42
1.0
 10
303.2829750227277
 20
23.09531768874206
 42
1.0
 10
303.296603224403
 20
22.071496731734
 42
1.0
 10
303.2916556214044
 20
21.04785181591346
 42
1.0
 10
303.2897768237453
 20
20.65853557522151
 42
1.0
 10
303.1321361678242
 20
20.3494649042487
 42
1.0
 10
302.6973344203136
 20
20.2539775500868
 42
1.0
 97
        0
 75
     0
 76
     1
 98
        1
 10
0.0
 20
0.0
  0
HATCH
  5
7B
330
1F
100
AcDbEntity
  8
0
  6
Continuous
 62
     7
100
AcDbHatch
 10
0.0
 20
0.0
 30
0.0
210
0.0
220
0.0
230
1.0
  2
SOLID
 70
     1
 71
     0
 91
        1
 92
        0
 93
        4
 72
     1
 10
308.65963267846
 20
27.88697759989075
 11
307.1608133901539
 21
27.32540717062984
 72
     4
 94
        3
 73
     1
 74
     0
 95
       20
 96
       16
 40
5.0
 40
5.0
 40
5.0
 40
5.0
 40
6.0
 40
6.0
 40
6.0
 40
7.0
 40
7.0
 40
7.0
 40
8.0
 40
8.0
 40
8.0
 40
9.0
 40
9.0
 40
9.0
 40
10.0
 40
10.0
 40
10.0
 40
10.0
 10
307.1608133901539
 20
27.32540717062984
 42
1.0
 10
307.6774858212348
 20
27.28280885460759
 42
1.0
 10
307.7501131893193
 20
27.20350460556406
 42
1.0
 10
307.7547502218385
 20
26.63215658734291
 42
1.0
 10
307.7552944889174
 20
26.56503146731187
 42
1.0
 10
307.7550361926765
 20
26.49789904426262
 42
1.0
 10
307.7550361926765
 20
26.43077008053731
 42
1.0
 10
307.7550484924979
 20
24.69380511724257
 42
1.0
 10
307.7587445887104
 20
22.95682170421714
 42
1.0
 10
307.7500732149022
 20
21.21990094340409
 42
1.0
 10
307.7490584796685
 20
21.01681475508336
 42
1.0
 10
307.7285516030971
 20
20.78446498637255
 42
1.0
 10
307.6283941606454
 20
20.61954360515536
 42
1.0
 10
307.5293898264143
 20
20.45652254628292
 42
1.0
 10
307.3179589782804
 20
20.36177625633667
 42
1.0
 10
307.178408284104
 20
20.25443648715803
 42
1.0
 72
     1
 10
307.178408284104
 20
20.25443648715803
 11
309.3620693061908
 21
20.25443648715802
 72
     4
 94
        3
 73
     1
 74
     0
 95
       14
 96
       10
 40
1.0
 40
1.0
 40
1.0
 40
1.0
 40
2.0
 40
2.0
 40
2.0
 40
3.0
 40
3.0
 40
3.0
 40
4.0
 40
4.0
 40
4.0
 40
4.0
 10
309.3620693061908
 20
20.25443648715802
 42
1.0
 10
308.807415027844
 20
20.43200746554105
 42
1.0
 10
308.6597679764911
 20
20.6374237012035
 42
1.0
 10
308.6597187772069
 20
21.15880542625192
 42
1.0
 10
308.6595035303402
 20
23.32371921490944
 42
1.0
 10
308.65963267846
 20
25.48863300356693
 42
1.0
 10
308.65963267846
 20
27.65354698440997
 42
1.0
 10
308.65963267846
 20
27.74275854708867
 42
1.0
 10
308.65963267846
 20
27.83196991758182
 42
1.0
 10
308.65963267846
 20
27.88697759989075
 42
1.0
 97
        0
 75
     0
 76
     1
 98
        1
 10
0.0
 20
0.0
  0
HATCH
  5
7C
330
1F
100
AcDbEntity
  8
0
  6
Continuous
 62
     7
100
AcDbHatch
 10
0.0
 20
0.0
 30
0.0
210
0.0
220
0.0
230
1.0
  2
SOLID
 70
     1
 71
     0
 91
        1
 92
        0
 93
        4
 72
     1
 10
313.1781318226163
 20
27.87703492426926
 11
311.6691528821608
 21
27.32445797038016
 72
     4
 94
        3
 73
     1
 74
     0
 95
       17
 96
       13
 40
6.0
 40
6.0
 40
6.0
 40
6.0
 40
7.0
 40
7.0
 40
7.0
 40
8.0
 40
8.0
 40
8.0
 40
9.0
 40
9.0
 40
9.0
 40
10.0
 40
10.0
 40
10.0
 40
10.0
 10
311.6691528821608
 20
27.32445797038016
 42
1.0
 10
312.2096131670664
 20
27.27631108979181
 42
1.0
 10
312.2683694120104
 20
27.21300429544448
 42
1.0
 10
312.2823973578678
 20
26.60716642601487
 42
1.0
 10
312.2845313768121
 20
26.51487279724974
 42
1.0
 10
312.2871512386867
 20
26.42255802816857
 42
1.0
 10
312.2871819882395
 20
26.33025248395311
 42
1.0
 10
312.2877662297369
 20
24.60974045310045
 42
1.0
 10
312.2890700107628
 20
22.88922803787955
 42
1.0
 10
312.2876555313485
 20
21.16871754450475
 42
1.0
 10
312.2872188877024
 20
20.63608302071405
 42
1.0
 10
312.1185268426077
 20
20.41647125413319
 42
1.0
 10
311.6156486607861
 20
20.25320881127337
 42
1.0
 72
     1
 10
311.6156486607861
 20
20.25320881127337
 11
313.8867245107604
 21
20.25320881127337
 72
     4
 94
        3
 73
     1
 74
     0
 95
       17
 96
       13
 40
1.0
 40
1.0
 40
1.0
 40
1.0
 40
2.0
 40
2.0
 40
2.0
 40
3.0
 40
3.0
 40
3.0
 40
4.0
 40
4.0
 40
4.0
 40
5.0
 40
5.0
 40
5.0
 40
5.0
 10
313.8867245107604
 20
20.25320881127337
 42
1.0
 10
313.3266152617988
 20
20.4348325806782
 42
1.0
 10
313.1888880160859
 20
20.62648762285203
 42
1.0
 10
313.1786115156352
 20
21.17082388885262
 42
1.0
 10
313.1771847363981
 20
21.24633325874564
 42
1.0
 10
313.1781441224363
 20
21.32188875296783
 42
1.0
 10
313.1781441224363
 20
21.39742349124222
 42
1.0
 10
313.1781256727049
 20
23.48721689184593
 42
1.0
 10
313.1781318226163
 20
25.57700952371036
 42
1.0
 10
313.1781318226163
 20
27.66680273212925
 42
1.0
 10
313.1781318226163
 20
27.75161518695077
 42
1.0
 10
313.1781318226163
 20
27.83642744958889
 42
1.0
 10
313.1781318226163
 20
27.87703492426926
 42
1.0
 97
        0
 75
     0
 76
     1
 98
        1
 10
0.0
 20
0.0
  0
HATCH
  5
7D
330
1F
100
AcDbEntity
  8
0
  6
Continuous
 62
     7
100
AcDbHatch
 10
0.0
 20
0.0
 30
0.0
210
0.0
220
0.0
230
1.0
  2
SOLID
 70
     1
 71
     0
 91
        1
 92
        0
 93
       12
 72
     1
 10
296.2715297073844
 20
27.50458020069891
 11
293.841527870193
 21
27.50458020069891
 72
     4
 94
        3
 73
     1
 74
     0
 95
       17
 96
       13
 40
21.0
 40
21.0
 40
21.0
 40
21.0
 40
22.0
 40
22.0
 40
22.0
 40
23.0
 40
23.0
 40
23.0
 40
24.0
 40
24.0
 40
24.0
 40
25.0
 40
25.0
 40
25.0
 40
25.0
 10
293.841527870193
 20
27.50458020069891
 42
1.0
 10
294.4654639653083
 20
27.35271373418588
 42
1.0
 10
294.541848928711
 20
26.88863860486635
 42
1.0
 10
294.5396718603926
 20
26.35648992400541
 42
1.0
 10
294.5326947869268
 20
24.65236702027423
 42
1.0
 10
294.54232862173
 20
22.9481603240125
 42
1.0
 10
294.5304592944584
 20
21.24409084762873
 42
1.0
 10
294.52894334152
 20
21.02641399663968
 42
1.0
 10
294.4888489999954
 20
20.77588586122133
 42
1.0
 10
294.3739502220706
 20
20.60171040217499
 42
1.0
 10
294.2655211499942
 20
20.43733713173098
 42
1.0
 10
294.0348564567621
 20
20.35359533789035
 42
1.0
 10
293.8906841048422
 20
20.25643828302682
 42
1.0
 72
     1
 10
293.8906841048422
 20
20.25643828302682
 11
296.2880237673525
 21
20.25643828302682
 72
     4
 94
        3
 73
     1
 74
     0
 95
       14
 96
       10
 40
17.0
 40
17.0
 40
17.0
 40
17.0
 40
18.0
 40
18.0
 40
18.0
 40
19.0
 40
19.0
 40
19.0
 40
20.0
 40
20.0
 40
20.0
 40
20.0
 10
296.2880237673525
 20
20.25643828302682
 42
1.0
 10
295.7413366980624
 20
20.4024294709773
 42
1.0
 10
295.5628078711177
 20
20.63015527572819
 42
1.0
 10
295.5619960829322
 20
21.2138824872384
 42
1.0
 10
295.560827599936
 20
22.05336910178782
 42
1.0
 10
295.561359567195
 20
22.89285956003151
 42
1.0
 10
295.5621928800676
 20
23.73234771205876
 42
1.0
 10
295.5622759038603
 20
23.81306182808445
 42
1.0
 10
295.5696219719554
 20
23.89376787235267
 42
1.0
 10
295.5733857171835
 20
23.97022240661697
 42
1.0
 72
     1
 10
295.5733857171835
 20
23.97022240661697
 11
298.4851131190222
 21
23.97022240661697
 72
     4
 94
        3
 73
     1
 74
     0
 95
       11
 96
        7
 40
14.0
 40
14.0
 40
14.0
 40
14.0
 40
15.0
 40
15.0
 40
15.0
 40
16.0
 40
16.0
 40
16.0
 40
16.0
 10
298.4851131190222
 20
23.97022240661697
 42
1.0
 10
298.4851131190222
 20
23.04419117651474
 42
1.0
 10
298.4852207424561
 20
22.13796342697173
 42
1.0
 10
298.485073144605
 20
21.23173567742801
 42
1.0
 10
298.4849747460367
 20
20.62384393007452
 42
1.0
 10
298.3307257657572
 20
20.41986831094703
 42
1.0
 10
297.7632396991476
 20
20.25412130424438
 42
1.0
 72
     1
 10
297.7632396991476
 20
20.25412130424438
 11
300.2193725060648
 21
20.25412130424438
 72
     4
 94
        3
 73
     1
 74
     0
 95
       17
 96
       13
 40
9.0
 40
9.0
 40
9.0
 40
9.0
 40
10.0
 40
10.0
 40
10.0
 40
11.0
 40
11.0
 40
11.0
 40
12.0
 40
12.0
 40
12.0
 40
13.0
 40
13.0
 40
13.0
 40
13.0
 10
300.2193725060648
 20
20.25412130424438
 42
1.0
 10
299.739442715284
 20
20.41422423058344
 42
1.0
 10
299.5427163031618
 20
20.62720562490344
 42
1.0
 10
299.542119761843
 20
21.03839632851544
 42
1.0
 10
299.5393769017586
 20
22.92724217217554
 42
1.0
 10
299.5395583241182
 20
24.8160968563317
 42
1.0
 10
299.5421628112159
 20
26.70494346873036
 42
1.0
 10
299.5426363543262
 20
27.0468754177367
 42
1.0
 10
299.7248336028849
 20
27.28837413924314
 42
1.0
 10
300.049118383702
 20
27.40930924651266
 42
1.0
 10
300.1052670665942
 20
27.43024796211264
 42
1.0
 10
300.1600043450263
 20
27.45496618208605
 42
1.0
 10
300.2549312885929
 20
27.49433829349534
 42
1.0
 72
     1
 10
300.2549312885929
 20
27.49433829349534
 11
297.7186989723292
 21
27.49433829349534
 72
     4
 94
        3
 73
     1
 74
     0
 95
       14
 96
       10
 40
5.0
 40
5.0
 40
5.0
 40
5.0
 40
6.0
 40
6.0
 40
6.0
 40
7.0
 40
7.0
 40
7.0
 40
8.0
 40
8.0
 40
8.0
 40
8.0
 10
297.7186989723292
 20
27.49433829349534
 42
1.0
 10
298.3648823686909
 20
27.26685790861022
 42
1.0
 10
298.4850762195593
 20
27.0944786077999
 42
1.0
 10
298.4851069691121
 20
26.45733654080182
 42
1.0
 10
298.4851377186649
 20
25.7773505457302
 42
1.0
 10
298.4851131190222
 20
25.09736416629037
 42
1.0
 10
298.4851131190222
 20
24.41737817121947
 42
1.0
 10
298.4851131190222
 20
24.32893553953832
 42
1.0
 10
298.4851131190222
 20
24.24049329222682
 42
1.0
 10
298.4851131190222
 20
24.16049564077468
 42
1.0
 72
     1
 10
298.4851131190222
 20
24.16049564077468
 11
295.5632814142282
 21
24.16049564077468
 72
     4
 94
        3
 73
     1
 74
     0
 95
       14
 96
       10
 40
1.0
 40
1.0
 40
1.0
 40
1.0
 40
2.0
 40
2.0
 40
2.0
 40
3.0
 40
3.0
 40
3.0
 40
4.0
 40
4.0
 40
4.0
 40
4.0
 10
295.5632814142282
 20
24.16049564077468
 42
1.0
 10
295.5632814142282
 20
25.01272602299438
 42
1.0
 10
295.5627432970579
 20
25.84365465270932
 42
1.0
 10
295.5644406723573
 20
26.67457866999212
 42
1.0
 10
295.5645605956114
 20
26.73240397223375
 42
1.0
 10
295.5792681065788
 20
26.79059327230427
 42
1.0
 10
295.5906023916358
 20
26.8479388815276
 42
1.0
 10
295.6648994604227
 20
27.22384581892186
 42
1.0
 10
295.9411319155254
 20
27.38780204855992
 42
1.0
 10
296.2715297073844
 20
27.50458020069891
 42
1.0
 97
        0
 75
     0
 76
     1
 98
        1
 10
0.0
 20
0.0
  0
SPLINE
  5
7E
330
1F
100
AcDbEntity
  8
0
  6
Continuous
 62
   179
370
     0
100
AcDbSpline
210
0.0
220
0.0
230
1.0
 70
     8
 71
     3
 72
    14
 73
    10
 74
     0
 42
0.000000001
 43
0.00000001
 40
24.0
 40
24.0
 40
24.0
 40
24.0
 40
25.0
 40
25.0
 40
25.0
 40
26.0
 40
26.0
 40
26.0
 40
27.0
 40
27.0
 40
27.0
 40
27.0
 10
287.7314564875268
 20
22.4264857094768
 30
0.0
 10
288.0996055050067
 20
21.95463920731319
 30
0.0
 10
288.4270667146001
 20
21.47381844824842
 30
0.0
 10
288.8166481701822
 20
21.05011190802388
 30
0.0
 10
289.3841588364346
 20
20.43289382139212
 30
0.0
 10
289.9836367374807
 20
20.49110656799653
 30
0.0
 10
290.4735170834557
 20
21.16713932372221
 30
0.0
 10
290.5884281612034
 20
21.32571784099437
 30
0.0
 10
290.6825002672103
 20
21.49939669476813
 30
0.0
 10
290.8103661314317
 20
21.70506046432864
 30
0.0
  0
SPLINE
  5
7F
330
1F
100
AcDbEntity
  8
0
  6
Continuous
 62
   179
370
     0
100
AcDbSpline
210
0.0
220
0.0
230
1.0
 70
     8
 71
     3
 72
    11
 73
     7
 74
     0
 42
0.000000001
 43
0.00000001
 40
22.0
 40
22.0
 40
22.0
 40
22.0
 40
23.0
 40
23.0
 40
23.0
 40
24.0
 40
24.0
 40
24.0
 40
24.0
 10
290.7742138825406
 20
25.39867403457779
 30
0.0
 10
289.9536528488242
 20
25.26443186627322
 30
0.0
 10
289.4290162836425
 20
24.71923384406365
 30
0.0
 10
288.9612633156569
 20
24.10441845059237
 30
0.0
 10
288.5466855488353
 20
23.55949371503118
 30
0.0
 10
288.1508588591387
 20
23.00030157147278
 30
0.0
 10
287.7314564875268
 20
22.4264857094768
 30
0.0
  0
SPLINE
  5
80
330
1F
100
AcDbEntity
  8
0
  6
Continuous
 62
   179
370
     0
100
AcDbSpline
210
0.0
220
0.0
230
1.0
 70
     8
 71
     3
 72
    11
 73
     7
 74
     0
 42
0.000000001
 43
0.00000001
 40
20.0
 40
20.0
 40
20.0
 40
20.0
 40
21.0
 40
21.0
 40
21.0
 40
22.0
 40
22.0
 40
22.0
 40
22.0
 10
287.7715077796773
 20
25.39867403457779
 30
0.0
 10
288.2706160663607
 20
25.39867403457779
 30
0.0
 10
288.76972127809
 20
25.39867441894744
 30
0.0
 10
289.2688295647748
 20
25.39867441894744
 30
0.0
 10
289.7706253623487
 20
25.39867441894744
 30
0.0
 10
290.2724180849667
 20
25.39867403457779
 30
0.0
 10
290.7742138825406
 20
25.39867403457779
 30
0.0
  0
SPLINE
  5
81
330
1F
100
AcDbEntity
  8
0
  6
Continuous
 62
   179
370
     0
100
AcDbSpline
210
0.0
220
0.0
230
1.0
 70
     8
 71
     3
 72
    17
 73
    13
 74
     0
 42
0.000000001
 43
0.00000001
 40
16.0
 40
16.0
 40
16.0
 40
16.0
 40
17.0
 40
17.0
 40
17.0
 40
18.0
 40
18.0
 40
18.0
 40
19.0
 40
19.0
 40
19.0
 40
20.0
 40
20.0
 40
20.0
 40
20.0
 10
287.7233847299917
 20
22.54303496963324
 30
0.0
 10
288.0735790837579
 20
23.12311989664797
 30
0.0
 10
288.421178175292
 20
23.692108847638
 30
0.0
 10
288.7595985254019
 20
24.26650702928458
 30
0.0
 10
288.8131334963293
 20
24.35736772890119
 30
0.0
 10
288.8373887433532
 20
24.47070865762302
 30
0.0
 10
288.8543009972361
 20
24.57697987985168
 30
0.0
 10
288.9174636530569
 20
24.97387165717582
 30
0.0
 10
288.7601181928394
 20
25.20759054971102
 30
0.0
 10
288.3670435880915
 20
25.28904726743022
 30
0.0
 10
288.1718392788191
 20
25.32949945687162
 30
0.0
 10
287.9710693005408
 20
25.34310267453518
 30
0.0
 10
287.7715077796773
 20
25.39867403457779
 30
0.0
  0
SPLINE
  5
82
330
1F
100
AcDbEntity
  8
0
  6
Continuous
 62
   179
370
     0
100
AcDbSpline
210
0.0
220
0.0
230
1.0
 70
     8
 71
     3
 72
     8
 73
     4
 74
     0
 42
0.000000001
 43
0.00000001
 40
15.0
 40
15.0
 40
15.0
 40
15.0
 40
16.0
 40
16.0
 40
16.0
 40
16.0
 10
285.8065406500283
 20
24.86455968857224
 30
0.0
 10
286.4380688096612
 20
24.09970377545334
 30
0.0
 10
287.0596648638312
 20
23.34687900912474
 30
0.0
 10
287.7233847299917
 20
22.54303496963324
 30
0.0
  0
SPLINE
  5
83
330
1F
100
AcDbEntity
  8
0
  6
Continuous
 62
   179
370
     0
100
AcDbSpline
210
0.0
220
0.0
230
1.0
 70
     8
 71
     3
 72
    26
 73
    22
 74
     0
 42
0.000000001
 43
0.00000001
 40
8.0
 40
8.0
 40
8.0
 40
8.0
 40
9.0
 40
9.0
 40
9.0
 40
10.0
 40
10.0
 40
10.0
 40
11.0
 40
11.0
 40
11.0
 40
12.0
 40
12.0
 40
12.0
 40
13.0
 40
13.0
 40
13.0
 40
14.0
 40
14.0
 40
14.0
 40
15.0
 40
15.0
 40
15.0
 40
15.0
 10
284.7027239634148
 20
24.46818604120849
 30
0.0
 10
284.5641388051866
 20
24.6300390014551
 30
0.0
 10
284.4323277733789
 20
24.77744812814591
 30
0.0
 10
284.3077767109179
 20
24.93075271279266
 30
0.0
 10
284.0198409761273
 20
25.28515591156021
 30
0.0
 10
283.7707819005811
 20
25.65802498535045
 30
0.0
 10
283.7149530130353
 20
26.1296866058298
 30
0.0
 10
283.6309452355653
 20
26.83934668781639
 30
0.0
 10
283.9109291360762
 20
27.37506654483262
 30
0.0
 10
284.558084218296
 20
27.68711127408745
 30
0.0
 10
285.1912113546599
 20
27.99239110178883
 30
0.0
 10
285.840402057257
 20
27.99583274545401
 30
0.0
 10
286.4793408590448
 20
27.71426216803415
 30
0.0
 10
287.361321048954
 20
27.32558686332681
 30
0.0
 10
287.5614237619422
 20
26.30921056516708
 30
0.0
 10
286.8815726805328
 20
25.62247811827483
 30
0.0
 10
286.6551698752792
 20
25.39378370261947
 30
0.0
 10
286.361711520857
 20
25.23088333574105
 30
0.0
 10
286.0959738880259
 20
25.04203380586476
 30
0.0
 10
286.0025259979348
 20
24.975621306713
 30
0.0
 10
285.9002991106001
 20
24.92155283105019
 30
0.0
 10
285.8065406500283
 20
24.86455968857224
 30
0.0
  0
SPLINE
  5
84
330
1F
100
AcDbEntity
  8
0
  6
Continuous
 62
   179
370
     0
100
AcDbSpline
210
0.0
220
0.0
230
1.0
 70
     8
 71
     3
 72
    20
 73
    16
 74
     0
 42
0.000000001
 43
0.00000001
 40
3.0
 40
3.0
 40
3.0
 40
3.0
 40
4.0
 40
4.0
 40
4.0
 40
5.0
 40
5.0
 40
5.0
 40
6.0
 40
6.0
 40
6.0
 40
7.0
 40
7.0
 40
7.0
 40
8.0
 40
8.0
 40
8.0
 40
8.0
 10
287.0539854214827
 20
21.61211917311517
 30
0.0
 10
286.8995550188436
 20
21.43851181205055
 30
0.0
 10
286.7443651022574
 20
21.26447318851251
 30
0.0
 10
286.5896302790503
 20
21.09003174583673
 30
0.0
 10
285.9488126796033
 20
20.36759637788916
 30
0.0
 10
285.1515567317372
 20
20.05360962220844
 30
0.0
 10
284.198169930981
 20
20.23446388406056
 30
0.0
 10
282.6109241545095
 20
20.5355588898502
 30
0.0
 10
282.3522343191155
 20
22.37884389028815
 30
0.0
 10
283.1417229300147
 20
23.34576433784628
 30
0.0
 10
283.460866385652
 20
23.73663343094009
 30
0.0
 10
283.8607304915962
 20
24.02105948868024
 30
0.0
 10
284.3005597909425
 20
24.25632085564481
 30
0.0
 10
284.4255536469583
 20
24.3231780701996
 30
0.0
 10
284.5513685160267
 20
24.38851087568818
 30
0.0
 10
284.7027239634148
 20
24.46818604120849
 30
0.0
  0
SPLINE
  5
85
330
1F
100
AcDbEntity
  8
0
  6
Continuous
 62
   179
370
     0
100
AcDbSpline
210
0.0
220
0.0
230
1.0
 70
     8
 71
     3
 72
    14
 73
    10
 74
     0
 42
0.000000001
 43
0.00000001
 40
0.0
 40
0.0
 40
0.0
 40
0.0
 40
1.0
 40
1.0
 40
1.0
 40
2.0
 40
2.0
 40
2.0
 40
3.0
 40
3.0
 40
3.0
 40
3.0
 10
290.8103661314317
 20
21.70506046432864
 30
0.0
 10
290.7160910783766
 20
21.04182259740494
 30
0.0
 10
289.9739444785289
 20
20.32342848939634
 30
0.0
 10
289.3271645408483
 20
20.20870037148623
 30
0.0
 10
288.7048673968812
 20
20.09831485913089
 30
0.0
 10
288.1784811821614
 20
20.26780485511383
 30
0.0
 10
287.7601488949774
 20
20.73592220529572
 30
0.0
 10
287.5152010346028
 20
21.01001756649997
 30
0.0
 10
287.2972697310664
 20
21.3082559388604
 30
0.0
 10
287.0539854214827
 20
21.61211917311517
 30
0.0
  0
SPLINE
  5
86
330
1F
100
AcDbEntity
  8
0
  6
Continuous
 62
   179
370
     0
100
AcDbSpline
210
0.0
220
0.0
230
1.0
 70
     8
 71
     3
 72
    14
 73
    10
 74
     0
 42
0.000000001
 43
0.00000001
 40
1.0
 40
1.0
 40
1.0
 40
1.0
 40
2.0
 40
2.0
 40
2.0
 40
3.0
 40
3.0
 40
3.0
 40
4.0
 40
4.0
 40
4.0
 40
4.0
 10
284.845288113738
 20
24.37126575789879
 30
0.0
 10
284.1054815548355
 20
23.90423117633508
 30
0.0
 10
283.6988925217564
 20
23.08417174469388
 30
0.0
 10
283.7780264951535
 20
22.28619625730053
 30
0.0
 10
283.8665083325146
 20
21.39392726712142
 30
0.0
 10
284.4974276510072
 20
20.83427541775252
 30
0.0
 10
285.3603677179978
 20
20.87638462370451
 30
0.0
 10
286.0339581905155
 20
20.90925282038732
 30
0.0
 10
286.5509442670314
 20
21.2261892268935
 30
0.0
 10
287.0009947176327
 20
21.77781006188367
 30
0.0
  0
SPLINE
  5
87
330
1F
100
AcDbEntity
  8
0
  6
Continuous
 62
   179
370
     0
100
AcDbSpline
210
0.0
220
0.0
230
1.0
 70
     8
 71
     3
 72
     8
 73
     4
 74
     0
 42
0.000000001
 43
0.00000001
 40
0.0
 40
0.0
 40
0.0
 40
0.0
 40
1.0
 40
1.0
 40
1.0
 40
1.0
 10
287.0009947176327
 20
21.77781006188367
 30
0.0
 10
286.2819902310068
 20
22.64282111123716
 30
0.0
 10
285.5612360948443
 20
23.50993158628786
 30
0.0
 10
284.845288113738
 20
24.37126575789879
 30
0.0
  0
SPLINE
  5
88
330
1F
100
AcDbEntity
  8
0
  6
Continuous
 62
   179
370
     0
100
AcDbSpline
210
0.0
220
0.0
230
1.0
 70
     8
 71
     3
 72
    11
 73
     7
 74
     0
 42
0.000000001
 43
0.00000001
 40
3.0
 40
3.0
 40
3.0
 40
3.0
 40
4.0
 40
4.0
 40
4.0
 40
5.0
 40
5.0
 40
5.0
 40
5.0
 10
284.688382372121
 20
27.15085253116304
 30
0.0
 10
284.5630810205802
 20
26.78867911266099
 30
0.0
 10
284.5571094574822
 20
26.41068293535723
 30
0.0
 10
284.7721626029031
 20
26.08712768767229
 30
0.0
 10
285.0380140090768
 20
25.68714980838475
 30
0.0
 10
285.3510444536752
 20
25.31853032275095
 30
0.0
 10
285.6520579731506
 20
24.9254318870995
 30
0.0
  0
SPLINE
  5
89
330
1F
100
AcDbEntity
  8
0
  6
Continuous
 62
   179
370
     0
100
AcDbSpline
210
0.0
220
0.0
230
1.0
 70
     8
 71
     3
 72
    14
 73
    10
 74
     0
 42
0.000000001
 43
0.00000001
 40
0.0
 40
0.0
 40
0.0
 40
0.0
 40
1.0
 40
1.0
 40
1.0
 40
2.0
 40
2.0
 40
2.0
 40
3.0
 40
3.0
 40
3.0
 40
3.0
 10
285.6520579731506
 20
24.9254318870995
 30
0.0
 10
286.3259713159692
 20
25.4295804098103
 30
0.0
 10
286.5713650448558
 20
26.2298440482801
 30
0.0
 10
286.3549927436334
 20
27.06650131962916
 30
0.0
 10
286.2400293916459
 20
27.5110460628537
 30
0.0
 10
285.9916529561654
 20
27.74682017860581
 30
0.0
 10
285.6158934244382
 20
27.76810636414937
 30
0.0
 10
285.1818973152029
 20
27.79269159230804
 30
0.0
 10
284.8337724063213
 20
27.5710895609412
 30
0.0
 10
284.688382372121
 20
27.15085253116304
 30
0.0
  0
SPLINE
  5
8A
330
1F
100
AcDbEntity
  8
0
  6
Continuous
 62
   179
370
     0
100
AcDbSpline
210
0.0
220
0.0
230
1.0
 70
     8
 71
     3
 72
    17
 73
    13
 74
     0
 42
0.000000001
 43
0.00000001
 40
21.0
 40
21.0
 40
21.0
 40
21.0
 40
22.0
 40
22.0
 40
22.0
 40
23.0
 40
23.0
 40
23.0
 40
24.0
 40
24.0
 40
24.0
 40
25.0
 40
25.0
 40
25.0
 40
25.0
 10
293.8906841048422
 20
20.25643828302682
 30
0.0
 10
294.0348564567621
 20
20.35359533789035
 30
0.0
 10
294.2655211499942
 20
20.43733713173098
 30
0.0
 10
294.3739502220706
 20
20.60171040217499
 30
0.0
 10
294.4888489999954
 20
20.77588586122133
 30
0.0
 10
294.52894334152
 20
21.02641399663968
 30
0.0
 10
294.5304592944583
 20
21.24409084762873
 30
0.0
 10
294.54232862173
 20
22.9481603240125
 30
0.0
 10
294.5326947869268
 20
24.65236702027423
 30
0.0
 10
294.5396718603926
 20
26.35648992400541
 30
0.0
 10
294.541848928711
 20
26.88863860486635
 30
0.0
 10
294.4654639653083
 20
27.35271373418587
 30
0.0
 10
293.841527870193
 20
27.50458020069891
 30
0.0
  0
SPLINE
  5
8B
330
1F
100
AcDbEntity
  8
0
  6
Continuous
 62
   179
370
     0
100
AcDbSpline
210
0.0
220
0.0
230
1.0
 70
    24
 71
     3
 72
     8
 73
     4
 74
     0
 42
0.000000001
 43
0.00000001
 40
20.0
 40
20.0
 40
20.0
 40
20.0
 40
21.0
 40
21.0
 40
21.0
 40
21.0
 10
296.2880237673525
 20
20.25643828302682
 30
0.0
 10
295.4693261565182
 20
20.25643828302682
 30
0.0
 10
294.6506254707311
 20
20.25643828302682
 30
0.0
 10
293.8906841048422
 20
20.25643828302682
 30
0.0
  0
SPLINE
  5
8C
330
1F
100
AcDbEntity
  8
0
  6
Continuous
 62
   179
370
     0
100
AcDbSpline
210
0.0
220
0.0
230
1.0
 70
     8
 71
     3
 72
    14
 73
    10
 74
     0
 42
0.000000001
 43
0.00000001
 40
17.0
 40
17.0
 40
17.0
 40
17.0
 40
18.0
 40
18.0
 40
18.0
 40
19.0
 40
19.0
 40
19.0
 40
20.0
 40
20.0
 40
20.0
 40
20.0
 10
295.5733857171835
 20
23.97022240661697
 30
0.0
 10
295.5696219719554
 20
23.89376787235267
 30
0.0
 10
295.5622759038602
 20
23.81306182808445
 30
0.0
 10
295.5621928800676
 20
23.73234771205875
 30
0.0
 10
295.561359567195
 20
22.8928595600315
 30
0.0
 10
295.560827599936
 20
22.05336910178781
 30
0.0
 10
295.5619960829322
 20
21.2138824872384
 30
0.0
 10
295.5628078711177
 20
20.63015527572818
 30
0.0
 10
295.7413366980624
 20
20.4024294709773
 30
0.0
 10
296.2880237673525
 20
20.25643828302682
 30
0.0
  0
SPLINE
  5
8D
330
1F
100
AcDbEntity
  8
0
  6
Continuous
 62
   179
370
     0
100
AcDbSpline
210
0.0
220
0.0
230
1.0
 70
    24
 71
     3
 72
     8
 73
     4
 74
     0
 42
0.000000001
 43
0.00000001
 40
16.0
 40
16.0
 40
16.0
 40
16.0
 40
17.0
 40
17.0
 40
17.0
 40
17.0
 10
298.4851131190222
 20
23.97022240661697
 30
0.0
 10
297.5154382802974
 20
23.97022240661697
 30
0.0
 10
296.5557754958724
 20
23.97022240661697
 30
0.0
 10
295.5733857171835
 20
23.97022240661697
 30
0.0
  0
SPLINE
  5
8E
330
1F
100
AcDbEntity
  8
0
  6
Continuous
 62
   179
370
     0
100
AcDbSpline
210
0.0
220
0.0
230
1.0
 70
     8
 71
     3
 72
    11
 73
     7
 74
     0
 42
0.000000001
 43
0.00000001
 40
14.0
 40
14.0
 40
14.0
 40
14.0
 40
15.0
 40
15.0
 40
15.0
 40
16.0
 40
16.0
 40
16.0
 40
16.0
 10
297.7632396991476
 20
20.25412130424437
 30
0.0
 10
298.3307257657572
 20
20.41986831094703
 30
0.0
 10
298.4849747460366
 20
20.62384393007451
 30
0.0
 10
298.485073144605
 20
21.23173567742801
 30
0.0
 10
298.4852207424561
 20
22.13796342697173
 30
0.0
 10
298.4851131190222
 20
23.04419117651473
 30
0.0
 10
298.4851131190222
 20
23.97022240661697
 30
0.0
  0
SPLINE
  5
8F
330
1F
100
AcDbEntity
  8
0
  6
Continuous
 62
   179
370
     0
100
AcDbSpline
210
0.0
220
0.0
230
1.0
 70
    24
 71
     3
 72
     8
 73
     4
 74
     0
 42
0.000000001
 43
0.00000001
 40
13.0
 40
13.0
 40
13.0
 40
13.0
 40
14.0
 40
14.0
 40
14.0
 40
14.0
 10
300.2193725060648
 20
20.25412130424437
 30
0.0
 10
299.4006625954106
 20
20.25412130424437
 30
0.0
 10
298.5819526847563
 20
20.25412130424437
 30
0.0
 10
297.7632396991476
 20
20.25412130424437
 30
0.0
  0
SPLINE
  5
90
330
1F
100
AcDbEntity
  8
0
  6
Continuous
 62
   179
370
     0
100
AcDbSpline
210
0.0
220
0.0
230
1.0
 70
     8
 71
     3
 72
    17
 73
    13
 74
     0
 42
0.000000001
 43
0.00000001
 40
9.0
 40
9.0
 40
9.0
 40
9.0
 40
10.0
 40
10.0
 40
10.0
 40
11.0
 40
11.0
 40
11.0
 40
12.0
 40
12.0
 40
12.0
 40
13.0
 40
13.0
 40
13.0
 40
13.0
 10
300.2549312885928
 20
27.49433829349534
 30
0.0
 10
300.1600043450263
 20
27.45496618208605
 30
0.0
 10
300.1052670665941
 20
27.43024796211264
 30
0.0
 10
300.049118383702
 20
27.40930924651266
 30
0.0
 10
299.7248336028849
 20
27.28837413924314
 30
0.0
 10
299.5426363543262
 20
27.0468754177367
 30
0.0
 10
299.5421628112159
 20
26.70494346873036
 30
0.0
 10
299.5395583241182
 20
24.8160968563317
 30
0.0
 10
299.5393769017586
 20
22.92724217217554
 30
0.0
 10
299.542119761843
 20
21.03839632851544
 30
0.0
 10
299.5427163031617
 20
20.62720562490344
 30
0.0
 10
299.739442715284
 20
20.41422423058344
 30
0.0
 10
300.2193725060648
 20
20.25412130424437
 30
0.0
  0
SPLINE
  5
91
330
1F
100
AcDbEntity
  8
0
  6
Continuous
 62
   179
370
     0
100
AcDbSpline
210
0.0
220
0.0
230
1.0
 70
    24
 71
     3
 72
     8
 73
     4
 74
     0
 42
0.000000001
 43
0.00000001
 40
8.0
 40
8.0
 40
8.0
 40
8.0
 40
9.0
 40
9.0
 40
9.0
 40
9.0
 10
297.7186989723292
 20
27.49433829349534
 30
0.0
 10
298.5854396840106
 20
27.49433829349534
 30
0.0
 10
299.3949493285535
 20
27.49433829349534
 30
0.0
 10
300.2549312885928
 20
27.49433829349534
 30
0.0
  0
SPLINE
  5
92
330
1F
100
AcDbEntity
  8
0
  6
Continuous
 62
   179
370
     0
100
AcDbSpline
210
0.0
220
0.0
230
1.0
 70
     8
 71
     3
 72
    14
 73
    10
 74
     0
 42
0.000000001
 43
0.00000001
 40
5.0
 40
5.0
 40
5.0
 40
5.0
 40
6.0
 40
6.0
 40
6.0
 40
7.0
 40
7.0
 40
7.0
 40
8.0
 40
8.0
 40
8.0
 40
8.0
 10
298.4851131190222
 20
24.16049564077468
 30
0.0
 10
298.4851131190222
 20
24.24049329222682
 30
0.0
 10
298.4851131190222
 20
24.32893553953832
 30
0.0
 10
298.4851131190222
 20
24.41737817121946
 30
0.0
 10
298.4851131190222
 20
25.09736416629036
 30
0.0
 10
298.4851377186649
 20
25.77735054573019
 30
0.0
 10
298.4851069691121
 20
26.45733654080181
 30
0.0
 10
298.4850762195593
 20
27.09447860779989
 30
0.0
 10
298.3648823686909
 20
27.26685790861021
 30
0.0
 10
297.7186989723292
 20
27.49433829349534
 30
0.0
  0
SPLINE
  5
93
330
1F
100
AcDbEntity
  8
0
  6
Continuous
 62
   179
370
     0
100
AcDbSpline
210
0.0
220
0.0
230
1.0
 70
    24
 71
     3
 72
     8
 73
     4
 74
     0
 42
0.000000001
 43
0.00000001
 40
4.0
 40
4.0
 40
4.0
 40
4.0
 40
5.0
 40
5.0
 40
5.0
 40
5.0
 10
295.5632814142282
 20
24.16049564077468
 30
0.0
 10
296.5292663066504
 20
24.16049564077468
 30
0.0
 10
297.4889290910767
 20
24.16049564077468
 30
0.0
 10
298.4851131190222
 20
24.16049564077468
 30
0.0
  0
SPLINE
  5
94
330
1F
100
AcDbEntity
  8
0
  6
Continuous
 62
   179
370
     0
100
AcDbSpline
210
0.0
220
0.0
230
1.0
 70
     8
 71
     3
 72
    14
 73
    10
 74
     0
 42
0.000000001
 43
0.00000001
 40
1.0
 40
1.0
 40
1.0
 40
1.0
 40
2.0
 40
2.0
 40
2.0
 40
3.0
 40
3.0
 40
3.0
 40
4.0
 40
4.0
 40
4.0
 40
4.0
 10
296.2715297073844
 20
27.50458020069891
 30
0.0
 10
295.9411319155254
 20
27.38780204855992
 30
0.0
 10
295.6648994604226
 20
27.22384581892185
 30
0.0
 10
295.5906023916358
 20
26.8479388815276
 30
0.0
 10
295.5792681065788
 20
26.79059327230427
 30
0.0
 10
295.5645605956113
 20
26.73240397223375
 30
0.0
 10
295.5644406723573
 20
26.67457866999212
 30
0.0
 10
295.5627432970579
 20
25.84365465270932
 30
0.0
 10
295.5632814142282
 20
25.01272602299438
 30
0.0
 10
295.5632814142282
 20
24.16049564077468
 30
0.0
  0
SPLINE
  5
95
330
1F
100
AcDbEntity
  8
0
  6
Continuous
 62
   179
370
     0
100
AcDbSpline
210
0.0
220
0.0
230
1.0
 70
    24
 71
     3
 72
     8
 73
     4
 74
     0
 42
0.000000001
 43
0.00000001
 40
0.0
 40
0.0
 40
0.0
 40
0.0
 40
1.0
 40
1.0
 40
1.0
 40
1.0
 10
293.841527870193
 20
27.50458020069891
 30
0.0
 10
294.6515264326192
 20
27.50458020069891
 30
0.0
 10
295.4615280700011
 20
27.50458020069891
 30
0.0
 10
296.2715297073844
 20
27.50458020069891
 30
0.0
  0
SPLINE
  5
96
330
1F
100
AcDbEntity
  8
0
  6
Continuous
 62
   179
370
     0
100
AcDbSpline
210
0.0
220
0.0
230
1.0
 70
     8
 71
     3
 72
    14
 73
    10
 74
     0
 42
0.000000001
 43
0.00000001
 40
17.0
 40
17.0
 40
17.0
 40
17.0
 40
18.0
 40
18.0
 40
18.0
 40
19.0
 40
19.0
 40
19.0
 40
20.0
 40
20.0
 40
20.0
 40
20.0
 10
257.7053577757452
 20
20.25910042553502
 30
0.0
 10
258.2139995287706
 20
20.39587059142628
 30
0.0
 10
258.4104423723632
 20
20.62446660851326
 30
0.0
 10
258.4124688639662
 20
21.16843695483816
 30
0.0
 10
258.4191609275174
 20
22.96470127704905
 30
0.0
 10
258.4149081683119
 20
24.76100595804667
 30
0.0
 10
258.4151320634912
 20
26.55729487989965
 30
0.0
 10
258.4151924094879
 20
27.04153921726713
 30
0.0
 10
258.2057453879524
 20
27.36893835120056
 30
0.0
 10
257.7192638284546
 20
27.51463645747964
 30
0.0
  0
SPLINE
  5
97
330
1F
100
AcDbEntity
  8
0
  6
Continuous
 62
   179
370
     0
100
AcDbSpline
210
0.0
220
0.0
230
1.0
 70
    24
 71
     3
 72
     8
 73
     4
 74
     0
 42
0.000000001
 43
0.00000001
 40
16.0
 40
16.0
 40
16.0
 40
16.0
 40
17.0
 40
17.0
 40
17.0
 40
17.0
 10
260.1134120717832
 20
20.25910042553502
 30
0.0
 10
259.3107272904223
 20
20.25910042553502
 30
0.0
 10
258.5080426051526
 20
20.25910042553502
 30
0.0
 10
257.7053577757452
 20
20.25910042553502
 30
0.0
  0
SPLINE
  5
98
330
1F
100
AcDbEntity
  8
0
  6
Continuous
 62
   179
370
     0
100
AcDbSpline
210
0.0
220
0.0
230
1.0
 70
     8
 71
     3
 72
    14
 73
    10
 74
     0
 42
0.000000001
 43
0.00000001
 40
13.0
 40
13.0
 40
13.0
 40
13.0
 40
14.0
 40
14.0
 40
14.0
 40
15.0
 40
15.0
 40
15.0
 40
16.0
 40
16.0
 40
16.0
 40
16.0
 10
259.4607286043899
 20
23.57138302951071
 30
0.0
 10
259.4539911852495
 20
23.51939476107442
 30
0.0
 10
259.4406539512153
 20
23.46398560492077
 30
0.0
 10
259.4405559370167
 20
23.40855338660286
 30
0.0
 10
259.4392191002215
 20
22.65310606781492
 30
0.0
 10
259.4366701545022
 20
21.89763799307775
 30
0.0
 10
259.4408326829897
 20
21.14221143023692
 30
0.0
 10
259.4435911100346
 20
20.64162793377141
 30
0.0
 10
259.6377614656041
 20
20.40079128856704
 30
0.0
 10
260.1134120717832
 20
20.25910042553502
 30
0.0
  0
SPLINE
  5
99
330
1F
100
AcDbEntity
  8
0
  6
Continuous
 62
   179
370
     0
100
AcDbSpline
210
0.0
220
0.0
230
1.0
 70
     8
 71
     3
 72
    20
 73
    16
 74
     0
 42
0.000000001
 43
0.00000001
 40
8.0
 40
8.0
 40
8.0
 40
8.0
 40
9.0
 40
9.0
 40
9.0
 40
10.0
 40
10.0
 40
10.0
 40
11.0
 40
11.0
 40
11.0
 40
12.0
 40
12.0
 40
12.0
 40
13.0
 40
13.0
 40
13.0
 40
13.0
 10
263.9554858268652
 20
20.24609336482203
 30
0.0
 10
263.8909540472192
 20
20.24131411562171
 30
0.0
 10
263.8264337986554
 20
20.23257048036438
 30
0.0
 10
263.7618904879274
 20
20.2323936704376
 30
0.0
 10
263.3170171088602
 20
20.2311736819415
 30
0.0
 10
262.8718696744062
 20
20.24067529366942
 30
0.0
 10
262.427398730108
 20
20.22724465786873
 30
0.0
 10
262.2549406335689
 20
20.22203337745712
 30
0.0
 10
262.1765046750147
 20
20.28890135435545
 30
0.0
 10
262.1067370153144
 20
20.43629933433309
 30
0.0
 10
261.7451764738302
 20
21.200166649339
 30
0.0
 10
261.378026816807
 20
21.9614848264415
 30
0.0
 10
261.0037355762117
 20
22.71920223094413
 30
0.0
 10
260.6054131759577
 20
23.52556773374193
 30
0.0
 10
260.3725694925604
 20
23.65083910446931
 30
0.0
 10
259.4607286043899
 20
23.57138302951071
 30
0.0
  0
SPLINE
  5
9A
330
1F
100
AcDbEntity
  8
0
  6
Continuous
 62
   179
370
     0
100
AcDbSpline
210
0.0
220
0.0
230
1.0
 70
     8
 71
     3
 72
    14
 73
    10
 74
     0
 42
0.000000001
 43
0.00000001
 40
5.0
 40
5.0
 40
5.0
 40
5.0
 40
6.0
 40
6.0
 40
6.0
 40
7.0
 40
7.0
 40
7.0
 40
8.0
 40
8.0
 40
8.0
 40
8.0
 10
261.0219043336847
 20
23.6305636182803
 30
0.0
 10
261.7521543160346
 20
23.35408286053946
 30
0.0
 10
262.033208300972
 20
22.73079019980925
 30
0.0
 10
262.3739921385617
 20
22.16106556577572
 30
0.0
 10
262.6276890153665
 20
21.73693545046489
 30
0.0
 10
262.8739775562312
 20
21.30835818112304
 30
0.0
 10
263.1292772534607
 20
20.88520667032095
 30
0.0
 10
263.3178377375432
 20
20.57267359973514
 30
0.0
 10
263.5606000734737
 20
20.32757122285868
 30
0.0
 10
263.9554858268652
 20
20.24609336482203
 30
0.0
  0
SPLINE
  5
9B
330
1F
100
AcDbEntity
  8
0
  6
Continuous
 62
   179
370
     0
100
AcDbSpline
210
0.0
220
0.0
230
1.0
 70
     8
 71
     3
 72
    20
 73
    16
 74
     0
 42
0.000000001
 43
0.00000001
 40
0.0
 40
0.0
 40
0.0
 40
0.0
 40
1.0
 40
1.0
 40
1.0
 40
2.0
 40
2.0
 40
2.0
 40
3.0
 40
3.0
 40
3.0
 40
4.0
 40
4.0
 40
4.0
 40
5.0
 40
5.0
 40
5.0
 40
5.0
 10
257.7192638284546
 20
27.51463645747964
 30
0.0
 10
258.1174764912431
 20
27.51463645747964
 30
0.0
 10
258.5159962651876
 20
27.52468175973202
 30
0.0
 10
258.913837050576
 20
27.51251762112625
 30
0.0
 10
259.7094699986221
 20
27.48819126576296
 30
0.0
 10
260.5093946232761
 20
27.49481913962259
 30
0.0
 10
261.2989762515715
 20
27.40941936834727
 30
0.0
 10
262.3071445332422
 20
27.30037799580671
 30
0.0
 10
262.8488620904764
 20
26.74717259793779
 30
0.0
 10
262.9131259646454
 20
25.8839565537128
 30
0.0
 10
262.9966382899503
 20
24.76217905347502
 30
0.0
 10
262.5617362220245
 20
24.08644572151764
 30
0.0
 10
261.5515161764629
 20
23.77337299628437
 30
0.0
 10
261.3945785321864
 20
23.72473719781128
 30
0.0
 10
261.2341319795987
 20
23.68742184709604
 30
0.0
 10
261.0219043336847
 20
23.6305636182803
 30
0.0
  0
SPLINE
  5
9C
330
1F
100
AcDbEntity
  8
0
  6
Continuous
 62
   179
370
     0
100
AcDbSpline
210
0.0
220
0.0
230
1.0
 70
     8
 71
     3
 72
    20
 73
    16
 74
     0
 42
0.000000001
 43
0.00000001
 40
1.0
 40
1.0
 40
1.0
 40
1.0
 40
2.0
 40
2.0
 40
2.0
 40
3.0
 40
3.0
 40
3.0
 40
4.0
 40
4.0
 40
4.0
 40
5.0
 40
5.0
 40
5.0
 40
6.0
 40
6.0
 40
6.0
 40
6.0
 10
259.4558811296203
 20
23.74052094311722
 30
0.0
 10
259.8313410453957
 20
23.74052094311722
 30
0.0
 10
260.1942113256325
 20
23.70804326575077
 30
0.0
 10
260.5489927438957
 20
23.74778168120397
 30
0.0
 10
261.1506181168165
 20
23.81517009427841
 30
0.0
 10
261.608259863196
 20
24.13857044109258
 30
0.0
 10
261.7413862071132
 20
24.73962656292205
 30
0.0
 10
261.8389787525147
 20
25.18024881635488
 30
0.0
 10
261.8719876284001
 20
25.65810454981778
 30
0.0
 10
261.8164781518313
 20
26.10478869315943
 30
0.0
 10
261.7108519014664
 20
26.95476897687368
 30
0.0
 10
261.3230227860075
 20
27.28690123567825
 30
0.0
 10
260.4792308497364
 20
27.35420547185249
 30
0.0
 10
260.1467440101549
 20
27.38072599997261
 30
0.0
 10
259.8103733099056
 20
27.35855230546976
 30
0.0
 10
259.4558811296203
 20
27.35855230546976
 30
0.0
  0
SPLINE
  5
9D
330
1F
100
AcDbEntity
  8
0
  6
Continuous
 62
   179
370
     0
100
AcDbSpline
210
0.0
220
0.0
230
1.0
 70
    24
 71
     3
 72
     8
 73
     4
 74
     0
 42
0.000000001
 43
0.00000001
 40
0.0
 40
0.0
 40
0.0
 40
0.0
 40
1.0
 40
1.0
 40
1.0
 40
1.0
 10
259.4558811296203
 20
27.35855230546976
 30
0.0
 10
259.4558811296203
 20
26.13864548795524
 30
0.0
 10
259.4558811296203
 20
24.94385548148866
 30
0.0
 10
259.4558811296203
 20
23.74052094311722
 30
0.0
  0
SPLINE
  5
9E
330
1F
100
AcDbEntity
  8
0
  6
Continuous
 62
   179
370
     0
100
AcDbSpline
210
0.0
220
0.0
230
1.0
 70
     8
 71
     3
 72
    14
 73
    10
 74
     0
 42
0.000000001
 43
0.00000001
 40
3.0
 40
3.0
 40
3.0
 40
3.0
 40
4.0
 40
4.0
 40
4.0
 40
5.0
 40
5.0
 40
5.0
 40
6.0
 40
6.0
 40
6.0
 40
6.0
 10
267.2336118279071
 20
20.23490821509465
 30
0.0
 10
266.3034040398354
 20
20.48709452013179
 30
0.0
 10
265.5792320909092
 20
21.3454113919024
 30
0.0
 10
265.4837047623288
 20
22.29272284982232
 30
0.0
 10
265.4259332718035
 20
22.86561853145872
 30
0.0
 10
265.487918988501
 20
23.41465794151553
 30
0.0
 10
265.7739382574312
 20
23.92202056120339
 30
0.0
 10
266.225828300013
 20
24.723612195973
 30
0.0
 10
266.9062728477854
 20
25.1505801106106
 30
0.0
 10
267.7758432870376
 20
25.16748813643032
 30
0.0
  0
SPLINE
  5
9F
330
1F
100
AcDbEntity
  8
0
  6
Continuous
 62
   179
370
     0
100
AcDbSpline
210
0.0
220
0.0
230
1.0
 70
     8
 71
     3
 72
    14
 73
    10
 74
     0
 42
0.000000001
 43
0.00000001
 40
0.0
 40
0.0
 40
0.0
 40
0.0
 40
1.0
 40
1.0
 40
1.0
 40
2.0
 40
2.0
 40
2.0
 40
3.0
 40
3.0
 40
3.0
 40
3.0
 10
267.7758432870376
 20
25.16748813643032
 30
0.0
 10
268.6216197225536
 20
25.16033694362372
 30
0.0
 10
269.2464106552308
 20
24.83848445240961
 30
0.0
 10
269.7103360726668
 20
24.21398909980579
 30
0.0
 10
270.372934348899
 20
23.32205720159637
 30
0.0
 10
270.3723808569537
 20
22.03321892002499
 30
0.0
 10
269.7215189161771
 20
21.13111084177937
 30
0.0
 10
269.1482911393735
 20
20.33660467264827
 30
0.0
 10
268.1650050112284
 20
19.98240211471102
 30
0.0
 10
267.2336118279071
 20
20.23490821509465
 30
0.0
  0
SPLINE
  5
A0
330
1F
100
AcDbEntity
  8
0
  6
Continuous
 62
   179
370
     0
100
AcDbSpline
210
0.0
220
0.0
230
1.0
 70
     8
 71
     3
 72
    17
 73
    13
 74
     0
 42
0.000000001
 43
0.00000001
 40
4.0
 40
4.0
 40
4.0
 40
4.0
 40
5.0
 40
5.0
 40
5.0
 40
6.0
 40
6.0
 40
6.0
 40
7.0
 40
7.0
 40
7.0
 40
8.0
 40
8.0
 40
8.0
 40
8.0
 10
266.4699528411193
 20
22.82140374989816
 30
0.0
 10
266.4269741915698
 20
22.16270989809668
 30
0.0
 10
266.5287029361534
 20
21.51524885782822
 30
0.0
 10
266.8746830637486
 20
20.93428603108955
 30
0.0
 10
267.1048165584612
 20
20.54785025472892
 30
0.0
 10
267.415307090021
 20
20.27237193240103
 30
0.0
 10
267.9076604687568
 20
20.30531315927085
 30
0.0
 10
268.3388937306982
 20
20.33416469565678
 30
0.0
 10
268.6078393105943
 20
20.5966013640246
 30
0.0
 10
268.8108670747659
 20
20.94311038392242
 30
0.0
 10
269.1208448575376
 20
21.47214721006824
 30
0.0
 10
269.202432645224
 20
22.05765558940843
 30
0.0
 10
269.218762963826
 20
22.68351122534059
 30
0.0
  0
SPLINE
  5
A1
330
1F
100
AcDbEntity
  8
0
  6
Continuous
 62
   179
370
     0
100
AcDbSpline
210
0.0
220
0.0
230
1.0
 70
     8
 71
     3
 72
    17
 73
    13
 74
     0
 42
0.000000001
 43
0.00000001
 40
0.0
 40
0.0
 40
0.0
 40
0.0
 40
1.0
 40
1.0
 40
1.0
 40
2.0
 40
2.0
 40
2.0
 40
3.0
 40
3.0
 40
3.0
 40
4.0
 40
4.0
 40
4.0
 40
4.0
 10
269.218762963826
 20
22.68351122534059
 30
0.0
 10
269.1956800434919
 20
23.3455137289932
 30
0.0
 10
269.0963628325642
 20
24.01168817818241
 30
0.0
 10
268.6683621173312
 20
24.58056604641373
 30
0.0
 10
268.2143234497673
 20
25.18405330473932
 30
0.0
 10
267.4640605055332
 20
25.19142205062979
 30
0.0
 10
267.0072628343699
 20
24.5921328749614
 30
0.0
 10
266.882078331128
 20
24.42789874624283
 30
0.0
 10
266.7597204805011
 20
24.24144960330989
 30
0.0
 10
266.7072125446274
 20
24.04607386528145
 30
0.0
 10
266.5993976948625
 20
23.64490674705059
 30
0.0
 10
266.4968487059656
 20
23.23360918874381
 30
0.0
 10
266.4699528411193
 20
22.82140374989816
 30
0.0
  0
SPLINE
  5
A2
330
1F
100
AcDbEntity
  8
0
  6
Continuous
 62
   179
370
     0
100
AcDbSpline
210
0.0
220
0.0
230
1.0
 70
     8
 71
     3
 72
    17
 73
    13
 74
     0
 42
0.000000001
 43
0.00000001
 40
6.0
 40
6.0
 40
6.0
 40
6.0
 40
7.0
 40
7.0
 40
7.0
 40
8.0
 40
8.0
 40
8.0
 40
9.0
 40
9.0
 40
9.0
 40
10.0
 40
10.0
 40
10.0
 40
10.0
 10
311.6156486607861
 20
20.25320881127337
 30
0.0
 10
312.1185268426077
 20
20.41647125413319
 30
0.0
 10
312.2872188877023
 20
20.63608302071405
 30
0.0
 10
312.2876555313485
 20
21.16871754450474
 30
0.0
 10
312.2890700107628
 20
22.88922803787955
 30
0.0
 10
312.2877662297369
 20
24.60974045310044
 30
0.0
 10
312.2871819882395
 20
26.33025248395311
 30
0.0
 10
312.2871512386867
 20
26.42255802816857
 30
0.0
 10
312.284531376812
 20
26.51487279724974
 30
0.0
 10
312.2823973578678
 20
26.60716642601487
 30
0.0
 10
312.2683694120104
 20
27.21300429544448
 30
0.0
 10
312.2096131670664
 20
27.2763110897918
 30
0.0
 10
311.6691528821608
 20
27.32445797038016
 30
0.0
  0
SPLINE
  5
A3
330
1F
100
AcDbEntity
  8
0
  6
Continuous
 62
   179
370
     0
100
AcDbSpline
210
0.0
220
0.0
230
1.0
 70
    24
 71
     3
 72
     8
 73
     4
 74
     0
 42
0.000000001
 43
0.00000001
 40
5.0
 40
5.0
 40
5.0
 40
5.0
 40
6.0
 40
6.0
 40
6.0
 40
6.0
 10
313.8867245107604
 20
20.25320881127337
 30
0.0
 10
313.0865658051385
 20
20.25320881127337
 30
0.0
 10
312.3511103079174
 20
20.25320881127337
 30
0.0
 10
311.6156486607861
 20
20.25320881127337
 30
0.0
  0
SPLINE
  5
A4
330
1F
100
AcDbEntity
  8
0
  6
Continuous
 62
   179
370
     0
100
AcDbSpline
210
0.0
220
0.0
230
1.0
 70
     8
 71
     3
 72
    17
 73
    13
 74
     0
 42
0.000000001
 43
0.00000001
 40
1.0
 40
1.0
 40
1.0
 40
1.0
 40
2.0
 40
2.0
 40
2.0
 40
3.0
 40
3.0
 40
3.0
 40
4.0
 40
4.0
 40
4.0
 40
5.0
 40
5.0
 40
5.0
 40
5.0
 10
313.1781318226163
 20
27.87703492426926
 30
0.0
 10
313.1781318226163
 20
27.83642744958888
 30
0.0
 10
313.1781318226163
 20
27.75161518695076
 30
0.0
 10
313.1781318226163
 20
27.66680273212924
 30
0.0
 10
313.1781318226163
 20
25.57700952371036
 30
0.0
 10
313.1781256727049
 20
23.48721689184593
 30
0.0
 10
313.1781441224363
 20
21.39742349124222
 30
0.0
 10
313.1781441224363
 20
21.32188875296783
 30
0.0
 10
313.1771847363981
 20
21.24633325874564
 30
0.0
 10
313.1786115156352
 20
21.17082388885261
 30
0.0
 10
313.1888880160859
 20
20.62648762285203
 30
0.0
 10
313.3266152617988
 20
20.43483258067819
 30
0.0
 10
313.8867245107604
 20
20.25320881127337
 30
0.0
  0
SPLINE
  5
A5
330
1F
100
AcDbEntity
  8
0
  6
Continuous
 62
   179
370
     0
100
AcDbSpline
210
0.0
220
0.0
230
1.0
 70
     8
 71
     3
 72
     8
 73
     4
 74
     0
 42
0.000000001
 43
0.00000001
 40
0.0
 40
0.0
 40
0.0
 40
0.0
 40
1.0
 40
1.0
 40
1.0
 40
1.0
 10
311.6691528821608
 20
27.32445797038016
 30
0.0
 10
312.1410908642435
 20
27.49727756634618
 30
0.0
 10
312.6458878181427
 20
27.68213176842718
 30
0.0
 10
313.1781318226163
 20
27.87703492426926
 30
0.0
  0
SPLINE
  5
A6
330
1F
100
AcDbEntity
  8
0
  6
Continuous
 62
   179
370
     0
100
AcDbSpline
210
0.0
220
0.0
230
1.0
 70
     8
 71
     3
 72
    14
 73
    10
 74
     0
 42
0.000000001
 43
0.00000001
 40
6.0
 40
6.0
 40
6.0
 40
6.0
 40
7.0
 40
7.0
 40
7.0
 40
8.0
 40
8.0
 40
8.0
 40
9.0
 40
9.0
 40
9.0
 40
9.0
 10
278.4819664915176
 20
27.88441039662488
 30
0.0
 10
278.4819664915176
 20
27.83987735719565
 30
0.0
 10
278.4819649540404
 20
27.7521957769394
 30
0.0
 10
278.4819649540404
 20
27.66451419668386
 30
0.0
 10
278.4819664915176
 20
25.4826921900211
 30
0.0
 10
278.4816605334703
 20
23.30086999117493
 30
0.0
 10
278.4822124879378
 20
21.11904779232805
 30
0.0
 10
278.4823339486704
 20
20.63637283524632
 30
0.0
 10
278.6550987719953
 20
20.40793364087759
 30
0.0
 10
279.1055120673172
 20
20.2549177176549
 30
0.0
  0
SPLINE
  5
A7
330
1F
100
AcDbEntity
  8
0
  6
Continuous
 62
   179
370
     0
100
AcDbSpline
210
0.0
220
0.0
230
1.0
 70
     8
 71
     3
 72
     8
 73
     4
 74
     0
 42
0.000000001
 43
0.00000001
 40
5.0
 40
5.0
 40
5.0
 40
5.0
 40
6.0
 40
6.0
 40
6.0
 40
6.0
 10
276.9846800684062
 20
27.32963542628539
 30
0.0
 10
277.4478728777531
 20
27.50125751936439
 30
0.0
 10
277.9568994326008
 20
27.68986239811421
 30
0.0
 10
278.4819664915176
 20
27.88441039662488
 30
0.0
  0
SPLINE
  5
A8
330
1F
100
AcDbEntity
  8
0
  6
Continuous
 62
   179
370
     0
100
AcDbSpline
210
0.0
220
0.0
230
1.0
 70
     8
 71
     3
 72
    17
 73
    13
 74
     0
 42
0.000000001
 43
0.00000001
 40
1.0
 40
1.0
 40
1.0
 40
1.0
 40
2.0
 40
2.0
 40
2.0
 40
3.0
 40
3.0
 40
3.0
 40
4.0
 40
4.0
 40
4.0
 40
5.0
 40
5.0
 40
5.0
 40
5.0
 10
276.9460186560294
 20
20.2549177176549
 30
0.0
 10
277.4179566381115
 20
20.4199152040148
 30
0.0
 10
277.5770686601203
 20
20.6342380475635
 30
0.0
 10
277.5771993457187
 20
21.13377529050539
 30
0.0
 10
277.5776652014391
 20
22.92958298186009
 30
0.0
 10
277.5773700057348
 20
24.72538990447762
 30
0.0
 10
277.577359243392
 20
26.52119721146337
 30
0.0
 10
277.577359243392
 20
26.53798031722657
 30
0.0
 10
277.5773838430334
 20
26.55476419172763
 30
0.0
 10
277.5772915943764
 20
26.57154691311976
 30
0.0
 10
277.5738092075535
 20
27.20775573119973
 30
0.0
 10
277.5366914227135
 20
27.25167954511983
 30
0.0
 10
276.9846800684062
 20
27.32963542628539
 30
0.0
  0
SPLINE
  5
A9
330
1F
100
AcDbEntity
  8
0
  6
Continuous
 62
   179
370
     0
100
AcDbSpline
210
0.0
220
0.0
230
1.0
 70
    24
 71
     3
 72
     8
 73
     4
 74
     0
 42
0.000000001
 43
0.00000001
 40
0.0
 40
0.0
 40
0.0
 40
0.0
 40
1.0
 40
1.0
 40
1.0
 40
1.0
 10
279.1055120673172
 20
20.2549177176549
 30
0.0
 10
278.3856819552065
 20
20.2549177176549
 30
0.0
 10
277.6658503056181
 20
20.2549177176549
 30
0.0
 10
276.9460186560295
 20
20.2549177176549
 30
0.0
  0
SPLINE
  5
AA
330
1F
100
AcDbEntity
  8
0
  6
Continuous
 62
   179
370
     0
100
AcDbSpline
210
0.0
220
0.0
230
1.0
 70
     8
 71
     3
 72
    20
 73
    16
 74
     0
 42
0.000000001
 43
0.00000001
 40
5.0
 40
5.0
 40
5.0
 40
5.0
 40
6.0
 40
6.0
 40
6.0
 40
7.0
 40
7.0
 40
7.0
 40
8.0
 40
8.0
 40
8.0
 40
9.0
 40
9.0
 40
9.0
 40
10.0
 40
10.0
 40
10.0
 40
10.0
 10
307.178408284104
 20
20.25443648715803
 30
0.0
 10
307.3179589782804
 20
20.36177625633666
 30
0.0
 10
307.5293898264143
 20
20.45652254628292
 30
0.0
 10
307.6283941606454
 20
20.61954360515535
 30
0.0
 10
307.7285516030971
 20
20.78446498637255
 30
0.0
 10
307.7490584796685
 20
21.01681475508336
 30
0.0
 10
307.7500732149022
 20
21.21990094340408
 30
0.0
 10
307.7587445887103
 20
22.95682170421714
 30
0.0
 10
307.7550484924979
 20
24.69380511724257
 30
0.0
 10
307.7550361926765
 20
26.43077008053731
 30
0.0
 10
307.7550361926765
 20
26.49789904426262
 30
0.0
 10
307.7552944889173
 20
26.56503146731187
 30
0.0
 10
307.7547502218385
 20
26.63215658734291
 30
0.0
 10
307.7501131893193
 20
27.20350460556405
 30
0.0
 10
307.6774858212348
 20
27.28280885460759
 30
0.0
 10
307.1608133901539
 20
27.32540717062983
 30
0.0
  0
SPLINE
  5
AB
330
1F
100
AcDbEntity
  8
0
  6
Continuous
 62
   179
370
     0
100
AcDbSpline
210
0.0
220
0.0
230
1.0
 70
    24
 71
     3
 72
     8
 73
     4
 74
     0
 42
0.000000001
 43
0.00000001
 40
4.0
 40
4.0
 40
4.0
 40
4.0
 40
5.0
 40
5.0
 40
5.0
 40
5.0
 10
309.3620693061908
 20
20.25443648715802
 30
0.0
 10
308.5715044609524
 20
20.25443648715802
 30
0.0
 10
307.8517004859623
 20
20.25443648715802
 30
0.0
 10
307.178408284104
 20
20.25443648715803
 30
0.0
  0
SPLINE
  5
AC
330
1F
100
AcDbEntity
  8
0
  6
Continuous
 62
   179
370
     0
100
AcDbSpline
210
0.0
220
0.0
230
1.0
 70
     8
 71
     3
 72
    14
 73
    10
 74
     0
 42
0.000000001
 43
0.00000001
 40
1.0
 40
1.0
 40
1.0
 40
1.0
 40
2.0
 40
2.0
 40
2.0
 40
3.0
 40
3.0
 40
3.0
 40
4.0
 40
4.0
 40
4.0
 40
4.0
 10
308.65963267846
 20
27.88697759989075
 30
0.0
 10
308.65963267846
 20
27.83196991758182
 30
0.0
 10
308.65963267846
 20
27.74275854708867
 30
0.0
 10
308.65963267846
 20
27.65354698440996
 30
0.0
 10
308.65963267846
 20
25.48863300356693
 30
0.0
 10
308.6595035303402
 20
23.32371921490944
 30
0.0
 10
308.6597187772069
 20
21.15880542625192
 30
0.0
 10
308.6597679764911
 20
20.63742370120349
 30
0.0
 10
308.807415027844
 20
20.43200746554104
 30
0.0
 10
309.3620693061908
 20
20.25443648715802
 30
0.0
  0
SPLINE
  5
AD
330
1F
100
AcDbEntity
  8
0
  6
Continuous
 62
   179
370
     0
100
AcDbSpline
210
0.0
220
0.0
230
1.0
 70
     8
 71
     3
 72
     8
 73
     4
 74
     0
 42
0.000000001
 43
0.00000001
 40
0.0
 40
0.0
 40
0.0
 40
0.0
 40
1.0
 40
1.0
 40
1.0
 40
1.0
 10
307.1608133901539
 20
27.32540717062983
 30
0.0
 10
307.6336123597077
 20
27.50255342081908
 30
0.0
 10
308.1420254609839
 20
27.69304267058278
 30
0.0
 10
308.65963267846
 20
27.88697759989075
 30
0.0
  0
SPLINE
  5
AE
330
1F
100
AcDbEntity
  8
0
  6
Continuous
 62
   179
370
     0
100
AcDbSpline
210
0.0
220
0.0
230
1.0
 70
     8
 71
     3
 72
    14
 73
    10
 74
     0
 42
0.000000001
 43
0.00000001
 40
6.0
 40
6.0
 40
6.0
 40
6.0
 40
7.0
 40
7.0
 40
7.0
 40
8.0
 40
8.0
 40
8.0
 40
9.0
 40
9.0
 40
9.0
 40
9.0
 10
272.426404840594
 20
20.2590796695872
 30
0.0
 10
273.0059923935969
 20
20.37668517687364
 30
0.0
 10
273.0805785081768
 20
20.81042375860576
 30
0.0
 10
273.0783845276048
 20
21.29462927466367
 30
0.0
 10
273.0702866329497
 20
23.08209538116094
 30
0.0
 10
273.0685846452182
 20
24.86961337752774
 30
0.0
 10
273.0527409382851
 20
26.65700799131587
 30
0.0
 10
273.0476395875227
 20
27.23250104921648
 30
0.0
 10
272.9826104338649
 20
27.283806677587
 30
0.0
 10
272.4594267850394
 20
27.32510813123116
 30
0.0
  0
SPLINE
  5
AF
330
1F
100
AcDbEntity
  8
0
  6
Continuous
 62
   179
370
     0
100
AcDbSpline
210
0.0
220
0.0
230
1.0
 70
    24
 71
     3
 72
     8
 73
     4
 74
     0
 42
0.000000001
 43
0.00000001
 40
5.0
 40
5.0
 40
5.0
 40
5.0
 40
6.0
 40
6.0
 40
6.0
 40
6.0
 10
274.6224502449564
 20
20.2590796695872
 30
0.0
 10
273.8904356226618
 20
20.2590796695872
 30
0.0
 10
273.1584194628893
 20
20.2590796695872
 30
0.0
 10
272.426404840594
 20
20.2590796695872
 30
0.0
  0
SPLINE
  5
B0
330
1F
100
AcDbEntity
  8
0
  6
Continuous
 62
   179
370
     0
100
AcDbSpline
210
0.0
220
0.0
230
1.0
 70
     8
 71
     3
 72
    17
 73
    13
 74
     0
 42
0.000000001
 43
0.00000001
 40
1.0
 40
1.0
 40
1.0
 40
1.0
 40
2.0
 40
2.0
 40
2.0
 40
3.0
 40
3.0
 40
3.0
 40
4.0
 40
4.0
 40
4.0
 40
5.0
 40
5.0
 40
5.0
 40
5.0
 10
273.9540333846496
 20
27.87257450949274
 30
0.0
 10
273.9540333846496
 20
27.80748597076169
 30
0.0
 10
273.9540333846496
 20
27.71082379150879
 30
0.0
 10
273.9540333846496
 20
27.61416161225588
 30
0.0
 10
273.9540349221275
 20
25.51596282147273
 30
0.0
 10
273.9539872603212
 20
23.41776441505853
 30
0.0
 10
273.9542086570993
 20
21.31956562427539
 30
0.0
 10
273.954217881965
 20
21.22727776105204
 30
0.0
 10
273.9506540088286
 20
21.13443409966764
 30
0.0
 10
273.9590578615309
 20
21.04279505200226
 30
0.0
 10
274.0006220316647
 20
20.58964274029083
 30
0.0
 10
274.1836818051716
 20
20.38260600321024
 30
0.0
 10
274.6224502449564
 20
20.2590796695872
 30
0.0
  0
SPLINE
  5
B1
330
1F
100
AcDbEntity
  8
0
  6
Continuous
 62
   179
370
     0
100
AcDbSpline
210
0.0
220
0.0
230
1.0
 70
     8
 71
     3
 72
     8
 73
     4
 74
     0
 42
0.000000001
 43
0.00000001
 40
0.0
 40
0.0
 40
0.0
 40
0.0
 40
1.0
 40
1.0
 40
1.0
 40
1.0
 10
272.4594267850394
 20
27.32510813123116
 30
0.0
 10
272.9327746341049
 20
27.4984925580398
 30
0.0
 10
273.4351023989377
 20
27.68249307566929
 30
0.0
 10
273.9540333846496
 20
27.87257450949274
 30
0.0
  0
SPLINE
  5
B2
330
1F
100
AcDbEntity
  8
0
  6
Continuous
 62
   179
370
     0
100
AcDbSpline
210
0.0
220
0.0
230
1.0
 70
     8
 71
     3
 72
    17
 73
    13
 74
     0
 42
0.000000001
 43
0.00000001
 40
6.0
 40
6.0
 40
6.0
 40
6.0
 40
7.0
 40
7.0
 40
7.0
 40
8.0
 40
8.0
 40
8.0
 40
9.0
 40
9.0
 40
9.0
 40
10.0
 40
10.0
 40
10.0
 40
10.0
 10
304.1706223551654
 20
25.06377258638472
 30
0.0
 10
304.1727133247368
 20
25.01792115989102
 30
0.0
 10
304.1800409430993
 20
24.93136078519358
 30
0.0
 10
304.1800932173391
 20
24.84479541369365
 30
0.0
 10
304.1808527312862
 20
23.6528201443903
 30
0.0
 10
304.1797703470369
 20
22.46084295323946
 30
0.0
 10
304.1818797663412
 20
21.26887114326077
 30
0.0
 10
304.1821011631179
 20
21.14380579453511
 30
0.0
 10
304.1922454404932
 20
21.01764883669525
 30
0.0
 10
304.2107535961514
 20
20.89393877449616
 30
0.0
 10
304.2621822227331
 20
20.55023795748124
 30
0.0
 10
304.457826250606
 20
20.33981031349822
 30
0.0
 10
304.8038079156777
 20
20.25397755008679
 30
0.0
  0
SPLINE
  5
B3
330
1F
100
AcDbEntity
  8
0
  6
Continuous
 62
   179
370
     0
100
AcDbSpline
210
0.0
220
0.0
230
1.0
 70
     8
 71
     3
 72
     8
 73
     4
 74
     0
 42
0.000000001
 43
0.00000001
 40
5.0
 40
5.0
 40
5.0
 40
5.0
 40
6.0
 40
6.0
 40
6.0
 40
6.0
 10
302.7125031745686
 20
24.50968064047993
 30
0.0
 10
303.1898069535647
 20
24.69105879783349
 30
0.0
 10
303.6729961969132
 20
24.874672832025
 30
0.0
 10
304.1706223551654
 20
25.06377258638472
 30
0.0
  0
SPLINE
  5
B4
330
1F
100
AcDbEntity
  8
0
  6
Continuous
 62
   179
370
     0
100
AcDbSpline
210
0.0
220
0.0
230
1.0
 70
     8
 71
     3
 72
    17
 73
    13
 74
     0
 42
0.000000001
 43
0.00000001
 40
1.0
 40
1.0
 40
1.0
 40
1.0
 40
2.0
 40
2.0
 40
2.0
 40
3.0
 40
3.0
 40
3.0
 40
4.0
 40
4.0
 40
4.0
 40
5.0
 40
5.0
 40
5.0
 40
5.0
 10
302.6973344203136
 20
20.25397755008679
 30
0.0
 10
303.1321361678242
 20
20.34946490424869
 30
0.0
 10
303.2897768237453
 20
20.65853557522151
 30
0.0
 10
303.2916556214043
 20
21.04785181591346
 30
0.0
 10
303.296603224403
 20
22.07149673173399
 30
0.0
 10
303.2829750227277
 20
23.09531768874206
 30
0.0
 10
303.2668591822546
 20
24.11891186780057
 30
0.0
 10
303.2632153602819
 20
24.35030186610296
 30
0.0
 10
303.1332831261333
 20
24.49187357461809
 30
0.0
 10
302.8846514693661
 20
24.4955788956963
 30
0.0
 10
302.8224697242704
 20
24.49650561033551
 30
0.0
 10
302.7604109773859
 20
24.50557288463289
 30
0.0
 10
302.7125031745686
 20
24.50968064047993
 30
0.0
  0
SPLINE
  5
B5
330
1F
100
AcDbEntity
  8
0
  6
Continuous
 62
   179
370
     0
100
AcDbSpline
210
0.0
220
0.0
230
1.0
 70
    24
 71
     3
 72
     8
 73
     4
 74
     0
 42
0.000000001
 43
0.00000001
 40
0.0
 40
0.0
 40
0.0
 40
0.0
 40
1.0
 40
1.0
 40
1.0
 40
1.0
 10
304.8038079156777
 20
20.25397755008679
 30
0.0
 10
304.1016511088749
 20
20.25397755008679
 30
0.0
 10
303.3994912271164
 20
20.25397755008679
 30
0.0
 10
302.6973344203136
 20
20.25397755008679
 30
0.0
  0
SPLINE
  5
B6
330
1F
100
AcDbEntity
  8
0
  6
Continuous
 62
   179
370
     0
100
AcDbSpline
210
0.0
220
0.0
230
1.0
 70
     8
 71
     3
 72
    11
 73
     7
 74
     0
 42
0.000000001
 43
0.00000001
 40
2.0
 40
2.0
 40
2.0
 40
2.0
 40
3.0
 40
3.0
 40
3.0
 40
4.0
 40
4.0
 40
4.0
 40
4.0
 10
303.0570519104932
 20
26.35430478392946
 30
0.0
 10
303.0511172468594
 20
26.75330175249255
 30
0.0
 10
303.3266947364936
 20
27.05519259513756
 30
0.0
 10
303.6924299141011
 20
27.05034857969325
 30
0.0
 10
304.0507636744179
 20
27.04560238626284
 30
0.0
 10
304.3255386007336
 20
26.75299425696746
 30
0.0
 10
304.327448147944
 20
26.37412133304796
 30
0.0
  0
SPLINE
  5
B7
330
1F
100
AcDbEntity
  8
0
  6
Continuous
 62
   179
370
     0
100
AcDbSpline
210
0.0
220
0.0
230
1.0
 70
     8
 71
     3
 72
    11
 73
     7
 74
     0
 42
0.000000001
 43
0.00000001
 40
0.0
 40
0.0
 40
0.0
 40
0.0
 40
1.0
 40
1.0
 40
1.0
 40
2.0
 40
2.0
 40
2.0
 40
2.0
 10
304.327448147944
 20
26.37412133304796
 30
0.0
 10
304.3293945946187
 20
25.98752450590586
 30
0.0
 10
304.0680572227529
 20
25.70828897263021
 30
0.0
 10
303.6993639381942
 20
25.7030192680673
 30
0.0
 10
303.3259905717408
 20
25.69768229885987
 30
0.0
 10
303.0628482011429
 20
25.96449808787493
 30
0.0
 10
303.0570519104932
 20
26.35430478392946
 30
0.0
  0
MTEXT
  5
B9
330
1F
100
AcDbEntity
  8
0
  6
Continuous
 62
     7
370
     0
100
AcDbMText
 10
257.9690483454
 20
40.3166048975
 30
0.0
 40
3.7041666667
 41
0.0
 71
     1
 72
     1
  1
ODDRB - Odds & Ends Rainbow
  7
SLDTEXTSTYLE0
 73
     1
 44
1.0
  0
MTEXT
  5
BA
330
1F
100
AcDbEntity
  8
0
  6
Continuous
 62
     7
370
     0
100
AcDbMText
 10
258.6105142387
 20
44.3546043689
 30
0.0
 40
1.5875
 41
0.0
 71
     1
 72
     1
  1
\LDESCRIPTION
  7
SLDTEXTSTYLE0
 73
     1
 44
1.0
  0
INSERT
  5
C1
330
1F
100
AcDbEntity
  8
0
  6
Continuous
 62
     7
370
     0
100
AcDbBlockReference
  2
SW_NOTE_0
 10
317.1049495712
 20
24.1495665419
 30
0.0
  0
MTEXT
  5
C2
330
1F
100
AcDbEntity
  8
0
  6
Continuous
 62
     7
370
     0
100
AcDbMText
 10
273.8048790106
 20
32.371143085
 30
0.0
 40
1.5875
 41
0.0
 71
     2
 72
     1
  1
\LSCALE
  7
SLDTEXTSTYLE0
 73
     1
 44
1.0
  0
MTEXT
  5
C3
330
1F
100
AcDbEntity
  8
0
  6
Continuous
 62
     7
370
     0
100
AcDbMText
 10
278.3960862508
 20
33.4394651033
 30
0.0
 40
2.6458333333
 41
0.0
 71
     1
 72
     1
  1
1:3
  7
SLDTEXTSTYLE0
 73
     1
 44
1.0
  0
MTEXT
  5
C4
330
1F
100
AcDbEntity
  8
0
  6
Continuous
 62
     7
370
     0
100
AcDbMText
 10
261.4913139704
 20
32.371143085
 30
0.0
 40
1.5875
 41
0.0
 71
     2
 72
     1
  1
\LSIZE
  7
SLDTEXTSTYLE0
 73
     1
 44
1.0
  0
MTEXT
  5
C5
330
1F
100
AcDbEntity
  8
0
  6
Continuous
 62
     7
370
     0
100
AcDbMText
 10
264.7495209372
 20
33.4394651033
 30
0.0
 40
2.6458333333
 41
0.0
 71
     1
 72
     1
  1
B
  7
SLDTEXTSTYLE0
 73
     1
 44
1.0
  0
INSERT
  5
CC
330
1F
100
AcDbEntity
  8
0
  6
Continuous
 62
     7
370
     0
100
AcDbBlockReference
  2
SW_NOTE_1
 10
258.0900415808
 20
15.6806800849
 30
0.0
  0
SPLINE
  5
CD
330
1F
100
AcDbEntity
  8
0
  6
Continuous
 62
     7
370
    15
100
AcDbSpline
210
0.0
220
0.0
230
1.0
 70
     8
 71
     3
 72
    30
 73
    26
 74
     0
 42
0.000000001
 43
0.00000001
 40
0.0
 40
0.0
 40
0.0
 40
0.0
 40
0.0503870350021354
 40
0.1008271076734139
 40
0.1511684171033074
 40
0.2012609358220187
 40
0.2509590569992374
 40
0.3001240359561568
 40
0.3486261506880922
 40
0.3963465057162258
 40
0.4431784051910189
 40
0.4890282853110535
 40
0.5338162128512297
 40
0.5774759833899129
 40
0.6199548548073004
 40
0.6612129758241796
 40
0.7012225838020143
 40
0.7399670309928627
 40
0.7774396997493206
 40
0.8136428612822287
 40
0.8554232709064394
 40
0.8954202640273033
 40
0.9336745169865523
 40
0.9702353431058688
 40
1.0
 40
1.0
 40
1.0
 40
1.0
 10
97.15500009602923
 20
133.0601041595092
 30
0.0
 10
95.70956987771594
 20
133.0277061037665
 30
0.0
 10
92.81718797332117
 20
132.9628758899103
 30
0.0
 10
88.50679753545421
 20
132.4396016445123
 30
0.0
 10
84.25678397500235
 20
131.6094802788223
 30
0.0
 10
80.10456631346713
 20
130.452755666752
 30
0.0
 10
76.08510226399815
 20
128.9939466757024
 30
0.0
 10
72.22994465881547
 20
127.2520430538593
 30
0.0
 10
68.56648862731561
 20
125.2527690316786
 30
0.0
 10
65.11744059342992
 20
123.0241694047075
 30
0.0
 10
61.90052309973568
 20
120.5965277366571
 30
0.0
 10
58.92840928682894
 20
118.00113620002
 30
0.0
 10
56.20886433379101
 20
115.269431249607
 30
0.0
 10
53.74505958849352
 20
112.4321542305571
 30
0.0
 10
51.53601881206189
 20
109.5186650203364
 30
0.0
 10
49.57715183498623
 20
106.5563989417036
 30
0.0
 10
47.86083968437693
 20
103.5704702360262
 30
0.0
 10
46.37701541990349
 20
100.5834325772864
 30
0.0
 10
45.11378089075177
 20
97.61511054408889
 30
0.0
 10
43.99132381204976
 20
94.49816774674993
 30
0.0
 10
43.03771092209273
 20
91.24928825638777
 30
0.0
 10
42.27606730003135
 20
87.88974301148258
 30
0.0
 10
41.74738737799857
 20
84.63829388959209
 30
0.0
 10
41.42052867461206
 20
81.6543388153472
 30
0.0
 10
41.34581178516447
 20
79.75322147905518
 30
0.0
 10
41.31228134591907
 20
78.90006364801846
 30
0.0
  0
SPLINE
  5
CE
330
1F
100
AcDbEntity
  8
0
  6
Continuous
 62
     7
370
    15
100
AcDbSpline
210
0.0
220
0.0
230
1.0
 70
     8
 71
     3
 72
    30
 73
    26
 74
     0
 42
0.000000001
 43
0.00000001
 40
0.0
 40
0.0
 40
0.0
 40
0.0
 40
0.0297645318141846
 40
0.0663253793847998
 40
0.1045796593189693
 40
0.144576668596248
 40
0.1863570927007401
 40
0.2225602580128248
 40
0.2600329212246751
 40
0.2987773514219164
 40
0.3387869294632339
 40
0.380045006817291
 40
0.4225238202096654
 40
0.466183517851467
 40
0.5109713574831981
 40
0.5568211405686351
 40
0.6036529465078441
 40
0.6513732253844137
 40
0.6998752962888721
 40
0.749040277536631
 40
0.7987384592103136
 40
0.8488311024309226
 40
0.8991725767784561
 40
0.9496128114410497
 40
1.0
 40
1.0
 40
1.0
 40
1.0
 10
152.9977183887184
 20
78.90006938413002
 30
0.0
 10
152.9641880999116
 20
79.75322352911185
 30
0.0
 10
152.8894713484478
 20
81.65433767036197
 30
0.0
 10
152.5626132024361
 20
84.63829117685931
 30
0.0
 10
152.0339333352578
 20
87.88974231941505
 30
0.0
 10
151.2722896186575
 20
91.24928929710838
 30
0.0
 10
150.3186766797809
 20
94.49816966250195
 30
0.0
 10
149.1962196498052
 20
97.61511260832134
 30
0.0
 10
147.9329854808084
 20
100.5834338712782
 30
0.0
 10
146.4491620621623
 20
103.5704698798689
 30
0.0
 10
144.7328514902231
 20
106.5563960781663
 30
0.0
 10
142.7739870735186
 20
109.5186588773792
 30
0.0
 10
140.5649500808321
 20
112.432144186138
 30
0.0
 10
138.1011505614477
 20
115.2694168916149
 30
0.0
 10
135.3816123416399
 20
118.0011175199181
 30
0.0
 10
132.4095064457473
 20
120.5965053528772
 30
0.0
 10
129.1925972616616
 20
123.0241446378515
 30
0.0
 10
125.7435567441673
 20
125.2527438095321
 30
0.0
 10
122.0801060267984
 20
127.2520195900877
 30
0.0
 10
118.2249500297003
 20
128.9939270770699
 30
0.0
 10
114.2054825258609
 20
130.4527414649662
 30
0.0
 10
110.0532560975851
 20
131.6094718650345
 30
0.0
 10
105.8032300666887
 20
132.4395979831173
 30
0.0
 10
101.4928257629376
 20
132.9628753229385
 30
0.0
 10
98.60043464185266
 20
133.027705916615
 30
0.0
 10
97.15499993621596
 20
133.0601041595096
 30
0.0
  0
LINE
  5
CF
330
1F
100
AcDbEntity
  8
0
  6
Continuous
 62
     7
370
    15
100
AcDbLine
 10
97.2877301855
 20
76.8406950673
 30
0.0
 11
42.8708952527
 21
76.8406950835
 31
0.0
  0
LINE
  5
D0
330
1F
100
AcDbEntity
  8
0
  6
Continuous
 62
     7
370
    15
100
AcDbLine
 10
42.8708110008
 20
75.2532022612
 30
0.0
 11
97.287730185
 21
75.253202245
 31
0.0
  0
SPLINE
  5
D1
330
1F
100
AcDbEntity
  8
0
  6
Continuous
 62
     7
370
    15
100
AcDbSpline
210
0.0
220
0.0
230
1.0
 70
     8
 71
     3
 72
    37
 73
    33
 74
     0
 42
0.000000001
 43
0.00000001
 40
0.0
 40
0.0
 40
0.0
 40
0.0
 40
0.0423007528475907
 40
0.0826895458445273
 40
0.1211662911739532
 40
0.1577309051763538
 40
0.1923833083497392
 40
0.2251234253498164
 40
0.2559511849901548
 40
0.2848665202423386
 40
0.3155701219528068
 40
0.3437758450346415
 40
0.369483584866122
 40
0.3926932460911435
 40
0.4134047426195713
 40
0.431941590658368
 40
0.4519861777966472
 40
0.474577660130125
 40
0.499715950562023
 40
0.5274009521768696
 40
0.5576325582408733
 40
0.5904106522023339
 40
0.6257351076920931
 40
0.6636057885240199
 40
0.6988325444362258
 40
0.7360087709686887
 40
0.7751343841067552
 40
0.8162092954303468
 40
0.85923341211416
 40
0.9042066369278765
 40
0.951128868236383
 40
1.0
 40
1.0
 40
1.0
 40
1.0
 10
40.95680116691593
 20
78.81226446994089
 30
0.0
 10
41.01512072286538
 20
80.03346730848008
 30
0.0
 10
41.12912383795625
 20
82.42067560396096
 30
0.0
 10
41.57966116337504
 20
85.89584952585733
 30
0.0
 10
42.19399137827634
 20
89.1752913462426
 30
0.0
 10
42.96074715833944
 20
92.2523301381189
 30
0.0
 10
43.84534925340439
 20
95.12409387201245
 30
0.0
 10
44.82108940471996
 20
97.79016161404729
 30
0.0
 10
45.8616004443999
 20
100.2523767227967
 30
0.0
 10
46.98893279121393
 20
102.610839057946
 30
0.0
 10
48.18771187941145
 20
104.8483523914988
 30
0.0
 10
49.43930011693553
 20
106.9493407760874
 30
0.0
 10
50.65855976294898
 20
108.8151154767535
 30
0.0
 10
51.82200649842363
 20
110.456810197264
 30
0.0
 10
52.91483797406506
 20
111.893198508068
 30
0.0
 10
53.99302336205586
 20
113.2247400073292
 30
0.0
 10
55.14578322578938
 20
114.5648504887316
 30
0.0
 10
56.47109932494933
 20
116.0068703800964
 30
0.0
 10
58.00392305847215
 20
117.5561940876388
 30
0.0
 10
59.76019016947342
 20
119.1924277992996
 30
0.0
 10
61.7559593542552
 20
120.89189153294
 30
0.0
 10
64.00690012850292
 20
122.6273759452661
 30
0.0
 10
66.52767168434448
 20
124.3679182976914
 30
0.0
 10
69.20326417204664
 20
126.0005341818752
 30
0.0
 10
72.01347115568684
 20
127.5049764998585
 30
0.0
 10
74.93632387789862
 20
128.8656888803047
 30
0.0
 10
78.09148596345443
 20
130.114580153209
 30
0.0
 10
81.47873812690766
 20
131.2182433798012
 30
0.0
 10
85.09443072035444
 20
132.1433886197314
 30
0.0
 10
88.93097382837774
 20
132.8466286833486
 30
0.0
 10
92.97627917122851
 20
133.3167365432926
 30
0.0
 10
95.74461959736531
 20
133.3767518812208
 30
0.0
 10
97.15695052921097
 20
133.4073700513493
 30
0.0
  0
SPLINE
  5
D2
330
1F
100
AcDbEntity
  8
0
  6
Continuous
 62
     7
370
    15
100
AcDbSpline
210
0.0
220
0.0
230
1.0
 70
     8
 71
     3
 72
    38
 73
    34
 74
     0
 42
0.000000001
 43
0.00000001
 40
0.0
 40
0.0
 40
0.0
 40
0.0
 40
0.0423001636139252
 40
0.082688394009512
 40
0.1211646033712193
 40
0.1577287080407856
 40
0.1923806285174101
 40
0.2251202894579258
 40
0.2559476196769634
 40
0.284862552147106
 40
0.3155657261652883
 40
0.3437710563493803
 40
0.3694784380791871
 40
0.3926877759999901
 40
0.413398984022901
 40
0.4319355738484266
 40
0.4519798817710431
 40
0.4745710494113281
 40
0.4997089896737463
 40
0.5273936056442144
 40
0.557624790590472
 40
0.5904024279624951
 40
0.6257263913929437
 40
0.6635965446976506
 40
0.6988228099119753
 40
0.7359985185913136
 40
0.775123586722239
 40
0.8161979258859663
 40
0.8504630506351084
 40
0.8859758538711462
 40
0.9227363027214579
 40
0.960744363158533
 40
1.0
 40
1.0
 40
1.0
 40
1.0
 10
97.15679187925254
 20
134.9948699251957
 30
0.0
 10
95.89989721811098
 20
134.9712982719194
 30
0.0
 10
93.44291851898582
 20
134.9252203850498
 30
0.0
 10
89.8577012738901
 20
134.5656525375855
 30
0.0
 10
86.4687803446547
 20
134.0319083892488
 30
0.0
 10
83.28335067806066
 20
133.3354726561659
 30
0.0
 10
80.30539398654487
 20
132.5118005144368
 30
0.0
 10
77.53613832418247
 20
131.5883302972472
 30
0.0
 10
74.97447433676298
 20
130.5922171974386
 30
0.0
 10
72.51686223706156
 20
129.5037788349581
 30
0.0
 10
70.18143426620222
 20
128.3383051258577
 30
0.0
 10
67.98475451188662
 20
127.1144879940545
 30
0.0
 10
66.0307912462596
 20
125.9168932805511
 30
0.0
 10
64.30880060021771
 20
124.7699898549962
 30
0.0
 10
62.79992785160833
 20
123.6895507471588
 30
0.0
 10
61.3992533154717
 20
122.6210424422526
 30
0.0
 10
59.98755058886191
 20
121.4761413520667
 30
0.0
 10
58.46596589725074
 20
120.156921213291
 30
0.0
 10
56.82791393661671
 20
118.6276194746247
 30
0.0
 10
55.09388095823216
 20
116.8712499436676
 30
0.0
 10
53.28772713533877
 20
114.8706021982148
 30
0.0
 10
51.43695154170981
 20
112.6087606665213
 30
0.0
 10
49.57294186631012
 20
110.0697365812809
 30
0.0
 10
47.81524667570325
 20
107.3683721645477
 30
0.0
 10
46.18528715794104
 20
104.5248347760618
 30
0.0
 10
44.69967076200983
 20
101.5612327384961
 30
0.0
 10
43.32217999323917
 20
98.35555728973239
 30
0.0
 10
42.17440848189138
 20
95.15203287295606
 30
0.0
 10
41.24532008245129
 20
91.99109598981751
 30
0.0
 10
40.51603859866867
 20
88.90938521668146
 30
0.0
 10
39.9436323569311
 20
85.6821590985543
 30
0.0
 10
39.53051354099504
 20
82.31696731660853
 30
0.0
 10
39.42405168910332
 20
80.02335734498736
 30
0.0
 10
39.36996124375141
 20
78.85803490672329
 30
0.0
  0
SPLINE
  5
D3
330
1F
100
AcDbEntity
  8
0
  6
Continuous
 62
     7
370
    15
100
AcDbSpline
210
0.0
220
0.0
230
1.0
 70
     8
 71
     3
 72
    37
 73
    33
 74
     0
 42
0.000000001
 43
0.00000001
 40
0.0
 40
0.0
 40
0.0
 40
0.0
 40
0.042300751819159
 40
0.0826895439509854
 40
0.1211662886115528
 40
0.1577309021560073
 40
0.1923833050820838
 40
0.2251234220333811
 40
0.2559511818023765
 40
0.2848665173331955
 40
0.3155701195051175
 40
0.34377584315332
 40
0.3694835836068857
 40
0.3926932454641563
 40
0.4134047425957829
 40
0.4319415911875845
 40
0.451986178918358
 40
0.4745776618950626
 40
0.4997159529945762
 40
0.5274009552695929
 40
0.5576325619501905
 40
0.5904106564456546
 40
0.6257351123465709
 40
0.6636057934271992
 40
0.6988325493945342
 40
0.7360087758078199
 40
0.7751343886352172
 40
0.8162092994452841
 40
0.8592334154087476
 40
0.9042066393003995
 40
0.9511288695011153
 40
1.0
 40
1.0
 40
1.0
 40
1.0
 10
97.15695052921527
 20
133.4073700087071
 30
0.0
 10
98.37933019548066
 20
133.384446188405
 30
0.0
 10
100.7688389581278
 20
133.3396346858932
 30
0.0
 10
104.2556043804637
 20
132.9899424151429
 30
0.0
 10
107.5514639933038
 20
132.4708567836921
 30
0.0
 10
110.6494204257251
 20
131.7935471155559
 30
0.0
 10
113.5456012893525
 20
130.9924949468775
 30
0.0
 10
116.2388122372494
 20
130.0943851235987
 30
0.0
 10
118.7301321419377
 20
129.1256271295749
 30
0.0
 10
121.1202575408361
 20
128.0670791149028
 30
0.0
 10
123.3915540986194
 20
126.9336111070025
 30
0.0
 10
125.5279125659617
 20
125.7434017199002
 30
0.0
 10
127.4282196376146
 20
124.5786945138516
 30
0.0
 10
129.1029241275589
 20
123.4632864325784
 30
0.0
 10
130.5703629834708
 20
122.4125173814334
 30
0.0
 10
131.9325747522282
 20
121.3733513978834
 30
0.0
 10
133.3055118658037
 20
120.2598903716345
 30
0.0
 10
134.7853135683328
 20
118.9768971939777
 30
0.0
 10
136.3783843393443
 20
117.4895913760927
 30
0.0
 10
138.064800486788
 20
115.7814531762565
 30
0.0
 10
139.8213570887887
 20
113.835744770557
 30
0.0
 10
141.62131007223
 20
111.6360151287273
 30
0.0
 10
143.4341342818911
 20
109.1667144068884
 30
0.0
 10
145.1435615500052
 20
106.5395317155439
 30
0.0
 10
146.7287680172019
 20
103.7740785791071
 30
0.0
 10
148.1735675382386
 20
100.8918639646928
 30
0.0
 10
149.5133215222638
 20
97.77419866398942
 30
0.0
 10
150.7146307040614
 20
94.42033426831685
 30
0.0
 10
151.744113411233
 20
90.83295467899649
 30
0.0
 10
152.5581808345383
 20
87.01838995008487
 30
0.0
 10
153.1452605372082
 20
82.98839810362664
 30
0.0
 10
153.2854335390222
 20
80.22295742730437
 30
0.0
 10
153.356945938358
 20
78.81210586940477
 30
0.0
  0
SPLINE
  5
D4
330
1F
100
AcDbEntity
  8
0
  6
Continuous
 62
     7
370
    15
100
AcDbSpline
210
0.0
220
0.0
230
1.0
 70
     8
 71
     3
 72
    38
 73
    34
 74
     0
 42
0.000000001
 43
0.00000001
 40
0.0
 40
0.0
 40
0.0
 40
0.0
 40
0.0423001636138821
 40
0.0826883940093059
 40
0.1211646033707604
 40
0.1577287080400117
 40
0.1923806285162855
 40
0.2251202894564395
 40
0.2559476196751274
 40
0.2848625521449528
 40
0.3155657261628323
 40
0.3437710563467151
 40
0.3694784380764279
 40
0.3926877759972706
 40
0.4133989840203697
 40
0.4319355738457785
 40
0.4519798817675444
 40
0.4745710494070528
 40
0.4997089896687785
 40
0.5273936056386498
 40
0.55762479058442
 40
0.5904024279560817
 40
0.6257263913863136
 40
0.6635965446909692
 40
0.6988228099054107
 40
0.7359985185850284
 40
0.7751235867164138
 40
0.816197925880802
 40
0.850463050630644
 40
0.8859758538675363
 40
0.9227363027188688
 40
0.9607443631571427
 40
1.0
 40
1.0
 40
1.0
 40
1.0
 10
154.9437766876831
 20
78.85819346606289
 30
0.0
 10
154.883811037366
 20
80.11387811505216
 30
0.0
 10
154.7665901356762
 20
82.56849148144082
 30
0.0
 10
154.3033332159974
 20
86.14179034914804
 30
0.0
 10
153.6716584659727
 20
89.51383052193839
 30
0.0
 10
152.8832541734506
 20
92.67775270735545
 30
0.0
 10
151.973675964084
 20
95.6306037642117
 30
0.0
 10
150.9703862286637
 20
98.37195085980579
 30
0.0
 10
149.9004966372316
 20
100.9036893884415
 30
0.0
 10
148.741334207348
 20
103.328745632085
 30
0.0
 10
147.5087076111561
 20
105.6294378037943
 30
0.0
 10
146.2217806824635
 20
107.7897501457413
 30
0.0
 10
144.9680950550031
 20
109.7082073136032
 30
0.0
 10
143.7717981547019
 20
111.3962573697843
 30
0.0
 10
142.6481102981922
 20
112.8732039663209
 30
0.0
 10
141.5394820226611
 20
114.242343298175
 30
0.0
 10
140.3541735969917
 20
115.6202936023142
 30
0.0
 10
138.9914367031758
 20
117.103030908373
 30
0.0
 10
137.4153330606116
 20
118.6961019541081
 30
0.0
 10
135.6094769535838
 20
120.3785371055098
 30
0.0
 10
133.5573562507531
 20
122.1259877275799
 30
0.0
 10
131.2428589423264
 20
123.9104763512396
 30
0.0
 10
128.650912061494
 20
125.7001653669398
 30
0.0
 10
125.899772179036
 20
127.3788825778855
 30
0.0
 10
123.0102186235623
 20
128.925799897135
 30
0.0
 10
120.0048314502928
 20
130.3249571741527
 30
0.0
 10
116.7606041025458
 20
131.6090229259488
 30
0.0
 10
113.5251803252709
 20
132.6635280936904
 30
0.0
 10
110.3386600122785
 20
133.5006753698844
 30
0.0
 10
107.2371196511896
 20
134.1403942080403
 30
0.0
 10
103.9946686261591
 20
134.6190890034871
 30
0.0
 10
100.6189233160718
 20
134.9345672485502
 30
0.0
 10
98.32319207719465
 20
134.9745537877348
 30
0.0
 10
97.15679187925625
 20
134.9948698885179
 30
0.0
  0
SPLINE
  5
D5
330
1F
100
AcDbEntity
  8
0
  6
Continuous
 62
     7
370
    15
100
AcDbSpline
210
0.0
220
0.0
230
1.0
 70
     8
 71
     3
 72
    17
 73
    13
 74
     0
 42
0.000000001
 43
0.00000001
 40
0.0
 40
0.0
 40
0.0
 40
0.0
 40
0.0920622110694781
 40
0.1653253438047181
 40
0.2486827151368781
 40
0.3755860961846438
 40
0.5000578260307267
 40
0.6245578469226033
 40
0.7508370362042887
 40
0.8350761503109881
 40
0.9087794650804455
 40
1.0
 40
1.0
 40
1.0
 40
1.0
 10
42.87089525258941
 20
76.8406938638344
 30
0.0
 10
42.77661000985735
 20
76.84240781857923
 30
0.0
 10
42.60729254518529
 20
76.84548573897852
 30
0.0
 10
42.36031455844228
 20
76.90912442335657
 30
0.0
 10
42.08604242893438
 20
77.00106888935362
 30
0.0
 10
41.78097825309545
 20
77.16173007841387
 30
0.0
 10
41.48963804457856
 20
77.4149188438407
 30
0.0
 10
41.24646349580016
 20
77.71351188309542
 30
0.0
 10
41.09277854832061
 20
78.02255522878403
 30
0.0
 10
41.01056675574101
 20
78.3007294032007
 30
0.0
 10
40.95421476105678
 20
78.54991745883481
 30
0.0
 10
40.95587917819316
 20
78.71883502342068
 30
0.0
 10
40.95679977895404
 20
78.81226450998608
 30
0.0
  0
SPLINE
  5
D6
330
1F
100
AcDbEntity
  8
0
  6
Continuous
 62
     7
370
    15
100
AcDbSpline
210
0.0
220
0.0
230
1.0
 70
     8
 71
     3
 72
    17
 73
    13
 74
     0
 42
0.000000001
 43
0.00000001
 40
0.0
 40
0.0
 40
0.0
 40
0.0
 40
0.084823190117951
 40
0.1573895421427502
 40
0.2848719165198166
 40
0.3814650074822269
 40
0.4520190077235039
 40
0.5423283034106757
 40
0.66347618379887
 40
0.8167785939696629
 40
0.9023279501920317
 40
1.0
 40
1.0
 40
1.0
 40
1.0
 10
39.36996157656855
 20
78.85803489713506
 30
0.0
 10
39.37064778451188
 20
78.69946229095551
 30
0.0
 10
39.37192104426392
 20
78.40523060916807
 30
0.0
 10
39.46790194739735
 20
77.88075353293789
 30
0.0
 10
39.64087240725506
 20
77.35147139205567
 30
0.0
 10
39.9075833773588
 20
76.86795211190271
 30
0.0
 10
40.1950288480946
 20
76.48201279829289
 30
0.0
 10
40.56078583565158
 20
76.10162215818097
 30
0.0
 10
41.11030446737992
 20
75.69205931139857
 30
0.0
 10
41.73373491785692
 20
75.42560107658183
 30
0.0
 10
42.34576092201283
 20
75.27399769243054
 30
0.0
 10
42.68824100338663
 20
75.26042894494789
 30
0.0
 10
42.87081100047877
 20
75.25319568869978
 30
0.0
  0
SPLINE
  5
D7
330
1F
100
AcDbEntity
  8
0
  6
Continuous
 62
     7
370
    15
100
AcDbSpline
210
0.0
220
0.0
230
1.0
 70
     8
 71
     3
 72
    17
 73
    13
 74
     0
 42
0.000000001
 43
0.00000001
 40
0.0
 40
0.0
 40
0.0
 40
0.0
 40
0.0920337348372198
 40
0.1653197657070108
 40
0.2487230400491065
 40
0.3756554195526131
 40
0.5001348163182189
 40
0.624638425086723
 40
0.7508998587852181
 40
0.8351020245571216
 40
0.9087912639431993
 40
1.0
 40
1.0
 40
1.0
 40
1.0
 10
153.356946193241
 20
78.81210587680758
 30
0.0
 10
153.3579788756026
 20
78.71784557766777
 30
0.0
 10
153.3598338780796
 20
78.54852624495976
 30
0.0
 10
153.3034610823451
 20
78.29976248058732
 30
0.0
 10
153.2196048570266
 20
78.02282243450894
 30
0.0
 10
153.0680045135879
 20
77.71308514833204
 30
0.0
 10
152.8235510669088
 20
77.41435179431966
 30
0.0
 10
152.5323193900373
 20
77.16244771172836
 30
0.0
 10
152.2280154212479
 20
76.9997209641359
 30
0.0
 10
151.9524607687223
 20
76.90938718655721
 30
0.0
 10
151.705106828869
 20
76.84576802015546
 30
0.0
 10
151.536247161244
 20
76.84250168366165
 30
0.0
 10
151.4428471251692
 20
76.84069500033314
 30
0.0
  0
SPLINE
  5
D8
330
1F
100
AcDbEntity
  8
0
  6
Continuous
 62
     7
370
    15
100
AcDbSpline
210
0.0
220
0.0
230
1.0
 70
     8
 71
     3
 72
    17
 73
    13
 74
     0
 42
0.000000001
 43
0.00000001
 40
0.0
 40
0.0
 40
0.0
 40
0.0
 40
0.0848129566222896
 40
0.1573976584521845
 40
0.2849009325429738
 40
0.3815063947258084
 40
0.4520614974720445
 40
0.5423602855903159
 40
0.6635017358724886
 40
0.8167635739646945
 40
0.9023263797376775
 40
1.0
 40
1.0
 40
1.0
 40
1.0
 10
151.4429313775784
 20
75.25320208808282
 30
0.0
 10
151.6014014796707
 20
75.25850504282718
 30
0.0
 10
151.8954936089557
 20
75.26834637713364
 30
0.0
 10
152.4170291512607
 20
75.37953937630682
 30
0.0
 10
152.9411287305928
 20
75.56799034211065
 30
0.0
 10
153.4166606453571
 20
75.84885483789324
 30
0.0
 10
153.7939741622951
 20
76.14756296551796
 30
0.0
 10
154.1634204061815
 20
76.52435265423395
 30
0.0
 10
154.5565323225956
 20
77.08564285387737
 30
0.0
 10
154.8046225071147
 20
77.71654859847644
 30
0.0
 10
154.9382365094853
 20
78.33271876434229
 30
0.0
 10
154.9418459622087
 20
78.67548354557272
 30
0.0
 10
154.9437699700181
 20
78.8581932709564
 30
0.0
  0
LINE
  5
D9
330
1F
100
AcDbEntity
  8
0
  6
Continuous
 62
     7
370
    15
100
AcDbLine
 10
97.287730185
 20
75.2531953127
 30
0.0
 11
151.4429313779
 21
75.2531952966
 31
0.0
  0
LINE
  5
DA
330
1F
100
AcDbEntity
  8
0
  6
Continuous
 62
     7
370
    15
100
AcDbLine
 10
151.4428471252
 20
76.8406952966
 30
0.0
 11
97.2877301855
 21
76.8406953127
 31
0.0
  0
SPLINE
  5
DB
330
1F
100
AcDbEntity
  8
0
  6
Continuous
 62
     7
370
    15
100
AcDbSpline
210
0.0
220
0.0
230
1.0
 70
     8
 71
     3
 72
    65
 73
    61
 74
     0
 42
0.000000001
 43
0.00000001
 40
0.0
 40
0.0
 40
0.0
 40
0.0
 40
0.0156250000000002
 40
0.0156250000000002
 40
0.0312500000000004
 40
0.0312500000000004
 40
0.0625000000000008
 40
0.0625000000000008
 40
0.1250000000000012
 40
0.1250000000000012
 40
0.1875000000000017
 40
0.2187500000000019
 40
0.2187500000000019
 40
0.2343750000000021
 40
0.2343750000000021
 40
0.2500000000000022
 40
0.2812500000000024
 40
0.2812500000000024
 40
0.3125000000000027
 40
0.3125000000000027
 40
0.3437500000000029
 40
0.3593750000000027
 40
0.3593750000000027
 40
0.3750000000000025
 40
0.3750000000000025
 40
0.4375000000000014
 40
0.4375000000000014
 40
0.5000000000000002
 40
0.5000000000000002
 40
0.562499999999999
 40
0.562499999999999
 40
0.5937499999999988
 40
0.5937499999999988
 40
0.6249999999999986
 40
0.6249999999999986
 40
0.6562499999999983
 40
0.6562499999999983
 40
0.687499999999998
 40
0.687499999999998
 40
0.7187499999999978
 40
0.7187499999999978
 40
0.7499999999999976
 40
0.7656249999999974
 40
0.7656249999999974
 40
0.7812499999999973
 40
0.7812499999999973
 40
0.8124999999999976
 40
0.8124999999999976
 40
0.8437499999999979
 40
0.8437499999999979
 40
0.8749999999999982
 40
0.9062499999999986
 40
0.9062499999999986
 40
0.9374999999999988
 40
0.9374999999999988
 40
0.9687499999999991
 40
0.9687499999999991
 40
0.9843749999999996
 40
0.9843749999999996
 40
1.0
 40
1.0
 40
1.0
 40
1.0
 10
151.4312608644611
 20
77.17872449267593
 30
0.0
 10
151.3459632161699
 20
77.18031926523415
 30
0.0
 10
151.2586380605308
 20
77.18308627455707
 30
0.0
 10
151.0781635154597
 20
77.19210793225535
 30
0.0
 10
150.9847071560148
 20
77.19855807415271
 30
0.0
 10
150.6931652581074
 20
77.22468887437226
 30
0.0
 10
150.4844443784205
 20
77.25080890309644
 30
0.0
 10
149.8137043444268
 20
77.35622594682759
 30
0.0
 10
149.3067254299298
 20
77.46281766777057
 30
0.0
 10
148.1667269560783
 20
77.75270548344709
 30
0.0
 10
147.2181483450078
 20
78.02707279242524
 30
0.0
 10
146.1277482432594
 20
78.38796968109672
 30
0.0
 10
145.558790289176
 20
78.58293158945321
 30
0.0
 10
145.3651110743202
 20
78.65038138498493
 30
0.0
 10
144.9713548084484
 20
78.78911864543103
 30
0.0
 10
144.3707142881738
 20
79.00325339742913
 30
0.0
 10
143.7421938098339
 20
79.23411205921178
 30
0.0
 10
142.8831859316967
 20
79.55436677392622
 30
0.0
 10
142.4433177737913
 20
79.72062294765192
 30
0.0
 10
141.5456527123602
 20
80.06370415194226
 30
0.0
 10
140.8587927747843
 20
80.32906383335961
 30
0.0
 10
140.1537272444882
 20
80.60529398434971
 30
0.0
 10
139.6798835503012
 20
80.79172944516745
 30
0.0
 10
139.4415502413135
 20
80.88575212529182
 30
0.0
 10
138.2476689296915
 20
81.35665894328619
 30
0.0
 10
137.2809997156627
 20
81.73902967875944
 30
0.0
 10
135.3151841702537
 20
82.52381954588829
 30
0.0
 10
134.3130875539292
 20
82.92833332670997
 30
0.0
 10
132.2120408817522
 20
83.81021083836659
 30
0.0
 10
131.1343050566434
 20
84.27187564602951
 30
0.0
 10
129.4296397834509
 20
85.04305757917662
 30
0.0
 10
128.8456110505132
 20
85.31382322467513
 30
0.0
 10
127.6414520581272
 20
85.89137581205905
 30
0.0
 10
127.0219493510997
 20
86.19776647886972
 30
0.0
 10
125.7478416188799
 20
86.8517020560067
 30
0.0
 10
125.0930597191251
 20
87.19912053674125
 30
0.0
 10
123.752914272786
 20
87.93932926199423
 30
0.0
 10
123.0669309775528
 20
88.33274418664887
 30
0.0
 10
121.6625511142074
 20
89.17592153294332
 30
0.0
 10
120.9440308802607
 20
89.62554493052545
 30
0.0
 10
119.4747560402493
 20
90.59333866151465
 30
0.0
 10
118.3487235022582
 20
91.36813103151556
 30
0.0
 10
117.1873441590282
 20
92.20782558342734
 30
0.0
 10
116.4053217297923
 20
92.78109816671231
 30
0.0
 10
116.0104829395941
 20
93.07488893890387
 30
0.0
 10
114.8137929071247
 20
93.97126775414783
 30
0.0
 10
113.9999519774565
 20
94.58763601110522
 30
0.0
 10
112.342725029372
 20
95.80849628764238
 30
0.0
 10
111.499317839956
 20
96.41301421378893
 30
0.0
 10
109.7855933229044
 20
97.56062895247813
 30
0.0
 10
108.0514675646145
 20
98.63889293990695
 30
0.0
 10
106.2809427252171
 20
99.52411706367806
 30
0.0
 10
104.4944200459505
 20
100.2856520750519
 30
0.0
 10
103.5934778099899
 20
100.6054275423267
 30
0.0
 10
101.7779380979344
 20
101.0970210418304
 30
0.0
 10
100.8631401455805
 20
101.2682245240789
 30
0.0
 10
99.48065929415245
 20
101.390516656022
 30
0.0
 10
99.01842668965772
 20
101.4090187015304
 30
0.0
 10
98.08904400295937
 20
101.3966659498667
 30
0.0
 10
97.62181311001544
 20
101.3655237589727
 30
0.0
 10
97.15500291962549
 20
101.3063384453544
 30
0.0
  0
LINE
  5
DC
330
1F
100
AcDbEntity
  8
0
  6
Continuous
 62
     7
370
    15
100
AcDbLine
 10
42.8787422458
 20
77.1807634778
 30
0.0
 11
151.4312577546
 21
77.1807634455
 31
0.0
  0
SPLINE
  5
DD
330
1F
100
AcDbEntity
  8
0
  6
Continuous
 62
     7
370
    15
100
AcDbSpline
210
0.0
220
0.0
230
1.0
 70
     8
 71
     3
 72
   125
 73
   121
 74
     0
 42
0.000000001
 43
0.00000001
 40
0.0
 40
0.0
 40
0.0
 40
0.0
 40
0.0027254407884311
 40
0.0054531955575579
 40
0.0081838898340567
 40
0.0109181497154131
 40
0.0136566010364039
 40
0.0163998685394073
 40
0.019148575051745
 40
0.0219033406731821
 40
0.0246647819766038
 40
0.027433511224755
 40
0.0302101356057802
 40
0.0329952564901186
 40
0.0357894687111245
 40
0.038593359871568
 40
0.0414075096779661
 40
0.0442324893044485
 40
0.0470688607876482
 40
0.0499171764538642
 40
0.0527779783795128
 40
0.0556517978856527
 40
0.0585391550671512
 40
0.0614405583568364
 40
0.0643565041247862
 40
0.0672874763126978
 40
0.0702339461031234
 40
0.0731963716231695
 40
0.0761751976821297
 40
0.07917085554237
 40
0.0821837627226832
 40
0.0852143228332132
 40
0.088262925440972
 40
0.0913299459649046
 40
0.0944157455993807
 40
0.0975206712649833
 40
0.1006450555853917
 40
0.1037892168891779
 40
0.1069534592353031
 40
0.1101380724611091
 40
0.1133433322516191
 40
0.1165695002289733
 40
0.1198168240608526
 40
0.1230855375867826
 40
0.1263758609612396
 40
0.1296880008125282
 40
0.1330221504164418
 40
0.1363784898837675
 40
0.1397571863607488
 40
0.1431583942416645
 40
0.1465822553927444
 40
0.1500288993866835
 40
0.1534984437470795
 40
0.1569909942021664
 40
0.1605066449472647
 40
0.1763255753029609
 40
0.192938011144711
 40
0.2103421810577069
 40
0.2285311343864442
 40
0.2474939304999673
 40
0.2540788733252432
 40
0.2625547011760702
 40
0.2729065056493904
 40
0.2851164246725364
 40
0.2991644074683937
 40
0.3150290397031212
 40
0.3326884862879295
 40
0.3474955438269006
 40
0.3622051925699901
 40
0.376823690999707
 40
0.3913570172974626
 40
0.4058108700911368
 40
0.4201906700306665
 40
0.4345015621599234
 40
0.4487484190467237
 40
0.4629358446273371
 40
0.4770681787173991
 40
0.5039722692617924
 40
0.5369767888907604
 40
0.554274556371114
 40
0.5690550642391768
 40
0.581320394774789
 40
0.5910703501305288
 40
0.6111479483010968
 40
0.6299723792498768
 40
0.6475501263570445
 40
0.6638865174350319
 40
0.6789861489525892
 40
0.6928533860778583
 40
0.7062676675921147
 40
0.7195451335128303
 40
0.7326966399998197
 40
0.7457336509743563
 40
0.758668238278672
 40
0.7715130763965984
 40
0.7842814312489641
 40
0.7969871426849938
 40
0.8056330306164736
 40
0.8142611642618574
 40
0.82287610815798
 40
0.831482517564002
 40
0.8400851324370634
 40
0.8486887709253091
 40
0.8572983224222789
 40
0.8659187402340175
 40
0.874555033916837
 40
0.8832122613492417
 40
0.8918955206059245
 40
0.9006099417048281
 40
0.9093606782999337
 40
0.9181528993926378
 40
0.9269917811333315
 40
0.9358824987821525
 40
0.9448302188939259
 40
0.9538400917872439
 40
0.9629172443515733
 40
0.9720667732394914
 40
0.9812937384838037
 40
0.9906031575716564
 40
1.0
 40
1.0
 40
1.0
 40
1.0
 10
97.15499714992889
 20
101.3063492694829
 30
0.0
 10
97.09076823068696
 20
101.3142035817482
 30
0.0
 10
96.96225585993086
 20
101.3299188748246
 30
0.0
 10
96.76896271231155
 20
101.3497939082002
 30
0.0
 10
96.57520458601154
 20
101.3669680935706
 30
0.0
 10
96.38094754116057
 20
101.3811720240988
 30
0.0
 10
96.1862007447059
 20
101.3924746082868
 30
0.0
 10
95.99096179198206
 20
101.4008546137395
 30
0.0
 10
95.79523138488345
 20
101.4063156866516
 30
0.0
 10
95.59900938984727
 20
101.4088554640943
 30
0.0
 10
95.40229589652094
 20
101.4084738713655
 30
0.0
 10
95.20509093299921
 20
101.4051708921479
 30
0.0
 10
95.00739454211673
 20
101.3989471677476
 30
0.0
 10
94.80920676069903
 20
101.389803835764
 30
0.0
 10
94.61052762493264
 20
101.3777425732737
 30
0.0
 10
94.41135716873418
 20
101.3627655849823
 30
0.0
 10
94.21169542402862
 20
101.3448756061728
 30
0.0
 10
94.01154242054037
 20
101.3240759016613
 30
0.0
 10
93.81089818574196
 20
101.3003702658221
 30
0.0
 10
93.60976274478712
 20
101.2737630223211
 30
0.0
 10
93.40813612047384
 20
101.2442590239279
 30
0.0
 10
93.20601833322424
 20
101.2118636523091
 30
0.0
 10
93.0034094010843
 20
101.1765828178315
 30
0.0
 10
92.80030933974052
 20
101.1384229593706
 30
0.0
 10
92.59671816255289
 20
101.0973910441269
 30
0.0
 10
92.39263588060285
 20
101.0534945674509
 30
0.0
 10
92.18806250275385
 20
101.0067415526791
 30
0.0
 10
91.98299803572442
 20
100.9571405509803
 30
0.0
 10
91.77744248417048
 20
100.9047006412145
 30
0.0
 10
91.57139585077665
 20
100.849431429803
 30
0.0
 10
91.3648581363541
 20
100.7913430506121
 30
0.0
 10
91.15782933994403
 20
100.7304461648485
 30
0.0
 10
90.95030945892479
 20
100.6667519609675
 30
0.0
 10
90.74229848912212
 20
100.6002721545937
 30
0.0
 10
90.53379642491997
 20
100.5310189884528
 30
0.0
 10
90.32480325937235
 20
100.4590052323157
 30
0.0
 10
90.11531898431367
 20
100.3842441829529
 30
0.0
 10
89.90534359046791
 20
100.3067496640991
 30
0.0
 10
89.6948770675547
 20
100.2265360264276
 30
0.0
 10
89.48391940439295
 20
100.1436181475334
 30
0.0
 10
89.27247058899935
 20
100.0580114319249
 30
0.0
 10
89.06053060868561
 20
99.96973181101968
 30
0.0
 10
88.8480994501421
 20
99.87879574316172
 30
0.0
 10
88.63517709954878
 20
99.78522021358528
 30
0.0
 10
88.42176354255943
 20
99.6890227346104
 30
0.0
 10
88.20785876474021
 20
99.59022134498747
 30
0.0
 10
87.99346275026944
 20
99.48883461247097
 30
0.0
 10
87.77857548716676
 20
99.3848816242387
 30
0.0
 10
87.56319694788499
 20
99.27838202314095
 30
0.0
 10
87.34732716274506
 20
99.16935587121041
 30
0.0
 10
87.13096594338182
 20
99.05782416430877
 30
0.0
 10
86.91411392541816
 20
98.94380689238075
 30
0.0
 10
86.69676863845226
 20
98.82733035123437
 30
0.0
 10
86.47893931965467
 20
98.70839958239236
 30
0.0
 10
86.00636442500125
 20
98.44587366526288
 30
0.0
 10
85.27194098631958
 20
98.0158678111478
 30
0.0
 10
84.27441092434854
 20
97.38849169647582
 30
0.0
 10
83.24860955961812
 20
96.70497346570869
 30
0.0
 10
82.19507894905924
 20
95.96799634517208
 30
0.0
 10
81.36197300276868
 20
95.36500095308249
 30
0.0
 10
80.72211211152091
 20
94.88763837717512
 30
0.0
 10
80.24708966063096
 20
94.52850470865013
 30
0.0
 10
79.66766052113822
 20
94.090654851849
 30
0.0
 10
78.98412275062124
 20
93.57686242594517
 30
0.0
 10
78.1964203687268
 20
92.99095285414815
 30
0.0
 10
77.30439073245563
 20
92.33747676526531
 30
0.0
 10
76.39579975789617
 20
91.68305458205536
 30
0.0
 10
75.50391058415676
 20
91.05733132092946
 30
0.0
 10
74.66279464966944
 20
90.48649919378512
 30
0.0
 10
73.82121794135203
 20
89.93287410377444
 30
0.0
 10
72.97898801641934
 20
89.39634174916534
 30
0.0
 10
72.13615647074143
 20
88.87649578636356
 30
0.0
 10
71.29270942387721
 20
88.3730125571446
 30
0.0
 10
70.44865264413241
 20
87.88554758483465
 30
0.0
 10
69.60397808188534
 20
87.41377788379472
 30
0.0
 10
68.75871298735382
 20
86.95733584486183
 30
0.0
 10
67.65692722458274
 20
86.38257250003919
 30
0.0
 10
66.17110498420318
 20
85.64436781026654
 30
0.0
 10
64.61463823286878
 20
84.91804849654875
 30
0.0
 10
63.30152707217979
 20
84.33337711748695
 30
0.0
 10
62.40830226363675
 20
83.94519745282955
 30
0.0
 10
61.66841848900438
 20
83.6302342721617
 30
0.0
 10
60.82475253374313
 20
83.27526370739706
 30
0.0
 10
59.85528350858944
 20
82.87241670343265
 30
0.0
 10
58.73838713245043
 20
82.41790918811776
 30
0.0
 10
57.70550372349221
 20
82.00419323498116
 30
0.0
 10
56.75653941158684
 20
81.6286001237913
 30
0.0
 10
55.89128271882235
 20
81.28861324594125
 30
0.0
 10
55.09585064697144
 20
80.97559040799605
 30
0.0
 10
54.34882990074273
 20
80.6811645818809
 30
0.0
 10
53.6271259484348
 20
80.39909387514057
 30
0.0
 10
52.92577441005322
 20
80.1269780992701
 30
0.0
 10
52.24460137518127
 20
79.86517188035326
 30
0.0
 10
51.5836542757228
 20
79.6138916571442
 30
0.0
 10
50.94292880951476
 20
79.3733904558839
 30
0.0
 10
50.32241113995506
 20
79.14392202591908
 30
0.0
 10
49.78532423422073
 20
78.94866840349746
 30
0.0
 10
49.32519689315387
 20
78.78426954255549
 30
0.0
 10
48.93612355618895
 20
78.64753679587943
 30
0.0
 10
48.55619708781905
 20
78.51638773157654
 30
0.0
 10
48.18540156640117
 20
78.39089804304348
 30
0.0
 10
47.82374182044555
 20
78.27113915628472
 30
0.0
 10
47.47121711596694
 20
78.15718398200003
 30
0.0
 10
47.12782818829399
 20
78.04910537300624
 30
0.0
 10
46.79357535285816
 20
77.94697653345784
 30
0.0
 10
46.46845900507834
 20
77.85087090573786
 30
0.0
 10
46.15247948022117
 20
77.76086219752663
 30
0.0
 10
45.84563708638375
 20
77.67702437225151
 30
0.0
 10
45.54793208855411
 20
77.59943164779354
 30
0.0
 10
45.25936471862109
 20
77.5281585012925
 30
0.0
 10
44.97993513443282
 20
77.46327964372661
 30
0.0
 10
44.7096435623302
 20
77.40487011287406
 30
0.0
 10
44.44848975631853
 20
77.35300492250714
 30
0.0
 10
44.19647503304629
 20
77.30776038480566
 30
0.0
 10
43.95359460468048
 20
77.2692091299224
 30
0.0
 10
43.71986650312661
 20
77.23743889640465
 30
0.0
 10
43.49522240941884
 20
77.21248161065958
 30
0.0
 10
43.27992005685909
 20
77.1945812975978
 30
0.0
 10
43.07298426673016
 20
77.18318132689173
 30
0.0
 10
42.94369120210052
 20
77.18157193502992
 30
0.0
 10
42.87874254550496
 20
77.1807634783686
 30
0.0
  0
SPLINE
  5
DE
330
1F
100
AcDbEntity
  8
0
  6
Continuous
 62
     7
370
    15
100
AcDbSpline
210
0.0
220
0.0
230
1.0
 70
     8
 71
     3
 72
    79
 73
    75
 74
     0
 42
0.000000001
 43
0.00000001
 40
0.0
 40
0.0
 40
0.0
 40
0.0
 40
0.0078982472987159
 40
0.015768334176563
 40
0.0236127340453098
 40
0.031433910147086
 40
0.039234318773553
 40
0.0470164126945085
 40
0.0547826447507009
 40
0.0625354715642673
 40
0.070277357319199
 40
0.0780107775634313
 40
0.0857382229836064
 40
0.0934622031032971
 40
0.1011852498554556
 40
0.1089099209801499
 40
0.1166388031992585
 40
0.1243745151207293
 40
0.1321197098263612
 40
0.1398770770987749
 40
0.1476493452454372
 40
0.1554392824802353
 40
0.1632496978262564
 40
0.1710834415070804
 40
0.2083302942239945
 40
0.2483345279579982
 40
0.2913880739729252
 40
0.3377602884018823
 40
0.3825040286278387
 40
0.4318436412160466
 40
0.4858803762461731
 40
0.5076708124455086
 40
0.5287694538010628
 40
0.5491634338325574
 40
0.5688432874783782
 40
0.5878025771356246
 40
0.6060375370851057
 40
0.6355507841705609
 40
0.662677646041014
 40
0.6874336256051925
 40
0.709844551871164
 40
0.7246010359724825
 40
0.7392331187388694
 40
0.7537566735690571
 40
0.7681891132606253
 40
0.782549486339138
 40
0.7968585660188837
 40
0.8111389278444383
 40
0.8179167621385822
 40
0.8247059119039384
 40
0.8315092245911014
 40
0.8383296521455896
 40
0.845170251932828
 40
0.8520341873858259
 40
0.8589247283638203
 40
0.8658452512129693
 40
0.8727992385233069
 40
0.879790278579532
 40
0.8868220645067473
 40
0.8938983931159207
 40
0.9010231634575223
 40
0.9082003750954382
 40
0.9154341261167614
 40
0.9227286108963564
 40
0.9300881176380829
 40
0.9375170257172066
 40
0.9450198028507173
 40
0.9526010021240137
 40
0.9602652589036317
 40
0.968017287666389
 40
0.9758618787754818
 40
0.9838038952337275
 40
0.9918482694432963
 40
1.0
 40
1.0
 40
1.0
 40
1.0
 10
97.1550000557506
 20
109.7393865643828
 30
0.0
 10
96.95092020539776
 20
109.7163678705375
 30
0.0
 10
96.54348813124768
 20
109.6704125537268
 30
0.0
 10
95.93372716119714
 20
109.5979973900099
 30
0.0
 10
95.32623908758326
 20
109.5232377804853
 30
0.0
 10
94.72087026151432
 20
109.4459058883233
 30
0.0
 10
94.11743574114107
 20
109.3661011728107
 30
0.0
 10
93.51575840620274
 20
109.2838340060591
 30
0.0
 10
92.91565827814392
 20
109.1991368676814
 30
0.0
 10
92.31695511447803
 20
109.1120347414136
 30
0.0
 10
91.71946745937488
 20
109.0225530235195
 30
0.0
 10
91.12301264668376
 20
108.9307153520728
 30
0.0
 10
90.52740656209636
 20
108.8365440663192
 30
0.0
 10
89.9324634904163
 20
108.7400599025813
 30
0.0
 10
89.33799596774456
 20
108.6412818357068
 30
0.0
 10
88.7438146669134
 20
108.5402268265072
 30
0.0
 10
88.14972831447928
 20
108.4369095393901
 30
0.0
 10
87.55554364802154
 20
108.3313420280107
 30
0.0
 10
86.96106540921139
 20
108.2235333509405
 30
0.0
 10
86.36609640923164
 20
108.1134892912008
 30
0.0
 10
85.77043754984315
 20
108.0012115420296
 30
0.0
 10
85.17388825496425
 20
107.8866987645764
 30
0.0
 10
84.57624562617733
 20
107.7699405284443
 30
0.0
 10
83.22846578129848
 20
107.5021503553109
 30
0.0
 10
81.06547245012955
 20
107.0515374877909
 30
0.0
 10
78.02804965855628
 20
106.340324797813
 30
0.0
 10
74.79480920625143
 20
105.4676119426954
 30
0.0
 10
71.49500261408988
 20
104.4263832690815
 30
0.0
 10
68.11309988660761
 20
103.1774643167062
 30
0.0
 10
64.64922575077327
 20
101.66758163265
 30
0.0
 10
61.83895609074631
 20
100.2101858914459
 30
0.0
 10
59.74668636056346
 20
98.97794770343242
 30
0.0
 10
58.4141466140349
 20
98.13420002668853
 30
0.0
 10
57.15839982956239
 20
97.28551518622864
 30
0.0
 10
55.97790700427538
 20
96.43802930132276
 30
0.0
 10
54.87067822783376
 20
95.59757982621879
 30
0.0
 10
53.60698345759509
 20
94.58799580156142
 30
0.0
 10
52.2407130340041
 20
93.42365834206691
 30
0.0
 10
50.82612788175125
 20
92.12888584916543
 30
0.0
 10
49.59593655116528
 20
90.93448659873582
 30
0.0
 10
48.61731244414707
 20
89.94222133785058
 30
0.0
 10
47.83127129092768
 20
89.1216227512291
 30
0.0
 10
47.18940167693069
 20
88.43045621180555
 30
0.0
 10
46.57749043879144
 20
87.751503148677
 30
0.0
 10
45.99587512322367
 20
87.08535627374368
 30
0.0
 10
45.44484969717191
 20
86.4329040278055
 30
0.0
 10
44.92482579751578
 20
85.79489732033204
 30
0.0
 10
44.52170223626878
 20
85.28110161029282
 30
0.0
 10
44.2196238780658
 20
84.88402629668941
 30
0.0
 10
44.00603733494411
 20
84.59706639549219
 30
0.0
 10
43.79955848659321
 20
84.31324494101285
 30
0.0
 10
43.60028825487313
 20
84.03261849664315
 30
0.0
 10
43.40833105722791
 20
83.75526118069868
 30
0.0
 10
43.22379584047466
 20
83.48124189304379
 30
0.0
 10
43.04679582911286
 20
83.21063044684813
 30
0.0
 10
42.87744861955542
 20
82.9434959207414
 30
0.0
 10
42.71587618156442
 20
82.67990709942718
 30
0.0
 10
42.56220488511234
 20
82.41993234659415
 30
0.0
 10
42.41656552092945
 20
82.16363962562761
 30
0.0
 10
42.27909332348388
 20
81.9110964753706
 30
0.0
 10
42.14992799389762
 20
81.66236999281575
 30
0.0
 10
42.02921372455511
 20
81.41752680944413
 30
0.0
 10
41.91709922139238
 20
81.17663306238579
 30
0.0
 10
41.81373773882017
 20
80.93975436948972
 30
0.0
 10
41.71928707130427
 20
80.70695577058301
 30
0.0
 10
41.63390971357049
 20
80.47830177872069
 30
0.0
 10
41.55777238751995
 20
80.25385599709982
 30
0.0
 10
41.49104797328872
 20
80.03368236343128
 30
0.0
 10
41.43390833177455
 20
79.81784020696777
 30
0.0
 10
41.38655168818358
 20
79.6064027610172
 30
0.0
 10
41.3490988084924
 20
79.39938660772553
 30
0.0
 10
41.3219876766532
 20
79.1970195000594
 30
0.0
 10
41.30447287712148
 20
78.99872165538258
 30
0.0
 10
41.30173362146707
 20
78.87176309293503
 30
0.0
 10
41.30035491502235
 20
78.8078630374665
 30
0.0
  0
SPLINE
  5
DF
330
1F
100
AcDbEntity
  8
0
  6
Continuous
 62
     7
370
    15
100
AcDbSpline
210
0.0
220
0.0
230
1.0
 70
     8
 71
     3
 72
    12
 73
     8
 74
     0
 42
0.000000001
 43
0.00000001
 40
0.0
 40
0.0
 40
0.0
 40
0.0
 40
0.5
 40
0.5
 40
0.75
 40
0.75
 40
1.0
 40
1.0
 40
1.0
 40
1.0
 10
97.15499432536875
 20
101.3063579109396
 30
0.0
 10
97.15498178166963
 20
102.7069544727505
 30
0.0
 10
97.15497764940028
 20
104.1526162366278
 30
0.0
 10
97.154984926046
 20
106.2929149375057
 30
0.0
 10
97.15498957299575
 20
107.0015200628437
 30
0.0
 10
97.15500315487861
 20
108.3932109904765
 30
0.0
 10
97.15501208895057
 20
109.0762606624054
 30
0.0
 10
97.15502299619226
 20
109.7393828721373
 30
0.0
  0
SPLINE
  5
E0
330
1F
100
AcDbEntity
  8
0
  6
Continuous
 62
     7
370
    15
100
AcDbSpline
210
0.0
220
0.0
230
1.0
 70
     8
 71
     3
 72
    22
 73
    18
 74
     0
 42
0.000000001
 43
0.00000001
 40
0.0
 40
0.0
 40
0.0
 40
0.0
 40
0.125
 40
0.125
 40
0.25
 40
0.25
 40
0.375
 40
0.375
 40
0.5
 40
0.5
 40
0.625
 40
0.625
 40
0.75
 40
0.75
 40
0.875
 40
0.875
 40
1.0
 40
1.0
 40
1.0
 40
1.0
 10
42.87873665058046
 20
77.1787244784932
 30
0.0
 10
42.77241771244269
 20
77.1787173607475
 30
0.0
 10
42.66784522651775
 20
77.18932089122852
 30
0.0
 10
42.46206294794246
 20
77.23095814499267
 30
0.0
 10
42.3597258629903
 20
77.26254559915
 30
0.0
 10
42.16538745728984
 20
77.34473500505442
 30
0.0
 10
42.07332245435391
 20
77.39501920878611
 30
0.0
 10
41.89935484218212
 20
77.51388378928284
 30
0.0
 10
41.81730049267074
 20
77.58298372138952
 30
0.0
 10
41.67085897298175
 20
77.73372989311696
 30
0.0
 10
41.60541680799911
 20
77.8159675684548
 30
0.0
 10
41.49057710909132
 20
77.99460226377165
 30
0.0
 10
41.44260988273383
 20
78.08897620176077
 30
0.0
 10
41.36640655462475
 20
78.28460506280865
 30
0.0
 10
41.33774313020838
 20
78.3872546075063
 30
0.0
 10
41.3016116557207
 20
78.59611113125403
 30
0.0
 10
41.29405901217142
 20
78.70153135524524
 30
0.0
 10
41.29716361988793
 20
78.80795714332996
 30
0.0
  0
LINE
  5
E1
330
1F
100
AcDbEntity
  8
0
  6
Continuous
 62
     7
370
    15
100
AcDbLine
 10
153.01283633
 20
78.8079587556
 30
0.0
 11
153.0026590597
 21
78.9003153356
 31
0.0
  0
SPLINE
  5
E2
330
1F
100
AcDbEntity
  8
0
  6
Continuous
 62
     7
370
    15
100
AcDbSpline
210
0.0
220
0.0
230
1.0
 70
     8
 71
     3
 72
    22
 73
    18
 74
     0
 42
0.000000001
 43
0.00000001
 40
0.0
 40
0.0
 40
0.0
 40
0.0
 40
0.125
 40
0.125
 40
0.25
 40
0.25
 40
0.375
 40
0.375
 40
0.5
 40
0.5
 40
0.625
 40
0.625
 40
0.75
 40
0.75
 40
0.875
 40
0.875
 40
1.0
 40
1.0
 40
1.0
 40
1.0
 10
151.4312633484516
 20
77.17872444623418
 30
0.0
 10
151.5375822868643
 20
77.17871732842526
 30
0.0
 10
151.6421547729377
 20
77.18932085889796
 30
0.0
 10
151.8479370515896
 20
77.23095811261149
 30
0.0
 10
151.95027413642
 20
77.26254556669188
 30
0.0
 10
152.1446125422623
 20
77.34473497257908
 30
0.0
 10
152.2366775452946
 20
77.39501917632646
 30
0.0
 10
152.4106451576915
 20
77.5138837569358
 30
0.0
 10
152.4926995070789
 20
77.58298368893837
 30
0.0
 10
152.6391410266711
 20
77.73372986049195
 30
0.0
 10
152.7045831916978
 20
77.81596753581022
 30
0.0
 10
152.8194228907828
 20
77.99460223131675
 30
0.0
 10
152.8673901169662
 20
78.08897616892376
 30
0.0
 10
152.9435934451376
 20
78.2846050298886
 30
0.0
 10
152.9722568696376
 20
78.38725457476842
 30
0.0
 10
153.0083883441584
 20
78.59611109819897
 30
0.0
 10
153.0159409877645
 20
78.70153132208803
 30
0.0
 10
153.0128363801125
 20
78.80795711013093
 30
0.0
  0
SPLINE
  5
E3
330
1F
100
AcDbEntity
  8
0
  6
Continuous
 62
     7
370
    15
100
AcDbSpline
210
0.0
220
0.0
230
1.0
 70
    24
 71
     3
 72
     8
 73
     4
 74
     0
 42
0.000000001
 43
0.00000001
 40
0.294994015000089
 40
0.294994015000089
 40
0.294994015000089
 40
0.294994015000089
 40
0.9995760536782826
 40
0.9995760536782826
 40
0.9995760536782826
 40
0.9995760536782826
 10
97.15500005575062
 20
109.7393895894031
 30
0.0
 10
97.15500007303334
 20
119.7458327410168
 30
0.0
 10
97.15500009626093
 20
133.1942822149326
 30
0.0
 10
97.1550000960274
 20
133.0590929626991
 30
0.0
  0
LINE
  5
E4
330
1F
100
AcDbEntity
  8
0
  6
Continuous
 62
     7
370
    15
100
AcDbLine
 10
41.3045981031
 20
78.8754268285
 30
0.0
 11
41.3357167468
 21
79.3709611752
 31
0.0
  0
LINE
  5
E5
330
1F
100
AcDbEntity
  8
0
  6
Continuous
 62
     7
370
    15
100
AcDbLine
 10
153.0054022078
 20
78.8754218459
 30
0.0
 11
152.9742834693
 21
79.3709577068
 31
0.0
  0
SPLINE
  5
E6
330
1F
100
AcDbEntity
  8
0
  6
Continuous
 62
     8
370
    15
100
AcDbSpline
210
0.0
220
0.0
230
1.0
 70
     8
 71
     3
 72
    31
 73
    27
 74
     0
 42
0.000000001
 43
0.00000001
 40
0.0
 40
0.0
 40
0.0
 40
0.0
 40
0.0268844639427336
 40
0.0575926315491954
 40
0.0886078185717228
 40
0.1202720646479543
 40
0.1526331217861799
 40
0.1857947349601581
 40
0.2193425552202966
 40
0.2531929824563119
 40
0.2874530015505153
 40
0.3216386370782072
 40
0.356042360383455
 40
0.3916543012887173
 40
0.4291006443134411
 40
0.4689775808889919
 40
0.5122620594778649
 40
0.5589345404471436
 40
0.6085932593281559
 40
0.6609555152647002
 40
0.7154883462970455
 40
0.7715772414355987
 40
0.8282657817717497
 40
0.8848692903771935
 40
0.9417087929919103
 40
1.0
 40
1.0
 40
1.0
 40
1.0
 10
153.0026590597071
 20
78.9003153356031
 30
0.0
 10
152.9871911722928
 20
79.11530682226083
 30
0.0
 10
152.9540554422072
 20
79.57586744581162
 30
0.0
 10
152.7140855520558
 20
80.41884976042034
 30
0.0
 10
152.3022432076403
 20
81.41237966992149
 30
0.0
 10
151.6986559263911
 20
82.53841047551427
 30
0.0
 10
150.896622931463
 20
83.79317027712139
 30
0.0
 10
149.8928257327702
 20
85.16566180432476
 30
0.0
 10
148.7008608730754
 20
86.64649294252966
 30
0.0
 10
147.3389984713034
 20
88.20953043712487
 30
0.0
 10
145.8264468468663
 20
89.81634255152368
 30
0.0
 10
144.1850372560216
 20
91.45902739163468
 30
0.0
 10
142.4131404261365
 20
93.12270237227105
 30
0.0
 10
140.4695011956272
 20
94.79512433319043
 30
0.0
 10
138.3087090890123
 20
96.48253176354697
 30
0.0
 10
135.8728362803113
 20
98.18249362746879
 30
0.0
 10
133.1105068256281
 20
99.86340757749134
 30
0.0
 10
130.0000332687566
 20
101.4965336444842
 30
0.0
 10
126.5549661579156
 20
103.0386690090467
 30
0.0
 10
122.806422222247
 20
104.4409686142481
 30
0.0
 10
118.8050244390833
 20
105.681404453534
 30
0.0
 10
114.6224348417159
 20
106.7502453624778
 30
0.0
 10
110.3390792794848
 20
107.670433549081
 30
0.0
 10
106.0070011315436
 20
108.4740182403692
 30
0.0
 10
101.6157107934338
 20
109.1995807283942
 30
0.0
 10
98.65436564468159
 20
109.5579426071718
 30
0.0
 10
97.15502299619226
 20
109.7393828721373
 30
0.0
  0
LINE
  5
E7
330
1F
100
AcDbEntity
  8
0
  6
Continuous
 62
     8
370
    15
100
AcDbLine
 10
42.8708952527
 20
76.8406953046
 30
0.0
 11
42.8708110008
 21
75.2532015702
 31
0.0
  0
LINE
  5
E8
330
1F
100
AcDbEntity
  8
0
  6
Continuous
 62
     8
370
    15
100
AcDbLine
 10
97.287730185
 20
75.2532011053
 30
0.0
 11
97.2877301855
 21
76.8406952798
 31
0.0
  0
LINE
  5
E9
330
1F
100
AcDbEntity
  8
0
  6
Continuous
 62
     8
370
    15
100
AcDbLine
 10
97.1567918792
 20
134.994869959
 30
0.0
 11
97.1569505292
 21
133.407369984
 31
0.0
  0
LINE
  5
EA
330
1F
100
AcDbEntity
  8
0
  6
Continuous
 62
     8
370
    15
100
AcDbLine
 10
39.3699613998
 20
78.8580349022
 30
0.0
 11
40.9568007439
 21
78.8122644822
 31
0.0
  0
LINE
  5
EB
330
1F
100
AcDbEntity
  8
0
  6
Continuous
 62
     8
370
    15
100
AcDbLine
 10
154.94377668
 20
78.8581934658
 30
0.0
 11
153.3569461416
 21
78.8121058753
 31
0.0
  0
LINE
  5
EC
330
1F
100
AcDbEntity
  8
0
  6
Continuous
 62
     8
370
    15
100
AcDbLine
 10
151.4428471252
 20
76.840695219
 30
0.0
 11
151.4429313776
 21
75.2532011916
 31
0.0
  0
SPLINE
  5
ED
330
1F
100
AcDbEntity
  8
0
  6
Continuous
 62
     7
370
    15
100
AcDbSpline
210
0.0
220
0.0
230
1.0
 70
     8
 71
     3
 72
    38
 73
    34
 74
     0
 42
0.000000001
 43
0.00000001
 40
0.0
 40
0.0
 40
0.0
 40
0.0
 40
0.0423011820676417
 40
0.0826901763067568
 40
0.1211669273092353
 40
0.1577313819379446
 40
0.1923834893266657
 40
0.2251232008800316
 40
0.2559504702734793
 40
0.2848652534532105
 40
0.3155681756066809
 40
0.3437731943156245
 40
0.3694802301957404
 40
0.3926892099079865
 40
0.4134000661587079
 40
0.431936320398939
 40
0.4519802521370976
 40
0.4745709917729664
 40
0.4997084636730394
 40
0.5273925861394327
 40
0.5576232714103688
 40
0.5904004256604902
 40
0.625723949001075
 40
0.6635937354801871
 40
0.6988197662509925
 40
0.7359953476717147
 40
0.7751204230550898
 40
0.816194933508244
 40
0.8504603344834497
 40
0.8859735564594154
 40
0.922734584723889
 40
0.960743404310756
 40
1.0
 40
1.0
 40
1.0
 40
1.0
 10
97.15687122285203
 20
229.4790389564022
 30
0.0
 10
98.39649915235486
 20
229.4790389915952
 30
0.0
 10
100.8197187182161
 20
229.4790390603904
 30
0.0
 10
104.3556436795302
 20
229.4790392948389
 30
0.0
 10
107.6979407920389
 20
229.4790395990834
 30
0.0
 10
110.8395183921912
 20
229.4790399639497
 30
0.0
 10
113.7764556083671
 20
229.4790403694793
 30
0.0
 10
116.5075464987696
 20
229.4790408000567
 30
0.0
 10
119.0338900968201
 20
229.4790412406589
 30
0.0
 10
121.4576021296445
 20
229.4790416964092
 30
0.0
 10
123.7608036526351
 20
229.4790421542519
 30
0.0
 10
125.9271628576861
 20
229.4790425979902
 30
0.0
 10
127.854150577462
 20
229.4790429912648
 30
0.0
 10
129.552366547965
 20
229.4790433233104
 30
0.0
 10
131.0404092493638
 20
229.4790435840292
 30
0.0
 10
132.4217520076917
 20
229.4790437865668
 30
0.0
 10
133.8139915424769
 20
229.4790438646168
 30
0.0
 10
135.3146166194944
 20
229.479043845693
 30
0.0
 10
136.9301242931053
 20
229.4790437290631
 30
0.0
 10
138.6403130670933
 20
229.4790435186571
 30
0.0
 10
140.4216543544547
 20
229.4790432204962
 30
0.0
 10
142.2470308169636
 20
229.4790428438918
 30
0.0
 10
144.0854899936747
 20
229.4790424010558
 30
0.0
 10
145.8191249992063
 20
229.4790419297713
 30
0.0
 10
147.4268075959412
 20
229.4790414507601
 30
0.0
 10
148.8921565470693
 20
229.4790409805473
 30
0.0
 10
150.2508978166738
 20
229.4790405150194
 30
0.0
 10
151.3830937838276
 20
229.4790401031779
 30
0.0
 10
152.2996231015815
 20
229.4790397525767
 30
0.0
 10
153.0190968193768
 20
229.4790394642608
 30
0.0
 10
153.5838706057156
 20
229.4790392260279
 30
0.0
 10
153.9915633201668
 20
229.4790390426276
 30
0.0
 10
154.096737768425
 20
229.4790389855886
 30
0.0
 10
154.1501742351463
 20
229.4790389566085
 30
0.0
  0
SPLINE
  5
EE
330
1F
100
AcDbEntity
  8
0
  6
Continuous
 62
     7
370
    15
100
AcDbSpline
210
0.0
220
0.0
230
1.0
 70
     8
 71
     3
 72
    10
 73
     6
 74
     0
 42
0.000000001
 43
0.00000001
 40
0.0
 40
0.0
 40
0.0
 40
0.0
 40
0.1497189981993417
 40
0.5679947483960369
 40
1.0
 40
1.0
 40
1.0
 40
1.0
 10
105.1347030731354
 20
231.055500319571
 30
0.0
 10
104.739836393561
 20
231.0555003114535
 30
0.0
 10
103.241815414178
 20
231.0555002806578
 30
0.0
 10
100.578273116478
 20
231.0554999894166
 30
0.0
 10
98.30954080511879
 20
231.0554995929756
 30
0.0
 10
97.156858020351
 20
231.0554993915544
 30
0.0
  0
SPLINE
  5
EF
330
1F
100
AcDbEntity
  8
0
  6
Continuous
 62
     7
370
    15
100
AcDbSpline
210
0.0
220
0.0
230
1.0
 70
     8
 71
     3
 72
    38
 73
    34
 74
     0
 42
0.000000001
 43
0.00000001
 40
0.0
 40
0.0
 40
0.0
 40
0.0
 40
0.0422999209930019
 40
0.0826878713026395
 40
0.1211637777243863
 40
0.1577275697165751
 40
0.192379179400452
 40
0.2251185415602359
 40
0.2559455936431868
 40
0.2848602757596845
 40
0.3155632051015643
 40
0.3437683402477755
 40
0.3694755800606276
 40
0.3926848301178829
 40
0.4133960027134486
 40
0.4319326051741593
 40
0.4519769752295416
 40
0.4745682603229225
 40
0.4997063741213254
 40
0.5273912174521165
 40
0.5576226783042021
 40
0.5904006318290477
 40
0.6257249403416311
 40
0.6635954533213826
 40
0.6988220319002312
 40
0.7359980383537792
 40
0.7751233733774053
 40
0.8161979314922914
 40
0.8504631845207673
 40
0.8859760628788724
 40
0.9227365225131776
 40
0.9607445174909028
 40
1.0
 40
1.0
 40
1.0
 40
1.0
 10
40.16305456268089
 20
229.4790390018161
 30
0.0
 10
40.22222179660288
 20
229.4790389918712
 30
0.0
 10
40.33788188553505
 20
229.4790389724308
 30
0.0
 10
40.79483599862112
 20
229.4790389565616
 30
0.0
 10
41.41788140541207
 20
229.4790389469985
 30
0.0
 10
42.19548943921784
 20
229.4790389421976
 30
0.0
 10
43.09259319222679
 20
229.4790389401275
 30
0.0
 10
44.08210783439517
 20
229.4790389399178
 30
0.0
 10
45.13729467788399
 20
229.4790389414365
 30
0.0
 10
46.28051517091433
 20
229.479038945603
 30
0.0
 10
47.49617669753718
 20
229.4790389545014
 30
0.0
 10
48.76537699666604
 20
229.4790389727375
 30
0.0
 10
50.0017800333232
 20
229.4790390042182
 30
0.0
 10
51.18156941513313
 20
229.4790390573405
 30
0.0
 10
52.28973875276262
 20
229.4790391335971
 30
0.0
 10
53.38302451919856
 20
229.4790392729141
 30
0.0
 10
54.55197405024452
 20
229.4790394081104
 30
0.0
 10
55.89594201022322
 20
229.4790395323813
 30
0.0
 10
57.4503713396779
 20
229.4790396414069
 30
0.0
 10
59.23142241908293
 20
229.479039727215
 30
0.0
 10
61.25537967667105
 20
229.479039784733
 30
0.0
 10
63.53813242719715
 20
229.4790398104673
 30
0.0
 10
66.0945445831428
 20
229.4790398029241
 30
0.0
 10
68.80797743928218
 20
229.4790397643372
 30
0.0
 10
71.65793183604073
 20
229.4790397014211
 30
0.0
 10
74.6221333587998
 20
229.4790396204342
 30
0.0
 10
77.82189953172988
 20
229.4790395226263
 30
0.0
 10
81.01297773889733
 20
229.4790394207661
 30
0.0
 10
84.1558153356043
 20
229.4790393217455
 30
0.0
 10
87.21482921263767
 20
229.4790392297948
 30
0.0
 10
90.41281121414356
 20
229.4790391422675
 30
0.0
 10
93.74224752273486
 20
229.4790390620017
 30
0.0
 10
96.00647728786821
 20
229.4790390218438
 30
0.0
 10
97.15687117166576
 20
229.4790390014407
 30
0.0
  0
SPLINE
  5
F0
330
1F
100
AcDbEntity
  8
0
  6
Continuous
 62
     7
370
    15
100
AcDbSpline
210
0.0
220
0.0
230
1.0
 70
     8
 71
     3
 72
    33
 73
    29
 74
     0
 42
0.000000001
 43
0.00000001
 40
0.0
 40
0.0
 40
0.0
 40
0.0
 40
0.0220074763062798
 40
0.0609154332141437
 40
0.0974095585650232
 40
0.1361605116552533
 40
0.1717587689829923
 40
0.2042042378718255
 40
0.2334968324881239
 40
0.2596364738406787
 40
0.2830314907197103
 40
0.3083293728153598
 40
0.3368416315679743
 40
0.368568175013269
 40
0.4035089049400343
 40
0.4416637168907306
 40
0.4830325001615929
 40
0.5276151378023854
 40
0.5754115066158996
 40
0.6198711625882691
 40
0.6667914352229877
 40
0.7161722626718745
 40
0.7680135811247704
 40
0.8112609728132174
 40
0.8560833225846283
 40
0.9024806183917694
 40
0.9504528482026139
 40
1.0
 40
1.0
 40
1.0
 40
1.0
 10
79.19531234339777
 20
231.0641491428674
 30
0.0
 10
78.70883343906732
 20
231.0641527724501
 30
0.0
 10
77.36228771095143
 20
231.0641628189272
 30
0.0
 10
75.25685572286348
 20
231.0641782189805
 30
0.0
 10
72.82892550895498
 20
231.0641956984693
 30
0.0
 10
70.52362310309066
 20
231.0642118700488
 30
0.0
 10
68.35478587373878
 20
231.0642265454005
 30
0.0
 10
66.42571458645563
 20
231.0642389401934
 30
0.0
 10
64.72563704920181
 20
231.0642491057892
 30
0.0
 10
63.23597028814332
 20
231.0642570113828
 30
0.0
 10
61.85311991864536
 20
231.0642633631606
 30
0.0
 10
60.45935508698974
 20
231.0642660932744
 30
0.0
 10
58.95708027602441
 20
231.0642661053096
 30
0.0
 10
57.33979088136279
 20
231.0642633713804
 30
0.0
 10
55.62770990005361
 20
231.0642578988972
 30
0.0
 10
53.84439105946041
 20
231.064249666577
 30
0.0
 10
52.01698074930119
 20
231.0642386578038
 30
0.0
 10
50.17646472583262
 20
231.0642248495174
 30
0.0
 10
48.44088099609355
 20
231.064208974816
 30
0.0
 10
46.83138167158089
 20
231.0641913524656
 30
0.0
 10
45.36436674303408
 20
231.064172250907
 30
0.0
 10
44.00406894870722
 20
231.0641509102585
 30
0.0
 10
42.87056307310471
 20
231.0641289785264
 30
0.0
 10
41.95296002286523
 20
231.0641068318531
 30
0.0
 10
41.23262969148072
 20
231.0640848063157
 30
0.0
 10
40.66716563791469
 20
231.0640612590051
 30
0.0
 10
40.25895224010079
 20
231.0640362286914
 30
0.0
 10
40.15361336840732
 20
231.0640186678397
 30
0.0
 10
40.10009332982741
 20
231.0640097456114
 30
0.0
  0
SPLINE
  5
F1
330
1F
100
AcDbEntity
  8
0
  6
Continuous
 62
     7
370
    15
100
AcDbSpline
210
0.0
220
0.0
230
1.0
 70
     8
 71
     3
 72
    61
 73
    57
 74
     0
 42
0.000000001
 43
0.00000001
 40
0.0
 40
0.0
 40
0.0
 40
0.0
 40
0.0142502075295736
 40
0.0527561282098785
 40
0.0895345523525082
 40
0.1248097475185963
 40
0.1587305911850064
 40
0.1909013689012447
 40
0.2268090062643673
 40
0.259820498635267
 40
0.2897179561460743
 40
0.3161907945992199
 40
0.3395233755385536
 40
0.3562925069550663
 40
0.3714615082433803
 40
0.3849784786537817
 40
0.3966628488551366
 40
0.4064018600322275
 40
0.4148656868123359
 40
0.4261204609498812
 40
0.4396269914646265
 40
0.4564830349639565
 40
0.4757742341549908
 40
0.4950202183796475
 40
0.5140336183072689
 40
0.5326916275719807
 40
0.5520749137692207
 40
0.5704955303844115
 40
0.5864413848605873
 40
0.599546665491276
 40
0.60627224908905
 40
0.612945785753929
 40
0.6226896759941769
 40
0.6357448697759894
 40
0.6520599374312769
 40
0.6804872540843039
 40
0.7046100488057512
 40
0.7242506451874574
 40
0.7395777597920727
 40
0.7529487475372184
 40
0.766414547932665
 40
0.7786589354594508
 40
0.7939639153559036
 40
0.813108508173092
 40
0.8361767246809305
 40
0.8481146341331253
 40
0.8589679228085214
 40
0.8682204169834534
 40
0.8759751829515834
 40
0.8853599802104993
 40
0.897956226508205
 40
0.9127294740111567
 40
0.9302798447226128
 40
0.9506031202119765
 40
0.9737653816193415
 40
1.0
 40
1.0
 40
1.0
 40
1.0
 10
41.39291862379429
 20
229.4790449612452
 30
0.0
 10
41.40354368339659
 20
229.1378833057998
 30
0.0
 10
41.44287904082583
 20
227.8748583289623
 30
0.0
 10
41.74873574427318
 20
225.7883920616136
 30
0.0
 10
42.311899109674
 20
223.2932376904371
 30
0.0
 10
43.08939986096789
 20
221.0192616930186
 30
0.0
 10
44.03151894539645
 20
218.9714924049684
 30
0.0
 10
45.1635627368167
 20
217.0554633932067
 30
0.0
 10
46.45686850568769
 20
215.3135118199437
 30
0.0
 10
47.87378995405261
 20
213.7665018405457
 30
0.0
 10
49.267635191726
 20
212.4900954839028
 30
0.0
 10
50.59260172543537
 20
211.4491868704272
 30
0.0
 10
51.75669370171626
 20
210.6419573626783
 30
0.0
 10
52.75746701070554
 20
210.0119050011901
 30
0.0
 10
53.60254161794401
 20
209.518888147327
 30
0.0
 10
54.36974534125466
 20
209.0991687229472
 30
0.0
 10
55.04609444769784
 20
208.749147263468
 30
0.0
 10
55.63394386347983
 20
208.4593576567572
 30
0.0
 10
56.22307980939134
 20
208.1806206556687
 30
0.0
 10
56.90306540916597
 20
207.8729213750983
 30
0.0
 10
57.76886211185606
 20
207.5023902524394
 30
0.0
 10
58.81948368244752
 20
207.0815287888757
 30
0.0
 10
60.01040984189207
 20
206.6410622785633
 30
0.0
 10
61.26497062132816
 20
206.2150709624955
 30
0.0
 10
62.520953472225
 20
205.8237209603665
 30
0.0
 10
63.79316301534787
 20
205.4601539835863
 30
0.0
 10
65.06388629630602
 20
205.1281790117897
 30
0.0
 10
66.28300434553033
 20
204.8372085956077
 30
0.0
 10
67.36632056074846
 20
204.5995312082472
 30
0.0
 10
68.18699881300552
 20
204.4321872058664
 30
0.0
 10
68.79708824589656
 20
204.3139896442908
 30
0.0
 10
69.33251916514644
 20
204.2138688368306
 30
0.0
 10
70.01870609839263
 20
204.0911939255878
 30
0.0
 10
70.93179642644806
 20
203.9379289347993
 30
0.0
 10
72.28420801809838
 20
203.7289569855572
 30
0.0
 10
73.89977913488279
 20
203.5101479766434
 30
0.0
 10
75.59841599912842
 20
203.3149878034963
 30
0.0
 10
76.9929357483986
 20
203.1772678364325
 30
0.0
 10
78.14167360048287
 20
203.0771614643846
 30
0.0
 10
79.1450596648245
 20
202.9986100930859
 30
0.0
 10
80.07642566633858
 20
202.9329303618063
 30
0.0
 10
81.05655307294056
 20
202.8707069006639
 30
0.0
 10
82.17498317018065
 20
202.8078389885178
 30
0.0
 10
83.55598337647015
 20
202.7419584693657
 30
0.0
 10
84.86176042113908
 20
202.6914656729513
 30
0.0
 10
85.97171284694248
 20
202.6559231669582
 30
0.0
 10
86.74853541845825
 20
202.6341355504467
 30
0.0
 10
87.4246739565046
 20
202.6173644125394
 30
0.0
 10
88.066141697478
 20
202.6030850419112
 30
0.0
 10
88.78648903469987
 20
202.5887943372658
 30
0.0
 10
89.67780474588966
 20
202.5736011525013
 30
0.0
 10
90.77129833003262
 20
202.5584103482563
 30
0.0
 10
92.06016987582822
 20
202.5449459779776
 30
0.0
 10
93.56346669159875
 20
202.5348112955975
 30
0.0
 10
95.29018157919545
 20
202.5286910727299
 30
0.0
 10
96.50815472748441
 20
202.5300309257628
 30
0.0
 10
97.15501867679394
 20
202.5307425199597
 30
0.0
  0
SPLINE
  5
F2
330
1F
100
AcDbEntity
  8
0
  6
Continuous
 62
     7
370
    15
100
AcDbSpline
210
0.0
220
0.0
230
1.0
 70
     8
 71
     3
 72
    53
 73
    49
 74
     0
 42
0.000000001
 43
0.00000001
 40
0.0
 40
0.0
 40
0.0
 40
0.0
 40
0.0289207250331696
 40
0.0547477376242925
 40
0.0777227221228525
 40
0.0979266029738194
 40
0.1153699088081846
 40
0.1300294798157378
 40
0.1418693661264074
 40
0.1537119377528781
 40
0.1658575683404966
 40
0.1806689704116139
 40
0.1975437625365745
 40
0.2238439994839907
 40
0.2459525375266691
 40
0.2639616870818391
 40
0.2781441725602959
 40
0.2928629490106395
 40
0.3058068340916225
 40
0.3199577879748737
 40
0.3364413956530077
 40
0.3568137917015021
 40
0.3809975477091727
 40
0.4123375717642774
 40
0.4446864272307046
 40
0.466649316074075
 40
0.4800160234597605
 40
0.4959656897953567
 40
0.515737546447516
 40
0.5389150620758679
 40
0.5634875278397058
 40
0.5880542658123254
 40
0.6131145366699646
 40
0.6384769657131156
 40
0.6632692855938181
 40
0.6835836866856971
 40
0.699303383165961
 40
0.7107999183055566
 40
0.7259131333633766
 40
0.7454797895811484
 40
0.7691020594666798
 40
0.7964080580363133
 40
0.8245426277546231
 40
0.8564637393127033
 40
0.8925142776104894
 40
0.9323197383108094
 40
0.9756173884698016
 40
1.0
 40
1.0
 40
1.0
 40
1.0
 10
97.15498133796851
 20
202.5307425199597
 30
0.0
 10
97.7461354105888
 20
202.5300232276721
 30
0.0
 10
98.86520652745152
 20
202.528661587347
 30
0.0
 10
100.4617010604385
 20
202.5336272596015
 30
0.0
 10
101.8729223099496
 20
202.5420106664618
 30
0.0
 10
103.1061376707081
 20
202.5535107121638
 30
0.0
 10
104.1643256975617
 20
202.5667603359728
 30
0.0
 10
105.0496457304679
 20
202.5805011745919
 30
0.0
 10
105.820015108114
 20
202.5944595015433
 30
0.0
 10
106.540925453998
 20
202.6094048475535
 30
0.0
 10
107.3226126525861
 20
202.6278578852252
 30
0.0
 10
108.2040116588095
 20
202.6517580167961
 30
0.0
 10
109.3682330434316
 20
202.6885870492811
 30
0.0
 10
110.6739136797377
 20
202.7387567086656
 30
0.0
 10
111.9968848150121
 20
202.8009071381989
 30
0.0
 10
113.0757702456267
 20
202.860286357887
 30
0.0
 10
114.0059964735023
 20
202.9180204150632
 30
0.0
 10
114.8335656923176
 20
202.9747465735883
 30
0.0
 10
115.6591217333492
 20
203.0367213850793
 30
0.0
 10
116.519095911399
 20
203.1070461074232
 30
0.0
 10
117.5225294225242
 20
203.1971620284137
 30
0.0
 10
118.7169449264324
 20
203.3167548651439
 30
0.0
 10
120.1982096395634
 20
203.4853020874496
 30
0.0
 10
121.9088694396457
 20
203.7104809157928
 30
0.0
 10
123.5707868688463
 20
203.9659129230383
 30
0.0
 10
124.880652210421
 20
204.1945110379183
 30
0.0
 10
125.8625771400848
 20
204.3802368959394
 30
0.0
 10
126.7968545874784
 20
204.5684984487604
 30
0.0
 10
127.9124347939775
 20
204.8107916081908
 30
0.0
 10
129.1831709221594
 20
205.1120232517903
 30
0.0
 10
130.5332706807229
 20
205.4638787945822
 30
0.0
 10
131.9048139152539
 20
205.8573644054199
 30
0.0
 10
133.2750771603441
 20
206.289350137676
 30
0.0
 10
134.6308099094154
 20
206.7586864440763
 30
0.0
 10
135.8814325481249
 20
207.2335072494571
 30
0.0
 10
136.9415216014938
 20
207.6703350039377
 30
0.0
 10
137.7553038210287
 20
208.0285607743776
 30
0.0
 10
138.465969448191
 20
208.3578078373486
 30
0.0
 10
139.2215842057358
 20
208.7257234145815
 30
0.0
 10
140.1564751208581
 20
209.2116471300409
 30
0.0
 10
141.2572164302375
 20
209.8303150086069
 30
0.0
 10
142.4505846180587
 20
210.5706941444632
 30
0.0
 10
143.7174379582306
 20
211.4491498873987
 30
0.0
 10
145.0421309207206
 20
212.4902927149077
 30
0.0
 10
146.4372664318171
 20
213.7656160905632
 30
0.0
 10
147.8485802472833
 20
215.3173264318604
 30
0.0
 10
149.0086775928233
 20
216.8368750369751
 30
0.0
 10
149.6153054291228
 20
217.9036096731703
 30
0.0
 10
149.8338502530749
 20
218.2879133917285
 30
0.0
  0
LINE
  5
F3
330
1F
100
AcDbEntity
  8
0
  6
Continuous
 62
     7
370
    15
100
AcDbLine
 10
40.2931256058
 20
231.3205389345
 30
0.0
 11
40.2931256058
 21
231.0557913368
 31
0.0
  0
LINE
  5
F4
330
1F
100
AcDbEntity
  8
0
  6
Continuous
 62
     7
370
    15
100
AcDbLine
 10
154.2823371722
 20
231.0557637591
 30
0.0
 11
154.2823371722
 21
231.3205389345
 31
0.0
  0
SPLINE
  5
F5
330
1F
100
AcDbEntity
  8
0
  6
Continuous
 62
     7
370
    15
100
AcDbSpline
210
0.0
220
0.0
230
1.0
 70
     8
 71
     3
 72
    10
 73
     6
 74
     0
 42
0.000000001
 43
0.00000001
 40
0.0
 40
0.0
 40
0.0
 40
0.0
 40
0.5087805630171984
 40
0.9235363073932056
 40
1.0
 40
1.0
 40
1.0
 40
1.0
 10
40.0657168924549
 20
231.060502590716
 30
0.0
 10
40.03447916117847
 20
231.0559485138443
 30
0.0
 10
39.97777656463411
 20
231.0476819729357
 30
0.0
 10
39.94545306331298
 20
231.020480710606
 30
0.0
 10
39.95933230537828
 20
231.0068548410539
 30
0.0
 10
39.96149276162042
 20
231.0047338250222
 30
0.0
  0
SPLINE
  5
F6
330
1F
100
AcDbEntity
  8
0
  6
Continuous
 62
     7
370
    15
100
AcDbSpline
210
0.0
220
0.0
230
1.0
 70
     8
 71
     3
 72
    20
 73
    16
 74
     0
 42
0.000000001
 43
0.00000001
 40
0.0
 40
0.0
 40
0.0
 40
0.0
 40
0.086997282216583
 40
0.1592275104487072
 40
0.2627929554659255
 40
0.326051271528554
 40
0.3468302636397055
 40
0.3558534697913595
 40
0.366619895795247
 40
0.4381923416231314
 40
0.566425882379347
 40
0.6540766476113468
 40
0.7571269071203864
 40
0.8739253373368121
 40
1.0
 40
1.0
 40
1.0
 40
1.0
 10
40.006000183956
 20
231.0362720333259
 30
0.0
 10
39.92777365339403
 20
231.0058680171106
 30
0.0
 10
39.78459888522811
 20
230.9502208096776
 30
0.0
 10
39.59479583549674
 20
230.7769230238804
 30
0.0
 10
39.47488303941212
 20
230.5737884548633
 30
0.0
 10
39.43411603483887
 20
230.3956466081907
 30
0.0
 10
39.42733059256594
 20
230.3062385527973
 30
0.0
 10
39.42745519250334
 20
230.2668372517408
 30
0.0
 10
39.43619741319316
 20
230.1847347284244
 30
0.0
 10
39.48970383947135
 20
230.0358156974328
 30
0.0
 10
39.61712636708975
 20
229.8545091838514
 30
0.0
 10
39.82207447062747
 20
229.6807410607026
 30
0.0
 10
40.06734107786364
 20
229.5502204257665
 30
0.0
 10
40.38858662323577
 20
229.4639857147802
 30
0.0
 10
40.6227299268923
 20
229.4887997235084
 30
0.0
 10
40.74427298328172
 20
229.5016805978063
 30
0.0
  0
LINE
  5
F7
330
1F
100
AcDbEntity
  8
0
  6
Continuous
 62
     7
370
    15
100
AcDbLine
 10
153.1588872278
 20
231.3205389345
 30
0.0
 11
153.1588872278
 21
231.7205389345
 31
0.0
  0
LINE
  5
F8
330
1F
100
AcDbEntity
  8
0
  6
Continuous
 62
     7
370
    15
100
AcDbLine
 10
41.4483672967
 20
231.7388505593
 30
0.0
 11
41.4483672967
 21
231.5558176451
 31
0.0
  0
LINE
  5
F9
330
1F
100
AcDbEntity
  8
0
  6
Continuous
 62
     7
370
    15
100
AcDbLine
 10
41.4483672967
 20
231.606760224
 30
0.0
 11
41.4483672967
 21
231.3205389345
 31
0.0
  0
ARC
  5
FA
330
1F
100
AcDbEntity
  8
0
  6
Continuous
 62
     7
370
    15
100
AcDbCircle
 10
154.1501067752
 20
230.2728056267
 30
0.0
 40
0.7937664237525424
100
AcDbArc
 50
269.9488906153
 51
80.5004243976
  0
LINE
  5
FB
330
1F
100
AcDbEntity
  8
0
  6
Continuous
 62
     7
370
    15
100
AcDbLine
 10
97.156871219
 20
231.0665389207
 30
0.0
 11
97.1568580376
 21
231.0555284385
 31
0.0
  0
SPLINE
  5
FC
330
1F
100
AcDbEntity
  8
0
  6
Continuous
 62
     7
370
    15
100
AcDbSpline
210
0.0
220
0.0
230
1.0
 70
     8
 71
     3
 72
    40
 73
    36
 74
     0
 42
0.000000001
 43
0.00000001
 40
0.0
 40
0.0
 40
0.0
 40
0.0
 40
0.0005373945381991
 40
0.0300349756973695
 40
0.0595832288224325
 40
0.0892853498439667
 40
0.1190392064209643
 40
0.1485367875797774
 40
0.1780850407014518
 40
0.2077871617096312
 40
0.237541018269668
 40
0.2670639299824166
 40
0.2965868416952984
 40
0.3263148248470112
 40
0.356042807998831
 40
0.3864175872343544
 40
0.4167923664699479
 40
0.447390646036295
 40
0.4779889256026566
 40
0.5075118393900075
 40
0.5370347531773206
 40
0.5667627384390327
 40
0.5964907237006585
 40
0.6268655051864664
 40
0.6572402866721381
 40
0.6878385685499635
 40
0.7184368504276206
 40
0.7479344335039445
 40
0.7774826885519657
 40
0.8071848115183023
 40
0.83693867004935
 40
0.8773710254174447
 40
0.9179342227943482
 40
0.9588990612222975
 40
1.0
 40
1.0
 40
1.0
 40
1.0
 10
105.1701802363913
 20
231.0663289774807
 30
0.0
 10
105.1844212992984
 20
231.0663283743357
 30
0.0
 10
105.9803541715465
 20
231.0662946645639
 30
0.0
 10
107.5453638350641
 20
231.0661877177957
 30
0.0
 10
109.8660738146364
 20
231.0660155776305
 30
0.0
 10
112.1697737092207
 20
231.065803332161
 30
0.0
 10
114.4468732691764
 20
231.0655604046033
 30
0.0
 10
116.6902599889386
 20
231.0652869188335
 30
0.0
 10
118.8990284799959
 20
231.0649851178998
 30
0.0
 10
121.0767844634365
 20
231.0646556989588
 30
0.0
 10
123.2126495817142
 20
231.0643018463651
 30
0.0
 10
125.2994018844394
 20
231.0639266815129
 30
0.0
 10
127.3374340633256
 20
231.06353230439
 30
0.0
 10
129.3281495607506
 20
231.063120190478
 30
0.0
 10
131.2818548882639
 20
231.0626900329214
 30
0.0
 10
133.1889393811348
 20
231.0622453748334
 30
0.0
 10
135.0490957444555
 20
231.0617880989292
 30
0.0
 10
136.8445553157981
 20
231.0613245964604
 30
0.0
 10
138.551370070735
 20
231.0608637195974
 30
0.0
 10
140.1648501976342
 20
231.0604099608529
 30
0.0
 10
141.6890353731922
 20
231.0599652805457
 30
0.0
 10
143.1398567118675
 20
231.0595273752976
 30
0.0
 10
144.5243321876992
 20
231.0590962198471
 30
0.0
 10
145.8344219763685
 20
231.0586762294425
 30
0.0
 10
147.0688509272015
 20
231.05826977763
 30
0.0
 10
148.2150064638081
 20
231.0578831063482
 30
0.0
 10
149.2575671747062
 20
231.0575235320385
 30
0.0
 10
150.196120427845
 20
231.057193508595
 30
0.0
 10
151.0343460881221
 20
231.0568937063571
 30
0.0
 10
151.7820540029981
 20
231.0566222190313
 30
0.0
 10
152.5148376441937
 20
231.0563526274741
 30
0.0
 10
153.1875995754549
 20
231.0561017121451
 30
0.0
 10
153.7436649730385
 20
231.0558918701207
 30
0.0
 10
154.1311501525915
 20
231.0557443634119
 30
0.0
 10
154.2310682978606
 20
231.0557061367987
 30
0.0
 10
154.2811102241218
 20
231.0556869917941
 30
0.0
  0
LWPOLYLINE
  5
FD
330
1F
100
AcDbEntity
  8
0
  6
Continuous
 62
     7
370
    15
100
AcDbPolyline
 90
       10
 70
   128
 43
0.0
 10
79.2259744283
 20
231.065459832
 10
79.7699394657
 20
231.0655270343
 10
82.0457121836
 20
231.0657739312
 10
84.3519827479
 20
231.0659889063
 10
87.4909379261
 20
231.0662245839
 10
90.6709151745
 20
231.066396508
 10
93.9030603565
 20
231.0665023921
 10
97.1567355118
 20
231.0665389207
 10
97.156871219
 20
231.0665389207
 10
97.156871219
 20
231.0665389207
  0
ARC
  5
FE
330
1F
100
AcDbEntity
  8
0
  6
Continuous
 62
     7
370
    15
100
AcDbCircle
 10
40.1636052291
 20
230.2727968925
 30
0.0
 40
0.793757909133552
100
AcDbArc
 50
94.6058131136
 51
270.0043892574
  0
LINE
  5
FF
330
1F
100
AcDbEntity
  8
0
  6
Continuous
 62
     7
370
    15
100
AcDbLine
 10
97.2877302026
 20
231.3205389345
 30
0.0
 11
154.2812203242
 21
231.3205389345
 31
0.0
  0
LINE
  5
100
330
1F
100
AcDbEntity
  8
0
  6
Continuous
 62
     7
370
    15
100
AcDbLine
 10
154.2812203242
 20
231.3205389345
 30
0.0
 11
154.2812203242
 21
231.0556864858
 31
0.0
  0
LINE
  5
101
330
1F
100
AcDbEntity
  8
0
  6
Continuous
 62
     7
370
    15
100
AcDbLine
 10
154.2812203242
 20
231.0556864858
 30
0.0
 11
154.2811102241
 21
231.0556869918
 31
0.0
  0
LINE
  5
102
330
1F
100
AcDbEntity
  8
0
  6
Continuous
 62
     7
370
    15
100
AcDbLine
 10
97.2877302026
 20
231.3205389345
 30
0.0
 11
97.2877302026
 21
231.0665389207
 31
0.0
  0
LINE
  5
103
330
1F
100
AcDbEntity
  8
0
  6
Continuous
 62
     7
370
    15
100
AcDbLine
 10
40.2942402263
 20
231.3205389345
 30
0.0
 11
40.2942402263
 21
231.0556869917
 31
0.0
  0
LINE
  5
104
330
1F
100
AcDbEntity
  8
0
  6
Continuous
 62
     7
370
    15
100
AcDbLine
 10
40.2942402263
 20
231.3205389345
 30
0.0
 11
97.2877302026
 21
231.3205389345
 31
0.0
  0
LINE
  5
105
330
1F
100
AcDbEntity
  8
0
  6
Continuous
 62
     7
370
    15
100
AcDbLine
 10
41.4490429453
 20
231.5745389345
 30
0.0
 11
41.4490429461
 21
231.3205389345
 31
0.0
  0
LINE
  5
106
330
1F
100
AcDbEntity
  8
0
  6
Continuous
 62
     7
370
    15
100
AcDbLine
 10
41.4490429453
 20
231.5745389345
 30
0.0
 11
41.4490429453
 21
231.7205389345
 31
0.0
  0
LINE
  5
107
330
1F
100
AcDbEntity
  8
0
  6
Continuous
 62
     7
370
    15
100
AcDbLine
 10
153.158221645
 20
231.7205389345
 30
0.0
 11
41.4490429453
 21
231.7205389345
 31
0.0
  0
LINE
  5
108
330
1F
100
AcDbEntity
  8
0
  6
Continuous
 62
     7
370
    15
100
AcDbLine
 10
153.158221645
 20
231.3205389345
 30
0.0
 11
153.158221645
 21
231.7205389345
 31
0.0
  0
LINE
  5
109
330
1F
100
AcDbEntity
  8
0
  6
Continuous
 62
     7
370
    15
100
AcDbLine
 10
85.5053123717
 20
233.6912056012
 30
0.0
 11
109.241670617
 21
233.6912056012
 31
0.0
  0
LINE
  5
10A
330
1F
100
AcDbEntity
  8
0
  6
Continuous
 62
     7
370
    15
100
AcDbLine
 10
109.241670617
 20
231.7205389345
 30
0.0
 11
109.241670617
 21
233.6912056012
 31
0.0
  0
LINE
  5
10B
330
1F
100
AcDbEntity
  8
0
  6
Continuous
 62
     7
370
    15
100
AcDbLine
 10
85.5053123717
 20
231.7205389345
 30
0.0
 11
85.5053123717
 21
233.6912056012
 31
0.0
  0
LINE
  5
10C
330
1F
100
AcDbEntity
  8
0
  6
Continuous
 62
     7
370
    15
100
AcDbLine
 10
131.7167565025
 20
231.7205389345
 30
0.0
 11
131.7167565025
 21
233.6912056012
 31
0.0
  0
LINE
  5
10D
330
1F
100
AcDbEntity
  8
0
  6
Continuous
 62
     7
370
    15
100
AcDbLine
 10
131.7167565025
 20
233.6912056012
 30
0.0
 11
109.2416706167
 21
233.6912056012
 31
0.0
  0
LINE
  5
10E
330
1F
100
AcDbEntity
  8
0
  6
Continuous
 62
     7
370
    15
100
AcDbLine
 10
62.9250898358
 20
231.7205389345
 30
0.0
 11
62.9250898358
 21
233.6912056012
 31
0.0
  0
LINE
  5
10F
330
1F
100
AcDbEntity
  8
0
  6
Continuous
 62
     7
370
    15
100
AcDbLine
 10
62.9250898358
 20
233.6912056012
 30
0.0
 11
85.5053123713
 21
233.6912056012
 31
0.0
  0
LINE
  5
110
330
1F
100
AcDbEntity
  8
0
  6
Continuous
 62
     7
370
    15
100
AcDbLine
 10
61.8667565025
 20
231.7205389345
 30
0.0
 11
61.8667565025
 21
233.6912056012
 31
0.0
  0
LINE
  5
111
330
1F
100
AcDbEntity
  8
0
  6
Continuous
 62
     7
370
    15
100
AcDbLine
 10
62.9250898358
 20
233.6912056012
 30
0.0
 11
61.8667565025
 21
233.6912056012
 31
0.0
  0
LINE
  5
112
330
1F
100
AcDbEntity
  8
0
  6
Continuous
 62
     7
370
    15
100
AcDbLine
 10
132.7750898358
 20
231.7205389345
 30
0.0
 11
132.7750898358
 21
233.6912056012
 31
0.0
  0
LINE
  5
113
330
1F
100
AcDbEntity
  8
0
  6
Continuous
 62
     7
370
    15
100
AcDbLine
 10
131.7167565025
 20
233.6912056012
 30
0.0
 11
132.7750898358
 21
233.6912056012
 31
0.0
  0
LINE
  5
114
330
1F
100
AcDbEntity
  8
0
  6
Continuous
 62
     7
370
    15
100
AcDbLine
 10
154.2722513894
 20
231.0557637591
 30
0.0
 11
154.2812203242
 21
231.0556864858
 31
0.0
  0
LINE
  5
115
330
1F
100
AcDbEntity
  8
0
  6
Continuous
 62
     7
370
    15
100
AcDbLine
 10
153.158221645
 20
231.7205389345
 30
0.0
 11
153.1588872278
 21
231.7205389345
 31
0.0
  0
LWPOLYLINE
  5
116
330
1F
100
AcDbEntity
  8
0
  6
Continuous
 62
     8
370
    15
100
AcDbPolyline
 90
       10
 70
   128
 43
0.0
 10
97.1568580376
 20
231.0555284385
 10
97.1568438314
 20
231.0177837421
 10
97.15681981
 20
230.877411712
 10
97.1568021088
 20
230.6626852908
 10
97.1567929048
 20
230.4000107817
 10
97.1567933298
 20
230.1216909756
 10
97.1568033314
 20
229.8619526671
 10
97.1568216799
 20
229.6527375634
 10
97.1568461187
 20
229.5197742052
 10
97.1568712618
 20
229.4790391437
  0
SPLINE
  5
117
330
1F
100
AcDbEntity
  8
0
  6
Continuous
 62
     8
370
    15
100
AcDbSpline
210
0.0
220
0.0
230
1.0
 70
     8
 71
     3
 72
    23
 73
    19
 74
     0
 42
0.000000001
 43
0.00000001
 40
0.0
 40
0.0
 40
0.0
 40
0.0
 40
0.0327639240222676
 40
0.1020041530799816
 40
0.1675251576185369
 40
0.2298774075856729
 40
0.2895780103825348
 40
0.3470986346334945
 40
0.4126448868839892
 40
0.4763007225911656
 40
0.5384924965197152
 40
0.5995073615759393
 40
0.6708060269635258
 40
0.7406845692727965
 40
0.8089655121819453
 40
0.875295099613732
 40
0.939176704229943
 40
1.0
 40
1.0
 40
1.0
 40
1.0
 10
97.15500009594346
 20
229.4790390014759
 30
0.0
 10
97.15500009592897
 20
229.0624424782687
 30
0.0
 10
97.15500009588379
 20
227.7654496181665
 30
0.0
 10
97.1550000954279
 20
225.6471397647645
 30
0.0
 10
97.15500009459981
 20
223.1855922676865
 30
0.0
 10
97.15500009344129
 20
220.8932543375912
 30
0.0
 10
97.15500009200123
 20
218.7647345961029
 30
0.0
 10
97.15500009020329
 20
216.6838174407295
 30
0.0
 10
97.15500008801847
 20
214.6698283259301
 30
0.0
 10
97.15500008542722
 20
212.7489083984998
 30
0.0
 10
97.15500008259514
 20
211.0249187834905
 30
0.0
 10
97.1550000793774
 20
209.3939898774491
 30
0.0
 10
97.15500007577461
 20
207.8846710932113
 30
0.0
 10
97.15500007181225
 20
206.5260736158872
 30
0.0
 10
97.15500006776882
 20
205.3887446465102
 30
0.0
 10
97.15500006371212
 20
204.4611474979302
 30
0.0
 10
97.15500005971599
 20
203.7141027230157
 30
0.0
 10
97.15500005705063
 20
203.3483454985117
 30
0.0
 10
97.15500005575063
 20
203.1699518686131
 30
0.0
  0
SPLINE
  5
118
330
1F
100
AcDbEntity
  8
0
  6
Continuous
 62
     8
370
    15
100
AcDbSpline
210
0.0
220
0.0
230
1.0
 70
     8
 71
     3
 72
    31
 73
    27
 74
     0
 42
0.000000001
 43
0.00000001
 40
0.0
 40
0.0
 40
0.0
 40
0.0
 40
0.0096897999137439
 40
0.0409405241241926
 40
0.0725036920438221
 40
0.1047274393266834
 40
0.1376603101904931
 40
0.1714078827629667
 40
0.2055484866273685
 40
0.239997044475365
 40
0.2748624315917921
 40
0.3096521207982323
 40
0.344663751351785
 40
0.3809049484805798
 40
0.4190129612654416
 40
0.4595945157269514
 40
0.5036438228211527
 40
0.5511409976535299
 40
0.6016771766536536
 40
0.6549646636949539
 40
0.7104610794812228
 40
0.7675410547305421
 40
0.8252312707940676
 40
0.8828349526323742
 40
0.9406787984492192
 40
0.9999999999999999
 40
0.9999999999999999
 40
0.9999999999999999
 40
0.9999999999999999
 10
41.35459749726834
 20
229.4790389492681
 30
0.0
 10
41.36157886657639
 20
229.2447834413318
 30
0.0
 10
41.3910759584793
 20
228.2550268561326
 30
0.0
 10
41.60045770414313
 20
226.5501421595411
 30
0.0
 10
42.00650727555409
 20
224.3778514815022
 30
0.0
 10
42.61168988781792
 20
222.2684709579708
 30
0.0
 10
43.41328102258157
 20
220.2329822075274
 30
0.0
 10
44.41720060097558
 20
218.3044507402697
 30
0.0
 10
45.60913197362877
 20
216.5167355013443
 30
0.0
 10
46.97100348556728
 20
214.8865649255872
 30
0.0
 10
48.48355263560636
 20
213.4132837988435
 30
0.0
 10
50.12496289260964
 20
212.1013961514279
 30
0.0
 10
51.89685954304556
 20
210.9218040025091
 30
0.0
 10
53.84049882515462
 20
209.8321779074501
 30
0.0
 10
56.00129091819269
 20
208.8042681364664
 30
0.0
 10
58.43716373219603
 20
207.8265140656572
 30
0.0
 10
61.19949318658843
 20
206.8889084153027
 30
0.0
 10
64.3099667448169
 20
206.0139354063842
 30
0.0
 10
67.75503385646073
 20
205.2256324837962
 30
0.0
 10
71.50357779299574
 20
204.5459225350366
 30
0.0
 10
75.50497557688729
 20
203.9917670288233
 30
0.0
 10
79.68756517489261
 20
203.5744808036563
 30
0.0
 10
83.97092073766986
 20
203.2933857172318
 30
0.0
 10
88.30299888608884
 20
203.141479060848
 30
0.0
 10
92.69428922462987
 20
203.0920058343361
 30
0.0
 10
95.65563437359505
 20
203.1437564165209
 30
0.0
 10
97.15497702219227
 20
203.1699579739403
 30
0.0
  0
SPLINE
  5
119
330
1F
100
AcDbEntity
  8
0
  6
Continuous
 62
     8
370
    15
100
AcDbSpline
210
0.0
220
0.0
230
1.0
 70
     8
 71
     3
 72
    31
 73
    27
 74
     0
 42
0.000000001
 43
0.00000001
 40
0.0
 40
0.0
 40
0.0
 40
0.0
 40
0.0096897050963756
 40
0.0409404799442613
 40
0.0725036991805048
 40
0.1047274462154184
 40
0.1376603168258238
 40
0.1714078891386244
 40
0.205548492740329
 40
0.2399970503232585
 40
0.2748624371714116
 40
0.3096521261101607
 40
0.3446637563943141
 40
0.3809049532442483
 40
0.4190129657358855
 40
0.459594519885138
 40
0.5036438266403986
 40
0.5511410011073061
 40
0.6016771797185758
 40
0.6549646663498515
 40
0.7104610817090996
 40
0.7675410565192132
 40
0.8252312721388373
 40
0.8828349535339088
 40
0.9406787989056705
 40
1.0
 40
1.0
 40
1.0
 40
1.0
 10
152.9554025986601
 20
229.4790394878694
 30
0.0
 10
152.948421342269
 20
229.2447862582451
 30
0.0
 10
152.9189244706486
 20
228.2550306822062
 30
0.0
 10
152.7095428673952
 20
226.5501457189799
 30
0.0
 10
152.3034930588524
 20
224.3778526023863
 30
0.0
 10
151.6983101115645
 20
222.2684709589632
 30
0.0
 10
150.8967189811693
 20
220.2329822072518
 30
0.0
 10
149.8927994025877
 20
218.3044507403452
 30
0.0
 10
148.7008680310892
 20
216.5167355013238
 30
0.0
 10
147.338996520005
 20
214.8865649255928
 30
0.0
 10
145.8264473709413
 20
213.413283798842
 30
0.0
 10
144.1850371149087
 20
212.1013961514283
 30
0.0
 10
142.4131404654632
 20
210.921804002509
 30
0.0
 10
140.4695011843476
 20
209.8321779074502
 30
0.0
 10
138.3087090923127
 20
208.8042681364664
 30
0.0
 10
135.8728362793196
 20
207.8265140656572
 30
0.0
 10
133.1105068259263
 20
206.8889084153027
 30
0.0
 10
130.0000332686684
 20
206.0139354063842
 30
0.0
 10
126.5549661579412
 20
205.2256324837962
 30
0.0
 10
122.8064222222397
 20
204.5459225350366
 30
0.0
 10
118.8050244390853
 20
203.9917670288233
 30
0.0
 10
114.6224348417153
 20
203.5744808036563
 30
0.0
 10
110.3390792794849
 20
203.2933857172318
 30
0.0
 10
106.0070011315436
 20
203.141479060848
 30
0.0
 10
101.6157107934338
 20
203.0920058343361
 30
0.0
 10
98.6543656446816
 20
203.1437564165209
 30
0.0
 10
97.15502299619226
 20
203.1699579739403
 30
0.0
  0
SPLINE
  5
11A
330
1F
100
AcDbEntity
  8
0
  6
Continuous
 62
     8
370
    15
100
AcDbSpline
210
0.0
220
0.0
230
1.0
 70
     8
 71
     3
 72
    10
 73
     6
 74
     0
 42
0.000000001
 43
0.00000001
 40
0.0
 40
0.0
 40
0.0
 40
0.0
 40
0.3379160904518934
 40
0.6847299078524473
 40
0.9999999999999999
 40
0.9999999999999999
 40
0.9999999999999999
 40
0.9999999999999999
 10
97.15502299619226
 20
203.1699579739403
 30
0.0
 10
97.15501326010413
 20
203.0386561899723
 30
0.0
 10
97.15499353156525
 20
202.7725952920817
 30
0.0
 10
97.15498016659006
 20
202.5654730786586
 30
0.0
 10
97.15498136012478
 20
202.5466600001497
 30
0.0
 10
97.1549819284603
 20
202.5377016175195
 30
0.0
  0
SPLINE
  5
11B
330
1F
100
AcDbEntity
  8
0
  6
Continuous
 62
     7
370
    15
100
AcDbSpline
210
0.0
220
0.0
230
1.0
 70
    24
 71
     3
 72
    19
 73
    15
 74
     0
 42
0.000000001
 43
0.00000001
 40
0.0
 40
0.0
 40
0.0
 40
0.0
 40
0.075950767518636
 40
0.1289039816801653
 40
0.184519667788353
 40
0.2482798356213056
 40
0.3757694823495089
 40
0.5000264495889364
 40
0.6244864228380426
 40
0.7511828178181069
 40
0.8155673345449994
 40
0.8722918076168135
 40
0.9247545460105624
 40
1.0
 40
1.0
 40
1.0
 40
1.0
 10
260.594041105814
 20
78.83509576873489
 30
0.0
 10
260.594041105814
 20
78.72533507780263
 30
0.0
 10
260.594041105814
 20
78.53904874317587
 30
0.0
 10
260.594041105814
 20
78.27506760210028
 30
0.0
 10
260.594041105814
 20
78.03511149622182
 30
0.0
 10
260.594041105814
 20
77.69523259455936
 30
0.0
 10
260.594041105814
 20
77.28155312927719
 30
0.0
 10
260.594041105814
 20
76.8604911776841
 30
0.0
 10
260.594041105814
 20
76.5026208534007
 30
0.0
 10
260.594041105814
 20
76.2868319175373
 30
0.0
 10
260.594041105814
 20
76.1717621560626
 30
0.0
 10
260.594041105814
 20
76.10094110712049
 30
0.0
 10
260.594041105814
 20
76.0506258068012
 30
0.0
 10
260.5940411058139
 20
76.04947810259617
 30
0.0
 10
260.5940411058139
 20
76.04880187719246
 30
0.0
  0
SPLINE
  5
11C
330
1F
100
AcDbEntity
  8
0
  6
Continuous
 62
     7
370
    15
100
AcDbSpline
210
0.0
220
0.0
230
1.0
 70
     8
 71
     3
 72
    15
 73
    11
 74
     0
 42
0.000000001
 43
0.00000001
 40
0.0
 40
0.0
 40
0.0
 40
0.0
 40
0.1525028761144916
 40
0.2966072031757503
 40
0.4333859482874612
 40
0.5622956759514498
 40
0.6834975857255988
 40
0.7961077626668985
 40
0.9039810448959533
 40
1.0
 40
1.0
 40
1.0
 40
1.0
 10
262.1634147082229
 20
75.8782926307029
 30
0.0
 10
262.1634151812265
 20
75.89487356812528
 30
0.0
 10
262.1634161011847
 20
75.92712230729782
 30
0.0
 10
262.1634170637722
 20
76.1719190619775
 30
0.0
 10
262.1634176545902
 20
76.51861539194194
 30
0.0
 10
262.1634178553508
 20
76.94616627677851
 30
0.0
 10
262.1634176856797
 20
77.41602449912222
 30
0.0
 10
262.1634170869248
 20
77.90248399496505
 30
0.0
 10
262.163416223033
 20
78.38005719949861
 30
0.0
 10
262.1634151931997
 20
78.69277686893916
 30
0.0
 10
262.1634147082204
 20
78.84004591798643
 30
0.0
  0
LINE
  5
11D
330
1F
100
AcDbEntity
  8
0
  6
Continuous
 62
     7
370
    15
100
AcDbLine
 10
262.1705305274
 20
134.3328570544
 30
0.0
 11
262.161557126
 21
134.3225850383
 31
0.0
  0
LINE
  5
11E
330
1F
100
AcDbEntity
  8
0
  6
Continuous
 62
     7
370
    15
100
AcDbLine
 10
262.1695769575
 20
132.981633756
 30
0.0
 11
262.169519776
 21
133.2806697016
 31
0.0
  0
LINE
  5
11F
330
1F
100
AcDbEntity
  8
0
  6
Continuous
 62
     7
370
    15
100
AcDbLine
 10
260.596157502
 20
134.1896511579
 30
0.0
 11
260.5940409797
 21
134.1993181245
 31
0.0
  0
SPLINE
  5
120
330
1F
100
AcDbEntity
  8
0
  6
Continuous
 62
     7
370
    15
100
AcDbSpline
210
0.0
220
0.0
230
1.0
 70
     8
 71
     3
 72
    33
 73
    29
 74
     0
 42
0.000000001
 43
0.00000001
 40
0.0
 40
0.0
 40
0.0
 40
0.0
 40
0.0445109159841246
 40
0.0866912103687368
 40
0.126541082778799
 40
0.1640607125722419
 40
0.1992502588328111
 40
0.2321098603662439
 40
0.2626396356996735
 40
0.2908396830844707
 40
0.31671008050321
 40
0.3412718397657118
 40
0.3684886543467373
 40
0.3987572083086661
 40
0.4320773717747658
 40
0.4684490042493021
 40
0.5078719546182263
 40
0.5503460611497935
 40
0.595871151495159
 40
0.6444470426889622
 40
0.6828842796619232
 40
0.7230378668909057
 40
0.7649077573080004
 40
0.808493902276158
 40
0.853796251589215
 40
0.9008147534719214
 40
0.9495493545799658
 40
1.0
 40
1.0
 40
1.0
 40
1.0
 10
260.5941075809142
 20
133.1558528314786
 30
0.0
 10
260.5940991951048
 20
132.91725076573
 30
0.0
 10
260.5940828625726
 20
132.4525399994183
 30
0.0
 10
260.5940662836619
 20
131.5393813691752
 30
0.0
 10
260.5940546427287
 20
130.5278597456873
 30
0.0
 10
260.5940472111818
 20
129.4317347117887
 30
0.0
 10
260.5940427553086
 20
128.2830295141974
 30
0.0
 10
260.594040377614
 20
127.1064551649646
 30
0.0
 10
260.594039310848
 20
125.9256532497719
 30
0.0
 10
260.5940389669194
 20
124.7617050322984
 30
0.0
 10
260.5940389276902
 20
123.6187203986205
 30
0.0
 10
260.594038939074
 20
122.4350871775308
 30
0.0
 10
260.5940389568143
 20
121.1260393340188
 30
0.0
 10
260.594038983418
 20
119.607615283441
 30
0.0
 10
260.5940390120726
 20
117.8542125196687
 30
0.0
 10
260.5940390396592
 20
115.846291588229
 30
0.0
 10
260.59403906288
 20
113.5646283780906
 30
0.0
 10
260.5940390794973
 20
110.9909952213571
 30
0.0
 10
260.5940390879614
 20
108.1090228318396
 30
0.0
 10
260.594039087567
 20
105.1948176426703
 30
0.0
 10
260.5940390808866
 20
102.3058422248187
 30
0.0
 10
260.5940390701464
 20
99.49685692153358
 30
0.0
 10
260.5940390552685
 20
96.49795302046041
 30
0.0
 10
260.5940390370557
 20
93.31047878054775
 30
0.0
 10
260.5940390165263
 20
89.93825444595734
 30
0.0
 10
260.5940389950757
 20
86.38756342008243
 30
0.0
 10
260.5940389738419
 20
82.66849428768836
 30
0.0
 10
260.5940389622822
 20
80.12758139173093
 30
0.0
 10
260.5940389564024
 20
78.83514425975434
 30
0.0
  0
SPLINE
  5
121
330
1F
100
AcDbEntity
  8
0
  6
Continuous
 62
     7
370
    15
100
AcDbSpline
210
0.0
220
0.0
230
1.0
 70
     8
 71
     3
 72
    20
 73
    16
 74
     0
 42
0.000000001
 43
0.00000001
 40
0.0
 40
0.0
 40
0.0
 40
0.0
 40
0.0488804538071603
 40
0.0939664608286402
 40
0.1724143992880804
 40
0.235801834517618
 40
0.2647364805999844
 40
0.2841223719582191
 40
0.2893693651243309
 40
0.2951393758714161
 40
0.309021606069737
 40
0.34910005775652
 40
0.4862642970779357
 40
0.7031405093914401
 40
1.0
 40
1.0
 40
1.0
 40
1.0
 10
262.1359311258386
 20
134.2002930148466
 30
0.0
 10
262.1121763801793
 20
134.2552797940372
 30
0.0
 10
262.066510900348
 20
134.360984889438
 30
0.0
 10
261.9321141450938
 20
134.5257986597297
 30
0.0
 10
261.7412309020385
 20
134.6603562286392
 30
0.0
 10
261.5371915914213
 20
134.7190465245436
 30
0.0
 10
261.4003883179378
 20
134.7281768130215
 30
0.0
 10
261.3348206847653
 20
134.7255915315039
 30
0.0
 10
261.2977253528405
 20
134.7215388709233
 30
0.0
 10
261.2691146642965
 20
134.7168866973475
 30
0.0
 10
261.2095132480726
 20
134.7025903666749
 30
0.0
 10
261.0713038921379
 20
134.6457400138416
 30
0.0
 10
260.8910457661446
 20
134.500078644917
 30
0.0
 10
260.6883211205143
 20
134.2090571537773
 30
0.0
 10
260.6352753154897
 20
133.9434001228639
 30
0.0
 10
260.6046230743295
 20
133.7898915961547
 30
0.0
  0
SPLINE
  5
122
330
1F
100
AcDbEntity
  8
0
  6
Continuous
 62
     7
370
    15
100
AcDbSpline
210
0.0
220
0.0
230
1.0
 70
     8
 71
     3
 72
     9
 73
     5
 74
     0
 42
0.000000001
 43
0.00000001
 40
0.0
 40
0.0
 40
0.0
 40
0.0
 40
0.6231129655740679
 40
1.0
 40
1.0
 40
1.0
 40
1.0
 10
262.1359311258386
 20
132.8660012991589
 30
0.0
 10
262.150954087572
 20
133.1169147547833
 30
0.0
 10
262.1750636191712
 20
133.5195920693105
 30
0.0
 10
262.1769135083089
 20
133.6936621449913
 30
0.0
 10
262.1776107075399
 20
133.759266899597
 30
0.0
  0
LINE
  5
123
330
1F
100
AcDbEntity
  8
0
  6
Continuous
 62
     7
370
    15
100
AcDbLine
 10
262.8355389345
 20
133.0629609105
 30
0.0
 11
262.4355389345
 21
133.0629609105
 31
0.0
  0
SPLINE
  5
124
330
1F
100
AcDbEntity
  8
0
  6
Continuous
 62
     7
370
    15
100
AcDbSpline
210
0.0
220
0.0
230
1.0
 70
     8
 71
     3
 72
    19
 73
    15
 74
     0
 42
0.000000001
 43
0.00000001
 40
0.0
 40
0.0
 40
0.0
 40
0.0
 40
0.1173629260766191
 40
0.2186408306561937
 40
0.3051789074873012
 40
0.4101181457635425
 40
0.4890429893907216
 40
0.5206378430565088
 40
0.5488029566771774
 40
0.5864179165676893
 40
0.6391655837826343
 40
0.733089669129768
 40
0.853696196254119
 40
1.0
 40
1.0
 40
1.0
 40
1.0
 10
234.1806847050645
 20
109.2382982707266
 30
0.0
 10
234.1416942344172
 20
109.0335058218379
 30
0.0
 10
234.0690570808034
 20
108.6519884838337
 30
0.0
 10
233.9784557571298
 20
108.0713585887862
 30
0.0
 10
233.8962574865331
 20
107.4666498582139
 30
0.0
 10
233.8249197226747
 20
106.8449110666312
 30
0.0
 10
233.7704420486907
 20
106.2652918374675
 30
0.0
 10
233.736910674602
 20
105.8467786190078
 30
0.0
 10
233.7144083761439
 20
105.5390226340695
 30
0.0
 10
233.6909343618218
 20
105.167275445346
 30
0.0
 10
233.6630248085283
 20
104.5892536362299
 30
0.0
 10
233.6435584674855
 20
103.7523659770073
 30
0.0
 10
233.6537838705959
 20
102.6232569121206
 30
0.0
 10
233.7092268828411
 20
101.7908781356756
 30
0.0
 10
233.7396173272879
 20
101.3346193586017
 30
0.0
  0
SPLINE
  5
125
330
1F
100
AcDbEntity
  8
0
  6
Continuous
 62
     7
370
    15
100
AcDbSpline
210
0.0
220
0.0
230
1.0
 70
     8
 71
     3
 72
    18
 73
    14
 74
     0
 42
0.000000001
 43
0.00000001
 40
0.0
 40
0.0
 40
0.0
 40
0.0
 40
0.1334676990563559
 40
0.2702235591369471
 40
0.4079253169540278
 40
0.5432590147688156
 40
0.6756849654452224
 40
0.8068301664509893
 40
0.8497041589907147
 40
0.8879406842916504
 40
0.9214890790525944
 40
0.9641132343673875
 40
1.0
 40
1.0
 40
1.0
 40
1.0
 10
236.0794356939427
 20
91.15770968038366
 30
0.0
 10
236.2687415773216
 20
90.73252161610442
 30
0.0
 10
236.6520171558614
 20
89.87167039259172
 30
0.0
 10
237.3438646240779
 20
88.59114888550302
 30
0.0
 10
238.1618625608534
 20
87.2873487152083
 30
0.0
 10
239.0058351300462
 20
86.1404162060897
 30
0.0
 10
239.8530910490041
 20
85.14438888745619
 30
0.0
 10
240.5218785734769
 20
84.45985574986783
 30
0.0
 10
241.0044080891603
 20
84.01331809347604
 30
0.0
 10
241.3229363076301
 20
83.71675511307615
 30
0.0
 10
241.6990075691948
 20
83.37106945074527
 30
0.0
 10
242.1403970203664
 20
82.96533000458412
 30
0.0
 10
242.5417601456251
 20
82.64438367339777
 30
0.0
 10
242.7252202838571
 20
82.4976814614132
 30
0.0
  0
SPLINE
  5
126
330
1F
100
AcDbEntity
  8
0
  6
Continuous
 62
     7
370
    15
100
AcDbSpline
210
0.0
220
0.0
230
1.0
 70
     8
 71
     3
 72
    15
 73
    11
 74
     0
 42
0.000000001
 43
0.00000001
 40
0.0
 40
0.0
 40
0.0
 40
0.0
 40
0.1042137337717329
 40
0.2191590077564577
 40
0.3443101914547397
 40
0.4798823063249918
 40
0.6264638153444357
 40
0.7848503011512645
 40
0.9560890363795864
 40
1.0
 40
1.0
 40
1.0
 40
1.0
 10
249.3590597354872
 20
79.04433977502346
 30
0.0
 10
249.628219020271
 20
78.95778201820339
 30
0.0
 10
250.194254605474
 20
78.77575311076725
 30
0.0
 10
251.2691057326687
 20
78.49386018984593
 30
0.0
 10
252.5581879594803
 20
78.199452178604
 30
0.0
 10
254.0818181633446
 20
77.9068799746849
 30
0.0
 10
255.8372885692783
 20
77.63334242541677
 30
0.0
 10
257.8331197820025
 20
77.41090633274892
 30
0.0
 10
259.4452218172513
 20
77.28021598533438
 30
0.0
 10
260.399315432276
 20
77.25804740123857
 30
0.0
 10
260.594041105814
 20
77.25352290552718
 30
0.0
  0
LINE
  5
127
330
1F
100
AcDbEntity
  8
0
  6
Continuous
 62
     7
370
    15
100
AcDbLine
 10
262.4355389345
 20
134.2011199749
 30
0.0
 11
262.1815389207
 21
134.2011199749
 31
0.0
  0
LINE
  5
128
330
1F
100
AcDbEntity
  8
0
  6
Continuous
 62
     7
370
    15
100
AcDbLine
 10
262.1789462381
 20
134.2652228764
 30
0.0
 11
262.1755069051
 21
134.2518175638
 31
0.0
  0
SPLINE
  5
129
330
1F
100
AcDbEntity
  8
0
  6
Continuous
 62
     7
370
    15
100
AcDbSpline
210
0.0
220
0.0
230
1.0
 70
    24
 71
     3
 72
    14
 73
    10
 74
     0
 42
0.000000001
 43
0.00000001
 40
0.0
 40
0.0
 40
0.0
 40
0.0
 40
0.1210885756663675
 40
0.2076059977990826
 40
0.2981192112462363
 40
0.4008951231200997
 40
0.6063735494718162
 40
0.8069755233129484
 40
1.0
 40
1.0
 40
1.0
 40
1.0
 10
262.1755025907012
 20
75.94924037205514
 30
0.0
 10
262.1755025907015
 20
75.95018533859728
 30
0.0
 10
262.1755025907019
 20
75.95180548088396
 30
0.0
 10
262.1755025907031
 20
76.00205677495673
 30
0.0
 10
262.1755025907041
 20
76.07676596741572
 30
0.0
 10
262.1755025907053
 20
76.19774320439548
 30
0.0
 10
262.1755025907068
 20
76.41947637429092
 30
0.0
 10
262.1755025907088
 20
76.78299271928832
 30
0.0
 10
262.17550259071
 20
77.0762912302373
 30
0.0
 10
262.1755025907106
 20
77.22011741750966
 30
0.0
  0
ARC
  5
12A
330
1F
100
AcDbEntity
  8
0
  6
Continuous
 62
     7
370
    15
100
AcDbCircle
 10
261.3877889345
 20
76.0469452966
 30
0.0
 40
0.7937500004544826
100
AcDbArc
 50
179.8454841416
 51
347.7289870974
  0
LINE
  5
12B
330
1F
100
AcDbEntity
  8
0
  6
Continuous
 62
     7
370
    15
100
AcDbLine
 10
262.1706864858
 20
78.8351496681
 30
0.0
 11
262.1706869918
 21
78.8389471131
 31
0.0
  0
ARC
  5
12C
330
1F
100
AcDbEntity
  8
0
  6
Continuous
 62
     7
370
    15
100
AcDbCircle
 10
261.3877889345
 20
134.2011199635
 30
0.0
 40
0.7937500026074074
100
AcDbArc
 50
9.540922228
 51
343.3364768391
  0
LINE
  5
12D
330
1F
100
AcDbEntity
  8
0
  6
Continuous
 62
     7
370
    15
100
AcDbLine
 10
262.1815389207
 20
134.2011189307
 30
0.0
 11
262.1815389207
 21
134.2011199675
 31
0.0
  0
SPLINE
  5
12E
330
1F
100
AcDbEntity
  8
0
  6
Continuous
 62
     7
370
    15
100
AcDbSpline
210
0.0
220
0.0
230
1.0
 70
     8
 71
     3
 72
    10
 73
     6
 74
     0
 42
0.000000001
 43
0.00000001
 40
0.0
 40
0.0
 40
0.0
 40
0.0
 40
0.2286452818256015
 40
0.6860689968298526
 40
1.0
 40
1.0
 40
1.0
 40
1.0
 10
262.1815389207301
 20
134.2011199675201
 30
0.0
 10
262.1815368453568
 20
134.1962328471573
 30
0.0
 10
262.1815306180281
 20
134.1815686400593
 30
0.0
 10
262.1814845965433
 20
134.062850235867
 30
0.0
 10
262.1814029133586
 20
133.8474100108138
 30
0.0
 10
262.1813696694003
 20
133.7597287347671
 30
0.0
  0
SPLINE
  5
12F
330
1F
100
AcDbEntity
  8
0
  6
Continuous
 62
     7
370
    15
100
AcDbSpline
210
0.0
220
0.0
230
1.0
 70
     8
 71
     3
 72
    38
 73
    34
 74
     0
 42
0.000000001
 43
0.00000001
 40
0.0
 40
0.0
 40
0.0
 40
0.0
 40
0.0061334848039781
 40
0.0374712185937314
 40
0.0689178855785209
 40
0.1000936966589276
 40
0.1313230626234698
 40
0.1627150506055664
 40
0.1941617175724301
 40
0.2253375286523699
 40
0.2565668946127173
 40
0.2879588825795206
 40
0.3194055495275515
 40
0.3514793087965572
 40
0.3836113953515135
 40
0.4159207222701723
 40
0.4482896739032928
 40
0.4794654871716952
 40
0.5106948553286693
 40
0.5420868455200237
 40
0.573533514703393
 40
0.6056072763432594
 40
0.6377393652837668
 40
0.6700486946364044
 40
0.7024176487213366
 40
0.7335934618283486
 40
0.7648228298288349
 40
0.7962148198804958
 40
0.8276614889305086
 40
0.8703941952397168
 40
0.9132651876587602
 40
0.9565606720204521
 40
1.0
 40
1.0
 40
1.0
 40
1.0
 10
262.1810436251175
 20
132.8904150438966
 30
0.0
 10
262.1810322385827
 20
132.8598889700025
 30
0.0
 10
262.1809626749744
 20
132.6733964255108
 30
0.0
 10
262.1808015762884
 20
132.2363183995031
 30
0.0
 10
262.1805608339546
 20
131.5767474325976
 30
0.0
 10
262.180286804085
 20
130.8155590738408
 30
0.0
 10
262.1799851485703
 20
129.9648818051589
 30
0.0
 10
262.1796556917427
 20
129.0198237544226
 30
0.0
 10
262.1793019451488
 20
127.9855290451359
 30
0.0
 10
262.1789268064268
 20
126.8653005485556
 30
0.0
 10
262.1785325298684
 20
125.6603289290964
 30
0.0
 10
262.1781203251072
 20
124.3680046471431
 30
0.0
 10
262.1776902870621
 20
122.9814338986086
 30
0.0
 10
262.1772455201854
 20
121.5023057699922
 30
0.0
 10
262.1767883772533
 20
119.929181574242
 30
0.0
 10
262.1763247421867
 20
118.2729221749681
 30
0.0
 10
262.1758639914926
 20
116.5582031560212
 30
0.0
 10
262.1754100853782
 20
114.7932177264705
 30
0.0
 10
262.1749655379292
 20
112.9817677155988
 30
0.0
 10
262.1745274924494
 20
111.1031495364541
 30
0.0
 10
262.1740964784254
 20
109.1482559879567
 30
0.0
 10
262.1736763399545
 20
107.1210487397357
 30
0.0
 10
262.1732700284285
 20
105.0210756441133
 30
0.0
 10
262.1728832025241
 20
102.8636685298021
 30
0.0
 10
262.1725236410011
 20
100.6808076439955
 30
0.0
 10
262.1721935072501
 20
98.48105089216523
 30
0.0
 10
262.1718937067199
 20
96.26735537908442
 30
0.0
 10
262.1716222189351
 20
94.01423222894809
 30
0.0
 10
262.1713526275108
 20
91.45284559157656
 30
0.0
 10
262.1711017121344
 20
88.57558789728753
 30
0.0
 10
262.170891870124
 20
85.37014059065372
 30
0.0
 10
262.1707443634115
 20
82.12059191930808
 30
0.0
 10
262.1707061367988
 20
79.93403746436405
 30
0.0
 10
262.1706869917944
 20
78.83894711310155
 30
0.0
  0
LINE
  5
130
330
1F
100
AcDbEntity
  8
0
  6
Continuous
 62
     7
370
    15
100
AcDbLine
 10
262.4355389345
 20
78.8351496681
 30
0.0
 11
262.1706864858
 21
78.8351496681
 31
0.0
  0
SPLINE
  5
131
330
1F
100
AcDbEntity
  8
0
  6
Continuous
 62
     7
370
    15
100
AcDbSpline
210
0.0
220
0.0
230
1.0
 70
    24
 71
     3
 72
    11
 73
     7
 74
     0
 42
0.000000001
 43
0.00000001
 40
0.000016504604752
 40
0.000016504604752
 40
0.000016504604752
 40
0.000016504604752
 40
0.2500176283738985
 40
0.500018752143045
 40
0.7500198759121915
 40
1.000020999681338
 40
1.000020999681338
 40
1.000020999681338
 40
1.000020999681338
 10
262.4355389345407
 20
78.8351496680943
 30
0.0
 10
262.4355389345407
 20
78.4767477280701
 30
0.0
 10
262.4355389345407
 20
77.7475143356504
 30
0.0
 10
262.4355389345407
 20
76.81932423883075
 30
0.0
 10
262.4355389345407
 20
76.19410591570256
 30
0.0
 10
262.4355389345407
 20
76.04698344060758
 30
0.0
 10
262.4355389345407
 20
76.04694529651435
 30
0.0
  0
LINE
  5
132
330
1F
100
AcDbEntity
  8
0
  6
Continuous
 62
     7
370
    15
100
AcDbLine
 10
262.4355389345
 20
76.0469452965
 30
0.0
 11
262.1815301254
 21
76.0469452965
 31
0.0
  0
LINE
  5
133
330
1F
100
AcDbEntity
  8
0
  6
Continuous
 62
     7
370
    15
100
AcDbLine
 10
262.4355389345
 20
134.2011199675
 30
0.0
 11
262.4355389345
 21
78.8351496681
 31
0.0
  0
LINE
  5
134
330
1F
100
AcDbEntity
  8
0
  6
Continuous
 62
     7
370
    15
100
AcDbLine
 10
262.4355389345
 20
134.2011199675
 30
0.0
 11
262.1815389207
 21
134.2011199675
 31
0.0
  0
SPLINE
  5
135
330
1F
100
AcDbEntity
  8
0
  6
Continuous
 62
     7
370
    15
100
AcDbSpline
210
0.0
220
0.0
230
1.0
 70
     8
 71
     3
 72
    23
 73
    19
 74
     0
 42
0.000000001
 43
0.00000001
 40
0.0
 40
0.0
 40
0.0
 40
0.0
 40
0.0330007163839
 40
0.1022239945050581
 40
0.167728958623093
 40
0.2300659439233193
 40
0.2897519312120563
 40
0.3472584736428717
 40
0.4127886792918675
 40
0.4764289311968646
 40
0.5386054797451907
 40
0.5996054075442651
 40
0.6708866180624793
 40
0.7407480531675505
 40
0.8090122799862561
 40
0.8753256290455874
 40
0.9391915945883627
 40
1.0
 40
1.0
 40
1.0
 40
1.0
 10
260.6033742331139
 20
133.010764953209
 30
0.0
 10
260.1836629239806
 20
133.0023275368339
 30
0.0
 10
258.8835527669941
 20
132.9761915464774
 30
0.0
 10
256.7621375597086
 20
132.7120318795042
 30
0.0
 10
254.3005928144954
 20
132.2324905029973
 30
0.0
 10
252.0082542008115
 20
131.5617704119601
 30
0.0
 10
249.8797346304654
 20
130.7279824118116
 30
0.0
 10
247.798817430238
 20
129.6870278218883
 30
0.0
 10
245.7848283288029
 20
128.4220036696716
 30
0.0
 10
243.8639083977592
 20
126.9217399108636
 30
0.0
 10
242.1399187836823
 20
125.2819629130722
 30
0.0
 10
240.5089898773888
 20
123.4189890813129
 30
0.0
 10
238.9996710932285
 20
121.3330042338263
 30
0.0
 10
237.6410736158831
 20
119.0388392550887
 30
0.0
 10
236.5037446465116
 20
116.6978074330887
 30
0.0
 10
235.5761474979302
 20
114.3490046427009
 30
0.0
 10
234.8291027230161
 20
112.0352828358473
 30
0.0
 10
234.463345498512
 20
110.492071914128
 30
0.0
 10
234.2849518686135
 20
109.7393895894031
 30
0.0
  0
LINE
  5
136
330
1F
100
AcDbEntity
  8
0
  6
Continuous
 62
     7
370
    15
100
AcDbLine
 10
262.8355389345
 20
77.1848799642
 30
0.0
 11
262.4355389345
 21
77.1848799642
 31
0.0
  0
LINE
  5
137
330
1F
100
AcDbEntity
  8
0
  6
Continuous
 62
     7
370
    15
100
AcDbLine
 10
262.4355389345
 20
78.8080087411
 30
0.0
 11
262.8355389345
 21
78.8080087411
 31
0.0
  0
LINE
  5
138
330
1F
100
AcDbEntity
  8
0
  6
Continuous
 62
     7
370
    15
100
AcDbLine
 10
262.8355389345
 20
78.8080087411
 30
0.0
 11
262.8355389345
 21
77.1848799642
 31
0.0
  0
LINE
  5
139
330
1F
100
AcDbEntity
  8
0
  6
Continuous
 62
     7
370
    15
100
AcDbLine
 10
262.8355389345
 20
78.8080087411
 30
0.0
 11
262.8355389345
 21
133.0629609105
 31
0.0
  0
LINE
  5
13A
330
1F
100
AcDbEntity
  8
0
  6
Continuous
 62
     7
370
    15
100
AcDbLine
 10
234.2849579739
 20
109.7393828721
 30
0.0
 11
234.1896010515
 21
109.2039183405
 31
0.0
  0
SPLINE
  5
13B
330
1F
100
AcDbEntity
  8
0
  6
Continuous
 62
     7
370
    15
100
AcDbSpline
210
0.0
220
0.0
230
1.0
 70
     8
 71
     3
 72
    17
 73
    13
 74
     0
 42
0.000000001
 43
0.00000001
 40
0.0
 40
0.0
 40
0.0
 40
0.0
 40
0.0352533757616623
 40
0.1212968269560549
 40
0.2089099588171504
 40
0.2985397337786912
 40
0.3903333153596928
 40
0.5317875396392415
 40
0.6758264238840057
 40
0.8183681869503728
 40
0.9554616268948264
 40
1.0
 40
1.0
 40
1.0
 40
1.0
 10
233.7420262158313
 20
101.3055966764557
 30
0.0
 10
233.7433944572335
 20
101.2872731548196
 30
0.0
 10
233.7481021862669
 20
101.2242271348261
 30
0.0
 10
233.778189692026
 20
100.8697960793246
 30
0.0
 10
233.8357013901891
 20
100.2867104287165
 30
0.0
 10
233.9225802296328
 20
99.51633359663711
 30
0.0
 10
234.0681324836049
 20
98.43900108122028
 30
0.0
 10
234.3097899857872
 20
96.9976550198656
 30
0.0
 10
234.7076706850574
 20
95.20560853811652
 30
0.0
 10
235.231920047645
 20
93.38722528234132
 30
0.0
 10
235.7073846381071
 20
92.0074661731719
 30
0.0
 10
236.032872689587
 20
91.29434799118654
 30
0.0
 10
236.1126863964189
 20
91.11948256907753
 30
0.0
  0
SPLINE
  5
13C
330
1F
100
AcDbEntity
  8
0
  6
Continuous
 62
     7
370
    15
100
AcDbSpline
210
0.0
220
0.0
230
1.0
 70
     8
 71
     3
 72
    12
 73
     8
 74
     0
 42
0.000000001
 43
0.00000001
 40
0.0
 40
0.0
 40
0.0
 40
0.0
 40
0.0387792108405169
 40
0.2791291895050391
 40
0.5241673547076268
 40
0.7718095036063402
 40
1.0
 40
1.0
 40
1.0
 40
1.0
 10
242.7080630559813
 20
82.52127204641704
 30
0.0
 10
242.7736518671226
 20
82.4681487600098
 30
0.0
 10
243.2457540914245
 20
82.08577223513211
 30
0.0
 10
244.2624011084534
 20
81.41857805172516
 30
0.0
 10
245.8377330296304
 20
80.51118631514439
 30
0.0
 10
247.5780476354097
 20
79.68356197444243
 30
0.0
 10
248.9023283223101
 20
79.21557212920766
 30
0.0
 10
249.5374009057026
 20
78.99114272919097
 30
0.0
  0
LINE
  5
13D
330
1F
100
AcDbEntity
  8
0
  6
Continuous
 62
     7
370
    15
100
AcDbLine
 10
264.8062056012
 20
86.8516136486
 30
0.0
 11
264.8062056012
 21
100.924759076
 31
0.0
  0
LINE
  5
13E
330
1F
100
AcDbEntity
  8
0
  6
Continuous
 62
     7
370
    15
100
AcDbLine
 10
262.8355389345
 20
86.8516136486
 30
0.0
 11
264.8062056012
 21
86.8516136486
 31
0.0
  0
LINE
  5
13F
330
1F
100
AcDbEntity
  8
0
  6
Continuous
 62
     7
370
    15
100
AcDbLine
 10
262.8355389345
 20
100.924759076
 30
0.0
 11
264.8062056012
 21
100.924759076
 31
0.0
  0
LINE
  5
140
330
1F
100
AcDbEntity
  8
0
  6
Continuous
 62
     7
370
    15
100
AcDbLine
 10
262.8355389345
 20
123.5049816119
 30
0.0
 11
264.8062056012
 21
123.5049816119
 31
0.0
  0
LINE
  5
141
330
1F
100
AcDbEntity
  8
0
  6
Continuous
 62
     7
370
    15
100
AcDbLine
 10
264.8062056012
 20
100.9247590763
 30
0.0
 11
264.8062056012
 21
123.5049816119
 31
0.0
  0
LINE
  5
142
330
1F
100
AcDbEntity
  8
0
  6
Continuous
 62
     7
370
    15
100
AcDbLine
 10
262.8355389345
 20
124.5182689443
 30
0.0
 11
264.8062056012
 21
124.5182689443
 31
0.0
  0
LINE
  5
143
330
1F
100
AcDbEntity
  8
0
  6
Continuous
 62
     7
370
    15
100
AcDbLine
 10
264.8062056012
 20
123.5049816119
 30
0.0
 11
264.8062056012
 21
124.5182689443
 31
0.0
  0
ARC
  5
144
330
1F
100
AcDbEntity
  8
0
  6
Continuous
 62
     8
370
    15
100
AcDbCircle
 10
261.4079096573
 20
68.4685298564
 30
0.0
 40
10.39843177310796
100
AcDbArc
 50
85.7932875847
 51
94.4890207595
  0
LINE
  5
145
330
1F
100
AcDbEntity
  8
0
  6
Continuous
 62
     8
370
    15
100
AcDbLine
 10
262.1815389207
 20
134.2009719026
 30
0.0
 11
262.1705593635
 21
134.3326856047
 31
0.0
  0
SPLINE
  5
146
330
1F
100
AcDbEntity
  8
0
  6
Continuous
 62
     8
370
    15
100
AcDbSpline
210
0.0
220
0.0
230
1.0
 70
     8
 71
     3
 72
    31
 73
    27
 74
     0
 42
0.000000001
 43
0.00000001
 40
0.0
 40
0.0
 40
0.0
 40
0.0
 40
0.0096896978558565
 40
0.0409404729322279
 40
0.0725036923992416
 40
0.1047274396697548
 40
0.1376603105209444
 40
0.1714078830804857
 40
0.2055484869318048
 40
0.2399970447666002
 40
0.2748624318696667
 40
0.309652121062776
 40
0.3446637516029121
 40
0.3809049487178189
 40
0.4190129614880777
 40
0.4595945159340367
 40
0.5036438230113578
 40
0.5511409978255345
 40
0.6016771768062925
 40
0.6549646638271724
 40
0.710461079592175
 40
0.7675410548196212
 40
0.8252312708610393
 40
0.8828349526772723
 40
0.9406787984719515
 40
1.0
 40
1.0
 40
1.0
 40
1.0
 10
260.5940389587465
 20
79.32915792324374
 30
0.0
 10
260.3597859061587
 20
79.40636865692694
 30
0.0
 10
259.370030508062
 20
79.73259595518317
 30
0.0
 10
257.665145719829
 20
80.42208022898151
 30
0.0
 10
255.4928526021531
 20
81.41149085519005
 30
0.0
 10
253.3834709590281
 20
82.53865639703615
 30
0.0
 10
251.3479822072342
 20
83.79310197267594
 30
0.0
 10
249.4194507403504
 20
85.16568052867679
 30
0.0
 10
247.6317355013228
 20
86.64648785220524
 30
0.0
 10
246.0015649255935
 20
88.20953182476426
 30
0.0
 10
244.5282837988422
 20
89.81634217883486
 30
0.0
 10
243.2163961514287
 20
91.45902749198524
 30
0.0
 10
242.0368040025093
 20
93.12270234430444
 30
0.0
 10
240.9471779074505
 20
94.79512434121173
 30
0.0
 10
239.9192681364667
 20
96.48253176120001
 30
0.0
 10
238.9415140656575
 20
98.18249362817403
 30
0.0
 10
238.003908415303
 20
99.86340757727926
 30
0.0
 10
237.1289354063845
 20
101.4965336445469
 30
0.0
 10
236.3406324837966
 20
103.0386690090284
 30
0.0
 10
235.6609225350369
 20
104.4409686142533
 30
0.0
 10
235.1067670288236
 20
105.6814044535325
 30
0.0
 10
234.6894808036566
 20
106.7502453624782
 30
0.0
 10
234.4083857172321
 20
107.6704335490809
 30
0.0
 10
234.2564790608483
 20
108.4740182403692
 30
0.0
 10
234.2070058343364
 20
109.1995807283942
 30
0.0
 10
234.2587564165212
 20
109.5579426071718
 30
0.0
 10
234.2849579739406
 20
109.7393828721373
 30
0.0
  0
ENDSEC
  0
SECTION
  2
OBJECTS
  0
DICTIONARY
  5
C
330
0
100
AcDbDictionary
281
     1
  3
ACAD_GROUP
350
D
  3
ACAD_LAYOUT
350
1A
  3
ACAD_MLINESTYLE
350
17
  3
ACAD_PLOTSETTINGS
350
19
  3
ACAD_PLOTSTYLENAME
350
E
  3
ACAD_SCALELIST
350
47
  0
DICTIONARY
  5
D
102
{ACAD_REACTORS
330
C
102
}
330
C
100
AcDbDictionary
281
     1
  0
DICTIONARY
  5
1A
102
{ACAD_REACTORS
330
C
102
}
330
C
100
AcDbDictionary
281
     1
  3
Layout1
350
1E
  3
Layout2
350
26
  3
Model
350
22
  0
DICTIONARY
  5
17
102
{ACAD_REACTORS
330
C
102
}
330
C
100
AcDbDictionary
281
     1
  3
Standard
350
18
  0
DICTIONARY
  5
19
102
{ACAD_REACTORS
330
C
102
}
330
C
100
AcDbDictionary
281
     1
  0
ACDBDICTIONARYWDFLT
  5
E
102
{ACAD_REACTORS
330
C
102
}
330
C
100
AcDbDictionary
281
     1
  3
Normal
350
F
100
AcDbDictionaryWithDefault
340
F
  0
DICTIONARY
  5
47
102
{ACAD_REACTORS
330
C
102
}
330
C
100
AcDbDictionary
281
     1
  3
A0
350
48
  3
A1
350
49
  3
A2
350
4A
  3
A3
350
4B
  3
A4
350
4C
  3
A5
350
4D
  3
A6
350
4E
  3
A7
350
4F
  3
A8
350
50
  3
A9
350
51
  3
B0
350
52
  3
B1
350
53
  3
B2
350
54
  3
B3
350
55
  3
B4
350
56
  3
B5
350
57
  3
B6
350
58
  3
B7
350
59
  3
B8
350
5A
  3
B9
350
5B
  3
C0
350
5C
  3
C1
350
5D
  3
C2
350
5E
  3
C3
350
5F
  3
C4
350
60
  3
C5
350
61
  3
C6
350
62
  3
C7
350
63
  3
C8
350
64
  3
C9
350
65
  3
D0
350
66
  3
D1
350
67
  3
D2
350
68
  0
LAYOUT
  5
1E
102
{ACAD_REACTORS
330
1A
102
}
330
1A
100
AcDbPlotSettings
  1

  2
none_device
  4

  6

 40
0.0
 41
0.0
 42
0.0
 43
0.0
 44
0.0
 45
0.0
 46
0.0
 47
0.0
 48
0.0
 49
0.0
140
0.0
141
0.0
142
1.0
143
1.0
 70
   688
 72
     1
 73
     0
 74
     5
  7

 75
    16
147
1.0
148
0.0
149
0.0
100
AcDbLayout
  1
Layout1
 70
     1
 71
     1
 10
0.0
 20
0.0
 11
420.0
 21
297.0
 12
0.0
 22
0.0
 32
0.0
 14
1.0000000000E+20
 24
1.0000000000E+20
 34
1.0000000000E+20
 15
-1.0000000000E+20
 25
-1.0000000000E+20
 35
-1.0000000000E+20
146
0.0
 13
0.0
 23
0.0
 33
0.0
 16
1.0
 26
0.0
 36
0.0
 17
0.0
 27
1.0
 37
0.0
 76
     0
330
1B
  0
LAYOUT
  5
26
102
{ACAD_REACTORS
330
1A
102
}
330
1A
100
AcDbPlotSettings
  1

  2
none_device
  4

  6

 40
0.0
 41
0.0
 42
0.0
 43
0.0
 44
0.0
 45
0.0
 46
0.0
 47
0.0
 48
0.0
 49
0.0
140
0.0
141
0.0
142
1.0
143
1.0
 70
   688
 72
     1
 73
     0
 74
     5
  7

 75
    16
147
1.0
148
0.0
149
0.0
100
AcDbLayout
  1
Layout2
 70
     1
 71
     2
 10
0.0
 20
0.0
 11
0.0
 21
0.0
 12
0.0
 22
0.0
 32
0.0
 14
0.0
 24
0.0
 34
0.0
 15
0.0
 25
0.0
 35
0.0
146
0.0
 13
0.0
 23
0.0
 33
0.0
 16
1.0
 26
0.0
 36
0.0
 17
0.0
 27
1.0
 37
0.0
 76
     0
330
23
  0
LAYOUT
  5
22
102
{ACAD_REACTORS
330
1A
102
}
330
1A
100
AcDbPlotSettings
  1

  2
none_device
  4
Letter_(8.50_x_11.00_Inches)
  6

 40
6.35
 41
6.35
 42
6.35000508
 43
6.35000508
 44
215.9
 45
279.4
 46
0.0
 47
0.0
 48
0.0
 49
0.0
140
0.0
141
0.0
142
1.0
143
1.0
 70
  1712
 72
     1
 73
     0
 74
     0
  7

 75
     0
147
1.0
148
0.0
149
0.0
100
AcDbLayout
  1
Model
 70
     1
 71
     0
 10
0.0
 20
0.0
 11
431.8
 21
279.4
 12
0.0
 22
0.0
 32
0.0
 14
0.0
 24
0.0
 34
0.0
 15
431.8
 25
279.4
 35
0.0
146
0.0
 13
0.0
 23
0.0
 33
0.0
 16
1.0
 26
0.0
 36
0.0
 17
0.0
 27
1.0
 37
0.0
 76
     0
330
1F
331
29
  0
MLINESTYLE
  5
18
102
{ACAD_REACTORS
330
17
102
}
330
17
100
AcDbMlineStyle
  2
Standard
 70
     0
  3

 62
   256
 51
90.0
 52
90.0
 71
     2
 49
0.5
 62
   256
  6
BYLAYER
 49
-0.5
 62
   256
  6
BYLAYER
  0
ACDBPLACEHOLDER
  5
F
102
{ACAD_REACTORS
330
E
102
}
330
E
  0
SCALE
  5
48
102
{ACAD_REACTORS
330
47
102
}
330
47
100
AcDbScale
 70
     0
300
1:1
140
1.0
141
1.0
290
     1
  0
SCALE
  5
49
102
{ACAD_REACTORS
330
47
102
}
330
47
100
AcDbScale
 70
     0
300
1:2
140
1.0
141
2.0
290
     0
  0
SCALE
  5
4A
102
{ACAD_REACTORS
330
47
102
}
330
47
100
AcDbScale
 70
     0
300
1:4
140
1.0
141
4.0
290
     0
  0
SCALE
  5
4B
102
{ACAD_REACTORS
330
47
102
}
330
47
100
AcDbScale
 70
     0
300
1:5
140
1.0
141
5.0
290
     0
  0
SCALE
  5
4C
102
{ACAD_REACTORS
330
47
102
}
330
47
100
AcDbScale
 70
     0
300
1:8
140
1.0
141
8.0
290
     0
  0
SCALE
  5
4D
102
{ACAD_REACTORS
330
47
102
}
330
47
100
AcDbScale
 70
     0
300
1:10
140
1.0
141
10.0
290
     0
  0
SCALE
  5
4E
102
{ACAD_REACTORS
330
47
102
}
330
47
100
AcDbScale
 70
     0
300
1:16
140
1.0
141
16.0
290
     0
  0
SCALE
  5
4F
102
{ACAD_REACTORS
330
47
102
}
330
47
100
AcDbScale
 70
     0
300
1:20
140
1.0
141
20.0
290
     0
  0
SCALE
  5
50
102
{ACAD_REACTORS
330
47
102
}
330
47
100
AcDbScale
 70
     0
300
1:30
140
1.0
141
30.0
290
     0
  0
SCALE
  5
51
102
{ACAD_REACTORS
330
47
102
}
330
47
100
AcDbScale
 70
     0
300
1:40
140
1.0
141
40.0
290
     0
  0
SCALE
  5
52
102
{ACAD_REACTORS
330
47
102
}
330
47
100
AcDbScale
 70
     0
300
1:50
140
1.0
141
50.0
290
     0
  0
SCALE
  5
53
102
{ACAD_REACTORS
330
47
102
}
330
47
100
AcDbScale
 70
     0
300
1:100
140
1.0
141
100.0
290
     0
  0
SCALE
  5
54
102
{ACAD_REACTORS
330
47
102
}
330
47
100
AcDbScale
 70
     0
300
2:1
140
2.0
141
1.0
290
     0
  0
SCALE
  5
55
102
{ACAD_REACTORS
330
47
102
}
330
47
100
AcDbScale
 70
     0
300
4:1
140
4.0
141
1.0
290
     0
  0
SCALE
  5
56
102
{ACAD_REACTORS
330
47
102
}
330
47
100
AcDbScale
 70
     0
300
8:1
140
8.0
141
1.0
290
     0
  0
SCALE
  5
57
102
{ACAD_REACTORS
330
47
102
}
330
47
100
AcDbScale
 70
     0
300
10:1
140
10.0
141
1.0
290
     0
  0
SCALE
  5
58
102
{ACAD_REACTORS
330
47
102
}
330
47
100
AcDbScale
 70
     0
300
100:1
140
100.0
141
1.0
290
     0
  0
SCALE
  5
59
102
{ACAD_REACTORS
330
47
102
}
330
47
100
AcDbScale
 70
     0
300
1/128" = 1'-0"
140
0.0078125
141
12.0
290
     0
  0
SCALE
  5
5A
102
{ACAD_REACTORS
330
47
102
}
330
47
100
AcDbScale
 70
     0
300
1/64" = 1'-0"
140
0.015625
141
12.0
290
     0
  0
SCALE
  5
5B
102
{ACAD_REACTORS
330
47
102
}
330
47
100
AcDbScale
 70
     0
300
1/32" = 1'-0"
140
0.03125
141
12.0
290
     0
  0
SCALE
  5
5C
102
{ACAD_REACTORS
330
47
102
}
330
47
100
AcDbScale
 70
     0
300
1/16" = 1'-0"
140
0.0625
141
12.0
290
     0
  0
SCALE
  5
5D
102
{ACAD_REACTORS
330
47
102
}
330
47
100
AcDbScale
 70
     0
300
3/32" = 1'-0"
140
0.09375
141
12.0
290
     0
  0
SCALE
  5
5E
102
{ACAD_REACTORS
330
47
102
}
330
47
100
AcDbScale
 70
     0
300
1/8" = 1'-0"
140
0.125
141
12.0
290
     0
  0
SCALE
  5
5F
102
{ACAD_REACTORS
330
47
102
}
330
47
100
AcDbScale
 70
     0
300
3/16" = 1'-0"
140
0.1875
141
12.0
290
     0
  0
SCALE
  5
60
102
{ACAD_REACTORS
330
47
102
}
330
47
100
AcDbScale
 70
     0
300
1/4" = 1'-0"
140
0.25
141
12.0
290
     0
  0
SCALE
  5
61
102
{ACAD_REACTORS
330
47
102
}
330
47
100
AcDbScale
 70
     0
300
3/8" = 1'-0"
140
0.375
141
12.0
290
     0
  0
SCALE
  5
62
102
{ACAD_REACTORS
330
47
102
}
330
47
100
AcDbScale
 70
     0
300
1/2" = 1'-0"
140
0.5
141
12.0
290
     0
  0
SCALE
  5
63
102
{ACAD_REACTORS
330
47
102
}
330
47
100
AcDbScale
 70
     0
300
3/4" = 1'-0"
140
0.75
141
12.0
290
     0
  0
SCALE
  5
64
102
{ACAD_REACTORS
330
47
102
}
330
47
100
AcDbScale
 70
     0
300
1" = 1'-0"
140
1.0
141
12.0
290
     0
  0
SCALE
  5
65
102
{ACAD_REACTORS
330
47
102
}
330
47
100
AcDbScale
 70
     0
300
1-1/2" = 1'-0"
140
1.5
141
12.0
290
     0
  0
SCALE
  5
66
102
{ACAD_REACTORS
330
47
102
}
330
47
100
AcDbScale
 70
     0
300
3" = 1'-0"
140
3.0
141
12.0
290
     0
  0
SCALE
  5
67
102
{ACAD_REACTORS
330
47
102
}
330
47
100
AcDbScale
 70
     0
300
6" = 1'-0"
140
6.0
141
12.0
290
     0
  0
SCALE
  5
68
102
{ACAD_REACTORS
330
47
102
}
330
47
100
AcDbScale
 70
     0
300
1'-0" = 1'-0"
140
12.0
141
12.0
290
     0
  0
ENDSEC
  0
EOF
