  0
SECTION
  2
HEADER
  9
$ACADVER
  1
AC1015
  9
$ACADMAINTVER
 70
     6
  9
$DWGCODEPAGE
  3
ANSI_1252
  9
$INSBASE
 10
0.0
 20
0.0
 30
0.0
  9
$EXTMIN
 10
0.0
 20
0.0
 30
0.0
  9
$EXTMAX
 10
431.8
 20
279.4
 30
0.0
  9
$LIMMIN
 10
0.0
 20
0.0
  9
$LIMMAX
 10
431.8
 20
279.4
  9
$ORTHOMODE
 70
     0
  9
$REGENMODE
 70
     1
  9
$FILLMODE
 70
     1
  9
$QTEXTMODE
 70
     0
  9
$MIRRTEXT
 70
     1
  9
$LTSCALE
 40
1.0
  9
$ATTMODE
 70
     1
  9
$TEXTSIZE
 40
3.175
  9
$TRACEWID
 40
1.0
  9
$TEXTSTYLE
  7
Standard
  9
$CLAYER
  8
0
  9
$CELTYPE
  6
ByLayer
  9
$CECOLOR
 62
   256
  9
$CELTSCALE
 40
1.0
  9
$DISPSILH
 70
     0
  9
$DIMSCALE
 40
1.0
  9
$DIMASZ
 40
3.302
  9
$DIMEXO
 40
1.27
  9
$DIMDLI
 40
3.75
  9
$DIMRND
 40
0.0
  9
$DIMDLE
 40
0.0
  9
$DIMEXE
 40
3.175
  9
$DIMTP
 40
0.0
  9
$DIMTM
 40
0.0
  9
$DIMTXT
 40
3.175
  9
$DIMCEN
 40
2.5
  9
$DIMTSZ
 40
0.0
  9
$DIMTOL
 70
     0
  9
$DIMLIM
 70
     0
  9
$DIMTIH
 70
     1
  9
$DIMTOH
 70
     1
  9
$DIMSE1
 70
     0
  9
$DIMSE2
 70
     0
  9
$DIMTAD
 70
     0
  9
$DIMZIN
 70
     0
  9
$DIMBLK
  1

  9
$DIMASO
 70
     1
  9
$DIMSHO
 70
     1
  9
$DIMPOST
  1

  9
$DIMAPOST
  1

  9
$DIMALT
 70
     0
  9
$DIMALTD
 70
     3
  9
$DIMALTF
 40
0.0393700787
  9
$DIMLFAC
 40
20.0
  9
$DIMTOFL
 70
     1
  9
$DIMTVP
 40
0.0
  9
$DIMTIX
 70
     0
  9
$DIMSOXD
 70
     0
  9
$DIMSAH
 70
     0
  9
$DIMBLK1
  1

  9
$DIMBLK2
  1

  9
$DIMSTYLE
  2
ISO-25
  9
$DIMCLRD
 70
     0
  9
$DIMCLRE
 70
     0
  9
$DIMCLRT
 70
     0
  9
$DIMTFAC
 40
1.0
  9
$DIMGAP
 40
1.524
  9
$DIMJUST
 70
     0
  9
$DIMSD1
 70
     0
  9
$DIMSD2
 70
     0
  9
$DIMTOLJ
 70
     0
  9
$DIMTZIN
 70
     0
  9
$DIMALTZ
 70
     0
  9
$DIMALTTZ
 70
     0
  9
$DIMUPT
 70
     0
  9
$DIMDEC
 70
     0
  9
$DIMTDEC
 70
     0
  9
$DIMALTU
 70
     2
  9
$DIMALTTD
 70
     3
  9
$DIMTXSTY
  7
Standard
  9
$DIMAUNIT
 70
     0
  9
$DIMADEC
 70
     0
  9
$DIMALTRND
 40
0.0
  9
$DIMAZIN
 70
     0
  9
$DIMDSEP
 70
    44
  9
$DIMATFIT
 70
     3
  9
$DIMFRAC
 70
     0
  9
$DIMLDRBLK
  1

  9
$DIMLUNIT
 70
     2
  9
$DIMLWD
 70
    -2
  9
$DIMLWE
 70
    -2
  9
$DIMTMOVE
 70
     0
  9
$LUNITS
 70
     2
  9
$LUPREC
 70
     2
  9
$SKETCHINC
 40
1.0
  9
$FILLETRAD
 40
10.0
  9
$AUNITS
 70
     0
  9
$AUPREC
 70
     2
  9
$MENU
  1
.
  9
$ELEVATION
 40
0.0
  9
$PELEVATION
 40
0.0
  9
$THICKNESS
 40
0.0
  9
$LIMCHECK
 70
     0
  9
$CHAMFERA
 40
0.0
  9
$CHAMFERB
 40
0.0
  9
$CHAMFERC
 40
0.0
  9
$CHAMFERD
 40
0.0
  9
$SKPOLY
 70
     0
  9
$TDCREATE
 40
2458583.483988982
  9
$TDUCREATE
 40
2458583.650655648
  9
$TDUPDATE
 40
2458583.483990197
  9
$TDUUPDATE
 40
2458583.650656864
  9
$TDINDWG
 40
0.0000000116
  9
$TDUSRTIMER
 40
0.0000000116
  9
$USRTIMER
 70
     1
  9
$ANGBASE
 50
0.0
  9
$ANGDIR
 70
     0
  9
$PDMODE
 70
     0
  9
$PDSIZE
 40
-1.0
  9
$PLINEWID
 40
0.0
  9
$SPLFRAME
 70
     0
  9
$SPLINETYPE
 70
     6
  9
$SPLINESEGS
 70
     8
  9
$HANDSEED
  5
495
  9
$SURFTAB1
 70
     6
  9
$SURFTAB2
 70
     6
  9
$SURFTYPE
 70
     6
  9
$SURFU
 70
     6
  9
$SURFV
 70
     6
  9
$UCSBASE
  2

  9
$UCSNAME
  2

  9
$UCSORG
 10
0.0
 20
0.0
 30
0.0
  9
$UCSXDIR
 10
1.0
 20
0.0
 30
0.0
  9
$UCSYDIR
 10
0.0
 20
1.0
 30
0.0
  9
$UCSORTHOREF
  2

  9
$UCSORTHOVIEW
 70
     0
  9
$UCSORGTOP
 10
0.0
 20
0.0
 30
0.0
  9
$UCSORGBOTTOM
 10
0.0
 20
0.0
 30
0.0
  9
$UCSORGLEFT
 10
0.0
 20
0.0
 30
0.0
  9
$UCSORGRIGHT
 10
0.0
 20
0.0
 30
0.0
  9
$UCSORGFRONT
 10
0.0
 20
0.0
 30
0.0
  9
$UCSORGBACK
 10
0.0
 20
0.0
 30
0.0
  9
$PUCSBASE
  2

  9
$PUCSNAME
  2

  9
$PUCSORG
 10
0.0
 20
0.0
 30
0.0
  9
$PUCSXDIR
 10
1.0
 20
0.0
 30
0.0
  9
$PUCSYDIR
 10
0.0
 20
1.0
 30
0.0
  9
$PUCSORTHOREF
  2

  9
$PUCSORTHOVIEW
 70
     0
  9
$PUCSORGTOP
 10
0.0
 20
0.0
 30
0.0
  9
$PUCSORGBOTTOM
 10
0.0
 20
0.0
 30
0.0
  9
$PUCSORGLEFT
 10
0.0
 20
0.0
 30
0.0
  9
$PUCSORGRIGHT
 10
0.0
 20
0.0
 30
0.0
  9
$PUCSORGFRONT
 10
0.0
 20
0.0
 30
0.0
  9
$PUCSORGBACK
 10
0.0
 20
0.0
 30
0.0
  9
$USERI1
 70
     0
  9
$USERI2
 70
     0
  9
$USERI3
 70
     0
  9
$USERI4
 70
     0
  9
$USERI5
 70
     0
  9
$USERR1
 40
0.0
  9
$USERR2
 40
0.0
  9
$USERR3
 40
0.0
  9
$USERR4
 40
0.0
  9
$USERR5
 40
0.0
  9
$WORLDVIEW
 70
     1
  9
$SHADEDGE
 70
     3
  9
$SHADEDIF
 70
    70
  9
$TILEMODE
 70
     1
  9
$MAXACTVP
 70
    64
  9
$PINSBASE
 10
0.0
 20
0.0
 30
0.0
  9
$PLIMCHECK
 70
     0
  9
$PEXTMIN
 10
1.0000000000E+20
 20
1.0000000000E+20
 30
1.0000000000E+20
  9
$PEXTMAX
 10
-1.0000000000E+20
 20
-1.0000000000E+20
 30
-1.0000000000E+20
  9
$PLIMMIN
 10
0.0
 20
0.0
  9
$PLIMMAX
 10
420.0
 20
297.0
  9
$UNITMODE
 70
     0
  9
$VISRETAIN
 70
     1
  9
$PLINEGEN
 70
     0
  9
$PSLTSCALE
 70
     1
  9
$TREEDEPTH
 70
  3020
  9
$CMLSTYLE
  2
Standard
  9
$CMLJUST
 70
     0
  9
$CMLSCALE
 40
20.0
  9
$PROXYGRAPHICS
 70
     1
  9
$MEASUREMENT
 70
     1
  9
$CELWEIGHT
370
    -1
  9
$ENDCAPS
280
     0
  9
$JOINSTYLE
280
     0
  9
$LWDISPLAY
290
     1
  9
$INSUNITS
 70
     4
  9
$HYPERLINKBASE
  1

  9
$STYLESHEET
  1

  9
$XEDIT
290
     1
  9
$CEPSNTYPE
380
     0
  9
$PSTYLEMODE
290
     1
  9
$FINGERPRINTGUID
  2
{5A3FC5FF-999D-41B3-8103-9C4A39E261B7}
  9
$VERSIONGUID
  2
{FAEB1C32-E019-11D5-929B-00C0DF256EC4}
  9
$EXTNAMES
290
     1
  9
$PSVPSCALE
 40
0.0
  9
$OLESTARTUP
290
     0
  0
ENDSEC
  0
SECTION
  2
CLASSES
  0
CLASS
  1
ACDBDICTIONARYWDFLT
  2
AcDbDictionaryWithDefault
  3
ObjectDBX Classes
 90
        0
280
     0
281
     0
  0
CLASS
  1
VISUALSTYLE
  2
AcDbVisualStyle
  3
ObjectDBX Classes
 90
     4095
280
     0
281
     0
  0
CLASS
  1
MATERIAL
  2
AcDbMaterial
  3
ObjectDBX Classes
 90
     1153
280
     0
281
     0
  0
CLASS
  1
SCALE
  2
AcDbScale
  3
ObjectDBX Classes
 90
     1153
280
     0
281
     0
  0
CLASS
  1
TABLESTYLE
  2
AcDbTableStyle
  3
ObjectDBX Classes
 90
     4095
280
     0
281
     0
  0
CLASS
  1
MLEADERSTYLE
  2
AcDbMLeaderStyle
  3
ACDB_MLEADERSTYLE_CLASS
 90
     4095
280
     0
281
     0
  0
CLASS
  1
SUN
  2
AcDbSun
  3
SCENEOE
 90
     1153
280
     0
281
     0
  0
CLASS
  1
ACDBPLACEHOLDER
  2
AcDbPlaceHolder
  3
ObjectDBX Classes
 90
        0
280
     0
281
     0
  0
CLASS
  1
LAYOUT
  2
AcDbLayout
  3
ObjectDBX Classes
 90
        0
280
     0
281
     0
  0
ENDSEC
  0
SECTION
  2
TABLES
  0
TABLE
  2
VPORT
  5
8
330
0
100
AcDbSymbolTable
 70
     1
  0
VPORT
  5
29
330
8
100
AcDbSymbolTableRecord
100
AcDbViewportTableRecord
  2
*Active
 70
     0
 10
0.0
 20
0.0
 11
1.0
 21
1.0
 12
215.9
 22
139.7
 13
0.0
 23
0.0
 14
10.0
 24
10.0
 15
10.0
 25
10.0
 16
0.0
 26
0.0
 36
1.0
 17
0.0
 27
0.0
 37
0.0
 40
279.4
 41
1.5454545455
 42
50.0
 43
0.0
 44
0.0
 50
0.0
 51
0.0
 71
     0
 72
  2000
 73
     1
 74
     3
 75
     0
 76
     0
 77
     0
 78
     0
281
     0
 65
     1
110
0.0
120
0.0
130
0.0
111
1.0
121
0.0
131
0.0
112
0.0
122
1.0
132
0.0
 79
     0
146
0.0
  0
ENDTAB
  0
TABLE
  2
LTYPE
  5
5
330
0
100
AcDbSymbolTable
 70
     6
  0
LTYPE
  5
14
330
5
100
AcDbSymbolTableRecord
100
AcDbLinetypeTableRecord
  2
ByBlock
 70
     0
  3

 72
    65
 73
     0
 40
0.0
  0
LTYPE
  5
15
330
5
100
AcDbSymbolTableRecord
100
AcDbLinetypeTableRecord
  2
ByLayer
 70
     0
  3

 72
    65
 73
     0
 40
0.0
  0
LTYPE
  5
16
330
5
100
AcDbSymbolTableRecord
100
AcDbLinetypeTableRecord
  2
Continuous
 70
     0
  3
Solid line
 72
    65
 73
     0
 40
0.0
  0
LTYPE
  5
6E
330
5
100
AcDbSymbolTableRecord
100
AcDbLinetypeTableRecord
  2
HIDDEN
 70
     0
  3
Hidden __ __ __ __ __ __ __ __ __ __ __ __ __ __
 72
    65
 73
     2
 40
1.905
 49
1.27
 74
     0
 49
-0.635
 74
     0
  0
LTYPE
  5
6F
330
5
100
AcDbSymbolTableRecord
100
AcDbLinetypeTableRecord
  2
PHANTOM
 70
     0
  3
Phantom ______  __  __  ______  __  __  ______
 72
    65
 73
     6
 40
12.7
 49
6.35
 74
     0
 49
-1.27
 74
     0
 49
1.27
 74
     0
 49
-1.27
 74
     0
 49
1.27
 74
     0
 49
-1.27
 74
     0
  0
LTYPE
  5
70
330
5
100
AcDbSymbolTableRecord
100
AcDbLinetypeTableRecord
  2
CENTER
 70
     0
  3
Center ____ _ ____ _ ____ _ ____ _ ____ _ ____
 72
    65
 73
     4
 40
10.16
 49
6.35
 74
     0
 49
-1.27
 74
     0
 49
1.27
 74
     0
 49
-1.27
 74
     0
  0
LTYPE
  5
71
330
5
100
AcDbSymbolTableRecord
100
AcDbLinetypeTableRecord
  2
CENTERX2
 70
     0
  3
Center (2x) ________  __  ________  __  _____
 72
    65
 73
     4
 40
20.32
 49
12.7
 74
     0
 49
-2.54
 74
     0
 49
2.54
 74
     0
 49
-2.54
 74
     0
  0
LTYPE
  5
72
330
5
100
AcDbSymbolTableRecord
100
AcDbLinetypeTableRecord
  2
DOT2
 70
     0
  3
Dot (.5x) ........................................
 72
    65
 73
     2
 40
0.635
 49
0.0
 74
     0
 49
-0.635
 74
     0
  0
ENDTAB
  0
TABLE
  2
LAYER
  5
2
330
0
100
AcDbSymbolTable
 70
     2
  0
LAYER
  5
10
330
2
100
AcDbSymbolTableRecord
100
AcDbLayerTableRecord
  2
0
 70
     0
 62
     7
  6
Continuous
370
    -3
390
F
  0
LAYER
  5
73
330
2
100
AcDbSymbolTableRecord
100
AcDbLayerTableRecord
  2
FORMAT
 70
     0
 62
     7
  6
Continuous
370
    -3
390
F
  0
ENDTAB
  0
TABLE
  2
STYLE
  5
3
330
0
100
AcDbSymbolTable
 70
     2
  0
STYLE
  5
11
330
3
100
AcDbSymbolTableRecord
100
AcDbTextStyleTableRecord
  2
Standard
 70
     0
 40
0.0
 41
1.0
 50
0.0
 71
     0
 42
3.175
  3
txt
  4

  0
STYLE
  5
B8
330
3
100
AcDbSymbolTableRecord
100
AcDbTextStyleTableRecord
  2
SLDTEXTSTYLE0
 70
     0
 40
0.0
 41
0.7
 50
0.0
 71
     0
 42
3.175
  3
TXT
  4

  0
ENDTAB
  0
TABLE
  2
VIEW
  5
6
330
0
100
AcDbSymbolTable
 70
     0
  0
ENDTAB
  0
TABLE
  2
UCS
  5
7
330
0
100
AcDbSymbolTable
 70
     0
  0
ENDTAB
  0
TABLE
  2
APPID
  5
9
330
0
100
AcDbSymbolTable
 70
     1
  0
APPID
  5
12
330
9
100
AcDbSymbolTableRecord
100
AcDbRegAppTableRecord
  2
ACAD
 70
     0
  0
ENDTAB
  0
TABLE
  2
DIMSTYLE
  5
A
330
0
100
AcDbSymbolTable
 70
     1
100
AcDbDimStyleTable
  0
DIMSTYLE
105
27
330
A
100
AcDbSymbolTableRecord
100
AcDbDimStyleTableRecord
  2
ISO-25
 70
     0
 41
2.5
 42
0.625
 43
3.75
 44
1.25
 73
     0
 74
     0
 77
     1
 78
     8
140
2.5
141
2.5
143
0.0393700787
147
0.625
171
     3
172
     1
178
     0
271
     2
272
     2
274
     3
278
    44
283
     0
284
     8
340
11
  0
ENDTAB
  0
TABLE
  2
BLOCK_RECORD
  5
1
330
0
100
AcDbSymbolTable
 70
    14
  0
BLOCK_RECORD
  5
1F
330
1
100
AcDbSymbolTableRecord
100
AcDbBlockTableRecord
  2
*Model_Space
340
22
  0
BLOCK_RECORD
  5
1B
330
1
100
AcDbSymbolTableRecord
100
AcDbBlockTableRecord
  2
*Paper_Space
340
1E
  0
BLOCK_RECORD
  5
23
330
1
100
AcDbSymbolTableRecord
100
AcDbBlockTableRecord
  2
*Paper_Space0
340
26
  0
BLOCK_RECORD
  5
BB
330
1
100
AcDbSymbolTableRecord
100
AcDbBlockTableRecord
  2
SW_NOTE_0
340
0
102
{BLKREFS
331
C1
102
}
  0
BLOCK_RECORD
  5
C6
330
1
100
AcDbSymbolTableRecord
100
AcDbBlockTableRecord
  2
SW_NOTE_1
340
0
102
{BLKREFS
331
CC
102
}
  0
BLOCK_RECORD
  5
243
330
1
100
AcDbSymbolTableRecord
100
AcDbBlockTableRecord
  2
SW_CENTERMARKSYMBOL_0
340
0
102
{BLKREFS
331
24E
102
}
  0
BLOCK_RECORD
  5
2AF
330
1
100
AcDbSymbolTableRecord
100
AcDbBlockTableRecord
  2
SW_CENTERMARKSYMBOL_1
340
0
102
{BLKREFS
331
2BA
102
}
  0
BLOCK_RECORD
  5
2BB
330
1
100
AcDbSymbolTableRecord
100
AcDbBlockTableRecord
  2
SW_CENTERMARKSYMBOL_2
340
0
102
{BLKREFS
331
2C6
102
}
  0
BLOCK_RECORD
  5
2C7
330
1
100
AcDbSymbolTableRecord
100
AcDbBlockTableRecord
  2
SW_CENTERMARKSYMBOL_3
340
0
102
{BLKREFS
331
2D2
102
}
  0
BLOCK_RECORD
  5
2D3
330
1
100
AcDbSymbolTableRecord
100
AcDbBlockTableRecord
  2
SW_CENTERMARKSYMBOL_4
340
0
102
{BLKREFS
331
2DE
102
}
  0
BLOCK_RECORD
  5
2DF
330
1
100
AcDbSymbolTableRecord
100
AcDbBlockTableRecord
  2
SW_CENTERMARKSYMBOL_5
340
0
102
{BLKREFS
331
2EA
102
}
  0
BLOCK_RECORD
  5
2EB
330
1
100
AcDbSymbolTableRecord
100
AcDbBlockTableRecord
  2
SW_CENTERMARKSYMBOL_6
340
0
102
{BLKREFS
331
2F6
102
}
  0
BLOCK_RECORD
  5
2F7
330
1
100
AcDbSymbolTableRecord
100
AcDbBlockTableRecord
  2
SW_CENTERMARKSYMBOL_7
340
0
102
{BLKREFS
331
302
102
}
  0
BLOCK_RECORD
  5
303
330
1
100
AcDbSymbolTableRecord
100
AcDbBlockTableRecord
  2
SW_CENTERMARKSYMBOL_8
340
0
102
{BLKREFS
331
30E
102
}
  0
BLOCK_RECORD
  5
30F
330
1
100
AcDbSymbolTableRecord
100
AcDbBlockTableRecord
  2
SW_CENTERMARKSYMBOL_9
340
0
102
{BLKREFS
331
31A
102
}
  0
BLOCK_RECORD
  5
489
330
1
100
AcDbSymbolTableRecord
100
AcDbBlockTableRecord
  2
SW_CENTERMARKSYMBOL_10
340
0
102
{BLKREFS
331
494
102
}
  0
ENDTAB
  0
ENDSEC
  0
SECTION
  2
BLOCKS
  0
BLOCK
  5
20
330
1F
100
AcDbEntity
  8
0
100
AcDbBlockBegin
  2
*Model_Space
 70
     0
 10
0.0
 20
0.0
 30
0.0
  3
*Model_Space
  1

  0
ENDBLK
  5
21
330
1F
100
AcDbEntity
  8
0
100
AcDbBlockEnd
  0
BLOCK
  5
1C
330
1B
100
AcDbEntity
 67
     1
  8
0
100
AcDbBlockBegin
  2
*Paper_Space
 70
     0
 10
0.0
 20
0.0
 30
0.0
  3
*Paper_Space
  1

  0
ENDBLK
  5
1D
330
1B
100
AcDbEntity
 67
     1
  8
0
100
AcDbBlockEnd
  0
BLOCK
  5
24
330
23
100
AcDbEntity
  8
0
100
AcDbBlockBegin
  2
*Paper_Space0
 70
     0
 10
0.0
 20
0.0
 30
0.0
  3
*Paper_Space0
  1

  0
ENDBLK
  5
25
330
23
100
AcDbEntity
  8
0
100
AcDbBlockEnd
  0
BLOCK
  5
BC
330
BB
100
AcDbEntity
  8
0
100
AcDbBlockBegin
  2
SW_NOTE_0
 70
     0
 10
0.0
 20
0.0
 30
0.0
  3
SW_NOTE_0
  1

  0
MTEXT
  5
BE
330
BB
100
AcDbEntity
  8
0
  6
Continuous
 62
     0
370
     0
100
AcDbMText
 10
0.0
 20
2.0463950369
 30
0.0
 40
1.5875
 41
0.0
 71
     1
 72
     1
  1
87 34th Street, Unit 11, Brooklyn, NY 11232
  7
SLDTEXTSTYLE0
 73
     1
 44
1.0
  0
MTEXT
  5
BF
330
BB
100
AcDbEntity
  8
0
  6
Continuous
 62
     0
370
     0
100
AcDbMText
 10
0.0
 20
-0.0702716042
 30
0.0
 40
1.5875
 41
0.0
 71
     1
 72
     1
  1
T +1 718-387-6132
  7
SLDTEXTSTYLE0
 73
     1
 44
1.0
  0
MTEXT
  5
C0
330
BB
100
AcDbEntity
  8
0
  6
Continuous
 62
     0
370
     0
100
AcDbMText
 10
0.0
 20
-2.1869382453
 30
0.0
 40
1.5875
 41
0.0
 71
     1
 72
     1
  1
www.rollandhill.com
  7
SLDTEXTSTYLE0
 73
     1
 44
1.0
  0
ENDBLK
  5
BD
330
BB
100
AcDbEntity
  8
0
100
AcDbBlockEnd
  0
BLOCK
  5
C7
330
C6
100
AcDbEntity
  8
0
100
AcDbBlockBegin
  2
SW_NOTE_1
 70
     0
 10
0.0
 20
0.0
 30
0.0
  3
SW_NOTE_1
  1

  0
MTEXT
  5
C9
330
C6
100
AcDbEntity
  8
0
  6
Continuous
 62
     0
370
     0
100
AcDbMText
 10
0.0
 20
2.0463950369
 30
0.0
 40
1.5875
 41
0.0
 71
     1
 72
     1
  1
\LPROPRIETARY AND CONFIDENTIAL
  7
SLDTEXTSTYLE0
 73
     1
 44
1.0
  0
MTEXT
  5
CA
330
C6
100
AcDbEntity
  8
0
  6
Continuous
 62
     0
370
     0
100
AcDbMText
 10
37.3117625713
 20
2.0463950369
 30
0.0
 40
1.5875
 41
0.0
 71
     1
 72
     1
  1
THE INFORMATION CONTAINED IN THIS DRAWING IS THE SOLE PROPERTY OF ROLL & HILL LLC. ANY REPRODUCTION IN
  7
SLDTEXTSTYLE0
 73
     1
 44
1.0
  0
MTEXT
  5
CB
330
C6
100
AcDbEntity
  8
0
  6
Continuous
 62
     0
370
     0
100
AcDbMText
 10
0.0
 20
-0.0702716042
 30
0.0
 40
1.5875
 41
0.0
 71
     1
 72
     1
  1
PART OR AS A WHOLE WITHOUT THE WRITTEN PERMISSION OF ROLL & HILL LLC. IS PROHIBITED.
  7
SLDTEXTSTYLE0
 73
     1
 44
1.0
  0
ENDBLK
  5
C8
330
C6
100
AcDbEntity
  8
0
100
AcDbBlockEnd
  0
BLOCK
  5
244
330
243
100
AcDbEntity
  8
0
100
AcDbBlockBegin
  2
SW_CENTERMARKSYMBOL_0
 70
     0
 10
0.0
 20
0.0
 30
0.0
  3
SW_CENTERMARKSYMBOL_0
  1

  0
LINE
  5
246
330
243
100
AcDbEntity
  8
0
  6
Continuous
 62
     0
370
     0
100
AcDbLine
 10
0.0
 20
0.0
 30
0.0
 11
0.0
 21
0.127
 31
0.0
  0
LINE
  5
247
330
243
100
AcDbEntity
  8
0
  6
Continuous
 62
     0
370
     0
100
AcDbLine
 10
0.0
 20
0.0
 30
0.0
 11
-0.127
 21
0.0
 31
0.0
  0
LINE
  5
248
330
243
100
AcDbEntity
  8
0
  6
Continuous
 62
     0
370
     0
100
AcDbLine
 10
0.0
 20
0.0
 30
0.0
 11
0.0
 21
-0.127
 31
0.0
  0
LINE
  5
249
330
243
100
AcDbEntity
  8
0
  6
Continuous
 62
     0
370
     0
100
AcDbLine
 10
0.0
 20
0.0
 30
0.0
 11
0.127
 21
0.0
 31
0.0
  0
LINE
  5
24A
330
243
100
AcDbEntity
  8
0
  6
Continuous
 62
     0
370
     0
100
AcDbLine
 10
0.0
 20
0.254
 30
0.0
 11
0.0
 21
2.3495
 31
0.0
  0
LINE
  5
24B
330
243
100
AcDbEntity
  8
0
  6
Continuous
 62
     0
370
     0
100
AcDbLine
 10
-0.254
 20
0.0
 30
0.0
 11
-2.3495
 21
0.0
 31
0.0
  0
LINE
  5
24C
330
243
100
AcDbEntity
  8
0
  6
Continuous
 62
     0
370
     0
100
AcDbLine
 10
0.0
 20
-0.254
 30
0.0
 11
0.0
 21
-2.3495
 31
0.0
  0
LINE
  5
24D
330
243
100
AcDbEntity
  8
0
  6
Continuous
 62
     0
370
     0
100
AcDbLine
 10
0.254
 20
0.0
 30
0.0
 11
2.3495
 21
0.0
 31
0.0
  0
ENDBLK
  5
245
330
243
100
AcDbEntity
  8
0
100
AcDbBlockEnd
  0
BLOCK
  5
2B0
330
2AF
100
AcDbEntity
  8
0
100
AcDbBlockBegin
  2
SW_CENTERMARKSYMBOL_1
 70
     0
 10
0.0
 20
0.0
 30
0.0
  3
SW_CENTERMARKSYMBOL_1
  1

  0
LINE
  5
2B2
330
2AF
100
AcDbEntity
  8
0
  6
Continuous
 62
     0
370
     0
100
AcDbLine
 10
0.0
 20
0.0
 30
0.0
 11
0.0
 21
0.127
 31
0.0
  0
LINE
  5
2B3
330
2AF
100
AcDbEntity
  8
0
  6
Continuous
 62
     0
370
     0
100
AcDbLine
 10
0.0
 20
0.0
 30
0.0
 11
-0.127
 21
0.0
 31
0.0
  0
LINE
  5
2B4
330
2AF
100
AcDbEntity
  8
0
  6
Continuous
 62
     0
370
     0
100
AcDbLine
 10
0.0
 20
0.0
 30
0.0
 11
0.0
 21
-0.127
 31
0.0
  0
LINE
  5
2B5
330
2AF
100
AcDbEntity
  8
0
  6
Continuous
 62
     0
370
     0
100
AcDbLine
 10
0.0
 20
0.0
 30
0.0
 11
0.127
 21
0.0
 31
0.0
  0
LINE
  5
2B6
330
2AF
100
AcDbEntity
  8
0
  6
Continuous
 62
     0
370
     0
100
AcDbLine
 10
0.0
 20
0.254
 30
0.0
 11
0.0
 21
3.302
 31
0.0
  0
LINE
  5
2B7
330
2AF
100
AcDbEntity
  8
0
  6
Continuous
 62
     0
370
     0
100
AcDbLine
 10
-0.254
 20
0.0
 30
0.0
 11
-3.302
 21
0.0
 31
0.0
  0
LINE
  5
2B8
330
2AF
100
AcDbEntity
  8
0
  6
Continuous
 62
     0
370
     0
100
AcDbLine
 10
0.0
 20
-0.254
 30
0.0
 11
0.0
 21
-3.302
 31
0.0
  0
LINE
  5
2B9
330
2AF
100
AcDbEntity
  8
0
  6
Continuous
 62
     0
370
     0
100
AcDbLine
 10
0.254
 20
0.0
 30
0.0
 11
3.302
 21
0.0
 31
0.0
  0
ENDBLK
  5
2B1
330
2AF
100
AcDbEntity
  8
0
100
AcDbBlockEnd
  0
BLOCK
  5
2BC
330
2BB
100
AcDbEntity
  8
0
100
AcDbBlockBegin
  2
SW_CENTERMARKSYMBOL_2
 70
     0
 10
0.0
 20
0.0
 30
0.0
  3
SW_CENTERMARKSYMBOL_2
  1

  0
LINE
  5
2BE
330
2BB
100
AcDbEntity
  8
0
  6
Continuous
 62
     0
370
     0
100
AcDbLine
 10
0.0
 20
0.0
 30
0.0
 11
0.0
 21
0.127
 31
0.0
  0
LINE
  5
2BF
330
2BB
100
AcDbEntity
  8
0
  6
Continuous
 62
     0
370
     0
100
AcDbLine
 10
0.0
 20
0.0
 30
0.0
 11
-0.127
 21
0.0
 31
0.0
  0
LINE
  5
2C0
330
2BB
100
AcDbEntity
  8
0
  6
Continuous
 62
     0
370
     0
100
AcDbLine
 10
0.0
 20
0.0
 30
0.0
 11
0.0
 21
-0.127
 31
0.0
  0
LINE
  5
2C1
330
2BB
100
AcDbEntity
  8
0
  6
Continuous
 62
     0
370
     0
100
AcDbLine
 10
0.0
 20
0.0
 30
0.0
 11
0.127
 21
0.0
 31
0.0
  0
LINE
  5
2C2
330
2BB
100
AcDbEntity
  8
0
  6
Continuous
 62
     0
370
     0
100
AcDbLine
 10
0.0
 20
0.254
 30
0.0
 11
0.0
 21
2.3495
 31
0.0
  0
LINE
  5
2C3
330
2BB
100
AcDbEntity
  8
0
  6
Continuous
 62
     0
370
     0
100
AcDbLine
 10
-0.254
 20
0.0
 30
0.0
 11
-2.3495
 21
0.0
 31
0.0
  0
LINE
  5
2C4
330
2BB
100
AcDbEntity
  8
0
  6
Continuous
 62
     0
370
     0
100
AcDbLine
 10
0.0
 20
-0.254
 30
0.0
 11
0.0
 21
-2.3495
 31
0.0
  0
LINE
  5
2C5
330
2BB
100
AcDbEntity
  8
0
  6
Continuous
 62
     0
370
     0
100
AcDbLine
 10
0.254
 20
0.0
 30
0.0
 11
2.3495
 21
0.0
 31
0.0
  0
ENDBLK
  5
2BD
330
2BB
100
AcDbEntity
  8
0
100
AcDbBlockEnd
  0
BLOCK
  5
2C8
330
2C7
100
AcDbEntity
  8
0
100
AcDbBlockBegin
  2
SW_CENTERMARKSYMBOL_3
 70
     0
 10
0.0
 20
0.0
 30
0.0
  3
SW_CENTERMARKSYMBOL_3
  1

  0
LINE
  5
2CA
330
2C7
100
AcDbEntity
  8
0
  6
Continuous
 62
     0
370
     0
100
AcDbLine
 10
0.0
 20
0.0
 30
0.0
 11
0.0
 21
0.127
 31
0.0
  0
LINE
  5
2CB
330
2C7
100
AcDbEntity
  8
0
  6
Continuous
 62
     0
370
     0
100
AcDbLine
 10
0.0
 20
0.0
 30
0.0
 11
-0.127
 21
0.0
 31
0.0
  0
LINE
  5
2CC
330
2C7
100
AcDbEntity
  8
0
  6
Continuous
 62
     0
370
     0
100
AcDbLine
 10
0.0
 20
0.0
 30
0.0
 11
0.0
 21
-0.127
 31
0.0
  0
LINE
  5
2CD
330
2C7
100
AcDbEntity
  8
0
  6
Continuous
 62
     0
370
     0
100
AcDbLine
 10
0.0
 20
0.0
 30
0.0
 11
0.127
 21
0.0
 31
0.0
  0
LINE
  5
2CE
330
2C7
100
AcDbEntity
  8
0
  6
Continuous
 62
     0
370
     0
100
AcDbLine
 10
0.0
 20
0.254
 30
0.0
 11
0.0
 21
2.3495
 31
0.0
  0
LINE
  5
2CF
330
2C7
100
AcDbEntity
  8
0
  6
Continuous
 62
     0
370
     0
100
AcDbLine
 10
-0.254
 20
0.0
 30
0.0
 11
-2.3495
 21
0.0
 31
0.0
  0
LINE
  5
2D0
330
2C7
100
AcDbEntity
  8
0
  6
Continuous
 62
     0
370
     0
100
AcDbLine
 10
0.0
 20
-0.254
 30
0.0
 11
0.0
 21
-2.3495
 31
0.0
  0
LINE
  5
2D1
330
2C7
100
AcDbEntity
  8
0
  6
Continuous
 62
     0
370
     0
100
AcDbLine
 10
0.254
 20
0.0
 30
0.0
 11
2.3495
 21
0.0
 31
0.0
  0
ENDBLK
  5
2C9
330
2C7
100
AcDbEntity
  8
0
100
AcDbBlockEnd
  0
BLOCK
  5
2D4
330
2D3
100
AcDbEntity
  8
0
100
AcDbBlockBegin
  2
SW_CENTERMARKSYMBOL_4
 70
     0
 10
0.0
 20
0.0
 30
0.0
  3
SW_CENTERMARKSYMBOL_4
  1

  0
LINE
  5
2D6
330
2D3
100
AcDbEntity
  8
0
  6
Continuous
 62
     0
370
     0
100
AcDbLine
 10
0.0
 20
0.0
 30
0.0
 11
0.0
 21
0.127
 31
0.0
  0
LINE
  5
2D7
330
2D3
100
AcDbEntity
  8
0
  6
Continuous
 62
     0
370
     0
100
AcDbLine
 10
0.0
 20
0.0
 30
0.0
 11
-0.127
 21
0.0
 31
0.0
  0
LINE
  5
2D8
330
2D3
100
AcDbEntity
  8
0
  6
Continuous
 62
     0
370
     0
100
AcDbLine
 10
0.0
 20
0.0
 30
0.0
 11
0.0
 21
-0.127
 31
0.0
  0
LINE
  5
2D9
330
2D3
100
AcDbEntity
  8
0
  6
Continuous
 62
     0
370
     0
100
AcDbLine
 10
0.0
 20
0.0
 30
0.0
 11
0.127
 21
0.0
 31
0.0
  0
LINE
  5
2DA
330
2D3
100
AcDbEntity
  8
0
  6
Continuous
 62
     0
370
     0
100
AcDbLine
 10
0.0
 20
0.254
 30
0.0
 11
0.0
 21
2.3495
 31
0.0
  0
LINE
  5
2DB
330
2D3
100
AcDbEntity
  8
0
  6
Continuous
 62
     0
370
     0
100
AcDbLine
 10
-0.254
 20
0.0
 30
0.0
 11
-2.3495
 21
0.0
 31
0.0
  0
LINE
  5
2DC
330
2D3
100
AcDbEntity
  8
0
  6
Continuous
 62
     0
370
     0
100
AcDbLine
 10
0.0
 20
-0.254
 30
0.0
 11
0.0
 21
-2.3495
 31
0.0
  0
LINE
  5
2DD
330
2D3
100
AcDbEntity
  8
0
  6
Continuous
 62
     0
370
     0
100
AcDbLine
 10
0.254
 20
0.0
 30
0.0
 11
2.3495
 21
0.0
 31
0.0
  0
ENDBLK
  5
2D5
330
2D3
100
AcDbEntity
  8
0
100
AcDbBlockEnd
  0
BLOCK
  5
2E0
330
2DF
100
AcDbEntity
  8
0
100
AcDbBlockBegin
  2
SW_CENTERMARKSYMBOL_5
 70
     0
 10
0.0
 20
0.0
 30
0.0
  3
SW_CENTERMARKSYMBOL_5
  1

  0
LINE
  5
2E2
330
2DF
100
AcDbEntity
  8
0
  6
Continuous
 62
     0
370
     0
100
AcDbLine
 10
0.0
 20
0.0
 30
0.0
 11
0.0
 21
0.127
 31
0.0
  0
LINE
  5
2E3
330
2DF
100
AcDbEntity
  8
0
  6
Continuous
 62
     0
370
     0
100
AcDbLine
 10
0.0
 20
0.0
 30
0.0
 11
-0.127
 21
0.0
 31
0.0
  0
LINE
  5
2E4
330
2DF
100
AcDbEntity
  8
0
  6
Continuous
 62
     0
370
     0
100
AcDbLine
 10
0.0
 20
0.0
 30
0.0
 11
0.0
 21
-0.127
 31
0.0
  0
LINE
  5
2E5
330
2DF
100
AcDbEntity
  8
0
  6
Continuous
 62
     0
370
     0
100
AcDbLine
 10
0.0
 20
0.0
 30
0.0
 11
0.127
 21
0.0
 31
0.0
  0
LINE
  5
2E6
330
2DF
100
AcDbEntity
  8
0
  6
Continuous
 62
     0
370
     0
100
AcDbLine
 10
0.0
 20
0.254
 30
0.0
 11
0.0
 21
2.3495
 31
0.0
  0
LINE
  5
2E7
330
2DF
100
AcDbEntity
  8
0
  6
Continuous
 62
     0
370
     0
100
AcDbLine
 10
-0.254
 20
0.0
 30
0.0
 11
-2.3495
 21
0.0
 31
0.0
  0
LINE
  5
2E8
330
2DF
100
AcDbEntity
  8
0
  6
Continuous
 62
     0
370
     0
100
AcDbLine
 10
0.0
 20
-0.254
 30
0.0
 11
0.0
 21
-2.3495
 31
0.0
  0
LINE
  5
2E9
330
2DF
100
AcDbEntity
  8
0
  6
Continuous
 62
     0
370
     0
100
AcDbLine
 10
0.254
 20
0.0
 30
0.0
 11
2.3495
 21
0.0
 31
0.0
  0
ENDBLK
  5
2E1
330
2DF
100
AcDbEntity
  8
0
100
AcDbBlockEnd
  0
BLOCK
  5
2EC
330
2EB
100
AcDbEntity
  8
0
100
AcDbBlockBegin
  2
SW_CENTERMARKSYMBOL_6
 70
     0
 10
0.0
 20
0.0
 30
0.0
  3
SW_CENTERMARKSYMBOL_6
  1

  0
LINE
  5
2EE
330
2EB
100
AcDbEntity
  8
0
  6
Continuous
 62
     0
370
     0
100
AcDbLine
 10
0.0
 20
0.0
 30
0.0
 11
0.0
 21
0.127
 31
0.0
  0
LINE
  5
2EF
330
2EB
100
AcDbEntity
  8
0
  6
Continuous
 62
     0
370
     0
100
AcDbLine
 10
0.0
 20
0.0
 30
0.0
 11
-0.127
 21
0.0
 31
0.0
  0
LINE
  5
2F0
330
2EB
100
AcDbEntity
  8
0
  6
Continuous
 62
     0
370
     0
100
AcDbLine
 10
0.0
 20
0.0
 30
0.0
 11
0.0
 21
-0.127
 31
0.0
  0
LINE
  5
2F1
330
2EB
100
AcDbEntity
  8
0
  6
Continuous
 62
     0
370
     0
100
AcDbLine
 10
0.0
 20
0.0
 30
0.0
 11
0.127
 21
0.0
 31
0.0
  0
LINE
  5
2F2
330
2EB
100
AcDbEntity
  8
0
  6
Continuous
 62
     0
370
     0
100
AcDbLine
 10
0.0
 20
0.254
 30
0.0
 11
0.0
 21
2.3495
 31
0.0
  0
LINE
  5
2F3
330
2EB
100
AcDbEntity
  8
0
  6
Continuous
 62
     0
370
     0
100
AcDbLine
 10
-0.254
 20
0.0
 30
0.0
 11
-2.3495
 21
0.0
 31
0.0
  0
LINE
  5
2F4
330
2EB
100
AcDbEntity
  8
0
  6
Continuous
 62
     0
370
     0
100
AcDbLine
 10
0.0
 20
-0.254
 30
0.0
 11
0.0
 21
-2.3495
 31
0.0
  0
LINE
  5
2F5
330
2EB
100
AcDbEntity
  8
0
  6
Continuous
 62
     0
370
     0
100
AcDbLine
 10
0.254
 20
0.0
 30
0.0
 11
2.3495
 21
0.0
 31
0.0
  0
ENDBLK
  5
2ED
330
2EB
100
AcDbEntity
  8
0
100
AcDbBlockEnd
  0
BLOCK
  5
2F8
330
2F7
100
AcDbEntity
  8
0
100
AcDbBlockBegin
  2
SW_CENTERMARKSYMBOL_7
 70
     0
 10
0.0
 20
0.0
 30
0.0
  3
SW_CENTERMARKSYMBOL_7
  1

  0
LINE
  5
2FA
330
2F7
100
AcDbEntity
  8
0
  6
Continuous
 62
     0
370
     0
100
AcDbLine
 10
0.0
 20
0.0
 30
0.0
 11
0.0
 21
0.127
 31
0.0
  0
LINE
  5
2FB
330
2F7
100
AcDbEntity
  8
0
  6
Continuous
 62
     0
370
     0
100
AcDbLine
 10
0.0
 20
0.0
 30
0.0
 11
-0.127
 21
0.0
 31
0.0
  0
LINE
  5
2FC
330
2F7
100
AcDbEntity
  8
0
  6
Continuous
 62
     0
370
     0
100
AcDbLine
 10
0.0
 20
0.0
 30
0.0
 11
0.0
 21
-0.127
 31
0.0
  0
LINE
  5
2FD
330
2F7
100
AcDbEntity
  8
0
  6
Continuous
 62
     0
370
     0
100
AcDbLine
 10
0.0
 20
0.0
 30
0.0
 11
0.127
 21
0.0
 31
0.0
  0
LINE
  5
2FE
330
2F7
100
AcDbEntity
  8
0
  6
Continuous
 62
     0
370
     0
100
AcDbLine
 10
0.0
 20
0.254
 30
0.0
 11
0.0
 21
2.3495
 31
0.0
  0
LINE
  5
2FF
330
2F7
100
AcDbEntity
  8
0
  6
Continuous
 62
     0
370
     0
100
AcDbLine
 10
-0.254
 20
0.0
 30
0.0
 11
-2.3495
 21
0.0
 31
0.0
  0
LINE
  5
300
330
2F7
100
AcDbEntity
  8
0
  6
Continuous
 62
     0
370
     0
100
AcDbLine
 10
0.0
 20
-0.254
 30
0.0
 11
0.0
 21
-2.3495
 31
0.0
  0
LINE
  5
301
330
2F7
100
AcDbEntity
  8
0
  6
Continuous
 62
     0
370
     0
100
AcDbLine
 10
0.254
 20
0.0
 30
0.0
 11
2.3495
 21
0.0
 31
0.0
  0
ENDBLK
  5
2F9
330
2F7
100
AcDbEntity
  8
0
100
AcDbBlockEnd
  0
BLOCK
  5
304
330
303
100
AcDbEntity
  8
0
100
AcDbBlockBegin
  2
SW_CENTERMARKSYMBOL_8
 70
     0
 10
0.0
 20
0.0
 30
0.0
  3
SW_CENTERMARKSYMBOL_8
  1

  0
LINE
  5
306
330
303
100
AcDbEntity
  8
0
  6
Continuous
 62
     0
370
     0
100
AcDbLine
 10
0.0
 20
0.0
 30
0.0
 11
0.0
 21
0.127
 31
0.0
  0
LINE
  5
307
330
303
100
AcDbEntity
  8
0
  6
Continuous
 62
     0
370
     0
100
AcDbLine
 10
0.0
 20
0.0
 30
0.0
 11
-0.127
 21
0.0
 31
0.0
  0
LINE
  5
308
330
303
100
AcDbEntity
  8
0
  6
Continuous
 62
     0
370
     0
100
AcDbLine
 10
0.0
 20
0.0
 30
0.0
 11
0.0
 21
-0.127
 31
0.0
  0
LINE
  5
309
330
303
100
AcDbEntity
  8
0
  6
Continuous
 62
     0
370
     0
100
AcDbLine
 10
0.0
 20
0.0
 30
0.0
 11
0.127
 21
0.0
 31
0.0
  0
LINE
  5
30A
330
303
100
AcDbEntity
  8
0
  6
Continuous
 62
     0
370
     0
100
AcDbLine
 10
0.0
 20
0.254
 30
0.0
 11
0.0
 21
2.3495
 31
0.0
  0
LINE
  5
30B
330
303
100
AcDbEntity
  8
0
  6
Continuous
 62
     0
370
     0
100
AcDbLine
 10
-0.254
 20
0.0
 30
0.0
 11
-2.3495
 21
0.0
 31
0.0
  0
LINE
  5
30C
330
303
100
AcDbEntity
  8
0
  6
Continuous
 62
     0
370
     0
100
AcDbLine
 10
0.0
 20
-0.254
 30
0.0
 11
0.0
 21
-2.3495
 31
0.0
  0
LINE
  5
30D
330
303
100
AcDbEntity
  8
0
  6
Continuous
 62
     0
370
     0
100
AcDbLine
 10
0.254
 20
0.0
 30
0.0
 11
2.3495
 21
0.0
 31
0.0
  0
ENDBLK
  5
305
330
303
100
AcDbEntity
  8
0
100
AcDbBlockEnd
  0
BLOCK
  5
310
330
30F
100
AcDbEntity
  8
0
100
AcDbBlockBegin
  2
SW_CENTERMARKSYMBOL_9
 70
     0
 10
0.0
 20
0.0
 30
0.0
  3
SW_CENTERMARKSYMBOL_9
  1

  0
LINE
  5
312
330
30F
100
AcDbEntity
  8
0
  6
Continuous
 62
     0
370
     0
100
AcDbLine
 10
0.0
 20
0.0
 30
0.0
 11
0.0
 21
0.127
 31
0.0
  0
LINE
  5
313
330
30F
100
AcDbEntity
  8
0
  6
Continuous
 62
     0
370
     0
100
AcDbLine
 10
0.0
 20
0.0
 30
0.0
 11
-0.127
 21
0.0
 31
0.0
  0
LINE
  5
314
330
30F
100
AcDbEntity
  8
0
  6
Continuous
 62
     0
370
     0
100
AcDbLine
 10
0.0
 20
0.0
 30
0.0
 11
0.0
 21
-0.127
 31
0.0
  0
LINE
  5
315
330
30F
100
AcDbEntity
  8
0
  6
Continuous
 62
     0
370
     0
100
AcDbLine
 10
0.0
 20
0.0
 30
0.0
 11
0.127
 21
0.0
 31
0.0
  0
LINE
  5
316
330
30F
100
AcDbEntity
  8
0
  6
Continuous
 62
     0
370
     0
100
AcDbLine
 10
0.0
 20
0.254
 30
0.0
 11
0.0
 21
2.3495
 31
0.0
  0
LINE
  5
317
330
30F
100
AcDbEntity
  8
0
  6
Continuous
 62
     0
370
     0
100
AcDbLine
 10
-0.254
 20
0.0
 30
0.0
 11
-2.3495
 21
0.0
 31
0.0
  0
LINE
  5
318
330
30F
100
AcDbEntity
  8
0
  6
Continuous
 62
     0
370
     0
100
AcDbLine
 10
0.0
 20
-0.254
 30
0.0
 11
0.0
 21
-2.3495
 31
0.0
  0
LINE
  5
319
330
30F
100
AcDbEntity
  8
0
  6
Continuous
 62
     0
370
     0
100
AcDbLine
 10
0.254
 20
0.0
 30
0.0
 11
2.3495
 21
0.0
 31
0.0
  0
ENDBLK
  5
311
330
30F
100
AcDbEntity
  8
0
100
AcDbBlockEnd
  0
BLOCK
  5
48A
330
489
100
AcDbEntity
  8
0
100
AcDbBlockBegin
  2
SW_CENTERMARKSYMBOL_10
 70
     0
 10
0.0
 20
0.0
 30
0.0
  3
SW_CENTERMARKSYMBOL_10
  1

  0
LINE
  5
48C
330
489
100
AcDbEntity
  8
0
  6
Continuous
 62
     0
370
     0
100
AcDbLine
 10
0.0
 20
0.0
 30
0.0
 11
0.0
 21
0.127
 31
0.0
  0
LINE
  5
48D
330
489
100
AcDbEntity
  8
0
  6
Continuous
 62
     0
370
     0
100
AcDbLine
 10
0.0
 20
0.0
 30
0.0
 11
-0.127
 21
0.0
 31
0.0
  0
LINE
  5
48E
330
489
100
AcDbEntity
  8
0
  6
Continuous
 62
     0
370
     0
100
AcDbLine
 10
0.0
 20
0.0
 30
0.0
 11
0.0
 21
-0.127
 31
0.0
  0
LINE
  5
48F
330
489
100
AcDbEntity
  8
0
  6
Continuous
 62
     0
370
     0
100
AcDbLine
 10
0.0
 20
0.0
 30
0.0
 11
0.127
 21
0.0
 31
0.0
  0
LINE
  5
490
330
489
100
AcDbEntity
  8
0
  6
Continuous
 62
     0
370
     0
100
AcDbLine
 10
0.0
 20
0.254
 30
0.0
 11
0.0
 21
2.3495
 31
0.0
  0
LINE
  5
491
330
489
100
AcDbEntity
  8
0
  6
Continuous
 62
     0
370
     0
100
AcDbLine
 10
-0.254
 20
0.0
 30
0.0
 11
-2.3495
 21
0.0
 31
0.0
  0
LINE
  5
492
330
489
100
AcDbEntity
  8
0
  6
Continuous
 62
     0
370
     0
100
AcDbLine
 10
0.0
 20
-0.254
 30
0.0
 11
0.0
 21
-2.3495
 31
0.0
  0
LINE
  5
493
330
489
100
AcDbEntity
  8
0
  6
Continuous
 62
     0
370
     0
100
AcDbLine
 10
0.254
 20
0.0
 30
0.0
 11
2.3495
 21
0.0
 31
0.0
  0
ENDBLK
  5
48B
330
489
100
AcDbEntity
  8
0
100
AcDbBlockEnd
  0
ENDSEC
  0
SECTION
  2
ENTITIES
  0
HATCH
  5
74
330
1F
100
AcDbEntity
  8
0
  6
Continuous
 62
     7
100
AcDbHatch
 10
0.0
 20
0.0
 30
0.0
210
0.0
220
0.0
230
1.0
  2
SOLID
 70
     1
 71
     0
 91
        2
 92
        0
 93
        6
 72
     4
 94
        3
 73
     1
 74
     0
 95
       20
 96
       16
 40
0.0
 40
0.0
 40
0.0
 40
0.0
 40
1.0
 40
1.0
 40
1.0
 40
2.0
 40
2.0
 40
2.0
 40
3.0
 40
3.0
 40
3.0
 40
4.0
 40
4.0
 40
4.0
 40
5.0
 40
5.0
 40
5.0
 40
5.0
 10
261.0219043336847
 20
23.63056361828031
 42
1.0
 10
261.2341319795987
 20
23.68742184709604
 42
1.0
 10
261.3945785321864
 20
23.72473719781129
 42
1.0
 10
261.5515161764629
 20
23.77337299628437
 42
1.0
 10
262.5617362220245
 20
24.08644572151765
 42
1.0
 10
262.9966382899503
 20
24.76217905347502
 42
1.0
 10
262.9131259646454
 20
25.88395655371281
 42
1.0
 10
262.8488620904764
 20
26.74717259793779
 42
1.0
 10
262.3071445332423
 20
27.30037799580671
 42
1.0
 10
261.2989762515715
 20
27.40941936834727
 42
1.0
 10
260.5093946232761
 20
27.49481913962259
 42
1.0
 10
259.7094699986221
 20
27.48819126576296
 42
1.0
 10
258.913837050576
 20
27.51251762112626
 42
1.0
 10
258.5159962651877
 20
27.52468175973202
 42
1.0
 10
258.1174764912431
 20
27.51463645747964
 42
1.0
 10
257.7192638284546
 20
27.51463645747964
 42
1.0
 72
     4
 94
        3
 73
     1
 74
     0
 95
       14
 96
       10
 40
17.0
 40
17.0
 40
17.0
 40
17.0
 40
18.0
 40
18.0
 40
18.0
 40
19.0
 40
19.0
 40
19.0
 40
20.0
 40
20.0
 40
20.0
 40
20.0
 10
257.7192638284546
 20
27.51463645747964
 42
1.0
 10
258.2057453879524
 20
27.36893835120056
 42
1.0
 10
258.4151924094879
 20
27.04153921726714
 42
1.0
 10
258.4151320634913
 20
26.55729487989966
 42
1.0
 10
258.4149081683119
 20
24.76100595804667
 42
1.0
 10
258.4191609275175
 20
22.96470127704905
 42
1.0
 10
258.4124688639662
 20
21.16843695483816
 42
1.0
 10
258.4104423723632
 20
20.62446660851326
 42
1.0
 10
258.2139995287706
 20
20.39587059142628
 42
1.0
 10
257.7053577757453
 20
20.25910042553502
 42
1.0
 72
     1
 10
257.7053577757453
 20
20.25910042553502
 11
260.1134120717832
 21
20.25910042553502
 72
     4
 94
        3
 73
     1
 74
     0
 95
       14
 96
       10
 40
13.0
 40
13.0
 40
13.0
 40
13.0
 40
14.0
 40
14.0
 40
14.0
 40
15.0
 40
15.0
 40
15.0
 40
16.0
 40
16.0
 40
16.0
 40
16.0
 10
260.1134120717832
 20
20.25910042553502
 42
1.0
 10
259.6377614656041
 20
20.40079128856704
 42
1.0
 10
259.4435911100346
 20
20.64162793377141
 42
1.0
 10
259.4408326829897
 20
21.14221143023692
 42
1.0
 10
259.4366701545022
 20
21.89763799307775
 42
1.0
 10
259.4392191002215
 20
22.65310606781492
 42
1.0
 10
259.4405559370167
 20
23.40855338660287
 42
1.0
 10
259.4406539512153
 20
23.46398560492077
 42
1.0
 10
259.4539911852495
 20
23.51939476107442
 42
1.0
 10
259.4607286043899
 20
23.57138302951071
 42
1.0
 72
     4
 94
        3
 73
     1
 74
     0
 95
       20
 96
       16
 40
8.0
 40
8.0
 40
8.0
 40
8.0
 40
9.0
 40
9.0
 40
9.0
 40
10.0
 40
10.0
 40
10.0
 40
11.0
 40
11.0
 40
11.0
 40
12.0
 40
12.0
 40
12.0
 40
13.0
 40
13.0
 40
13.0
 40
13.0
 10
259.4607286043899
 20
23.57138302951071
 42
1.0
 10
260.3725694925604
 20
23.65083910446931
 42
1.0
 10
260.6054131759577
 20
23.52556773374194
 42
1.0
 10
261.0037355762117
 20
22.71920223094413
 42
1.0
 10
261.378026816807
 20
21.9614848264415
 42
1.0
 10
261.7451764738302
 20
21.200166649339
 42
1.0
 10
262.1067370153144
 20
20.43629933433309
 42
1.0
 10
262.1765046750147
 20
20.28890135435546
 42
1.0
 10
262.2549406335689
 20
20.22203337745712
 42
1.0
 10
262.427398730108
 20
20.22724465786873
 42
1.0
 10
262.8718696744063
 20
20.24067529366942
 42
1.0
 10
263.3170171088603
 20
20.2311736819415
 42
1.0
 10
263.7618904879274
 20
20.2323936704376
 42
1.0
 10
263.8264337986554
 20
20.23257048036439
 42
1.0
 10
263.8909540472192
 20
20.24131411562171
 42
1.0
 10
263.9554858268652
 20
20.24609336482204
 42
1.0
 72
     4
 94
        3
 73
     1
 74
     0
 95
       14
 96
       10
 40
5.0
 40
5.0
 40
5.0
 40
5.0
 40
6.0
 40
6.0
 40
6.0
 40
7.0
 40
7.0
 40
7.0
 40
8.0
 40
8.0
 40
8.0
 40
8.0
 10
263.9554858268652
 20
20.24609336482204
 42
1.0
 10
263.5606000734738
 20
20.32757122285868
 42
1.0
 10
263.3178377375433
 20
20.57267359973515
 42
1.0
 10
263.1292772534607
 20
20.88520667032095
 42
1.0
 10
262.8739775562312
 20
21.30835818112304
 42
1.0
 10
262.6276890153665
 20
21.7369354504649
 42
1.0
 10
262.3739921385617
 20
22.16106556577572
 42
1.0
 10
262.033208300972
 20
22.73079019980925
 42
1.0
 10
261.7521543160346
 20
23.35408286053947
 42
1.0
 10
261.0219043336847
 20
23.63056361828031
 42
1.0
 97
        0
 92
        0
 93
        2
 72
     1
 10
259.4558811296203
 20
23.74052094311722
 11
259.4558811296203
 21
27.35855230546976
 72
     4
 94
        3
 73
     1
 74
     0
 95
       20
 96
       16
 40
1.0
 40
1.0
 40
1.0
 40
1.0
 40
2.0
 40
2.0
 40
2.0
 40
3.0
 40
3.0
 40
3.0
 40
4.0
 40
4.0
 40
4.0
 40
5.0
 40
5.0
 40
5.0
 40
6.0
 40
6.0
 40
6.0
 40
6.0
 10
259.4558811296203
 20
27.35855230546976
 42
1.0
 10
259.8103733099057
 20
27.35855230546976
 42
1.0
 10
260.1467440101549
 20
27.38072599997261
 42
1.0
 10
260.4792308497364
 20
27.35420547185249
 42
1.0
 10
261.3230227860075
 20
27.28690123567825
 42
1.0
 10
261.7108519014664
 20
26.95476897687368
 42
1.0
 10
261.8164781518313
 20
26.10478869315943
 42
1.0
 10
261.8719876284001
 20
25.65810454981779
 42
1.0
 10
261.8389787525148
 20
25.18024881635489
 42
1.0
 10
261.7413862071132
 20
24.73962656292206
 42
1.0
 10
261.608259863196
 20
24.13857044109259
 42
1.0
 10
261.1506181168165
 20
23.81517009427841
 42
1.0
 10
260.5489927438957
 20
23.74778168120397
 42
1.0
 10
260.1942113256325
 20
23.70804326575078
 42
1.0
 10
259.8313410453958
 20
23.74052094311722
 42
1.0
 10
259.4558811296203
 20
23.74052094311722
 42
1.0
 97
        0
 75
     0
 76
     1
 98
        1
 10
0.0
 20
0.0
  0
HATCH
  5
75
330
1F
100
AcDbEntity
  8
0
  6
Continuous
 62
     7
100
AcDbHatch
 10
0.0
 20
0.0
 30
0.0
210
0.0
220
0.0
230
1.0
  2
SOLID
 70
     1
 71
     0
 91
        2
 92
        0
 93
        2
 72
     4
 94
        3
 73
     1
 74
     0
 95
       14
 96
       10
 40
0.0
 40
0.0
 40
0.0
 40
0.0
 40
1.0
 40
1.0
 40
1.0
 40
2.0
 40
2.0
 40
2.0
 40
3.0
 40
3.0
 40
3.0
 40
3.0
 10
267.2336118279071
 20
20.23490821509466
 42
1.0
 10
268.1650050112285
 20
19.98240211471103
 42
1.0
 10
269.1482911393735
 20
20.33660467264827
 42
1.0
 10
269.7215189161771
 20
21.13111084177937
 42
1.0
 10
270.3723808569537
 20
22.03321892002499
 42
1.0
 10
270.372934348899
 20
23.32205720159637
 42
1.0
 10
269.7103360726668
 20
24.21398909980579
 42
1.0
 10
269.2464106552308
 20
24.83848445240961
 42
1.0
 10
268.6216197225536
 20
25.16033694362372
 42
1.0
 10
267.7758432870376
 20
25.16748813643033
 42
1.0
 72
     4
 94
        3
 73
     1
 74
     0
 95
       14
 96
       10
 40
3.0
 40
3.0
 40
3.0
 40
3.0
 40
4.0
 40
4.0
 40
4.0
 40
5.0
 40
5.0
 40
5.0
 40
6.0
 40
6.0
 40
6.0
 40
6.0
 10
267.7758432870376
 20
25.16748813643033
 42
1.0
 10
266.9062728477855
 20
25.1505801106106
 42
1.0
 10
266.225828300013
 20
24.723612195973
 42
1.0
 10
265.7739382574312
 20
23.92202056120339
 42
1.0
 10
265.4879189885011
 20
23.41465794151554
 42
1.0
 10
265.4259332718035
 20
22.86561853145873
 42
1.0
 10
265.4837047623288
 20
22.29272284982232
 42
1.0
 10
265.5792320909092
 20
21.34541139190241
 42
1.0
 10
266.3034040398354
 20
20.48709452013179
 42
1.0
 10
267.2336118279071
 20
20.23490821509466
 42
1.0
 97
        0
 92
        0
 93
        2
 72
     4
 94
        3
 73
     1
 74
     0
 95
       17
 96
       13
 40
0.0
 40
0.0
 40
0.0
 40
0.0
 40
1.0
 40
1.0
 40
1.0
 40
2.0
 40
2.0
 40
2.0
 40
3.0
 40
3.0
 40
3.0
 40
4.0
 40
4.0
 40
4.0
 40
4.0
 10
266.4699528411193
 20
22.82140374989816
 42
1.0
 10
266.4968487059656
 20
23.23360918874381
 42
1.0
 10
266.5993976948625
 20
23.64490674705059
 42
1.0
 10
266.7072125446274
 20
24.04607386528146
 42
1.0
 10
266.7597204805012
 20
24.2414496033099
 42
1.0
 10
266.882078331128
 20
24.42789874624283
 42
1.0
 10
267.0072628343699
 20
24.59213287496141
 42
1.0
 10
267.4640605055332
 20
25.19142205062979
 42
1.0
 10
268.2143234497673
 20
25.18405330473933
 42
1.0
 10
268.6683621173312
 20
24.58056604641373
 42
1.0
 10
269.0963628325642
 20
24.01168817818241
 42
1.0
 10
269.195680043492
 20
23.34551372899321
 42
1.0
 10
269.218762963826
 20
22.68351122534059
 42
1.0
 72
     4
 94
        3
 73
     1
 74
     0
 95
       17
 96
       13
 40
4.0
 40
4.0
 40
4.0
 40
4.0
 40
5.0
 40
5.0
 40
5.0
 40
6.0
 40
6.0
 40
6.0
 40
7.0
 40
7.0
 40
7.0
 40
8.0
 40
8.0
 40
8.0
 40
8.0
 10
269.218762963826
 20
22.68351122534059
 42
1.0
 10
269.202432645224
 20
22.05765558940843
 42
1.0
 10
269.1208448575376
 20
21.47214721006825
 42
1.0
 10
268.810867074766
 20
20.94311038392242
 42
1.0
 10
268.6078393105943
 20
20.5966013640246
 42
1.0
 10
268.3388937306983
 20
20.33416469565678
 42
1.0
 10
267.9076604687568
 20
20.30531315927085
 42
1.0
 10
267.4153070900211
 20
20.27237193240103
 42
1.0
 10
267.1048165584612
 20
20.54785025472892
 42
1.0
 10
266.8746830637486
 20
20.93428603108956
 42
1.0
 10
266.5287029361534
 20
21.51524885782822
 42
1.0
 10
266.4269741915698
 20
22.16270989809668
 42
1.0
 10
266.4699528411193
 20
22.82140374989816
 42
1.0
 97
        0
 75
     0
 76
     1
 98
        1
 10
0.0
 20
0.0
  0
HATCH
  5
76
330
1F
100
AcDbEntity
  8
0
  6
Continuous
 62
     7
100
AcDbHatch
 10
0.0
 20
0.0
 30
0.0
210
0.0
220
0.0
230
1.0
  2
SOLID
 70
     1
 71
     0
 91
        1
 92
        0
 93
        4
 72
     1
 10
273.9540333846496
 20
27.87257450949275
 11
272.4594267850394
 21
27.32510813123116
 72
     4
 94
        3
 73
     1
 74
     0
 95
       14
 96
       10
 40
6.0
 40
6.0
 40
6.0
 40
6.0
 40
7.0
 40
7.0
 40
7.0
 40
8.0
 40
8.0
 40
8.0
 40
9.0
 40
9.0
 40
9.0
 40
9.0
 10
272.4594267850394
 20
27.32510813123116
 42
1.0
 10
272.9826104338649
 20
27.28380667758701
 42
1.0
 10
273.0476395875227
 20
27.23250104921648
 42
1.0
 10
273.0527409382852
 20
26.65700799131587
 42
1.0
 10
273.0685846452182
 20
24.86961337752774
 42
1.0
 10
273.0702866329497
 20
23.08209538116094
 42
1.0
 10
273.0783845276048
 20
21.29462927466367
 42
1.0
 10
273.0805785081768
 20
20.81042375860576
 42
1.0
 10
273.0059923935969
 20
20.37668517687364
 42
1.0
 10
272.426404840594
 20
20.2590796695872
 42
1.0
 72
     1
 10
272.426404840594
 20
20.2590796695872
 11
274.6224502449564
 21
20.2590796695872
 72
     4
 94
        3
 73
     1
 74
     0
 95
       17
 96
       13
 40
1.0
 40
1.0
 40
1.0
 40
1.0
 40
2.0
 40
2.0
 40
2.0
 40
3.0
 40
3.0
 40
3.0
 40
4.0
 40
4.0
 40
4.0
 40
5.0
 40
5.0
 40
5.0
 40
5.0
 10
274.6224502449564
 20
20.2590796695872
 42
1.0
 10
274.1836818051716
 20
20.38260600321025
 42
1.0
 10
274.0006220316647
 20
20.58964274029083
 42
1.0
 10
273.9590578615309
 20
21.04279505200226
 42
1.0
 10
273.9506540088286
 20
21.13443409966764
 42
1.0
 10
273.954217881965
 20
21.22727776105204
 42
1.0
 10
273.9542086570993
 20
21.31956562427539
 42
1.0
 10
273.9539872603212
 20
23.41776441505853
 42
1.0
 10
273.9540349221275
 20
25.51596282147274
 42
1.0
 10
273.9540333846496
 20
27.61416161225588
 42
1.0
 10
273.9540333846496
 20
27.71082379150879
 42
1.0
 10
273.9540333846496
 20
27.8074859707617
 42
1.0
 10
273.9540333846496
 20
27.87257450949275
 42
1.0
 97
        0
 75
     0
 76
     1
 98
        1
 10
0.0
 20
0.0
  0
HATCH
  5
77
330
1F
100
AcDbEntity
  8
0
  6
Continuous
 62
     7
100
AcDbHatch
 10
0.0
 20
0.0
 30
0.0
210
0.0
220
0.0
230
1.0
  2
SOLID
 70
     1
 71
     0
 91
        1
 92
        0
 93
        4
 72
     1
 10
276.9460186560295
 20
20.2549177176549
 11
279.1055120673172
 21
20.2549177176549
 72
     4
 94
        3
 73
     1
 74
     0
 95
       14
 96
       10
 40
6.0
 40
6.0
 40
6.0
 40
6.0
 40
7.0
 40
7.0
 40
7.0
 40
8.0
 40
8.0
 40
8.0
 40
9.0
 40
9.0
 40
9.0
 40
9.0
 10
279.1055120673172
 20
20.2549177176549
 42
1.0
 10
278.6550987719953
 20
20.40793364087759
 42
1.0
 10
278.4823339486704
 20
20.63637283524633
 42
1.0
 10
278.4822124879378
 20
21.11904779232805
 42
1.0
 10
278.4816605334703
 20
23.30086999117493
 42
1.0
 10
278.4819664915176
 20
25.48269219002111
 42
1.0
 10
278.4819649540404
 20
27.66451419668386
 42
1.0
 10
278.4819649540404
 20
27.75219577693941
 42
1.0
 10
278.4819664915176
 20
27.83987735719566
 42
1.0
 10
278.4819664915176
 20
27.88441039662488
 42
1.0
 72
     1
 10
278.4819664915176
 20
27.88441039662488
 11
276.9846800684063
 21
27.3296354262854
 72
     4
 94
        3
 73
     1
 74
     0
 95
       17
 96
       13
 40
1.0
 40
1.0
 40
1.0
 40
1.0
 40
2.0
 40
2.0
 40
2.0
 40
3.0
 40
3.0
 40
3.0
 40
4.0
 40
4.0
 40
4.0
 40
5.0
 40
5.0
 40
5.0
 40
5.0
 10
276.9846800684063
 20
27.3296354262854
 42
1.0
 10
277.5366914227135
 20
27.25167954511983
 42
1.0
 10
277.5738092075535
 20
27.20775573119973
 42
1.0
 10
277.5772915943764
 20
26.57154691311976
 42
1.0
 10
277.5773838430334
 20
26.55476419172763
 42
1.0
 10
277.577359243392
 20
26.53798031722657
 42
1.0
 10
277.577359243392
 20
26.52119721146337
 42
1.0
 10
277.5773700057348
 20
24.72538990447762
 42
1.0
 10
277.5776652014392
 20
22.92958298186009
 42
1.0
 10
277.5771993457187
 20
21.13377529050539
 42
1.0
 10
277.5770686601204
 20
20.6342380475635
 42
1.0
 10
277.4179566381115
 20
20.4199152040148
 42
1.0
 10
276.9460186560295
 20
20.2549177176549
 42
1.0
 97
        0
 75
     0
 76
     1
 98
        1
 10
0.0
 20
0.0
  0
HATCH
  5
78
330
1F
100
AcDbEntity
  8
0
  6
Continuous
 62
     7
100
AcDbHatch
 10
0.0
 20
0.0
 30
0.0
210
0.0
220
0.0
230
1.0
  2
SOLID
 70
     1
 71
     0
 91
        3
 92
        0
 93
        9
 72
     4
 94
        3
 73
     1
 74
     0
 95
       14
 96
       10
 40
0.0
 40
0.0
 40
0.0
 40
0.0
 40
1.0
 40
1.0
 40
1.0
 40
2.0
 40
2.0
 40
2.0
 40
3.0
 40
3.0
 40
3.0
 40
3.0
 10
287.0539854214827
 20
21.61211917311517
 42
1.0
 10
287.2972697310664
 20
21.3082559388604
 42
1.0
 10
287.5152010346028
 20
21.01001756649998
 42
1.0
 10
287.7601488949774
 20
20.73592220529573
 42
1.0
 10
288.1784811821614
 20
20.26780485511384
 42
1.0
 10
288.7048673968812
 20
20.09831485913089
 42
1.0
 10
289.3271645408483
 20
20.20870037148624
 42
1.0
 10
289.9739444785289
 20
20.32342848939635
 42
1.0
 10
290.7160910783766
 20
21.04182259740494
 42
1.0
 10
290.8103661314317
 20
21.70506046432864
 42
1.0
 72
     4
 94
        3
 73
     1
 74
     0
 95
       14
 96
       10
 40
24.0
 40
24.0
 40
24.0
 40
24.0
 40
25.0
 40
25.0
 40
25.0
 40
26.0
 40
26.0
 40
26.0
 40
27.0
 40
27.0
 40
27.0
 40
27.0
 10
290.8103661314317
 20
21.70506046432864
 42
1.0
 10
290.6825002672103
 20
21.49939669476813
 42
1.0
 10
290.5884281612034
 20
21.32571784099438
 42
1.0
 10
290.4735170834558
 20
21.16713932372221
 42
1.0
 10
289.9836367374808
 20
20.49110656799653
 42
1.0
 10
289.3841588364346
 20
20.43289382139212
 42
1.0
 10
288.8166481701822
 20
21.05011190802389
 42
1.0
 10
288.4270667146001
 20
21.47381844824843
 42
1.0
 10
288.0996055050067
 20
21.95463920731319
 42
1.0
 10
287.7314564875268
 20
22.4264857094768
 42
1.0
 72
     4
 94
        3
 73
     1
 74
     0
 95
       11
 96
        7
 40
22.0
 40
22.0
 40
22.0
 40
22.0
 40
23.0
 40
23.0
 40
23.0
 40
24.0
 40
24.0
 40
24.0
 40
24.0
 10
287.7314564875268
 20
22.4264857094768
 42
1.0
 10
288.1508588591387
 20
23.00030157147278
 42
1.0
 10
288.5466855488353
 20
23.55949371503118
 42
1.0
 10
288.9612633156569
 20
24.10441845059237
 42
1.0
 10
289.4290162836425
 20
24.71923384406366
 42
1.0
 10
289.9536528488242
 20
25.26443186627322
 42
1.0
 10
290.7742138825406
 20
25.39867403457779
 42
1.0
 72
     1
 10
290.7742138825406
 20
25.39867403457779
 11
287.7715077796773
 21
25.39867403457779
 72
     4
 94
        3
 73
     1
 74
     0
 95
       17
 96
       13
 40
16.0
 40
16.0
 40
16.0
 40
16.0
 40
17.0
 40
17.0
 40
17.0
 40
18.0
 40
18.0
 40
18.0
 40
19.0
 40
19.0
 40
19.0
 40
20.0
 40
20.0
 40
20.0
 40
20.0
 10
287.7715077796773
 20
25.39867403457779
 42
1.0
 10
287.9710693005408
 20
25.34310267453518
 42
1.0
 10
288.1718392788191
 20
25.32949945687163
 42
1.0
 10
288.3670435880915
 20
25.28904726743022
 42
1.0
 10
288.7601181928394
 20
25.20759054971102
 42
1.0
 10
288.9174636530569
 20
24.97387165717582
 42
1.0
 10
288.8543009972361
 20
24.57697987985169
 42
1.0
 10
288.8373887433532
 20
24.47070865762303
 42
1.0
 10
288.8131334963293
 20
24.35736772890119
 42
1.0
 10
288.7595985254019
 20
24.26650702928458
 42
1.0
 10
288.4211781752921
 20
23.692108847638
 42
1.0
 10
288.0735790837579
 20
23.12311989664797
 42
1.0
 10
287.7233847299918
 20
22.54303496963325
 42
1.0
 72
     1
 10
287.7233847299918
 20
22.54303496963325
 11
285.8065406500284
 21
24.86455968857224
 72
     4
 94
        3
 73
     1
 74
     0
 95
       20
 96
       16
 40
10.0
 40
10.0
 40
10.0
 40
10.0
 40
11.0
 40
11.0
 40
11.0
 40
12.0
 40
12.0
 40
12.0
 40
13.0
 40
13.0
 40
13.0
 40
14.0
 40
14.0
 40
14.0
 40
15.0
 40
15.0
 40
15.0
 40
15.0
 10
285.8065406500283
 20
24.86455968857225
 42
1.0
 10
285.9002991106001
 20
24.9215528310502
 42
1.0
 10
286.0025259979348
 20
24.975621306713
 42
1.0
 10
286.0959738880259
 20
25.04203380586477
 42
1.0
 10
286.361711520857
 20
25.23088333574105
 42
1.0
 10
286.6551698752792
 20
25.39378370261948
 42
1.0
 10
286.8815726805328
 20
25.62247811827483
 42
1.0
 10
287.5614237619422
 20
26.30921056516709
 42
1.0
 10
287.361321048954
 20
27.32558686332681
 42
1.0
 10
286.4793408590448
 20
27.71426216803416
 42
1.0
 10
285.840402057257
 20
27.99583274545401
 42
1.0
 10
285.1912113546599
 20
27.99239110178883
 42
1.0
 10
284.558084218296
 20
27.68711127408746
 42
1.0
 10
283.9109291360762
 20
27.37506654483262
 42
1.0
 10
283.6309452355653
 20
26.8393466878164
 42
1.0
 10
283.7149530130354
 20
26.1296866058298
 42
1.0
 72
     4
 94
        3
 73
     1
 74
     0
 95
       11
 96
        7
 40
8.0
 40
8.0
 40
8.0
 40
8.0
 40
9.0
 40
9.0
 40
9.0
 40
10.0
 40
10.0
 40
10.0
 40
10.0
 10
283.7149530130354
 20
26.1296866058298
 42
1.0
 10
283.7707819005811
 20
25.65802498535045
 42
1.0
 10
284.0198409761273
 20
25.28515591156022
 42
1.0
 10
284.3077767109179
 20
24.93075271279267
 42
1.0
 10
284.4323277733789
 20
24.77744812814591
 42
1.0
 10
284.5641388051866
 20
24.6300390014551
 42
1.0
 10
284.7027239634148
 20
24.46818604120849
 42
1.0
 72
     4
 94
        3
 73
     1
 74
     0
 95
       20
 96
       16
 40
3.0
 40
3.0
 40
3.0
 40
3.0
 40
4.0
 40
4.0
 40
4.0
 40
5.0
 40
5.0
 40
5.0
 40
6.0
 40
6.0
 40
6.0
 40
7.0
 40
7.0
 40
7.0
 40
8.0
 40
8.0
 40
8.0
 40
8.0
 10
284.7027239634148
 20
24.46818604120849
 42
1.0
 10
284.5513685160267
 20
24.38851087568819
 42
1.0
 10
284.4255536469583
 20
24.32317807019961
 42
1.0
 10
284.3005597909425
 20
24.25632085564481
 42
1.0
 10
283.8607304915963
 20
24.02105948868024
 42
1.0
 10
283.460866385652
 20
23.73663343094009
 42
1.0
 10
283.1417229300147
 20
23.34576433784628
 42
1.0
 10
282.3522343191156
 20
22.37884389028816
 42
1.0
 10
282.6109241545095
 20
20.5355588898502
 42
1.0
 10
284.198169930981
 20
20.23446388406056
 42
1.0
 10
285.1515567317372
 20
20.05360962220845
 42
1.0
 10
285.9488126796034
 20
20.36759637788916
 42
1.0
 10
286.5896302790503
 20
21.09003174583673
 42
1.0
 10
286.7443651022574
 20
21.26447318851251
 42
1.0
 10
286.8995550188436
 20
21.43851181205056
 42
1.0
 10
287.0539854214827
 20
21.61211917311517
 42
1.0
 97
        0
 92
        0
 93
        2
 72
     4
 94
        3
 73
     1
 74
     0
 95
       14
 96
       10
 40
0.0
 40
0.0
 40
0.0
 40
0.0
 40
1.0
 40
1.0
 40
1.0
 40
2.0
 40
2.0
 40
2.0
 40
3.0
 40
3.0
 40
3.0
 40
3.0
 10
284.688382372121
 20
27.15085253116304
 42
1.0
 10
284.8337724063213
 20
27.5710895609412
 42
1.0
 10
285.1818973152029
 20
27.79269159230804
 42
1.0
 10
285.6158934244382
 20
27.76810636414938
 42
1.0
 10
285.9916529561654
 20
27.74682017860581
 42
1.0
 10
286.2400293916459
 20
27.5110460628537
 42
1.0
 10
286.3549927436335
 20
27.06650131962916
 42
1.0
 10
286.5713650448558
 20
26.2298440482801
 42
1.0
 10
286.3259713159692
 20
25.4295804098103
 42
1.0
 10
285.6520579731507
 20
24.9254318870995
 42
1.0
 72
     4
 94
        3
 73
     1
 74
     0
 95
       11
 96
        7
 40
3.0
 40
3.0
 40
3.0
 40
3.0
 40
4.0
 40
4.0
 40
4.0
 40
5.0
 40
5.0
 40
5.0
 40
5.0
 10
285.6520579731507
 20
24.9254318870995
 42
1.0
 10
285.3510444536752
 20
25.31853032275095
 42
1.0
 10
285.0380140090768
 20
25.68714980838475
 42
1.0
 10
284.7721626029031
 20
26.08712768767229
 42
1.0
 10
284.5571094574822
 20
26.41068293535724
 42
1.0
 10
284.5630810205802
 20
26.788679112661
 42
1.0
 10
284.688382372121
 20
27.15085253116304
 42
1.0
 97
        0
 92
        0
 93
        2
 72
     1
 10
284.845288113738
 20
24.3712657578988
 11
287.0009947176327
 21
21.77781006188367
 72
     4
 94
        3
 73
     1
 74
     0
 95
       14
 96
       10
 40
1.0
 40
1.0
 40
1.0
 40
1.0
 40
2.0
 40
2.0
 40
2.0
 40
3.0
 40
3.0
 40
3.0
 40
4.0
 40
4.0
 40
4.0
 40
4.0
 10
287.0009947176327
 20
21.77781006188367
 42
1.0
 10
286.5509442670314
 20
21.22618922689351
 42
1.0
 10
286.0339581905155
 20
20.90925282038733
 42
1.0
 10
285.3603677179978
 20
20.87638462370451
 42
1.0
 10
284.4974276510072
 20
20.83427541775252
 42
1.0
 10
283.8665083325146
 20
21.39392726712143
 42
1.0
 10
283.7780264951535
 20
22.28619625730053
 42
1.0
 10
283.6988925217564
 20
23.08417174469389
 42
1.0
 10
284.1054815548355
 20
23.90423117633508
 42
1.0
 10
284.845288113738
 20
24.3712657578988
 42
1.0
 97
        0
 75
     0
 76
     1
 98
        1
 10
0.0
 20
0.0
  0
HATCH
  5
79
330
1F
100
AcDbEntity
  8
0
  6
Continuous
 62
     7
100
AcDbHatch
 10
0.0
 20
0.0
 30
0.0
210
0.0
220
0.0
230
1.0
  2
SOLID
 70
     1
 71
     0
 91
        1
 92
        0
 93
        2
 72
     4
 94
        3
 73
     1
 74
     0
 95
       11
 96
        7
 40
0.0
 40
0.0
 40
0.0
 40
0.0
 40
1.0
 40
1.0
 40
1.0
 40
2.0
 40
2.0
 40
2.0
 40
2.0
 10
303.0570519104932
 20
26.35430478392947
 42
1.0
 10
303.0628482011429
 20
25.96449808787493
 42
1.0
 10
303.3259905717408
 20
25.69768229885988
 42
1.0
 10
303.6993639381942
 20
25.70301926806731
 42
1.0
 10
304.0680572227529
 20
25.70828897263022
 42
1.0
 10
304.3293945946187
 20
25.98752450590587
 42
1.0
 10
304.327448147944
 20
26.37412133304796
 42
1.0
 72
     4
 94
        3
 73
     1
 74
     0
 95
       11
 96
        7
 40
2.0
 40
2.0
 40
2.0
 40
2.0
 40
3.0
 40
3.0
 40
3.0
 40
4.0
 40
4.0
 40
4.0
 40
4.0
 10
304.327448147944
 20
26.37412133304796
 42
1.0
 10
304.3255386007336
 20
26.75299425696746
 42
1.0
 10
304.0507636744179
 20
27.04560238626284
 42
1.0
 10
303.6924299141011
 20
27.05034857969325
 42
1.0
 10
303.3266947364936
 20
27.05519259513757
 42
1.0
 10
303.0511172468595
 20
26.75330175249256
 42
1.0
 10
303.0570519104932
 20
26.35430478392947
 42
1.0
 97
        0
 75
     0
 76
     1
 98
        1
 10
0.0
 20
0.0
  0
HATCH
  5
7A
330
1F
100
AcDbEntity
  8
0
  6
Continuous
 62
     7
100
AcDbHatch
 10
0.0
 20
0.0
 30
0.0
210
0.0
220
0.0
230
1.0
  2
SOLID
 70
     1
 71
     0
 91
        1
 92
        0
 93
        4
 72
     1
 10
302.6973344203136
 20
20.2539775500868
 11
304.8038079156778
 21
20.2539775500868
 72
     4
 94
        3
 73
     1
 74
     0
 95
       17
 96
       13
 40
6.0
 40
6.0
 40
6.0
 40
6.0
 40
7.0
 40
7.0
 40
7.0
 40
8.0
 40
8.0
 40
8.0
 40
9.0
 40
9.0
 40
9.0
 40
10.0
 40
10.0
 40
10.0
 40
10.0
 10
304.8038079156778
 20
20.2539775500868
 42
1.0
 10
304.4578262506061
 20
20.33981031349822
 42
1.0
 10
304.2621822227331
 20
20.55023795748124
 42
1.0
 10
304.2107535961514
 20
20.89393877449616
 42
1.0
 10
304.1922454404932
 20
21.01764883669525
 42
1.0
 10
304.1821011631179
 20
21.14380579453512
 42
1.0
 10
304.1818797663412
 20
21.26887114326077
 42
1.0
 10
304.1797703470369
 20
22.46084295323946
 42
1.0
 10
304.1808527312862
 20
23.65282014439031
 42
1.0
 10
304.1800932173391
 20
24.84479541369365
 42
1.0
 10
304.1800409430993
 20
24.93136078519359
 42
1.0
 10
304.1727133247369
 20
25.01792115989102
 42
1.0
 10
304.1706223551654
 20
25.06377258638473
 42
1.0
 72
     1
 10
304.1706223551654
 20
25.06377258638473
 11
302.7125031745686
 21
24.50968064047992
 72
     4
 94
        3
 73
     1
 74
     0
 95
       17
 96
       13
 40
1.0
 40
1.0
 40
1.0
 40
1.0
 40
2.0
 40
2.0
 40
2.0
 40
3.0
 40
3.0
 40
3.0
 40
4.0
 40
4.0
 40
4.0
 40
5.0
 40
5.0
 40
5.0
 40
5.0
 10
302.7125031745686
 20
24.50968064047994
 42
1.0
 10
302.7604109773859
 20
24.50557288463289
 42
1.0
 10
302.8224697242704
 20
24.49650561033552
 42
1.0
 10
302.8846514693661
 20
24.49557889569631
 42
1.0
 10
303.1332831261333
 20
24.4918735746181
 42
1.0
 10
303.2632153602819
 20
24.35030186610297
 42
1.0
 10
303.2668591822546
 20
24.11891186780057
 42
1.0
 10
303.2829750227277
 20
23.09531768874206
 42
1.0
 10
303.296603224403
 20
22.071496731734
 42
1.0
 10
303.2916556214044
 20
21.04785181591346
 42
1.0
 10
303.2897768237453
 20
20.65853557522151
 42
1.0
 10
303.1321361678242
 20
20.3494649042487
 42
1.0
 10
302.6973344203136
 20
20.2539775500868
 42
1.0
 97
        0
 75
     0
 76
     1
 98
        1
 10
0.0
 20
0.0
  0
HATCH
  5
7B
330
1F
100
AcDbEntity
  8
0
  6
Continuous
 62
     7
100
AcDbHatch
 10
0.0
 20
0.0
 30
0.0
210
0.0
220
0.0
230
1.0
  2
SOLID
 70
     1
 71
     0
 91
        1
 92
        0
 93
        4
 72
     1
 10
308.65963267846
 20
27.88697759989075
 11
307.1608133901539
 21
27.32540717062984
 72
     4
 94
        3
 73
     1
 74
     0
 95
       20
 96
       16
 40
5.0
 40
5.0
 40
5.0
 40
5.0
 40
6.0
 40
6.0
 40
6.0
 40
7.0
 40
7.0
 40
7.0
 40
8.0
 40
8.0
 40
8.0
 40
9.0
 40
9.0
 40
9.0
 40
10.0
 40
10.0
 40
10.0
 40
10.0
 10
307.1608133901539
 20
27.32540717062984
 42
1.0
 10
307.6774858212348
 20
27.28280885460759
 42
1.0
 10
307.7501131893193
 20
27.20350460556406
 42
1.0
 10
307.7547502218385
 20
26.63215658734291
 42
1.0
 10
307.7552944889174
 20
26.56503146731187
 42
1.0
 10
307.7550361926765
 20
26.49789904426262
 42
1.0
 10
307.7550361926765
 20
26.43077008053731
 42
1.0
 10
307.7550484924979
 20
24.69380511724257
 42
1.0
 10
307.7587445887104
 20
22.95682170421714
 42
1.0
 10
307.7500732149022
 20
21.21990094340409
 42
1.0
 10
307.7490584796685
 20
21.01681475508336
 42
1.0
 10
307.7285516030971
 20
20.78446498637255
 42
1.0
 10
307.6283941606454
 20
20.61954360515536
 42
1.0
 10
307.5293898264143
 20
20.45652254628292
 42
1.0
 10
307.3179589782804
 20
20.36177625633667
 42
1.0
 10
307.178408284104
 20
20.25443648715803
 42
1.0
 72
     1
 10
307.178408284104
 20
20.25443648715803
 11
309.3620693061908
 21
20.25443648715802
 72
     4
 94
        3
 73
     1
 74
     0
 95
       14
 96
       10
 40
1.0
 40
1.0
 40
1.0
 40
1.0
 40
2.0
 40
2.0
 40
2.0
 40
3.0
 40
3.0
 40
3.0
 40
4.0
 40
4.0
 40
4.0
 40
4.0
 10
309.3620693061908
 20
20.25443648715802
 42
1.0
 10
308.807415027844
 20
20.43200746554105
 42
1.0
 10
308.6597679764911
 20
20.6374237012035
 42
1.0
 10
308.6597187772069
 20
21.15880542625192
 42
1.0
 10
308.6595035303402
 20
23.32371921490944
 42
1.0
 10
308.65963267846
 20
25.48863300356693
 42
1.0
 10
308.65963267846
 20
27.65354698440997
 42
1.0
 10
308.65963267846
 20
27.74275854708867
 42
1.0
 10
308.65963267846
 20
27.83196991758182
 42
1.0
 10
308.65963267846
 20
27.88697759989075
 42
1.0
 97
        0
 75
     0
 76
     1
 98
        1
 10
0.0
 20
0.0
  0
HATCH
  5
7C
330
1F
100
AcDbEntity
  8
0
  6
Continuous
 62
     7
100
AcDbHatch
 10
0.0
 20
0.0
 30
0.0
210
0.0
220
0.0
230
1.0
  2
SOLID
 70
     1
 71
     0
 91
        1
 92
        0
 93
        4
 72
     1
 10
313.1781318226163
 20
27.87703492426926
 11
311.6691528821608
 21
27.32445797038016
 72
     4
 94
        3
 73
     1
 74
     0
 95
       17
 96
       13
 40
6.0
 40
6.0
 40
6.0
 40
6.0
 40
7.0
 40
7.0
 40
7.0
 40
8.0
 40
8.0
 40
8.0
 40
9.0
 40
9.0
 40
9.0
 40
10.0
 40
10.0
 40
10.0
 40
10.0
 10
311.6691528821608
 20
27.32445797038016
 42
1.0
 10
312.2096131670664
 20
27.27631108979181
 42
1.0
 10
312.2683694120104
 20
27.21300429544448
 42
1.0
 10
312.2823973578678
 20
26.60716642601487
 42
1.0
 10
312.2845313768121
 20
26.51487279724974
 42
1.0
 10
312.2871512386867
 20
26.42255802816857
 42
1.0
 10
312.2871819882395
 20
26.33025248395311
 42
1.0
 10
312.2877662297369
 20
24.60974045310045
 42
1.0
 10
312.2890700107628
 20
22.88922803787955
 42
1.0
 10
312.2876555313485
 20
21.16871754450475
 42
1.0
 10
312.2872188877024
 20
20.63608302071405
 42
1.0
 10
312.1185268426077
 20
20.41647125413319
 42
1.0
 10
311.6156486607861
 20
20.25320881127337
 42
1.0
 72
     1
 10
311.6156486607861
 20
20.25320881127337
 11
313.8867245107604
 21
20.25320881127337
 72
     4
 94
        3
 73
     1
 74
     0
 95
       17
 96
       13
 40
1.0
 40
1.0
 40
1.0
 40
1.0
 40
2.0
 40
2.0
 40
2.0
 40
3.0
 40
3.0
 40
3.0
 40
4.0
 40
4.0
 40
4.0
 40
5.0
 40
5.0
 40
5.0
 40
5.0
 10
313.8867245107604
 20
20.25320881127337
 42
1.0
 10
313.3266152617988
 20
20.4348325806782
 42
1.0
 10
313.1888880160859
 20
20.62648762285203
 42
1.0
 10
313.1786115156352
 20
21.17082388885262
 42
1.0
 10
313.1771847363981
 20
21.24633325874564
 42
1.0
 10
313.1781441224363
 20
21.32188875296783
 42
1.0
 10
313.1781441224363
 20
21.39742349124222
 42
1.0
 10
313.1781256727049
 20
23.48721689184593
 42
1.0
 10
313.1781318226163
 20
25.57700952371036
 42
1.0
 10
313.1781318226163
 20
27.66680273212925
 42
1.0
 10
313.1781318226163
 20
27.75161518695077
 42
1.0
 10
313.1781318226163
 20
27.83642744958889
 42
1.0
 10
313.1781318226163
 20
27.87703492426926
 42
1.0
 97
        0
 75
     0
 76
     1
 98
        1
 10
0.0
 20
0.0
  0
HATCH
  5
7D
330
1F
100
AcDbEntity
  8
0
  6
Continuous
 62
     7
100
AcDbHatch
 10
0.0
 20
0.0
 30
0.0
210
0.0
220
0.0
230
1.0
  2
SOLID
 70
     1
 71
     0
 91
        1
 92
        0
 93
       12
 72
     1
 10
296.2715297073844
 20
27.50458020069891
 11
293.841527870193
 21
27.50458020069891
 72
     4
 94
        3
 73
     1
 74
     0
 95
       17
 96
       13
 40
21.0
 40
21.0
 40
21.0
 40
21.0
 40
22.0
 40
22.0
 40
22.0
 40
23.0
 40
23.0
 40
23.0
 40
24.0
 40
24.0
 40
24.0
 40
25.0
 40
25.0
 40
25.0
 40
25.0
 10
293.841527870193
 20
27.50458020069891
 42
1.0
 10
294.4654639653083
 20
27.35271373418588
 42
1.0
 10
294.541848928711
 20
26.88863860486635
 42
1.0
 10
294.5396718603926
 20
26.35648992400541
 42
1.0
 10
294.5326947869268
 20
24.65236702027423
 42
1.0
 10
294.54232862173
 20
22.9481603240125
 42
1.0
 10
294.5304592944584
 20
21.24409084762873
 42
1.0
 10
294.52894334152
 20
21.02641399663968
 42
1.0
 10
294.4888489999954
 20
20.77588586122133
 42
1.0
 10
294.3739502220706
 20
20.60171040217499
 42
1.0
 10
294.2655211499942
 20
20.43733713173098
 42
1.0
 10
294.0348564567621
 20
20.35359533789035
 42
1.0
 10
293.8906841048422
 20
20.25643828302682
 42
1.0
 72
     1
 10
293.8906841048422
 20
20.25643828302682
 11
296.2880237673525
 21
20.25643828302682
 72
     4
 94
        3
 73
     1
 74
     0
 95
       14
 96
       10
 40
17.0
 40
17.0
 40
17.0
 40
17.0
 40
18.0
 40
18.0
 40
18.0
 40
19.0
 40
19.0
 40
19.0
 40
20.0
 40
20.0
 40
20.0
 40
20.0
 10
296.2880237673525
 20
20.25643828302682
 42
1.0
 10
295.7413366980624
 20
20.4024294709773
 42
1.0
 10
295.5628078711177
 20
20.63015527572819
 42
1.0
 10
295.5619960829322
 20
21.2138824872384
 42
1.0
 10
295.560827599936
 20
22.05336910178782
 42
1.0
 10
295.561359567195
 20
22.89285956003151
 42
1.0
 10
295.5621928800676
 20
23.73234771205876
 42
1.0
 10
295.5622759038603
 20
23.81306182808445
 42
1.0
 10
295.5696219719554
 20
23.89376787235267
 42
1.0
 10
295.5733857171835
 20
23.97022240661697
 42
1.0
 72
     1
 10
295.5733857171835
 20
23.97022240661697
 11
298.4851131190222
 21
23.97022240661697
 72
     4
 94
        3
 73
     1
 74
     0
 95
       11
 96
        7
 40
14.0
 40
14.0
 40
14.0
 40
14.0
 40
15.0
 40
15.0
 40
15.0
 40
16.0
 40
16.0
 40
16.0
 40
16.0
 10
298.4851131190222
 20
23.97022240661697
 42
1.0
 10
298.4851131190222
 20
23.04419117651474
 42
1.0
 10
298.4852207424561
 20
22.13796342697173
 42
1.0
 10
298.485073144605
 20
21.23173567742801
 42
1.0
 10
298.4849747460367
 20
20.62384393007452
 42
1.0
 10
298.3307257657572
 20
20.41986831094703
 42
1.0
 10
297.7632396991476
 20
20.25412130424438
 42
1.0
 72
     1
 10
297.7632396991476
 20
20.25412130424438
 11
300.2193725060648
 21
20.25412130424438
 72
     4
 94
        3
 73
     1
 74
     0
 95
       17
 96
       13
 40
9.0
 40
9.0
 40
9.0
 40
9.0
 40
10.0
 40
10.0
 40
10.0
 40
11.0
 40
11.0
 40
11.0
 40
12.0
 40
12.0
 40
12.0
 40
13.0
 40
13.0
 40
13.0
 40
13.0
 10
300.2193725060648
 20
20.25412130424438
 42
1.0
 10
299.739442715284
 20
20.41422423058344
 42
1.0
 10
299.5427163031618
 20
20.62720562490344
 42
1.0
 10
299.542119761843
 20
21.03839632851544
 42
1.0
 10
299.5393769017586
 20
22.92724217217554
 42
1.0
 10
299.5395583241182
 20
24.8160968563317
 42
1.0
 10
299.5421628112159
 20
26.70494346873036
 42
1.0
 10
299.5426363543262
 20
27.0468754177367
 42
1.0
 10
299.7248336028849
 20
27.28837413924314
 42
1.0
 10
300.049118383702
 20
27.40930924651266
 42
1.0
 10
300.1052670665942
 20
27.43024796211264
 42
1.0
 10
300.1600043450263
 20
27.45496618208605
 42
1.0
 10
300.2549312885929
 20
27.49433829349534
 42
1.0
 72
     1
 10
300.2549312885929
 20
27.49433829349534
 11
297.7186989723292
 21
27.49433829349534
 72
     4
 94
        3
 73
     1
 74
     0
 95
       14
 96
       10
 40
5.0
 40
5.0
 40
5.0
 40
5.0
 40
6.0
 40
6.0
 40
6.0
 40
7.0
 40
7.0
 40
7.0
 40
8.0
 40
8.0
 40
8.0
 40
8.0
 10
297.7186989723292
 20
27.49433829349534
 42
1.0
 10
298.3648823686909
 20
27.26685790861022
 42
1.0
 10
298.4850762195593
 20
27.0944786077999
 42
1.0
 10
298.4851069691121
 20
26.45733654080182
 42
1.0
 10
298.4851377186649
 20
25.7773505457302
 42
1.0
 10
298.4851131190222
 20
25.09736416629037
 42
1.0
 10
298.4851131190222
 20
24.41737817121947
 42
1.0
 10
298.4851131190222
 20
24.32893553953832
 42
1.0
 10
298.4851131190222
 20
24.24049329222682
 42
1.0
 10
298.4851131190222
 20
24.16049564077468
 42
1.0
 72
     1
 10
298.4851131190222
 20
24.16049564077468
 11
295.5632814142282
 21
24.16049564077468
 72
     4
 94
        3
 73
     1
 74
     0
 95
       14
 96
       10
 40
1.0
 40
1.0
 40
1.0
 40
1.0
 40
2.0
 40
2.0
 40
2.0
 40
3.0
 40
3.0
 40
3.0
 40
4.0
 40
4.0
 40
4.0
 40
4.0
 10
295.5632814142282
 20
24.16049564077468
 42
1.0
 10
295.5632814142282
 20
25.01272602299438
 42
1.0
 10
295.5627432970579
 20
25.84365465270932
 42
1.0
 10
295.5644406723573
 20
26.67457866999212
 42
1.0
 10
295.5645605956114
 20
26.73240397223375
 42
1.0
 10
295.5792681065788
 20
26.79059327230427
 42
1.0
 10
295.5906023916358
 20
26.8479388815276
 42
1.0
 10
295.6648994604227
 20
27.22384581892186
 42
1.0
 10
295.9411319155254
 20
27.38780204855992
 42
1.0
 10
296.2715297073844
 20
27.50458020069891
 42
1.0
 97
        0
 75
     0
 76
     1
 98
        1
 10
0.0
 20
0.0
  0
SPLINE
  5
7E
330
1F
100
AcDbEntity
  8
0
  6
Continuous
 62
   179
370
     0
100
AcDbSpline
210
0.0
220
0.0
230
1.0
 70
     8
 71
     3
 72
    14
 73
    10
 74
     0
 42
0.000000001
 43
0.00000001
 40
24.0
 40
24.0
 40
24.0
 40
24.0
 40
25.0
 40
25.0
 40
25.0
 40
26.0
 40
26.0
 40
26.0
 40
27.0
 40
27.0
 40
27.0
 40
27.0
 10
287.7314564875268
 20
22.42648570947681
 30
0.0
 10
288.0996055050067
 20
21.95463920731319
 30
0.0
 10
288.4270667146001
 20
21.47381844824843
 30
0.0
 10
288.8166481701822
 20
21.05011190802389
 30
0.0
 10
289.3841588364346
 20
20.43289382139212
 30
0.0
 10
289.9836367374808
 20
20.49110656799654
 30
0.0
 10
290.4735170834558
 20
21.16713932372222
 30
0.0
 10
290.5884281612034
 20
21.32571784099438
 30
0.0
 10
290.6825002672103
 20
21.49939669476814
 30
0.0
 10
290.8103661314317
 20
21.70506046432864
 30
0.0
  0
SPLINE
  5
7F
330
1F
100
AcDbEntity
  8
0
  6
Continuous
 62
   179
370
     0
100
AcDbSpline
210
0.0
220
0.0
230
1.0
 70
     8
 71
     3
 72
    11
 73
     7
 74
     0
 42
0.000000001
 43
0.00000001
 40
22.0
 40
22.0
 40
22.0
 40
22.0
 40
23.0
 40
23.0
 40
23.0
 40
24.0
 40
24.0
 40
24.0
 40
24.0
 10
290.7742138825406
 20
25.39867403457779
 30
0.0
 10
289.9536528488242
 20
25.26443186627322
 30
0.0
 10
289.4290162836425
 20
24.71923384406366
 30
0.0
 10
288.9612633156569
 20
24.10441845059237
 30
0.0
 10
288.5466855488353
 20
23.55949371503119
 30
0.0
 10
288.1508588591388
 20
23.00030157147279
 30
0.0
 10
287.7314564875268
 20
22.42648570947681
 30
0.0
  0
SPLINE
  5
80
330
1F
100
AcDbEntity
  8
0
  6
Continuous
 62
   179
370
     0
100
AcDbSpline
210
0.0
220
0.0
230
1.0
 70
     8
 71
     3
 72
    11
 73
     7
 74
     0
 42
0.000000001
 43
0.00000001
 40
20.0
 40
20.0
 40
20.0
 40
20.0
 40
21.0
 40
21.0
 40
21.0
 40
22.0
 40
22.0
 40
22.0
 40
22.0
 10
287.7715077796773
 20
25.39867403457779
 30
0.0
 10
288.2706160663608
 20
25.39867403457779
 30
0.0
 10
288.76972127809
 20
25.39867441894744
 30
0.0
 10
289.2688295647749
 20
25.39867441894744
 30
0.0
 10
289.7706253623487
 20
25.39867441894744
 30
0.0
 10
290.2724180849667
 20
25.39867403457779
 30
0.0
 10
290.7742138825406
 20
25.39867403457779
 30
0.0
  0
SPLINE
  5
81
330
1F
100
AcDbEntity
  8
0
  6
Continuous
 62
   179
370
     0
100
AcDbSpline
210
0.0
220
0.0
230
1.0
 70
     8
 71
     3
 72
    17
 73
    13
 74
     0
 42
0.000000001
 43
0.00000001
 40
16.0
 40
16.0
 40
16.0
 40
16.0
 40
17.0
 40
17.0
 40
17.0
 40
18.0
 40
18.0
 40
18.0
 40
19.0
 40
19.0
 40
19.0
 40
20.0
 40
20.0
 40
20.0
 40
20.0
 10
287.7233847299918
 20
22.54303496963325
 30
0.0
 10
288.0735790837579
 20
23.12311989664797
 30
0.0
 10
288.4211781752921
 20
23.692108847638
 30
0.0
 10
288.7595985254019
 20
24.26650702928458
 30
0.0
 10
288.8131334963293
 20
24.3573677289012
 30
0.0
 10
288.8373887433532
 20
24.47070865762303
 30
0.0
 10
288.8543009972361
 20
24.57697987985169
 30
0.0
 10
288.9174636530569
 20
24.97387165717582
 30
0.0
 10
288.7601181928394
 20
25.20759054971102
 30
0.0
 10
288.3670435880915
 20
25.28904726743022
 30
0.0
 10
288.1718392788191
 20
25.32949945687163
 30
0.0
 10
287.9710693005408
 20
25.34310267453518
 30
0.0
 10
287.7715077796773
 20
25.39867403457779
 30
0.0
  0
SPLINE
  5
82
330
1F
100
AcDbEntity
  8
0
  6
Continuous
 62
   179
370
     0
100
AcDbSpline
210
0.0
220
0.0
230
1.0
 70
     8
 71
     3
 72
     8
 73
     4
 74
     0
 42
0.000000001
 43
0.00000001
 40
15.0
 40
15.0
 40
15.0
 40
15.0
 40
16.0
 40
16.0
 40
16.0
 40
16.0
 10
285.8065406500283
 20
24.86455968857225
 30
0.0
 10
286.4380688096612
 20
24.09970377545334
 30
0.0
 10
287.0596648638312
 20
23.34687900912474
 30
0.0
 10
287.7233847299918
 20
22.54303496963325
 30
0.0
  0
SPLINE
  5
83
330
1F
100
AcDbEntity
  8
0
  6
Continuous
 62
   179
370
     0
100
AcDbSpline
210
0.0
220
0.0
230
1.0
 70
     8
 71
     3
 72
    26
 73
    22
 74
     0
 42
0.000000001
 43
0.00000001
 40
8.0
 40
8.0
 40
8.0
 40
8.0
 40
9.0
 40
9.0
 40
9.0
 40
10.0
 40
10.0
 40
10.0
 40
11.0
 40
11.0
 40
11.0
 40
12.0
 40
12.0
 40
12.0
 40
13.0
 40
13.0
 40
13.0
 40
14.0
 40
14.0
 40
14.0
 40
15.0
 40
15.0
 40
15.0
 40
15.0
 10
284.7027239634148
 20
24.4681860412085
 30
0.0
 10
284.5641388051866
 20
24.63003900145511
 30
0.0
 10
284.4323277733789
 20
24.77744812814592
 30
0.0
 10
284.3077767109179
 20
24.93075271279267
 30
0.0
 10
284.0198409761273
 20
25.28515591156022
 30
0.0
 10
283.7707819005811
 20
25.65802498535045
 30
0.0
 10
283.7149530130354
 20
26.1296866058298
 30
0.0
 10
283.6309452355654
 20
26.8393466878164
 30
0.0
 10
283.9109291360762
 20
27.37506654483262
 30
0.0
 10
284.558084218296
 20
27.68711127408746
 30
0.0
 10
285.1912113546599
 20
27.99239110178883
 30
0.0
 10
285.840402057257
 20
27.99583274545402
 30
0.0
 10
286.4793408590448
 20
27.71426216803416
 30
0.0
 10
287.361321048954
 20
27.32558686332681
 30
0.0
 10
287.5614237619422
 20
26.30921056516709
 30
0.0
 10
286.8815726805328
 20
25.62247811827483
 30
0.0
 10
286.6551698752792
 20
25.39378370261948
 30
0.0
 10
286.361711520857
 20
25.23088333574105
 30
0.0
 10
286.0959738880259
 20
25.04203380586477
 30
0.0
 10
286.0025259979348
 20
24.97562130671301
 30
0.0
 10
285.9002991106001
 20
24.9215528310502
 30
0.0
 10
285.8065406500283
 20
24.86455968857225
 30
0.0
  0
SPLINE
  5
84
330
1F
100
AcDbEntity
  8
0
  6
Continuous
 62
   179
370
     0
100
AcDbSpline
210
0.0
220
0.0
230
1.0
 70
     8
 71
     3
 72
    20
 73
    16
 74
     0
 42
0.000000001
 43
0.00000001
 40
3.0
 40
3.0
 40
3.0
 40
3.0
 40
4.0
 40
4.0
 40
4.0
 40
5.0
 40
5.0
 40
5.0
 40
6.0
 40
6.0
 40
6.0
 40
7.0
 40
7.0
 40
7.0
 40
8.0
 40
8.0
 40
8.0
 40
8.0
 10
287.0539854214827
 20
21.61211917311518
 30
0.0
 10
286.8995550188436
 20
21.43851181205056
 30
0.0
 10
286.7443651022574
 20
21.26447318851252
 30
0.0
 10
286.5896302790503
 20
21.09003174583674
 30
0.0
 10
285.9488126796034
 20
20.36759637788917
 30
0.0
 10
285.1515567317372
 20
20.05360962220845
 30
0.0
 10
284.198169930981
 20
20.23446388406056
 30
0.0
 10
282.6109241545095
 20
20.5355588898502
 30
0.0
 10
282.3522343191156
 20
22.37884389028816
 30
0.0
 10
283.1417229300147
 20
23.34576433784628
 30
0.0
 10
283.460866385652
 20
23.7366334309401
 30
0.0
 10
283.8607304915963
 20
24.02105948868025
 30
0.0
 10
284.3005597909425
 20
24.25632085564482
 30
0.0
 10
284.4255536469583
 20
24.32317807019961
 30
0.0
 10
284.5513685160267
 20
24.38851087568819
 30
0.0
 10
284.7027239634148
 20
24.4681860412085
 30
0.0
  0
SPLINE
  5
85
330
1F
100
AcDbEntity
  8
0
  6
Continuous
 62
   179
370
     0
100
AcDbSpline
210
0.0
220
0.0
230
1.0
 70
     8
 71
     3
 72
    14
 73
    10
 74
     0
 42
0.000000001
 43
0.00000001
 40
0.0
 40
0.0
 40
0.0
 40
0.0
 40
1.0
 40
1.0
 40
1.0
 40
2.0
 40
2.0
 40
2.0
 40
3.0
 40
3.0
 40
3.0
 40
3.0
 10
290.8103661314317
 20
21.70506046432864
 30
0.0
 10
290.7160910783766
 20
21.04182259740494
 30
0.0
 10
289.9739444785289
 20
20.32342848939635
 30
0.0
 10
289.3271645408483
 20
20.20870037148624
 30
0.0
 10
288.7048673968812
 20
20.0983148591309
 30
0.0
 10
288.1784811821614
 20
20.26780485511384
 30
0.0
 10
287.7601488949774
 20
20.73592220529573
 30
0.0
 10
287.5152010346028
 20
21.01001756649998
 30
0.0
 10
287.2972697310665
 20
21.30825593886041
 30
0.0
 10
287.0539854214827
 20
21.61211917311518
 30
0.0
  0
SPLINE
  5
86
330
1F
100
AcDbEntity
  8
0
  6
Continuous
 62
   179
370
     0
100
AcDbSpline
210
0.0
220
0.0
230
1.0
 70
     8
 71
     3
 72
    14
 73
    10
 74
     0
 42
0.000000001
 43
0.00000001
 40
1.0
 40
1.0
 40
1.0
 40
1.0
 40
2.0
 40
2.0
 40
2.0
 40
3.0
 40
3.0
 40
3.0
 40
4.0
 40
4.0
 40
4.0
 40
4.0
 10
284.845288113738
 20
24.3712657578988
 30
0.0
 10
284.1054815548355
 20
23.90423117633508
 30
0.0
 10
283.6988925217564
 20
23.08417174469389
 30
0.0
 10
283.7780264951535
 20
22.28619625730053
 30
0.0
 10
283.8665083325146
 20
21.39392726712143
 30
0.0
 10
284.4974276510072
 20
20.83427541775253
 30
0.0
 10
285.3603677179978
 20
20.87638462370452
 30
0.0
 10
286.0339581905155
 20
20.90925282038733
 30
0.0
 10
286.5509442670314
 20
21.22618922689351
 30
0.0
 10
287.0009947176327
 20
21.77781006188367
 30
0.0
  0
SPLINE
  5
87
330
1F
100
AcDbEntity
  8
0
  6
Continuous
 62
   179
370
     0
100
AcDbSpline
210
0.0
220
0.0
230
1.0
 70
     8
 71
     3
 72
     8
 73
     4
 74
     0
 42
0.000000001
 43
0.00000001
 40
0.0
 40
0.0
 40
0.0
 40
0.0
 40
1.0
 40
1.0
 40
1.0
 40
1.0
 10
287.0009947176327
 20
21.77781006188367
 30
0.0
 10
286.2819902310068
 20
22.64282111123716
 30
0.0
 10
285.5612360948443
 20
23.50993158628786
 30
0.0
 10
284.845288113738
 20
24.3712657578988
 30
0.0
  0
SPLINE
  5
88
330
1F
100
AcDbEntity
  8
0
  6
Continuous
 62
   179
370
     0
100
AcDbSpline
210
0.0
220
0.0
230
1.0
 70
     8
 71
     3
 72
    11
 73
     7
 74
     0
 42
0.000000001
 43
0.00000001
 40
3.0
 40
3.0
 40
3.0
 40
3.0
 40
4.0
 40
4.0
 40
4.0
 40
5.0
 40
5.0
 40
5.0
 40
5.0
 10
284.6883823721211
 20
27.15085253116305
 30
0.0
 10
284.5630810205802
 20
26.788679112661
 30
0.0
 10
284.5571094574822
 20
26.41068293535724
 30
0.0
 10
284.7721626029031
 20
26.08712768767229
 30
0.0
 10
285.0380140090768
 20
25.68714980838475
 30
0.0
 10
285.3510444536753
 20
25.31853032275096
 30
0.0
 10
285.6520579731507
 20
24.9254318870995
 30
0.0
  0
SPLINE
  5
89
330
1F
100
AcDbEntity
  8
0
  6
Continuous
 62
   179
370
     0
100
AcDbSpline
210
0.0
220
0.0
230
1.0
 70
     8
 71
     3
 72
    14
 73
    10
 74
     0
 42
0.000000001
 43
0.00000001
 40
0.0
 40
0.0
 40
0.0
 40
0.0
 40
1.0
 40
1.0
 40
1.0
 40
2.0
 40
2.0
 40
2.0
 40
3.0
 40
3.0
 40
3.0
 40
3.0
 10
285.6520579731507
 20
24.9254318870995
 30
0.0
 10
286.3259713159692
 20
25.4295804098103
 30
0.0
 10
286.5713650448558
 20
26.2298440482801
 30
0.0
 10
286.3549927436335
 20
27.06650131962916
 30
0.0
 10
286.2400293916459
 20
27.5110460628537
 30
0.0
 10
285.9916529561654
 20
27.74682017860582
 30
0.0
 10
285.6158934244382
 20
27.76810636414938
 30
0.0
 10
285.1818973152029
 20
27.79269159230804
 30
0.0
 10
284.8337724063213
 20
27.5710895609412
 30
0.0
 10
284.6883823721211
 20
27.15085253116305
 30
0.0
  0
SPLINE
  5
8A
330
1F
100
AcDbEntity
  8
0
  6
Continuous
 62
   179
370
     0
100
AcDbSpline
210
0.0
220
0.0
230
1.0
 70
     8
 71
     3
 72
    17
 73
    13
 74
     0
 42
0.000000001
 43
0.00000001
 40
21.0
 40
21.0
 40
21.0
 40
21.0
 40
22.0
 40
22.0
 40
22.0
 40
23.0
 40
23.0
 40
23.0
 40
24.0
 40
24.0
 40
24.0
 40
25.0
 40
25.0
 40
25.0
 40
25.0
 10
293.8906841048423
 20
20.25643828302682
 30
0.0
 10
294.0348564567621
 20
20.35359533789035
 30
0.0
 10
294.2655211499942
 20
20.43733713173099
 30
0.0
 10
294.3739502220706
 20
20.601710402175
 30
0.0
 10
294.4888489999955
 20
20.77588586122134
 30
0.0
 10
294.5289433415201
 20
21.02641399663968
 30
0.0
 10
294.5304592944584
 20
21.24409084762874
 30
0.0
 10
294.5423286217301
 20
22.94816032401251
 30
0.0
 10
294.5326947869268
 20
24.65236702027423
 30
0.0
 10
294.5396718603926
 20
26.35648992400541
 30
0.0
 10
294.541848928711
 20
26.88863860486636
 30
0.0
 10
294.4654639653083
 20
27.35271373418588
 30
0.0
 10
293.841527870193
 20
27.50458020069892
 30
0.0
  0
SPLINE
  5
8B
330
1F
100
AcDbEntity
  8
0
  6
Continuous
 62
   179
370
     0
100
AcDbSpline
210
0.0
220
0.0
230
1.0
 70
    24
 71
     3
 72
     8
 73
     4
 74
     0
 42
0.000000001
 43
0.00000001
 40
20.0
 40
20.0
 40
20.0
 40
20.0
 40
21.0
 40
21.0
 40
21.0
 40
21.0
 10
296.2880237673526
 20
20.25643828302682
 30
0.0
 10
295.4693261565182
 20
20.25643828302682
 30
0.0
 10
294.6506254707311
 20
20.25643828302682
 30
0.0
 10
293.8906841048423
 20
20.25643828302682
 30
0.0
  0
SPLINE
  5
8C
330
1F
100
AcDbEntity
  8
0
  6
Continuous
 62
   179
370
     0
100
AcDbSpline
210
0.0
220
0.0
230
1.0
 70
     8
 71
     3
 72
    14
 73
    10
 74
     0
 42
0.000000001
 43
0.00000001
 40
17.0
 40
17.0
 40
17.0
 40
17.0
 40
18.0
 40
18.0
 40
18.0
 40
19.0
 40
19.0
 40
19.0
 40
20.0
 40
20.0
 40
20.0
 40
20.0
 10
295.5733857171836
 20
23.97022240661698
 30
0.0
 10
295.5696219719554
 20
23.89376787235267
 30
0.0
 10
295.5622759038603
 20
23.81306182808446
 30
0.0
 10
295.5621928800676
 20
23.73234771205876
 30
0.0
 10
295.561359567195
 20
22.89285956003151
 30
0.0
 10
295.560827599936
 20
22.05336910178782
 30
0.0
 10
295.5619960829322
 20
21.2138824872384
 30
0.0
 10
295.5628078711177
 20
20.63015527572819
 30
0.0
 10
295.7413366980624
 20
20.4024294709773
 30
0.0
 10
296.2880237673526
 20
20.25643828302682
 30
0.0
  0
SPLINE
  5
8D
330
1F
100
AcDbEntity
  8
0
  6
Continuous
 62
   179
370
     0
100
AcDbSpline
210
0.0
220
0.0
230
1.0
 70
    24
 71
     3
 72
     8
 73
     4
 74
     0
 42
0.000000001
 43
0.00000001
 40
16.0
 40
16.0
 40
16.0
 40
16.0
 40
17.0
 40
17.0
 40
17.0
 40
17.0
 10
298.4851131190222
 20
23.97022240661698
 30
0.0
 10
297.5154382802974
 20
23.97022240661698
 30
0.0
 10
296.5557754958725
 20
23.97022240661698
 30
0.0
 10
295.5733857171836
 20
23.97022240661698
 30
0.0
  0
SPLINE
  5
8E
330
1F
100
AcDbEntity
  8
0
  6
Continuous
 62
   179
370
     0
100
AcDbSpline
210
0.0
220
0.0
230
1.0
 70
     8
 71
     3
 72
    11
 73
     7
 74
     0
 42
0.000000001
 43
0.00000001
 40
14.0
 40
14.0
 40
14.0
 40
14.0
 40
15.0
 40
15.0
 40
15.0
 40
16.0
 40
16.0
 40
16.0
 40
16.0
 10
297.7632396991476
 20
20.25412130424438
 30
0.0
 10
298.3307257657572
 20
20.41986831094704
 30
0.0
 10
298.4849747460367
 20
20.62384393007452
 30
0.0
 10
298.485073144605
 20
21.23173567742802
 30
0.0
 10
298.4852207424561
 20
22.13796342697173
 30
0.0
 10
298.4851131190222
 20
23.04419117651474
 30
0.0
 10
298.4851131190222
 20
23.97022240661698
 30
0.0
  0
SPLINE
  5
8F
330
1F
100
AcDbEntity
  8
0
  6
Continuous
 62
   179
370
     0
100
AcDbSpline
210
0.0
220
0.0
230
1.0
 70
    24
 71
     3
 72
     8
 73
     4
 74
     0
 42
0.000000001
 43
0.00000001
 40
13.0
 40
13.0
 40
13.0
 40
13.0
 40
14.0
 40
14.0
 40
14.0
 40
14.0
 10
300.2193725060649
 20
20.25412130424438
 30
0.0
 10
299.4006625954106
 20
20.25412130424438
 30
0.0
 10
298.5819526847563
 20
20.25412130424438
 30
0.0
 10
297.7632396991476
 20
20.25412130424438
 30
0.0
  0
SPLINE
  5
90
330
1F
100
AcDbEntity
  8
0
  6
Continuous
 62
   179
370
     0
100
AcDbSpline
210
0.0
220
0.0
230
1.0
 70
     8
 71
     3
 72
    17
 73
    13
 74
     0
 42
0.000000001
 43
0.00000001
 40
9.0
 40
9.0
 40
9.0
 40
9.0
 40
10.0
 40
10.0
 40
10.0
 40
11.0
 40
11.0
 40
11.0
 40
12.0
 40
12.0
 40
12.0
 40
13.0
 40
13.0
 40
13.0
 40
13.0
 10
300.254931288593
 20
27.49433829349534
 30
0.0
 10
300.1600043450263
 20
27.45496618208605
 30
0.0
 10
300.1052670665943
 20
27.43024796211265
 30
0.0
 10
300.049118383702
 20
27.40930924651266
 30
0.0
 10
299.7248336028849
 20
27.28837413924314
 30
0.0
 10
299.5426363543262
 20
27.0468754177367
 30
0.0
 10
299.5421628112159
 20
26.70494346873036
 30
0.0
 10
299.5395583241182
 20
24.8160968563317
 30
0.0
 10
299.5393769017586
 20
22.92724217217554
 30
0.0
 10
299.542119761843
 20
21.03839632851544
 30
0.0
 10
299.5427163031618
 20
20.62720562490344
 30
0.0
 10
299.739442715284
 20
20.41422423058345
 30
0.0
 10
300.2193725060649
 20
20.25412130424438
 30
0.0
  0
SPLINE
  5
91
330
1F
100
AcDbEntity
  8
0
  6
Continuous
 62
   179
370
     0
100
AcDbSpline
210
0.0
220
0.0
230
1.0
 70
    24
 71
     3
 72
     8
 73
     4
 74
     0
 42
0.000000001
 43
0.00000001
 40
8.0
 40
8.0
 40
8.0
 40
8.0
 40
9.0
 40
9.0
 40
9.0
 40
9.0
 10
297.7186989723292
 20
27.49433829349534
 30
0.0
 10
298.5854396840106
 20
27.49433829349534
 30
0.0
 10
299.3949493285535
 20
27.49433829349534
 30
0.0
 10
300.254931288593
 20
27.49433829349534
 30
0.0
  0
SPLINE
  5
92
330
1F
100
AcDbEntity
  8
0
  6
Continuous
 62
   179
370
     0
100
AcDbSpline
210
0.0
220
0.0
230
1.0
 70
     8
 71
     3
 72
    14
 73
    10
 74
     0
 42
0.000000001
 43
0.00000001
 40
5.0
 40
5.0
 40
5.0
 40
5.0
 40
6.0
 40
6.0
 40
6.0
 40
7.0
 40
7.0
 40
7.0
 40
8.0
 40
8.0
 40
8.0
 40
8.0
 10
298.4851131190222
 20
24.16049564077469
 30
0.0
 10
298.4851131190222
 20
24.24049329222683
 30
0.0
 10
298.4851131190222
 20
24.32893553953833
 30
0.0
 10
298.4851131190222
 20
24.41737817121947
 30
0.0
 10
298.4851131190222
 20
25.09736416629037
 30
0.0
 10
298.4851377186649
 20
25.7773505457302
 30
0.0
 10
298.4851069691121
 20
26.45733654080182
 30
0.0
 10
298.4850762195594
 20
27.0944786077999
 30
0.0
 10
298.3648823686909
 20
27.26685790861022
 30
0.0
 10
297.7186989723292
 20
27.49433829349534
 30
0.0
  0
SPLINE
  5
93
330
1F
100
AcDbEntity
  8
0
  6
Continuous
 62
   179
370
     0
100
AcDbSpline
210
0.0
220
0.0
230
1.0
 70
    24
 71
     3
 72
     8
 73
     4
 74
     0
 42
0.000000001
 43
0.00000001
 40
4.0
 40
4.0
 40
4.0
 40
4.0
 40
5.0
 40
5.0
 40
5.0
 40
5.0
 10
295.5632814142282
 20
24.16049564077469
 30
0.0
 10
296.5292663066504
 20
24.16049564077469
 30
0.0
 10
297.4889290910767
 20
24.16049564077469
 30
0.0
 10
298.4851131190222
 20
24.16049564077469
 30
0.0
  0
SPLINE
  5
94
330
1F
100
AcDbEntity
  8
0
  6
Continuous
 62
   179
370
     0
100
AcDbSpline
210
0.0
220
0.0
230
1.0
 70
     8
 71
     3
 72
    14
 73
    10
 74
     0
 42
0.000000001
 43
0.00000001
 40
1.0
 40
1.0
 40
1.0
 40
1.0
 40
2.0
 40
2.0
 40
2.0
 40
3.0
 40
3.0
 40
3.0
 40
4.0
 40
4.0
 40
4.0
 40
4.0
 10
296.2715297073845
 20
27.50458020069892
 30
0.0
 10
295.9411319155254
 20
27.38780204855992
 30
0.0
 10
295.6648994604227
 20
27.22384581892186
 30
0.0
 10
295.5906023916359
 20
26.8479388815276
 30
0.0
 10
295.5792681065788
 20
26.79059327230428
 30
0.0
 10
295.5645605956114
 20
26.73240397223375
 30
0.0
 10
295.5644406723574
 20
26.67457866999212
 30
0.0
 10
295.562743297058
 20
25.84365465270932
 30
0.0
 10
295.5632814142282
 20
25.01272602299438
 30
0.0
 10
295.5632814142282
 20
24.16049564077469
 30
0.0
  0
SPLINE
  5
95
330
1F
100
AcDbEntity
  8
0
  6
Continuous
 62
   179
370
     0
100
AcDbSpline
210
0.0
220
0.0
230
1.0
 70
    24
 71
     3
 72
     8
 73
     4
 74
     0
 42
0.000000001
 43
0.00000001
 40
0.0
 40
0.0
 40
0.0
 40
0.0
 40
1.0
 40
1.0
 40
1.0
 40
1.0
 10
293.841527870193
 20
27.50458020069892
 30
0.0
 10
294.6515264326192
 20
27.50458020069892
 30
0.0
 10
295.4615280700011
 20
27.50458020069892
 30
0.0
 10
296.2715297073845
 20
27.50458020069892
 30
0.0
  0
SPLINE
  5
96
330
1F
100
AcDbEntity
  8
0
  6
Continuous
 62
   179
370
     0
100
AcDbSpline
210
0.0
220
0.0
230
1.0
 70
     8
 71
     3
 72
    14
 73
    10
 74
     0
 42
0.000000001
 43
0.00000001
 40
17.0
 40
17.0
 40
17.0
 40
17.0
 40
18.0
 40
18.0
 40
18.0
 40
19.0
 40
19.0
 40
19.0
 40
20.0
 40
20.0
 40
20.0
 40
20.0
 10
257.7053577757453
 20
20.25910042553502
 30
0.0
 10
258.2139995287706
 20
20.39587059142628
 30
0.0
 10
258.4104423723632
 20
20.62446660851326
 30
0.0
 10
258.4124688639662
 20
21.16843695483816
 30
0.0
 10
258.4191609275175
 20
22.96470127704906
 30
0.0
 10
258.4149081683119
 20
24.76100595804667
 30
0.0
 10
258.4151320634913
 20
26.55729487989966
 30
0.0
 10
258.4151924094879
 20
27.04153921726714
 30
0.0
 10
258.2057453879524
 20
27.36893835120057
 30
0.0
 10
257.7192638284546
 20
27.51463645747964
 30
0.0
  0
SPLINE
  5
97
330
1F
100
AcDbEntity
  8
0
  6
Continuous
 62
   179
370
     0
100
AcDbSpline
210
0.0
220
0.0
230
1.0
 70
    24
 71
     3
 72
     8
 73
     4
 74
     0
 42
0.000000001
 43
0.00000001
 40
16.0
 40
16.0
 40
16.0
 40
16.0
 40
17.0
 40
17.0
 40
17.0
 40
17.0
 10
260.1134120717832
 20
20.25910042553502
 30
0.0
 10
259.3107272904223
 20
20.25910042553502
 30
0.0
 10
258.5080426051526
 20
20.25910042553502
 30
0.0
 10
257.7053577757453
 20
20.25910042553502
 30
0.0
  0
SPLINE
  5
98
330
1F
100
AcDbEntity
  8
0
  6
Continuous
 62
   179
370
     0
100
AcDbSpline
210
0.0
220
0.0
230
1.0
 70
     8
 71
     3
 72
    14
 73
    10
 74
     0
 42
0.000000001
 43
0.00000001
 40
13.0
 40
13.0
 40
13.0
 40
13.0
 40
14.0
 40
14.0
 40
14.0
 40
15.0
 40
15.0
 40
15.0
 40
16.0
 40
16.0
 40
16.0
 40
16.0
 10
259.4607286043899
 20
23.57138302951071
 30
0.0
 10
259.4539911852495
 20
23.51939476107442
 30
0.0
 10
259.4406539512153
 20
23.46398560492077
 30
0.0
 10
259.4405559370167
 20
23.40855338660287
 30
0.0
 10
259.4392191002215
 20
22.65310606781493
 30
0.0
 10
259.4366701545022
 20
21.89763799307776
 30
0.0
 10
259.4408326829897
 20
21.14221143023692
 30
0.0
 10
259.4435911100346
 20
20.64162793377142
 30
0.0
 10
259.6377614656041
 20
20.40079128856705
 30
0.0
 10
260.1134120717832
 20
20.25910042553502
 30
0.0
  0
SPLINE
  5
99
330
1F
100
AcDbEntity
  8
0
  6
Continuous
 62
   179
370
     0
100
AcDbSpline
210
0.0
220
0.0
230
1.0
 70
     8
 71
     3
 72
    20
 73
    16
 74
     0
 42
0.000000001
 43
0.00000001
 40
8.0
 40
8.0
 40
8.0
 40
8.0
 40
9.0
 40
9.0
 40
9.0
 40
10.0
 40
10.0
 40
10.0
 40
11.0
 40
11.0
 40
11.0
 40
12.0
 40
12.0
 40
12.0
 40
13.0
 40
13.0
 40
13.0
 40
13.0
 10
263.9554858268652
 20
20.24609336482204
 30
0.0
 10
263.8909540472192
 20
20.24131411562172
 30
0.0
 10
263.8264337986555
 20
20.23257048036439
 30
0.0
 10
263.7618904879275
 20
20.2323936704376
 30
0.0
 10
263.3170171088603
 20
20.2311736819415
 30
0.0
 10
262.8718696744063
 20
20.24067529366942
 30
0.0
 10
262.427398730108
 20
20.22724465786874
 30
0.0
 10
262.2549406335689
 20
20.22203337745712
 30
0.0
 10
262.1765046750147
 20
20.28890135435546
 30
0.0
 10
262.1067370153144
 20
20.43629933433309
 30
0.0
 10
261.7451764738302
 20
21.20016664933901
 30
0.0
 10
261.3780268168071
 20
21.9614848264415
 30
0.0
 10
261.0037355762117
 20
22.71920223094413
 30
0.0
 10
260.6054131759577
 20
23.52556773374194
 30
0.0
 10
260.3725694925604
 20
23.65083910446932
 30
0.0
 10
259.4607286043899
 20
23.57138302951071
 30
0.0
  0
SPLINE
  5
9A
330
1F
100
AcDbEntity
  8
0
  6
Continuous
 62
   179
370
     0
100
AcDbSpline
210
0.0
220
0.0
230
1.0
 70
     8
 71
     3
 72
    14
 73
    10
 74
     0
 42
0.000000001
 43
0.00000001
 40
5.0
 40
5.0
 40
5.0
 40
5.0
 40
6.0
 40
6.0
 40
6.0
 40
7.0
 40
7.0
 40
7.0
 40
8.0
 40
8.0
 40
8.0
 40
8.0
 10
261.0219043336847
 20
23.63056361828031
 30
0.0
 10
261.7521543160346
 20
23.35408286053947
 30
0.0
 10
262.033208300972
 20
22.73079019980925
 30
0.0
 10
262.3739921385617
 20
22.16106556577573
 30
0.0
 10
262.6276890153665
 20
21.7369354504649
 30
0.0
 10
262.8739775562312
 20
21.30835818112305
 30
0.0
 10
263.1292772534608
 20
20.88520667032095
 30
0.0
 10
263.3178377375433
 20
20.57267359973515
 30
0.0
 10
263.5606000734738
 20
20.32757122285868
 30
0.0
 10
263.9554858268652
 20
20.24609336482204
 30
0.0
  0
SPLINE
  5
9B
330
1F
100
AcDbEntity
  8
0
  6
Continuous
 62
   179
370
     0
100
AcDbSpline
210
0.0
220
0.0
230
1.0
 70
     8
 71
     3
 72
    20
 73
    16
 74
     0
 42
0.000000001
 43
0.00000001
 40
0.0
 40
0.0
 40
0.0
 40
0.0
 40
1.0
 40
1.0
 40
1.0
 40
2.0
 40
2.0
 40
2.0
 40
3.0
 40
3.0
 40
3.0
 40
4.0
 40
4.0
 40
4.0
 40
5.0
 40
5.0
 40
5.0
 40
5.0
 10
257.7192638284546
 20
27.51463645747964
 30
0.0
 10
258.1174764912431
 20
27.51463645747964
 30
0.0
 10
258.5159962651877
 20
27.52468175973202
 30
0.0
 10
258.913837050576
 20
27.51251762112626
 30
0.0
 10
259.7094699986222
 20
27.48819126576296
 30
0.0
 10
260.5093946232761
 20
27.49481913962259
 30
0.0
 10
261.2989762515716
 20
27.40941936834727
 30
0.0
 10
262.3071445332423
 20
27.30037799580672
 30
0.0
 10
262.8488620904764
 20
26.74717259793779
 30
0.0
 10
262.9131259646454
 20
25.88395655371281
 30
0.0
 10
262.9966382899504
 20
24.76217905347503
 30
0.0
 10
262.5617362220245
 20
24.08644572151765
 30
0.0
 10
261.5515161764629
 20
23.77337299628438
 30
0.0
 10
261.3945785321864
 20
23.72473719781129
 30
0.0
 10
261.2341319795987
 20
23.68742184709605
 30
0.0
 10
261.0219043336847
 20
23.63056361828031
 30
0.0
  0
SPLINE
  5
9C
330
1F
100
AcDbEntity
  8
0
  6
Continuous
 62
   179
370
     0
100
AcDbSpline
210
0.0
220
0.0
230
1.0
 70
     8
 71
     3
 72
    20
 73
    16
 74
     0
 42
0.000000001
 43
0.00000001
 40
1.0
 40
1.0
 40
1.0
 40
1.0
 40
2.0
 40
2.0
 40
2.0
 40
3.0
 40
3.0
 40
3.0
 40
4.0
 40
4.0
 40
4.0
 40
5.0
 40
5.0
 40
5.0
 40
6.0
 40
6.0
 40
6.0
 40
6.0
 10
259.4558811296203
 20
23.74052094311723
 30
0.0
 10
259.8313410453958
 20
23.74052094311723
 30
0.0
 10
260.1942113256325
 20
23.70804326575078
 30
0.0
 10
260.5489927438957
 20
23.74778168120398
 30
0.0
 10
261.1506181168165
 20
23.81517009427841
 30
0.0
 10
261.6082598631961
 20
24.13857044109259
 30
0.0
 10
261.7413862071132
 20
24.73962656292206
 30
0.0
 10
261.8389787525148
 20
25.18024881635489
 30
0.0
 10
261.8719876284001
 20
25.65810454981779
 30
0.0
 10
261.8164781518313
 20
26.10478869315943
 30
0.0
 10
261.7108519014664
 20
26.95476897687368
 30
0.0
 10
261.3230227860075
 20
27.28690123567825
 30
0.0
 10
260.4792308497364
 20
27.35420547185249
 30
0.0
 10
260.146744010155
 20
27.38072599997261
 30
0.0
 10
259.8103733099057
 20
27.35855230546976
 30
0.0
 10
259.4558811296203
 20
27.35855230546976
 30
0.0
  0
SPLINE
  5
9D
330
1F
100
AcDbEntity
  8
0
  6
Continuous
 62
   179
370
     0
100
AcDbSpline
210
0.0
220
0.0
230
1.0
 70
    24
 71
     3
 72
     8
 73
     4
 74
     0
 42
0.000000001
 43
0.00000001
 40
0.0
 40
0.0
 40
0.0
 40
0.0
 40
1.0
 40
1.0
 40
1.0
 40
1.0
 10
259.4558811296203
 20
27.35855230546976
 30
0.0
 10
259.4558811296203
 20
26.13864548795524
 30
0.0
 10
259.4558811296203
 20
24.94385548148867
 30
0.0
 10
259.4558811296203
 20
23.74052094311723
 30
0.0
  0
SPLINE
  5
9E
330
1F
100
AcDbEntity
  8
0
  6
Continuous
 62
   179
370
     0
100
AcDbSpline
210
0.0
220
0.0
230
1.0
 70
     8
 71
     3
 72
    14
 73
    10
 74
     0
 42
0.000000001
 43
0.00000001
 40
3.0
 40
3.0
 40
3.0
 40
3.0
 40
4.0
 40
4.0
 40
4.0
 40
5.0
 40
5.0
 40
5.0
 40
6.0
 40
6.0
 40
6.0
 40
6.0
 10
267.2336118279071
 20
20.23490821509466
 30
0.0
 10
266.3034040398355
 20
20.48709452013179
 30
0.0
 10
265.5792320909092
 20
21.34541139190241
 30
0.0
 10
265.4837047623288
 20
22.29272284982233
 30
0.0
 10
265.4259332718035
 20
22.86561853145873
 30
0.0
 10
265.4879189885011
 20
23.41465794151554
 30
0.0
 10
265.7739382574312
 20
23.92202056120339
 30
0.0
 10
266.225828300013
 20
24.72361219597301
 30
0.0
 10
266.9062728477855
 20
25.1505801106106
 30
0.0
 10
267.7758432870376
 20
25.16748813643033
 30
0.0
  0
SPLINE
  5
9F
330
1F
100
AcDbEntity
  8
0
  6
Continuous
 62
   179
370
     0
100
AcDbSpline
210
0.0
220
0.0
230
1.0
 70
     8
 71
     3
 72
    14
 73
    10
 74
     0
 42
0.000000001
 43
0.00000001
 40
0.0
 40
0.0
 40
0.0
 40
0.0
 40
1.0
 40
1.0
 40
1.0
 40
2.0
 40
2.0
 40
2.0
 40
3.0
 40
3.0
 40
3.0
 40
3.0
 10
267.7758432870376
 20
25.16748813643033
 30
0.0
 10
268.6216197225536
 20
25.16033694362373
 30
0.0
 10
269.2464106552308
 20
24.83848445240962
 30
0.0
 10
269.7103360726668
 20
24.21398909980579
 30
0.0
 10
270.372934348899
 20
23.32205720159637
 30
0.0
 10
270.3723808569537
 20
22.03321892002499
 30
0.0
 10
269.7215189161772
 20
21.13111084177938
 30
0.0
 10
269.1482911393735
 20
20.33660467264828
 30
0.0
 10
268.1650050112285
 20
19.98240211471103
 30
0.0
 10
267.2336118279071
 20
20.23490821509466
 30
0.0
  0
SPLINE
  5
A0
330
1F
100
AcDbEntity
  8
0
  6
Continuous
 62
   179
370
     0
100
AcDbSpline
210
0.0
220
0.0
230
1.0
 70
     8
 71
     3
 72
    17
 73
    13
 74
     0
 42
0.000000001
 43
0.00000001
 40
4.0
 40
4.0
 40
4.0
 40
4.0
 40
5.0
 40
5.0
 40
5.0
 40
6.0
 40
6.0
 40
6.0
 40
7.0
 40
7.0
 40
7.0
 40
8.0
 40
8.0
 40
8.0
 40
8.0
 10
266.4699528411193
 20
22.82140374989816
 30
0.0
 10
266.4269741915698
 20
22.16270989809668
 30
0.0
 10
266.5287029361534
 20
21.51524885782823
 30
0.0
 10
266.8746830637486
 20
20.93428603108956
 30
0.0
 10
267.1048165584612
 20
20.54785025472892
 30
0.0
 10
267.4153070900211
 20
20.27237193240103
 30
0.0
 10
267.9076604687568
 20
20.30531315927085
 30
0.0
 10
268.3388937306983
 20
20.33416469565678
 30
0.0
 10
268.6078393105943
 20
20.59660136402461
 30
0.0
 10
268.810867074766
 20
20.94311038392242
 30
0.0
 10
269.1208448575376
 20
21.47214721006825
 30
0.0
 10
269.202432645224
 20
22.05765558940843
 30
0.0
 10
269.218762963826
 20
22.6835112253406
 30
0.0
  0
SPLINE
  5
A1
330
1F
100
AcDbEntity
  8
0
  6
Continuous
 62
   179
370
     0
100
AcDbSpline
210
0.0
220
0.0
230
1.0
 70
     8
 71
     3
 72
    17
 73
    13
 74
     0
 42
0.000000001
 43
0.00000001
 40
0.0
 40
0.0
 40
0.0
 40
0.0
 40
1.0
 40
1.0
 40
1.0
 40
2.0
 40
2.0
 40
2.0
 40
3.0
 40
3.0
 40
3.0
 40
4.0
 40
4.0
 40
4.0
 40
4.0
 10
269.218762963826
 20
22.6835112253406
 30
0.0
 10
269.195680043492
 20
23.34551372899321
 30
0.0
 10
269.0963628325642
 20
24.01168817818242
 30
0.0
 10
268.6683621173312
 20
24.58056604641373
 30
0.0
 10
268.2143234497673
 20
25.18405330473933
 30
0.0
 10
267.4640605055332
 20
25.19142205062979
 30
0.0
 10
267.0072628343699
 20
24.59213287496141
 30
0.0
 10
266.882078331128
 20
24.42789874624284
 30
0.0
 10
266.7597204805012
 20
24.2414496033099
 30
0.0
 10
266.7072125446275
 20
24.04607386528146
 30
0.0
 10
266.5993976948625
 20
23.64490674705059
 30
0.0
 10
266.4968487059656
 20
23.23360918874381
 30
0.0
 10
266.4699528411193
 20
22.82140374989816
 30
0.0
  0
SPLINE
  5
A2
330
1F
100
AcDbEntity
  8
0
  6
Continuous
 62
   179
370
     0
100
AcDbSpline
210
0.0
220
0.0
230
1.0
 70
     8
 71
     3
 72
    17
 73
    13
 74
     0
 42
0.000000001
 43
0.00000001
 40
6.0
 40
6.0
 40
6.0
 40
6.0
 40
7.0
 40
7.0
 40
7.0
 40
8.0
 40
8.0
 40
8.0
 40
9.0
 40
9.0
 40
9.0
 40
10.0
 40
10.0
 40
10.0
 40
10.0
 10
311.6156486607862
 20
20.25320881127337
 30
0.0
 10
312.1185268426077
 20
20.41647125413319
 30
0.0
 10
312.2872188877024
 20
20.63608302071405
 30
0.0
 10
312.2876555313485
 20
21.16871754450475
 30
0.0
 10
312.2890700107628
 20
22.88922803787956
 30
0.0
 10
312.287766229737
 20
24.60974045310045
 30
0.0
 10
312.2871819882396
 20
26.33025248395311
 30
0.0
 10
312.2871512386867
 20
26.42255802816858
 30
0.0
 10
312.2845313768121
 20
26.51487279724975
 30
0.0
 10
312.2823973578678
 20
26.60716642601487
 30
0.0
 10
312.2683694120104
 20
27.21300429544448
 30
0.0
 10
312.2096131670664
 20
27.27631108979181
 30
0.0
 10
311.6691528821609
 20
27.32445797038016
 30
0.0
  0
SPLINE
  5
A3
330
1F
100
AcDbEntity
  8
0
  6
Continuous
 62
   179
370
     0
100
AcDbSpline
210
0.0
220
0.0
230
1.0
 70
    24
 71
     3
 72
     8
 73
     4
 74
     0
 42
0.000000001
 43
0.00000001
 40
5.0
 40
5.0
 40
5.0
 40
5.0
 40
6.0
 40
6.0
 40
6.0
 40
6.0
 10
313.8867245107604
 20
20.25320881127337
 30
0.0
 10
313.0865658051385
 20
20.25320881127337
 30
0.0
 10
312.3511103079175
 20
20.25320881127337
 30
0.0
 10
311.6156486607862
 20
20.25320881127337
 30
0.0
  0
SPLINE
  5
A4
330
1F
100
AcDbEntity
  8
0
  6
Continuous
 62
   179
370
     0
100
AcDbSpline
210
0.0
220
0.0
230
1.0
 70
     8
 71
     3
 72
    17
 73
    13
 74
     0
 42
0.000000001
 43
0.00000001
 40
1.0
 40
1.0
 40
1.0
 40
1.0
 40
2.0
 40
2.0
 40
2.0
 40
3.0
 40
3.0
 40
3.0
 40
4.0
 40
4.0
 40
4.0
 40
5.0
 40
5.0
 40
5.0
 40
5.0
 10
313.1781318226163
 20
27.87703492426926
 30
0.0
 10
313.1781318226163
 20
27.83642744958889
 30
0.0
 10
313.1781318226163
 20
27.75161518695077
 30
0.0
 10
313.1781318226163
 20
27.66680273212925
 30
0.0
 10
313.1781318226163
 20
25.57700952371036
 30
0.0
 10
313.1781256727049
 20
23.48721689184594
 30
0.0
 10
313.1781441224363
 20
21.39742349124223
 30
0.0
 10
313.1781441224363
 20
21.32188875296784
 30
0.0
 10
313.1771847363982
 20
21.24633325874564
 30
0.0
 10
313.1786115156352
 20
21.17082388885262
 30
0.0
 10
313.1888880160859
 20
20.62648762285203
 30
0.0
 10
313.3266152617988
 20
20.4348325806782
 30
0.0
 10
313.8867245107604
 20
20.25320881127337
 30
0.0
  0
SPLINE
  5
A5
330
1F
100
AcDbEntity
  8
0
  6
Continuous
 62
   179
370
     0
100
AcDbSpline
210
0.0
220
0.0
230
1.0
 70
     8
 71
     3
 72
     8
 73
     4
 74
     0
 42
0.000000001
 43
0.00000001
 40
0.0
 40
0.0
 40
0.0
 40
0.0
 40
1.0
 40
1.0
 40
1.0
 40
1.0
 10
311.6691528821609
 20
27.32445797038016
 30
0.0
 10
312.1410908642435
 20
27.49727756634619
 30
0.0
 10
312.6458878181427
 20
27.68213176842718
 30
0.0
 10
313.1781318226163
 20
27.87703492426926
 30
0.0
  0
SPLINE
  5
A6
330
1F
100
AcDbEntity
  8
0
  6
Continuous
 62
   179
370
     0
100
AcDbSpline
210
0.0
220
0.0
230
1.0
 70
     8
 71
     3
 72
    14
 73
    10
 74
     0
 42
0.000000001
 43
0.00000001
 40
6.0
 40
6.0
 40
6.0
 40
6.0
 40
7.0
 40
7.0
 40
7.0
 40
8.0
 40
8.0
 40
8.0
 40
9.0
 40
9.0
 40
9.0
 40
9.0
 10
278.4819664915177
 20
27.88441039662488
 30
0.0
 10
278.4819664915177
 20
27.83987735719566
 30
0.0
 10
278.4819649540404
 20
27.75219577693941
 30
0.0
 10
278.4819649540404
 20
27.66451419668386
 30
0.0
 10
278.4819664915177
 20
25.48269219002111
 30
0.0
 10
278.4816605334703
 20
23.30086999117493
 30
0.0
 10
278.4822124879378
 20
21.11904779232805
 30
0.0
 10
278.4823339486704
 20
20.63637283524633
 30
0.0
 10
278.6550987719953
 20
20.40793364087759
 30
0.0
 10
279.1055120673173
 20
20.25491771765491
 30
0.0
  0
SPLINE
  5
A7
330
1F
100
AcDbEntity
  8
0
  6
Continuous
 62
   179
370
     0
100
AcDbSpline
210
0.0
220
0.0
230
1.0
 70
     8
 71
     3
 72
     8
 73
     4
 74
     0
 42
0.000000001
 43
0.00000001
 40
5.0
 40
5.0
 40
5.0
 40
5.0
 40
6.0
 40
6.0
 40
6.0
 40
6.0
 10
276.9846800684063
 20
27.3296354262854
 30
0.0
 10
277.4478728777531
 20
27.5012575193644
 30
0.0
 10
277.9568994326009
 20
27.68986239811422
 30
0.0
 10
278.4819664915177
 20
27.88441039662488
 30
0.0
  0
SPLINE
  5
A8
330
1F
100
AcDbEntity
  8
0
  6
Continuous
 62
   179
370
     0
100
AcDbSpline
210
0.0
220
0.0
230
1.0
 70
     8
 71
     3
 72
    17
 73
    13
 74
     0
 42
0.000000001
 43
0.00000001
 40
1.0
 40
1.0
 40
1.0
 40
1.0
 40
2.0
 40
2.0
 40
2.0
 40
3.0
 40
3.0
 40
3.0
 40
4.0
 40
4.0
 40
4.0
 40
5.0
 40
5.0
 40
5.0
 40
5.0
 10
276.9460186560295
 20
20.25491771765491
 30
0.0
 10
277.4179566381115
 20
20.4199152040148
 30
0.0
 10
277.5770686601204
 20
20.6342380475635
 30
0.0
 10
277.5771993457187
 20
21.13377529050539
 30
0.0
 10
277.5776652014392
 20
22.92958298186009
 30
0.0
 10
277.5773700057348
 20
24.72538990447762
 30
0.0
 10
277.577359243392
 20
26.52119721146338
 30
0.0
 10
277.577359243392
 20
26.53798031722657
 30
0.0
 10
277.5773838430334
 20
26.55476419172763
 30
0.0
 10
277.5772915943764
 20
26.57154691311976
 30
0.0
 10
277.5738092075535
 20
27.20775573119973
 30
0.0
 10
277.5366914227135
 20
27.25167954511983
 30
0.0
 10
276.9846800684063
 20
27.3296354262854
 30
0.0
  0
SPLINE
  5
A9
330
1F
100
AcDbEntity
  8
0
  6
Continuous
 62
   179
370
     0
100
AcDbSpline
210
0.0
220
0.0
230
1.0
 70
    24
 71
     3
 72
     8
 73
     4
 74
     0
 42
0.000000001
 43
0.00000001
 40
0.0
 40
0.0
 40
0.0
 40
0.0
 40
1.0
 40
1.0
 40
1.0
 40
1.0
 10
279.1055120673173
 20
20.25491771765491
 30
0.0
 10
278.3856819552066
 20
20.25491771765491
 30
0.0
 10
277.6658503056181
 20
20.25491771765491
 30
0.0
 10
276.9460186560295
 20
20.25491771765491
 30
0.0
  0
SPLINE
  5
AA
330
1F
100
AcDbEntity
  8
0
  6
Continuous
 62
   179
370
     0
100
AcDbSpline
210
0.0
220
0.0
230
1.0
 70
     8
 71
     3
 72
    20
 73
    16
 74
     0
 42
0.000000001
 43
0.00000001
 40
5.0
 40
5.0
 40
5.0
 40
5.0
 40
6.0
 40
6.0
 40
6.0
 40
7.0
 40
7.0
 40
7.0
 40
8.0
 40
8.0
 40
8.0
 40
9.0
 40
9.0
 40
9.0
 40
10.0
 40
10.0
 40
10.0
 40
10.0
 10
307.178408284104
 20
20.25443648715803
 30
0.0
 10
307.3179589782804
 20
20.36177625633667
 30
0.0
 10
307.5293898264143
 20
20.45652254628292
 30
0.0
 10
307.6283941606455
 20
20.61954360515536
 30
0.0
 10
307.7285516030972
 20
20.78446498637256
 30
0.0
 10
307.7490584796685
 20
21.01681475508337
 30
0.0
 10
307.7500732149022
 20
21.21990094340409
 30
0.0
 10
307.7587445887104
 20
22.95682170421714
 30
0.0
 10
307.7550484924979
 20
24.69380511724258
 30
0.0
 10
307.7550361926766
 20
26.43077008053731
 30
0.0
 10
307.7550361926766
 20
26.49789904426263
 30
0.0
 10
307.7552944889175
 20
26.56503146731187
 30
0.0
 10
307.7547502218385
 20
26.63215658734291
 30
0.0
 10
307.7501131893193
 20
27.20350460556406
 30
0.0
 10
307.6774858212348
 20
27.28280885460759
 30
0.0
 10
307.160813390154
 20
27.32540717062984
 30
0.0
  0
SPLINE
  5
AB
330
1F
100
AcDbEntity
  8
0
  6
Continuous
 62
   179
370
     0
100
AcDbSpline
210
0.0
220
0.0
230
1.0
 70
    24
 71
     3
 72
     8
 73
     4
 74
     0
 42
0.000000001
 43
0.00000001
 40
4.0
 40
4.0
 40
4.0
 40
4.0
 40
5.0
 40
5.0
 40
5.0
 40
5.0
 10
309.3620693061908
 20
20.25443648715802
 30
0.0
 10
308.5715044609525
 20
20.25443648715802
 30
0.0
 10
307.8517004859625
 20
20.25443648715802
 30
0.0
 10
307.178408284104
 20
20.25443648715803
 30
0.0
  0
SPLINE
  5
AC
330
1F
100
AcDbEntity
  8
0
  6
Continuous
 62
   179
370
     0
100
AcDbSpline
210
0.0
220
0.0
230
1.0
 70
     8
 71
     3
 72
    14
 73
    10
 74
     0
 42
0.000000001
 43
0.00000001
 40
1.0
 40
1.0
 40
1.0
 40
1.0
 40
2.0
 40
2.0
 40
2.0
 40
3.0
 40
3.0
 40
3.0
 40
4.0
 40
4.0
 40
4.0
 40
4.0
 10
308.65963267846
 20
27.88697759989075
 30
0.0
 10
308.65963267846
 20
27.83196991758182
 30
0.0
 10
308.65963267846
 20
27.74275854708867
 30
0.0
 10
308.65963267846
 20
27.65354698440997
 30
0.0
 10
308.65963267846
 20
25.48863300356693
 30
0.0
 10
308.6595035303402
 20
23.32371921490945
 30
0.0
 10
308.6597187772069
 20
21.15880542625192
 30
0.0
 10
308.6597679764911
 20
20.6374237012035
 30
0.0
 10
308.807415027844
 20
20.43200746554105
 30
0.0
 10
309.3620693061909
 20
20.25443648715802
 30
0.0
  0
SPLINE
  5
AD
330
1F
100
AcDbEntity
  8
0
  6
Continuous
 62
   179
370
     0
100
AcDbSpline
210
0.0
220
0.0
230
1.0
 70
     8
 71
     3
 72
     8
 73
     4
 74
     0
 42
0.000000001
 43
0.00000001
 40
0.0
 40
0.0
 40
0.0
 40
0.0
 40
1.0
 40
1.0
 40
1.0
 40
1.0
 10
307.160813390154
 20
27.32540717062984
 30
0.0
 10
307.6336123597078
 20
27.50255342081908
 30
0.0
 10
308.1420254609839
 20
27.69304267058278
 30
0.0
 10
308.65963267846
 20
27.88697759989075
 30
0.0
  0
SPLINE
  5
AE
330
1F
100
AcDbEntity
  8
0
  6
Continuous
 62
   179
370
     0
100
AcDbSpline
210
0.0
220
0.0
230
1.0
 70
     8
 71
     3
 72
    14
 73
    10
 74
     0
 42
0.000000001
 43
0.00000001
 40
6.0
 40
6.0
 40
6.0
 40
6.0
 40
7.0
 40
7.0
 40
7.0
 40
8.0
 40
8.0
 40
8.0
 40
9.0
 40
9.0
 40
9.0
 40
9.0
 10
272.426404840594
 20
20.25907966958721
 30
0.0
 10
273.005992393597
 20
20.37668517687365
 30
0.0
 10
273.0805785081768
 20
20.81042375860577
 30
0.0
 10
273.0783845276048
 20
21.29462927466368
 30
0.0
 10
273.0702866329497
 20
23.08209538116095
 30
0.0
 10
273.0685846452182
 20
24.86961337752775
 30
0.0
 10
273.0527409382852
 20
26.65700799131587
 30
0.0
 10
273.0476395875227
 20
27.23250104921648
 30
0.0
 10
272.9826104338649
 20
27.28380667758701
 30
0.0
 10
272.4594267850394
 20
27.32510813123116
 30
0.0
  0
SPLINE
  5
AF
330
1F
100
AcDbEntity
  8
0
  6
Continuous
 62
   179
370
     0
100
AcDbSpline
210
0.0
220
0.0
230
1.0
 70
    24
 71
     3
 72
     8
 73
     4
 74
     0
 42
0.000000001
 43
0.00000001
 40
5.0
 40
5.0
 40
5.0
 40
5.0
 40
6.0
 40
6.0
 40
6.0
 40
6.0
 10
274.6224502449564
 20
20.25907966958721
 30
0.0
 10
273.8904356226618
 20
20.25907966958721
 30
0.0
 10
273.1584194628893
 20
20.25907966958721
 30
0.0
 10
272.426404840594
 20
20.25907966958721
 30
0.0
  0
SPLINE
  5
B0
330
1F
100
AcDbEntity
  8
0
  6
Continuous
 62
   179
370
     0
100
AcDbSpline
210
0.0
220
0.0
230
1.0
 70
     8
 71
     3
 72
    17
 73
    13
 74
     0
 42
0.000000001
 43
0.00000001
 40
1.0
 40
1.0
 40
1.0
 40
1.0
 40
2.0
 40
2.0
 40
2.0
 40
3.0
 40
3.0
 40
3.0
 40
4.0
 40
4.0
 40
4.0
 40
5.0
 40
5.0
 40
5.0
 40
5.0
 10
273.9540333846496
 20
27.87257450949275
 30
0.0
 10
273.9540333846496
 20
27.8074859707617
 30
0.0
 10
273.9540333846496
 20
27.71082379150879
 30
0.0
 10
273.9540333846496
 20
27.61416161225588
 30
0.0
 10
273.9540349221275
 20
25.51596282147274
 30
0.0
 10
273.9539872603212
 20
23.41776441505854
 30
0.0
 10
273.9542086570993
 20
21.31956562427539
 30
0.0
 10
273.954217881965
 20
21.22727776105204
 30
0.0
 10
273.9506540088286
 20
21.13443409966764
 30
0.0
 10
273.9590578615309
 20
21.04279505200227
 30
0.0
 10
274.0006220316647
 20
20.58964274029083
 30
0.0
 10
274.1836818051717
 20
20.38260600321025
 30
0.0
 10
274.6224502449564
 20
20.25907966958721
 30
0.0
  0
SPLINE
  5
B1
330
1F
100
AcDbEntity
  8
0
  6
Continuous
 62
   179
370
     0
100
AcDbSpline
210
0.0
220
0.0
230
1.0
 70
     8
 71
     3
 72
     8
 73
     4
 74
     0
 42
0.000000001
 43
0.00000001
 40
0.0
 40
0.0
 40
0.0
 40
0.0
 40
1.0
 40
1.0
 40
1.0
 40
1.0
 10
272.4594267850394
 20
27.32510813123116
 30
0.0
 10
272.932774634105
 20
27.49849255803981
 30
0.0
 10
273.4351023989377
 20
27.68249307566929
 30
0.0
 10
273.9540333846496
 20
27.87257450949275
 30
0.0
  0
SPLINE
  5
B2
330
1F
100
AcDbEntity
  8
0
  6
Continuous
 62
   179
370
     0
100
AcDbSpline
210
0.0
220
0.0
230
1.0
 70
     8
 71
     3
 72
    17
 73
    13
 74
     0
 42
0.000000001
 43
0.00000001
 40
6.0
 40
6.0
 40
6.0
 40
6.0
 40
7.0
 40
7.0
 40
7.0
 40
8.0
 40
8.0
 40
8.0
 40
9.0
 40
9.0
 40
9.0
 40
10.0
 40
10.0
 40
10.0
 40
10.0
 10
304.1706223551654
 20
25.06377258638473
 30
0.0
 10
304.1727133247369
 20
25.01792115989103
 30
0.0
 10
304.1800409430993
 20
24.93136078519359
 30
0.0
 10
304.1800932173391
 20
24.84479541369365
 30
0.0
 10
304.1808527312862
 20
23.65282014439031
 30
0.0
 10
304.1797703470369
 20
22.46084295323947
 30
0.0
 10
304.1818797663413
 20
21.26887114326077
 30
0.0
 10
304.1821011631179
 20
21.14380579453512
 30
0.0
 10
304.1922454404933
 20
21.01764883669525
 30
0.0
 10
304.2107535961514
 20
20.89393877449616
 30
0.0
 10
304.2621822227331
 20
20.55023795748125
 30
0.0
 10
304.4578262506062
 20
20.33981031349823
 30
0.0
 10
304.8038079156779
 20
20.2539775500868
 30
0.0
  0
SPLINE
  5
B3
330
1F
100
AcDbEntity
  8
0
  6
Continuous
 62
   179
370
     0
100
AcDbSpline
210
0.0
220
0.0
230
1.0
 70
     8
 71
     3
 72
     8
 73
     4
 74
     0
 42
0.000000001
 43
0.00000001
 40
5.0
 40
5.0
 40
5.0
 40
5.0
 40
6.0
 40
6.0
 40
6.0
 40
6.0
 10
302.7125031745686
 20
24.50968064047994
 30
0.0
 10
303.1898069535648
 20
24.6910587978335
 30
0.0
 10
303.6729961969132
 20
24.87467283202501
 30
0.0
 10
304.1706223551654
 20
25.06377258638473
 30
0.0
  0
SPLINE
  5
B4
330
1F
100
AcDbEntity
  8
0
  6
Continuous
 62
   179
370
     0
100
AcDbSpline
210
0.0
220
0.0
230
1.0
 70
     8
 71
     3
 72
    17
 73
    13
 74
     0
 42
0.000000001
 43
0.00000001
 40
1.0
 40
1.0
 40
1.0
 40
1.0
 40
2.0
 40
2.0
 40
2.0
 40
3.0
 40
3.0
 40
3.0
 40
4.0
 40
4.0
 40
4.0
 40
5.0
 40
5.0
 40
5.0
 40
5.0
 10
302.6973344203136
 20
20.2539775500868
 30
0.0
 10
303.1321361678242
 20
20.3494649042487
 30
0.0
 10
303.2897768237453
 20
20.65853557522151
 30
0.0
 10
303.2916556214045
 20
21.04785181591347
 30
0.0
 10
303.2966032244031
 20
22.071496731734
 30
0.0
 10
303.2829750227277
 20
23.09531768874207
 30
0.0
 10
303.2668591822546
 20
24.11891186780057
 30
0.0
 10
303.2632153602819
 20
24.35030186610297
 30
0.0
 10
303.1332831261333
 20
24.4918735746181
 30
0.0
 10
302.8846514693662
 20
24.49557889569631
 30
0.0
 10
302.8224697242705
 20
24.49650561033552
 30
0.0
 10
302.760410977386
 20
24.5055728846329
 30
0.0
 10
302.7125031745686
 20
24.50968064047994
 30
0.0
  0
SPLINE
  5
B5
330
1F
100
AcDbEntity
  8
0
  6
Continuous
 62
   179
370
     0
100
AcDbSpline
210
0.0
220
0.0
230
1.0
 70
    24
 71
     3
 72
     8
 73
     4
 74
     0
 42
0.000000001
 43
0.00000001
 40
0.0
 40
0.0
 40
0.0
 40
0.0
 40
1.0
 40
1.0
 40
1.0
 40
1.0
 10
304.8038079156779
 20
20.2539775500868
 30
0.0
 10
304.101651108875
 20
20.2539775500868
 30
0.0
 10
303.3994912271164
 20
20.2539775500868
 30
0.0
 10
302.6973344203136
 20
20.2539775500868
 30
0.0
  0
SPLINE
  5
B6
330
1F
100
AcDbEntity
  8
0
  6
Continuous
 62
   179
370
     0
100
AcDbSpline
210
0.0
220
0.0
230
1.0
 70
     8
 71
     3
 72
    11
 73
     7
 74
     0
 42
0.000000001
 43
0.00000001
 40
2.0
 40
2.0
 40
2.0
 40
2.0
 40
3.0
 40
3.0
 40
3.0
 40
4.0
 40
4.0
 40
4.0
 40
4.0
 10
303.0570519104932
 20
26.35430478392947
 30
0.0
 10
303.0511172468595
 20
26.75330175249256
 30
0.0
 10
303.3266947364937
 20
27.05519259513757
 30
0.0
 10
303.6924299141011
 20
27.05034857969325
 30
0.0
 10
304.0507636744179
 20
27.04560238626284
 30
0.0
 10
304.3255386007336
 20
26.75299425696746
 30
0.0
 10
304.327448147944
 20
26.37412133304796
 30
0.0
  0
SPLINE
  5
B7
330
1F
100
AcDbEntity
  8
0
  6
Continuous
 62
   179
370
     0
100
AcDbSpline
210
0.0
220
0.0
230
1.0
 70
     8
 71
     3
 72
    11
 73
     7
 74
     0
 42
0.000000001
 43
0.00000001
 40
0.0
 40
0.0
 40
0.0
 40
0.0
 40
1.0
 40
1.0
 40
1.0
 40
2.0
 40
2.0
 40
2.0
 40
2.0
 10
304.327448147944
 20
26.37412133304796
 30
0.0
 10
304.3293945946187
 20
25.98752450590587
 30
0.0
 10
304.068057222753
 20
25.70828897263022
 30
0.0
 10
303.6993639381942
 20
25.70301926806731
 30
0.0
 10
303.3259905717408
 20
25.69768229885988
 30
0.0
 10
303.0628482011429
 20
25.96449808787493
 30
0.0
 10
303.0570519104932
 20
26.35430478392947
 30
0.0
  0
MTEXT
  5
B9
330
1F
100
AcDbEntity
  8
0
  6
Continuous
 62
     7
370
     0
100
AcDbMText
 10
257.9690483454
 20
40.3166048975
 30
0.0
 40
3.7041666667
 41
0.0
 71
     1
 72
     1
  1
MODOC8 - Modo Chandelier - 8 Sides - 27 Globes
  7
SLDTEXTSTYLE0
 73
     1
 44
1.0
  0
MTEXT
  5
BA
330
1F
100
AcDbEntity
  8
0
  6
Continuous
 62
     7
370
     0
100
AcDbMText
 10
258.6105142387
 20
44.3546043689
 30
0.0
 40
1.5875
 41
0.0
 71
     1
 72
     1
  1
\LDESCRIPTION
  7
SLDTEXTSTYLE0
 73
     1
 44
1.0
  0
INSERT
  5
C1
330
1F
100
AcDbEntity
  8
0
  6
Continuous
 62
     7
370
     0
100
AcDbBlockReference
  2
SW_NOTE_0
 10
317.1049495712
 20
24.1495665419
 30
0.0
  0
MTEXT
  5
C2
330
1F
100
AcDbEntity
  8
0
  6
Continuous
 62
     7
370
     0
100
AcDbMText
 10
273.8792930731
 20
32.371143085
 30
0.0
 40
1.5875
 41
0.0
 71
     2
 72
     1
  1
\LSCALE
  7
SLDTEXTSTYLE0
 73
     1
 44
1.0
  0
MTEXT
  5
C3
330
1F
100
AcDbEntity
  8
0
  6
Continuous
 62
     7
370
     0
100
AcDbMText
 10
278.3960862508
 20
33.4394651033
 30
0.0
 40
2.6458333333
 41
0.0
 71
     1
 72
     1
  1
1:20
  7
SLDTEXTSTYLE0
 73
     1
 44
1.0
  0
MTEXT
  5
C4
330
1F
100
AcDbEntity
  8
0
  6
Continuous
 62
     7
370
     0
100
AcDbMText
 10
261.5657280329
 20
32.371143085
 30
0.0
 40
1.5875
 41
0.0
 71
     2
 72
     1
  1
\LSIZE
  7
SLDTEXTSTYLE0
 73
     1
 44
1.0
  0
MTEXT
  5
C5
330
1F
100
AcDbEntity
  8
0
  6
Continuous
 62
     7
370
     0
100
AcDbMText
 10
264.7495209372
 20
33.4394651033
 30
0.0
 40
2.6458333333
 41
0.0
 71
     1
 72
     1
  1
B
  7
SLDTEXTSTYLE0
 73
     1
 44
1.0
  0
INSERT
  5
CC
330
1F
100
AcDbEntity
  8
0
  6
Continuous
 62
     7
370
     0
100
AcDbBlockReference
  2
SW_NOTE_1
 10
258.0900415808
 20
15.6806800849
 30
0.0
  0
CIRCLE
  5
CD
330
1F
100
AcDbEntity
  8
0
  6
Continuous
 62
     7
370
    15
100
AcDbCircle
 10
97.155
 20
96.1300971235
 30
0.0
 40
4.125
  0
ARC
  5
CE
330
1F
100
AcDbEntity
  8
0
  6
Continuous
 62
     7
370
    15
100
AcDbCircle
 10
97.155
 20
88.7930851351
 30
0.0
 40
4.125
100
AcDbArc
 50
128.4762233208
 51
0.0
  0
ARC
  5
CF
330
1F
100
AcDbEntity
  8
0
  6
Continuous
 62
     7
370
    15
100
AcDbCircle
 10
97.155
 20
88.7930851351
 30
0.0
 40
4.125000000000008
100
AcDbArc
 50
0.0
 51
51.5237766792
  0
ARC
  5
D0
330
1F
100
AcDbEntity
  8
0
  6
Continuous
 62
     7
370
    15
100
AcDbCircle
 10
97.155
 20
103.4678711118
 30
0.0
 40
4.124999999999988
100
AcDbArc
 50
308.4762233208
 51
0.0
  0
ARC
  5
D1
330
1F
100
AcDbEntity
  8
0
  6
Continuous
 62
     7
370
    15
100
AcDbCircle
 10
97.155
 20
103.4678711118
 30
0.0
 40
4.124999999999996
100
AcDbArc
 50
0.0
 51
231.5237766792
  0
ARC
  5
D2
330
1F
100
AcDbEntity
  8
0
  6
Continuous
 62
     7
370
    15
100
AcDbCircle
 10
98.02365179
 20
90.9644272293
 30
0.0
 40
2.032000000000003
100
AcDbArc
 50
31.3765589782
 51
52.6696132404
  0
ARC
  5
D3
330
1F
100
AcDbEntity
  8
0
  6
Continuous
 62
     7
370
    15
100
AcDbCircle
 10
96.28634821
 20
90.9644272293
 30
0.0
 40
2.032000000000003
100
AcDbArc
 50
127.3303867596
 51
148.6234410218
  0
ARC
  5
D4
330
1F
100
AcDbEntity
  8
0
  6
Continuous
 62
     7
370
    15
100
AcDbCircle
 10
96.28634821
 20
101.2965290176
 30
0.0
 40
2.031999999999998
100
AcDbArc
 50
211.3765589782
 51
232.689566217
  0
ARC
  5
D5
330
1F
100
AcDbEntity
  8
0
  6
Continuous
 62
     7
370
    15
100
AcDbCircle
 10
98.02365179
 20
101.2965290176
 30
0.0
 40
2.032
100
AcDbArc
 50
307.310433783
 51
328.6234410218
  0
LINE
  5
D6
330
1F
100
AcDbEntity
  8
0
  6
Continuous
 62
     7
370
    15
100
AcDbLine
 10
93.0369229156
 20
96.3689869709
 30
0.0
 11
68.8070935297
 21
96.3689869709
 31
0.0
  0
LINE
  5
D7
330
1F
100
AcDbEntity
  8
0
  6
Continuous
 62
     7
370
    15
100
AcDbLine
 10
68.8072216797
 20
95.8927339382
 30
0.0
 11
93.0368349987
 21
95.8927339382
 31
0.0
  0
LINE
  5
D8
330
1F
100
AcDbEntity
  8
0
  6
Continuous
 62
     7
370
    15
100
AcDbLine
 10
125.5029064703
 20
96.3689869709
 30
0.0
 11
101.2730770844
 21
96.3689869709
 31
0.0
  0
LINE
  5
D9
330
1F
100
AcDbEntity
  8
0
  6
Continuous
 62
     7
370
    15
100
AcDbLine
 10
101.2731650013
 20
95.8927339382
 30
0.0
 11
125.5028349447
 21
95.8927339382
 31
0.0
  0
LINE
  5
DA
330
1F
100
AcDbEntity
  8
0
  6
Continuous
 62
     7
370
    15
100
AcDbLine
 10
97.3931250029
 20
72.2518330879
 30
0.0
 11
97.3931250029
 21
84.674966938
 31
0.0
  0
LINE
  5
DB
330
1F
100
AcDbEntity
  8
0
  6
Continuous
 62
     7
370
    15
100
AcDbLine
 10
96.9168749971
 20
84.674966938
 30
0.0
 11
96.9168749971
 21
72.2519284553
 31
0.0
  0
LINE
  5
DC
330
1F
100
AcDbEntity
  8
0
  6
Continuous
 62
     7
370
    15
100
AcDbLine
 10
96.9168749971
 20
120.0090205736
 30
0.0
 11
96.9168749971
 21
107.5859910316
 31
0.0
  0
LINE
  5
DD
330
1F
100
AcDbEntity
  8
0
  6
Continuous
 62
     7
370
    15
100
AcDbLine
 10
97.3931250029
 20
107.5859910316
 30
0.0
 11
97.3931250029
 21
120.0091040201
 31
0.0
  0
CIRCLE
  5
DE
330
1F
100
AcDbEntity
  8
0
  6
Continuous
 62
     7
370
    15
100
AcDbCircle
 10
131.9915721058
 20
96.1300971235
 30
0.0
 40
4.125000000000028
  0
CIRCLE
  5
DF
330
1F
100
AcDbEntity
  8
0
  6
Continuous
 62
     7
370
    15
100
AcDbCircle
 10
62.3184278942
 20
96.1300971235
 30
0.0
 40
4.125
  0
SPLINE
  5
E0
330
1F
100
AcDbEntity
  8
0
  6
Continuous
 62
     7
370
    15
100
AcDbSpline
210
0.0
220
0.0
230
1.0
 70
     8
 71
     3
 72
    20
 73
    16
 74
     0
 42
0.000000001
 43
0.00000001
 40
0.0
 40
0.0
 40
0.0
 40
0.0
 40
0.0508047546121442
 40
0.1308257372214058
 40
0.2114487783838385
 40
0.2925977974378721
 40
0.3742054352085163
 40
0.4562207228268358
 40
0.5386218983081755
 40
0.621400600080548
 40
0.7045569533248429
 40
0.788081968045009
 40
0.871922998221045
 40
0.9559925143622849
 40
1.0
 40
1.0
 40
1.0
 40
1.0
 10
128.0794632720947
 20
97.41388023565162
 30
0.0
 10
128.0613053469031
 20
97.37310607818965
 30
0.0
 10
128.0145474407241
 20
97.2681098184839
 30
0.0
 10
127.9541257929651
 20
97.091720299739
 30
0.0
 10
127.8967397138901
 20
96.88622886196491
 30
0.0
 10
127.8535803095701
 20
96.675353142627
 30
0.0
 10
127.8243353963186
 20
96.46058897830645
 30
0.0
 10
127.8094847881987
 20
96.24302296290955
 30
0.0
 10
127.8092381013048
 20
96.02384515630295
 30
0.0
 10
127.8237970635486
 20
95.80419676259784
 30
0.0
 10
127.8533965711706
 20
95.58528386323384
 30
0.0
 10
127.8979167693094
 20
95.36822050316862
 30
0.0
 10
127.9583602053344
 20
95.15478154413222
 30
0.0
 10
128.0195607115995
 20
94.97818694264147
 30
0.0
 10
128.0663002643606
 20
94.87586425495114
 30
0.0
 10
128.0823600578308
 20
94.84070599744665
 30
0.0
  0
SPLINE
  5
E1
330
1F
100
AcDbEntity
  8
0
  6
Continuous
 62
     7
370
    15
100
AcDbSpline
210
0.0
220
0.0
230
1.0
 70
     8
 71
     3
 72
    20
 73
    16
 74
     0
 42
0.000000001
 43
0.00000001
 40
0.0
 40
0.0
 40
0.0
 40
0.0
 40
0.0346598786940027
 40
0.1156942107078134
 40
0.1973456157857571
 40
0.2795339457529581
 40
0.3621859268030856
 40
0.4452553565280207
 40
0.5287152636503489
 40
0.6125588973464416
 40
0.6967858338893819
 40
0.7813843494847159
 40
0.866307990952463
 40
0.9514683492559814
 40
1.0
 40
1.0
 40
1.0
 40
1.0
 10
66.24422195434569
 20
94.8779529399668
 30
0.0
 10
66.2564641641928
 20
94.90540189042314
 30
0.0
 10
66.29732849664143
 20
94.99702611928558
 30
0.0
 10
66.3529058289532
 20
95.1596004973322
 30
0.0
 10
66.41107542062312
 20
95.36475229529641
 30
0.0
 10
66.45479105263192
 20
95.57545080374473
 30
0.0
 10
66.48468292105349
 20
95.79005753721415
 30
0.0
 10
66.50016426994424
 20
96.00752581226818
 30
0.0
 10
66.50106450722484
 20
96.22665687710271
 30
0.0
 10
66.48715815561211
 20
96.44631029565694
 30
0.0
 10
66.45822853940462
 20
96.66528214412222
 30
0.0
 10
66.41436461049103
 20
96.88245251426173
 30
0.0
 10
66.35463953466883
 20
97.0960875490203
 30
0.0
 10
66.29273021678874
 20
97.2760600201335
 30
0.0
 10
66.24485081250204
 20
97.38163066038841
 30
0.0
 10
66.22747006893157
 20
97.41995394895423
 30
0.0
  0
ARC
  5
E2
330
1F
100
AcDbEntity
  8
0
  6
Continuous
 62
     7
370
    15
100
AcDbCircle
 10
126.810840084
 20
88.7930851351
 30
0.0
 40
4.125000000000017
100
AcDbArc
 50
128.4762233208
 51
0.0
  0
ARC
  5
E3
330
1F
100
AcDbEntity
  8
0
  6
Continuous
 62
     7
370
    15
100
AcDbCircle
 10
126.810840084
 20
88.7930851351
 30
0.0
 40
4.125000000000008
100
AcDbArc
 50
0.0
 51
51.5237766792
  0
ARC
  5
E4
330
1F
100
AcDbEntity
  8
0
  6
Continuous
 62
     7
370
    15
100
AcDbCircle
 10
67.499159916
 20
88.7930851351
 30
0.0
 40
4.125
100
AcDbArc
 50
128.4762233208
 51
0.0
  0
ARC
  5
E5
330
1F
100
AcDbEntity
  8
0
  6
Continuous
 62
     7
370
    15
100
AcDbCircle
 10
67.499159916
 20
88.7930851351
 30
0.0
 40
4.125
100
AcDbArc
 50
0.0
 51
51.5237766792
  0
ARC
  5
E6
330
1F
100
AcDbEntity
  8
0
  6
Continuous
 62
     7
370
    15
100
AcDbCircle
 10
126.810840084
 20
103.4678711118
 30
0.0
 40
4.125000000000028
100
AcDbArc
 50
308.4762233208
 51
0.0
  0
ARC
  5
E7
330
1F
100
AcDbEntity
  8
0
  6
Continuous
 62
     7
370
    15
100
AcDbCircle
 10
126.810840084
 20
103.4678711118
 30
0.0
 40
4.125000000000028
100
AcDbArc
 50
0.0
 51
231.5237766792
  0
ARC
  5
E8
330
1F
100
AcDbEntity
  8
0
  6
Continuous
 62
     7
370
    15
100
AcDbCircle
 10
67.499159916
 20
103.4678711118
 30
0.0
 40
4.125000000000014
100
AcDbArc
 50
308.4762233208
 51
0.0
  0
ARC
  5
E9
330
1F
100
AcDbEntity
  8
0
  6
Continuous
 62
     7
370
    15
100
AcDbCircle
 10
67.499159916
 20
103.4678711118
 30
0.0
 40
4.125000000000014
100
AcDbArc
 50
0.0
 51
231.5237766792
  0
ARC
  5
EA
330
1F
100
AcDbEntity
  8
0
  6
Continuous
 62
     7
370
    15
100
AcDbCircle
 10
127.679491874
 20
90.9644272293
 30
0.0
 40
2.032000000000003
100
AcDbArc
 50
31.3765589782
 51
67.3414024018
  0
ARC
  5
EB
330
1F
100
AcDbEntity
  8
0
  6
Continuous
 62
     7
370
    15
100
AcDbCircle
 10
125.9421882939
 20
90.9644272293
 30
0.0
 40
2.032000000000027
100
AcDbArc
 50
112.6585975982
 51
148.6234410218
  0
ARC
  5
EC
330
1F
100
AcDbEntity
  8
0
  6
Continuous
 62
     7
370
    15
100
AcDbCircle
 10
68.3678117061
 20
90.9644272293
 30
0.0
 40
2.032000000000005
100
AcDbArc
 50
31.3765589782
 51
67.3414024018
  0
ARC
  5
ED
330
1F
100
AcDbEntity
  8
0
  6
Continuous
 62
     7
370
    15
100
AcDbCircle
 10
66.630508126
 20
90.9644272293
 30
0.0
 40
2.032000000000011
100
AcDbArc
 50
112.6585975982
 51
148.6234410218
  0
ARC
  5
EE
330
1F
100
AcDbEntity
  8
0
  6
Continuous
 62
     7
370
    15
100
AcDbCircle
 10
125.9421882939
 20
101.2965290176
 30
0.0
 40
2.031999999999997
100
AcDbArc
 50
211.3765589782
 51
247.3414024018
  0
ARC
  5
EF
330
1F
100
AcDbEntity
  8
0
  6
Continuous
 62
     7
370
    15
100
AcDbCircle
 10
127.679491874
 20
101.2965290176
 30
0.0
 40
2.032000000000003
100
AcDbArc
 50
292.6585975982
 51
328.6234410218
  0
ARC
  5
F0
330
1F
100
AcDbEntity
  8
0
  6
Continuous
 62
     7
370
    15
100
AcDbCircle
 10
66.630508126
 20
101.2965290176
 30
0.0
 40
2.031999999999997
100
AcDbArc
 50
211.3765589782
 51
247.3414024018
  0
ARC
  5
F1
330
1F
100
AcDbEntity
  8
0
  6
Continuous
 62
     7
370
    15
100
AcDbCircle
 10
68.3678117061
 20
101.2965290176
 30
0.0
 40
2.031999999999992
100
AcDbArc
 50
292.6585975982
 51
328.6234410218
  0
ARC
  5
F2
330
1F
100
AcDbEntity
  8
0
  6
Continuous
 62
     7
370
    15
100
AcDbCircle
 10
126.9945363843
 20
89.3236591235
 30
0.0
 40
3.809999999999997
100
AcDbArc
 50
67.3414024018
 51
89.181459093
  0
ARC
  5
F3
330
1F
100
AcDbEntity
  8
0
  6
Continuous
 62
     7
370
    15
100
AcDbCircle
 10
126.6271437836
 20
89.3236591235
 30
0.0
 40
3.809999999999997
100
AcDbArc
 50
90.818540907
 51
112.6585975982
  0
ARC
  5
F4
330
1F
100
AcDbEntity
  8
0
  6
Continuous
 62
     7
370
    15
100
AcDbCircle
 10
67.6828562164
 20
89.3236591235
 30
0.0
 40
3.810000000000007
100
AcDbArc
 50
67.3414024018
 51
89.181459093
  0
ARC
  5
F5
330
1F
100
AcDbEntity
  8
0
  6
Continuous
 62
     7
370
    15
100
AcDbCircle
 10
67.3154636157
 20
89.3236591235
 30
0.0
 40
3.810000000000001
100
AcDbArc
 50
90.818540907
 51
112.6585975982
  0
ARC
  5
F6
330
1F
100
AcDbEntity
  8
0
  6
Continuous
 62
     7
370
    15
100
AcDbCircle
 10
126.6271437836
 20
102.9372971235
 30
0.0
 40
3.810000000000007
100
AcDbArc
 50
247.3414024018
 51
269.1814590929
  0
ARC
  5
F7
330
1F
100
AcDbEntity
  8
0
  6
Continuous
 62
     7
370
    15
100
AcDbCircle
 10
126.9945363843
 20
102.9372971235
 30
0.0
 40
3.810000000000007
100
AcDbArc
 50
270.8185409071
 51
292.6585975982
  0
ARC
  5
F8
330
1F
100
AcDbEntity
  8
0
  6
Continuous
 62
     7
370
    15
100
AcDbCircle
 10
67.3154636157
 20
102.9372971235
 30
0.0
 40
3.810000000000007
100
AcDbArc
 50
247.3414024018
 51
269.1814590929
  0
ARC
  5
F9
330
1F
100
AcDbEntity
  8
0
  6
Continuous
 62
     7
370
    15
100
AcDbCircle
 10
67.6828562164
 20
102.9372971235
 30
0.0
 40
3.810000000000001
100
AcDbArc
 50
270.8185409071
 51
292.6585975982
  0
ARC
  5
FA
330
1F
100
AcDbEntity
  8
0
  6
Continuous
 62
     7
370
    15
100
AcDbCircle
 10
127.604590084
 20
96.1308591235
 30
0.0
 40
2.222499999999998
100
AcDbArc
 50
186.1506398279
 51
215.6853347127
  0
LWPOLYLINE
  5
FB
330
1F
100
AcDbEntity
  8
0
  6
Continuous
 62
     7
370
    15
100
AcDbPolyline
 90
        3
 70
   128
 43
0.0
 10
127.8222781706
 20
94.834399826
 10
127.917642622
 20
94.9787265129
 10
127.9835623789
 20
95.095247633
  0
LWPOLYLINE
  5
FC
330
1F
100
AcDbEntity
  8
0
  6
Continuous
 62
     7
370
    15
100
AcDbPolyline
 90
        3
 70
   128
 43
0.0
 10
127.9859614658
 20
97.1611446209
 10
127.917591958
 20
97.2823149032
 10
127.8222781706
 20
97.4265581436
  0
ARC
  5
FD
330
1F
100
AcDbEntity
  8
0
  6
Continuous
 62
     7
370
    15
100
AcDbCircle
 10
127.604590084
 20
96.1300971235
 30
0.0
 40
2.222500000000007
100
AcDbArc
 50
144.3146652873
 51
173.829601803
  0
LWPOLYLINE
  5
FE
330
1F
100
AcDbEntity
  8
0
  6
Continuous
 62
     7
370
    15
100
AcDbPolyline
 90
        3
 70
   128
 43
0.0
 10
66.3236362028
 20
95.1005822487
 10
66.392357378
 20
94.9787265129
 10
66.4877218294
 20
94.834399826
  0
ARC
  5
FF
330
1F
100
AcDbEntity
  8
0
  6
Continuous
 62
     7
370
    15
100
AcDbCircle
 10
66.705409916
 20
96.1308591235
 30
0.0
 40
2.222500000000008
100
AcDbArc
 50
324.3146652873
 51
353.8493601721
  0
ARC
  5
100
330
1F
100
AcDbEntity
  8
0
  6
Continuous
 62
     7
370
    15
100
AcDbCircle
 10
66.705409916
 20
96.1300971235
 30
0.0
 40
2.222500000000018
100
AcDbArc
 50
6.170398197
 51
35.6853347127
  0
LWPOLYLINE
  5
101
330
1F
100
AcDbEntity
  8
0
  6
Continuous
 62
     7
370
    15
100
AcDbPolyline
 90
        3
 70
   128
 43
0.0
 10
66.4877218294
 20
97.4265581436
 10
66.392408042
 20
97.2823149032
 10
66.3262021828
 20
97.1652633018
  0
ARC
  5
102
330
1F
100
AcDbEntity
  8
0
  6
Continuous
 62
     7
370
    15
100
AcDbCircle
 10
126.0572864817
 20
95.0196091235
 30
0.0
 40
0.3175000000000097
100
AcDbArc
 50
215.6853347127
 51
270.0
  0
ARC
  5
103
330
1F
100
AcDbEntity
  8
0
  6
Continuous
 62
     7
370
    15
100
AcDbCircle
 10
127.5643936862
 20
95.0196091235
 30
0.0
 40
0.3175000000000097
100
AcDbArc
 50
270.0
 51
324.3146652873
  0
ARC
  5
104
330
1F
100
AcDbEntity
  8
0
  6
Continuous
 62
     7
370
    15
100
AcDbCircle
 10
127.5643936862
 20
97.2413471235
 30
0.0
 40
0.3175000000000097
100
AcDbArc
 50
35.6853347127
 51
90.0
  0
ARC
  5
105
330
1F
100
AcDbEntity
  8
0
  6
Continuous
 62
     7
370
    15
100
AcDbCircle
 10
126.0572864817
 20
97.2413471235
 30
0.0
 40
0.3175000000000097
100
AcDbArc
 50
90.0
 51
144.3146652873
  0
ARC
  5
106
330
1F
100
AcDbEntity
  8
0
  6
Continuous
 62
     7
370
    15
100
AcDbCircle
 10
68.2527135183
 20
97.2413471235
 30
0.0
 40
0.3175000000000142
100
AcDbArc
 50
35.6853347127
 51
90.0
  0
ARC
  5
107
330
1F
100
AcDbEntity
  8
0
  6
Continuous
 62
     7
370
    15
100
AcDbCircle
 10
66.7456063138
 20
97.2413471235
 30
0.0
 40
0.3175000000000142
100
AcDbArc
 50
90.0
 51
144.3146652873
  0
ARC
  5
108
330
1F
100
AcDbEntity
  8
0
  6
Continuous
 62
     7
370
    15
100
AcDbCircle
 10
66.7456063138
 20
95.0196091235
 30
0.0
 40
0.3175000000000142
100
AcDbArc
 50
215.6853347127
 51
270.0
  0
ARC
  5
109
330
1F
100
AcDbEntity
  8
0
  6
Continuous
 62
     7
370
    15
100
AcDbCircle
 10
68.2527135183
 20
95.0196091235
 30
0.0
 40
0.3175000000000097
100
AcDbArc
 50
270.0
 51
324.3146652873
  0
LINE
  5
10A
330
1F
100
AcDbEntity
  8
0
  6
Continuous
 62
     7
370
    15
100
AcDbLine
 10
127.048964529
 20
93.1332713432
 30
0.0
 11
127.048964529
 21
94.702107317
 31
0.0
  0
LINE
  5
10B
330
1F
100
AcDbEntity
  8
0
  6
Continuous
 62
     7
370
    15
100
AcDbLine
 10
126.5727144766
 20
94.702107317
 30
0.0
 11
126.5727144766
 21
93.1332713432
 31
0.0
  0
LINE
  5
10C
330
1F
100
AcDbEntity
  8
0
  6
Continuous
 62
     7
370
    15
100
AcDbLine
 10
67.7372855234
 20
93.1332713432
 30
0.0
 11
67.7372855234
 21
94.702107317
 31
0.0
  0
LINE
  5
10D
330
1F
100
AcDbEntity
  8
0
  6
Continuous
 62
     7
370
    15
100
AcDbLine
 10
67.261035471
 20
94.702107317
 30
0.0
 11
67.261035471
 21
93.1332713432
 31
0.0
  0
LINE
  5
10E
330
1F
100
AcDbEntity
  8
0
  6
Continuous
 62
     7
370
    15
100
AcDbLine
 10
126.5727144766
 20
99.1276866264
 30
0.0
 11
126.5727144766
 21
97.5588446922
 31
0.0
  0
LINE
  5
10F
330
1F
100
AcDbEntity
  8
0
  6
Continuous
 62
     7
370
    15
100
AcDbLine
 10
127.048964529
 20
97.5588446922
 30
0.0
 11
127.048964529
 21
99.1276866264
 31
0.0
  0
LINE
  5
110
330
1F
100
AcDbEntity
  8
0
  6
Continuous
 62
     7
370
    15
100
AcDbLine
 10
67.261035471
 20
99.1276866264
 30
0.0
 11
67.261035471
 21
97.5588446922
 31
0.0
  0
LINE
  5
111
330
1F
100
AcDbEntity
  8
0
  6
Continuous
 62
     7
370
    15
100
AcDbLine
 10
67.7372855234
 20
97.5588446922
 30
0.0
 11
67.7372855234
 21
99.1276866264
 31
0.0
  0
LINE
  5
112
330
1F
100
AcDbEntity
  8
0
  6
Continuous
 62
     7
370
    15
100
AcDbLine
 10
96.1840077403
 20
120.1951450176
 30
0.0
 11
68.4095573711
 21
97.5174015827
 31
0.0
  0
LINE
  5
113
330
1F
100
AcDbEntity
  8
0
  6
Continuous
 62
     7
370
    15
100
AcDbLine
 10
68.6896455574
 20
97.1312528915
 30
0.0
 11
96.4730697318
 21
119.8163276977
 31
0.0
  0
LINE
  5
114
330
1F
100
AcDbEntity
  8
0
  6
Continuous
 62
     7
370
    15
100
AcDbLine
 10
97.8369225848
 20
119.8163336582
 30
0.0
 11
125.6203544426
 21
97.1312528915
 31
0.0
  0
LINE
  5
115
330
1F
100
AcDbEntity
  8
0
  6
Continuous
 62
     7
370
    15
100
AcDbLine
 10
125.9004426289
 20
97.5174015827
 30
0.0
 11
98.1259914215
 21
120.1951450176
 31
0.0
  0
LINE
  5
116
330
1F
100
AcDbEntity
  8
0
  6
Continuous
 62
     7
370
    15
100
AcDbLine
 10
98.1260040875
 20
72.0658189125
 30
0.0
 11
125.9004426289
 21
94.7435563869
 31
0.0
  0
LINE
  5
117
330
1F
100
AcDbEntity
  8
0
  6
Continuous
 62
     7
370
    15
100
AcDbLine
 10
125.6203544426
 20
95.1296991176
 30
0.0
 11
97.8369023285
 21
72.44460643
 31
0.0
  0
LINE
  5
118
330
1F
100
AcDbEntity
  8
0
  6
Continuous
 62
     7
370
    15
100
AcDbLine
 10
96.4729948069
 20
72.4446898765
 30
0.0
 11
68.6896455574
 21
95.1296991176
 31
0.0
  0
LINE
  5
119
330
1F
100
AcDbEntity
  8
0
  6
Continuous
 62
     7
370
    15
100
AcDbLine
 10
68.4095573711
 20
94.7435563869
 30
0.0
 11
96.1839953537
 21
72.0658189125
 31
0.0
  0
LINE
  5
11A
330
1F
100
AcDbEntity
  8
0
  6
Continuous
 62
     7
370
    15
100
AcDbLine
 10
138.5529291916
 20
96.3689869709
 30
0.0
 11
136.1096483755
 21
96.3689869709
 31
0.0
  0
LINE
  5
11B
330
1F
100
AcDbEntity
  8
0
  6
Continuous
 62
     7
370
    15
100
AcDbLine
 10
136.1097377825
 20
95.8927339382
 30
0.0
 11
138.552896409
 21
95.8927339382
 31
0.0
  0
LINE
  5
11C
330
1F
100
AcDbEntity
  8
0
  6
Continuous
 62
     7
370
    15
100
AcDbLine
 10
58.2003516245
 20
96.3689869709
 30
0.0
 11
55.7570708084
 21
96.3689869709
 31
0.0
  0
LINE
  5
11D
330
1F
100
AcDbEntity
  8
0
  6
Continuous
 62
     7
370
    15
100
AcDbLine
 10
55.757103591
 20
95.8927339382
 30
0.0
 11
58.2002622175
 21
95.8927339382
 31
0.0
  0
ARC
  5
11E
330
1F
100
AcDbEntity
  8
0
  6
Continuous
 62
     7
370
    15
100
AcDbCircle
 10
139.0946912503
 20
88.7930851351
 30
0.0
 40
4.125000000000008
100
AcDbArc
 50
128.4762233208
 51
0.0
  0
ARC
  5
11F
330
1F
100
AcDbEntity
  8
0
  6
Continuous
 62
     7
370
    15
100
AcDbCircle
 10
139.0946912503
 20
88.7930851351
 30
0.0
 40
4.125
100
AcDbArc
 50
0.0
 51
51.5237766792
  0
ARC
  5
120
330
1F
100
AcDbEntity
  8
0
  6
Continuous
 62
     7
370
    15
100
AcDbCircle
 10
139.0946912503
 20
103.4678711118
 30
0.0
 40
4.125000000000028
100
AcDbArc
 50
308.4762233208
 51
0.0
  0
ARC
  5
121
330
1F
100
AcDbEntity
  8
0
  6
Continuous
 62
     7
370
    15
100
AcDbCircle
 10
139.0946912503
 20
103.4678711118
 30
0.0
 40
4.125000000000028
100
AcDbArc
 50
0.0
 51
231.5237766792
  0
ARC
  5
122
330
1F
100
AcDbEntity
  8
0
  6
Continuous
 62
     7
370
    15
100
AcDbCircle
 10
146.4213527386
 20
96.1300971235
 30
0.0
 40
4.125
100
AcDbArc
 50
218.4762233208
 51
0.0
  0
ARC
  5
123
330
1F
100
AcDbEntity
  8
0
  6
Continuous
 62
     7
370
    15
100
AcDbCircle
 10
146.4213527386
 20
96.1300971235
 30
0.0
 40
4.125
100
AcDbArc
 50
0.0
 51
141.5237766792
  0
ARC
  5
124
330
1F
100
AcDbEntity
  8
0
  6
Continuous
 62
     7
370
    15
100
AcDbCircle
 10
97.155
 20
113.6793151682
 30
0.0
 40
4.125000000000012
100
AcDbArc
 50
128.4762233208
 51
266.690631127
  0
ARC
  5
125
330
1F
100
AcDbEntity
  8
0
  6
Continuous
 62
     7
370
    15
100
AcDbCircle
 10
97.155
 20
113.6793151682
 30
0.0
 40
4.125000000000014
100
AcDbArc
 50
273.309368873
 51
0.0
  0
ARC
  5
126
330
1F
100
AcDbEntity
  8
0
  6
Continuous
 62
     7
370
    15
100
AcDbCircle
 10
97.155
 20
113.6793151682
 30
0.0
 40
4.125000000000014
100
AcDbArc
 50
0.0
 51
51.5237766792
  0
ARC
  5
127
330
1F
100
AcDbEntity
  8
0
  6
Continuous
 62
     7
370
    15
100
AcDbCircle
 10
97.155
 20
78.5816410787
 30
0.0
 40
4.125000000000014
100
AcDbArc
 50
308.4762233208
 51
86.690631127
  0
ARC
  5
128
330
1F
100
AcDbEntity
  8
0
  6
Continuous
 62
     7
370
    15
100
AcDbCircle
 10
97.155
 20
78.5816410787
 30
0.0
 40
4.125000000000014
100
AcDbArc
 50
93.309368873
 51
231.5237766792
  0
ARC
  5
129
330
1F
100
AcDbEntity
  8
0
  6
Continuous
 62
     7
370
    15
100
AcDbCircle
 10
47.8886472614
 20
96.1300971235
 30
0.0
 40
4.124999999999996
100
AcDbArc
 50
38.4762233208
 51
321.5237766792
  0
ARC
  5
12A
330
1F
100
AcDbEntity
  8
0
  6
Continuous
 62
     7
370
    15
100
AcDbCircle
 10
55.2153087497
 20
103.4678711118
 30
0.0
 40
4.124999999999993
100
AcDbArc
 50
308.4762233208
 51
0.0
  0
ARC
  5
12B
330
1F
100
AcDbEntity
  8
0
  6
Continuous
 62
     7
370
    15
100
AcDbCircle
 10
55.2153087497
 20
103.4678711118
 30
0.0
 40
4.124999999999993
100
AcDbArc
 50
0.0
 51
231.5237766792
  0
ARC
  5
12C
330
1F
100
AcDbEntity
  8
0
  6
Continuous
 62
     7
370
    15
100
AcDbCircle
 10
55.2153087497
 20
88.7930851351
 30
0.0
 40
4.125000000000007
100
AcDbArc
 50
128.4762233208
 51
0.0
  0
ARC
  5
12D
330
1F
100
AcDbEntity
  8
0
  6
Continuous
 62
     7
370
    15
100
AcDbCircle
 10
55.2153087497
 20
88.7930851351
 30
0.0
 40
4.125000000000007
100
AcDbArc
 50
0.0
 51
51.5237766792
  0
ARC
  5
12E
330
1F
100
AcDbEntity
  8
0
  6
Continuous
 62
     7
370
    15
100
AcDbCircle
 10
97.155
 20
63.9155079727
 30
0.0
 40
4.125000000000002
100
AcDbArc
 50
128.4762233208
 51
0.0
  0
ARC
  5
12F
330
1F
100
AcDbEntity
  8
0
  6
Continuous
 62
     7
370
    15
100
AcDbCircle
 10
97.155
 20
63.9155079727
 30
0.0
 40
4.125
100
AcDbArc
 50
0.0
 51
51.5237766792
  0
LINE
  5
130
330
1F
100
AcDbEntity
  8
0
  6
Continuous
 62
     7
370
    15
100
AcDbLine
 10
93.9799998987
 20
151.0294920273
 30
0.0
 11
93.9799998987
 21
150.3944920349
 31
0.0
  0
LINE
  5
131
330
1F
100
AcDbEntity
  8
0
  6
Continuous
 62
     7
370
    15
100
AcDbLine
 10
100.3300001013
 20
150.3944920349
 30
0.0
 11
100.3300001013
 21
151.0294920273
 31
0.0
  0
ARC
  5
132
330
1F
100
AcDbEntity
  8
0
  6
Continuous
 62
     7
370
    15
100
AcDbCircle
 10
139.9633430403
 20
90.9644272293
 30
0.0
 40
2.032
100
AcDbArc
 50
31.3765589782
 51
67.3414024018
  0
ARC
  5
133
330
1F
100
AcDbEntity
  8
0
  6
Continuous
 62
     7
370
    15
100
AcDbCircle
 10
138.2260394603
 20
90.9644272293
 30
0.0
 40
2.032
100
AcDbArc
 50
112.6585975982
 51
148.6234410218
  0
ARC
  5
134
330
1F
100
AcDbEntity
  8
0
  6
Continuous
 62
     7
370
    15
100
AcDbCircle
 10
138.2260394603
 20
101.2965290176
 30
0.0
 40
2.032000000000012
100
AcDbArc
 50
211.3765589782
 51
247.3414024018
  0
ARC
  5
135
330
1F
100
AcDbEntity
  8
0
  6
Continuous
 62
     7
370
    15
100
AcDbCircle
 10
139.9633430403
 20
101.2965290176
 30
0.0
 40
2.032000000000012
100
AcDbArc
 50
292.6585975982
 51
328.6234410218
  0
ARC
  5
136
330
1F
100
AcDbEntity
  8
0
  6
Continuous
 62
     7
370
    15
100
AcDbCircle
 10
144.2500106444
 20
96.9987489135
 30
0.0
 40
2.032000000000003
100
AcDbArc
 50
121.3765589782
 51
157.3414024018
  0
ARC
  5
137
330
1F
100
AcDbEntity
  8
0
  6
Continuous
 62
     7
370
    15
100
AcDbCircle
 10
144.2500106444
 20
95.2614453335
 30
0.0
 40
2.032000000000003
100
AcDbArc
 50
202.6585975982
 51
238.6234410218
  0
ARC
  5
138
330
1F
100
AcDbEntity
  8
0
  6
Continuous
 62
     7
370
    15
100
AcDbCircle
 10
98.02365179
 20
115.8506572624
 30
0.0
 40
2.031999999999992
100
AcDbArc
 50
31.3765589782
 51
67.3414024018
  0
ARC
  5
139
330
1F
100
AcDbEntity
  8
0
  6
Continuous
 62
     7
370
    15
100
AcDbCircle
 10
96.28634821
 20
115.8506572624
 30
0.0
 40
2.032000000000003
100
AcDbArc
 50
112.6585975982
 51
148.6234410218
  0
ARC
  5
13A
330
1F
100
AcDbEntity
  8
0
  6
Continuous
 62
     7
370
    15
100
AcDbCircle
 10
96.28634821
 20
76.4102989845
 30
0.0
 40
2.032000000000007
100
AcDbArc
 50
211.3765589782
 51
247.3414024018
  0
ARC
  5
13B
330
1F
100
AcDbEntity
  8
0
  6
Continuous
 62
     7
370
    15
100
AcDbCircle
 10
98.02365179
 20
76.4102989845
 30
0.0
 40
2.031999999999995
100
AcDbArc
 50
292.6585975982
 51
328.6234410218
  0
ARC
  5
13C
330
1F
100
AcDbEntity
  8
0
  6
Continuous
 62
     7
370
    15
100
AcDbCircle
 10
50.0599893556
 20
95.2614453335
 30
0.0
 40
2.031999999999997
100
AcDbArc
 50
301.3765589782
 51
337.3414024018
  0
ARC
  5
13D
330
1F
100
AcDbEntity
  8
0
  6
Continuous
 62
     7
370
    15
100
AcDbCircle
 10
50.0599893556
 20
96.9987489135
 30
0.0
 40
2.031999999999995
100
AcDbArc
 50
22.6585975982
 51
58.6234410218
  0
ARC
  5
13E
330
1F
100
AcDbEntity
  8
0
  6
Continuous
 62
     7
370
    15
100
AcDbCircle
 10
54.3466569597
 20
101.2965290176
 30
0.0
 40
2.031999999999995
100
AcDbArc
 50
211.3765589782
 51
247.3414024018
  0
ARC
  5
13F
330
1F
100
AcDbEntity
  8
0
  6
Continuous
 62
     7
370
    15
100
AcDbCircle
 10
56.0839605397
 20
101.2965290176
 30
0.0
 40
2.031999999999994
100
AcDbArc
 50
292.6585975982
 51
328.6234410218
  0
ARC
  5
140
330
1F
100
AcDbEntity
  8
0
  6
Continuous
 62
     7
370
    15
100
AcDbCircle
 10
56.0839605397
 20
90.9644272293
 30
0.0
 40
2.032000000000005
100
AcDbArc
 50
31.3765589782
 51
67.3414024018
  0
ARC
  5
141
330
1F
100
AcDbEntity
  8
0
  6
Continuous
 62
     7
370
    15
100
AcDbCircle
 10
54.3466569597
 20
90.9644272293
 30
0.0
 40
2.032000000000005
100
AcDbArc
 50
112.6585975982
 51
148.6234410218
  0
ARC
  5
142
330
1F
100
AcDbEntity
  8
0
  6
Continuous
 62
     7
370
    15
100
AcDbCircle
 10
98.02365179
 20
66.0868500669
 30
0.0
 40
2.032000000000005
100
AcDbArc
 50
31.3765589782
 51
67.3414024018
  0
ARC
  5
143
330
1F
100
AcDbEntity
  8
0
  6
Continuous
 62
     7
370
    15
100
AcDbCircle
 10
96.28634821
 20
66.0868500669
 30
0.0
 40
2.032000000000011
100
AcDbArc
 50
112.6585975982
 51
148.6234410218
  0
ARC
  5
144
330
1F
100
AcDbEntity
  8
0
  6
Continuous
 62
     7
370
    15
100
AcDbCircle
 10
139.2783875507
 20
89.3236591235
 30
0.0
 40
3.809999999999997
100
AcDbArc
 50
67.3414024018
 51
89.181459093
  0
ARC
  5
145
330
1F
100
AcDbEntity
  8
0
  6
Continuous
 62
     7
370
    15
100
AcDbCircle
 10
138.9109949499
 20
89.3236591235
 30
0.0
 40
3.809999999999997
100
AcDbArc
 50
90.818540907
 51
112.6585975982
  0
ARC
  5
146
330
1F
100
AcDbEntity
  8
0
  6
Continuous
 62
     7
370
    15
100
AcDbCircle
 10
138.9109949499
 20
102.9372971235
 30
0.0
 40
3.81
100
AcDbArc
 50
247.3414024018
 51
269.1814590929
  0
ARC
  5
147
330
1F
100
AcDbEntity
  8
0
  6
Continuous
 62
     7
370
    15
100
AcDbCircle
 10
139.2783875507
 20
102.9372971235
 30
0.0
 40
3.81
100
AcDbArc
 50
270.8185409071
 51
292.6585975982
  0
ARC
  5
148
330
1F
100
AcDbEntity
  8
0
  6
Continuous
 62
     7
370
    15
100
AcDbCircle
 10
145.8907787503
 20
96.3137934239
 30
0.0
 40
3.809999999999997
100
AcDbArc
 50
157.3414024018
 51
179.181459093
  0
ARC
  5
149
330
1F
100
AcDbEntity
  8
0
  6
Continuous
 62
     7
370
    15
100
AcDbCircle
 10
145.8907787503
 20
95.9464008231
 30
0.0
 40
3.809999999999997
100
AcDbArc
 50
180.8185409071
 51
202.6585975982
  0
ARC
  5
14A
330
1F
100
AcDbEntity
  8
0
  6
Continuous
 62
     7
370
    15
100
AcDbCircle
 10
97.3386963004
 20
114.2098891566
 30
0.0
 40
3.809999999999997
100
AcDbArc
 50
67.3414024018
 51
89.181459093
  0
ARC
  5
14B
330
1F
100
AcDbEntity
  8
0
  6
Continuous
 62
     7
370
    15
100
AcDbCircle
 10
96.9713036996
 20
114.2098891566
 30
0.0
 40
3.809999999999997
100
AcDbArc
 50
90.818540907
 51
112.6585975982
  0
ARC
  5
14C
330
1F
100
AcDbEntity
  8
0
  6
Continuous
 62
     7
370
    15
100
AcDbCircle
 10
96.9713036996
 20
78.0510670904
 30
0.0
 40
3.810000000000011
100
AcDbArc
 50
247.3414024018
 51
269.181459093
  0
ARC
  5
14D
330
1F
100
AcDbEntity
  8
0
  6
Continuous
 62
     7
370
    15
100
AcDbCircle
 10
97.3386963004
 20
78.0510670904
 30
0.0
 40
3.810000000000011
100
AcDbArc
 50
270.8185409071
 51
292.6585975982
  0
ARC
  5
14E
330
1F
100
AcDbEntity
  8
0
  6
Continuous
 62
     7
370
    15
100
AcDbCircle
 10
48.4192212497
 20
95.9464008231
 30
0.0
 40
3.810000000000004
100
AcDbArc
 50
337.3414024018
 51
359.181459093
  0
ARC
  5
14F
330
1F
100
AcDbEntity
  8
0
  6
Continuous
 62
     7
370
    15
100
AcDbCircle
 10
48.4192212497
 20
96.3137934239
 30
0.0
 40
3.810000000000004
100
AcDbArc
 50
0.818540907
 51
22.6585975982
  0
ARC
  5
150
330
1F
100
AcDbEntity
  8
0
  6
Continuous
 62
     7
370
    15
100
AcDbCircle
 10
55.0316124493
 20
102.9372971235
 30
0.0
 40
3.810000000000001
100
AcDbArc
 50
247.3414024018
 51
269.1814590929
  0
ARC
  5
151
330
1F
100
AcDbEntity
  8
0
  6
Continuous
 62
     7
370
    15
100
AcDbCircle
 10
55.3990050501
 20
102.9372971235
 30
0.0
 40
3.81
100
AcDbArc
 50
270.8185409071
 51
292.6585975982
  0
ARC
  5
152
330
1F
100
AcDbEntity
  8
0
  6
Continuous
 62
     7
370
    15
100
AcDbCircle
 10
55.3990050501
 20
89.3236591235
 30
0.0
 40
3.810000000000004
100
AcDbArc
 50
67.3414024018
 51
89.181459093
  0
ARC
  5
153
330
1F
100
AcDbEntity
  8
0
  6
Continuous
 62
     7
370
    15
100
AcDbCircle
 10
55.0316124493
 20
89.3236591235
 30
0.0
 40
3.810000000000001
100
AcDbArc
 50
90.818540907
 51
112.6585975982
  0
ARC
  5
154
330
1F
100
AcDbEntity
  8
0
  6
Continuous
 62
     7
370
    15
100
AcDbCircle
 10
97.3386963004
 20
64.4460819611
 30
0.0
 40
3.810000000000001
100
AcDbArc
 50
67.3414024018
 51
89.181459093
  0
ARC
  5
155
330
1F
100
AcDbEntity
  8
0
  6
Continuous
 62
     7
370
    15
100
AcDbCircle
 10
96.9713036996
 20
64.4460819611
 30
0.0
 40
3.810000000000007
100
AcDbArc
 50
90.818540907
 51
112.6585975982
  0
ARC
  5
156
330
1F
100
AcDbEntity
  8
0
  6
Continuous
 62
     7
370
    15
100
AcDbCircle
 10
138.3009412503
 20
96.1300971235
 30
0.0
 40
2.222500000000018
100
AcDbArc
 50
6.0719158652
 51
35.6853347127
  0
ARC
  5
157
330
1F
100
AcDbEntity
  8
0
  6
Continuous
 62
     7
370
    15
100
AcDbCircle
 10
139.8884412503
 20
96.1300971235
 30
0.0
 40
2.22249999999999
100
AcDbArc
 50
158.8712274332
 51
173.829601803
  0
ARC
  5
158
330
1F
100
AcDbEntity
  8
0
  6
Continuous
 62
     7
370
    15
100
AcDbCircle
 10
139.8884412503
 20
96.1300971235
 30
0.0
 40
2.222500000000006
100
AcDbArc
 50
144.3146652873
 51
146.6320325915
  0
ARC
  5
159
330
1F
100
AcDbEntity
  8
0
  6
Continuous
 62
     7
370
    15
100
AcDbCircle
 10
139.8884412503
 20
96.1308591235
 30
0.0
 40
2.222499999999987
100
AcDbArc
 50
213.3621406106
 51
215.6853347127
  0
ARC
  5
15A
330
1F
100
AcDbEntity
  8
0
  6
Continuous
 62
     7
370
    15
100
AcDbCircle
 10
139.8884412503
 20
96.1308591235
 30
0.0
 40
2.222500000000003
100
AcDbArc
 50
186.1506398279
 51
201.1417337104
  0
ARC
  5
15B
330
1F
100
AcDbEntity
  8
0
  6
Continuous
 62
     7
370
    15
100
AcDbCircle
 10
138.3009412503
 20
96.1308591235
 30
0.0
 40
2.22250000000001
100
AcDbArc
 50
324.3146652873
 51
353.9041890584
  0
ARC
  5
15C
330
1F
100
AcDbEntity
  8
0
  6
Continuous
 62
     7
370
    15
100
AcDbCircle
 10
97.94875
 20
121.0170891566
 30
0.0
 40
2.222500000000002
100
AcDbArc
 50
179.7769294832
 51
201.1789207698
  0
ARC
  5
15D
330
1F
100
AcDbEntity
  8
0
  6
Continuous
 62
     7
370
    15
100
AcDbCircle
 10
96.36125
 20
121.0170891566
 30
0.0
 40
2.222500000000009
100
AcDbArc
 50
338.8145571622
 51
0.2230705168
  0
ARC
  5
15E
330
1F
100
AcDbEntity
  8
0
  6
Continuous
 62
     7
370
    15
100
AcDbCircle
 10
96.36125
 20
121.0257420273
 30
0.0
 40
2.222499999999997
100
AcDbArc
 50
0.0
 51
35.6853347127
  0
ARC
  5
15F
330
1F
100
AcDbEntity
  8
0
  6
Continuous
 62
     7
370
    15
100
AcDbCircle
 10
97.94875
 20
121.0257420273
 30
0.0
 40
2.222500000000011
100
AcDbArc
 50
144.3146652873
 51
180.0
  0
ARC
  5
160
330
1F
100
AcDbEntity
  8
0
  6
Continuous
 62
     7
370
    15
100
AcDbCircle
 10
97.94875
 20
71.2532819611
 30
0.0
 40
2.222500000000011
100
AcDbArc
 50
180.0
 51
180.1213572007
  0
ARC
  5
161
330
1F
100
AcDbEntity
  8
0
  6
Continuous
 62
     7
370
    15
100
AcDbCircle
 10
96.36125
 20
71.2532819611
 30
0.0
 40
2.222499999999999
100
AcDbArc
 50
359.8786427987
 51
0.0
  0
ARC
  5
162
330
1F
100
AcDbEntity
  8
0
  6
Continuous
 62
     7
370
    15
100
AcDbCircle
 10
96.36125
 20
71.2438670904
 30
0.0
 40
2.222500000000016
100
AcDbArc
 50
0.0
 51
0.1213572007
  0
ARC
  5
163
330
1F
100
AcDbEntity
  8
0
  6
Continuous
 62
     7
370
    15
100
AcDbCircle
 10
97.94875
 20
71.2438670904
 30
0.0
 40
2.222499999999997
100
AcDbArc
 50
179.8786427987
 51
180.0
  0
ARC
  5
164
330
1F
100
AcDbEntity
  8
0
  6
Continuous
 62
     7
370
    15
100
AcDbCircle
 10
54.4215587497
 20
96.1300971235
 30
0.0
 40
2.222500000000007
100
AcDbArc
 50
33.4012484202
 51
35.6853347127
  0
ARC
  5
165
330
1F
100
AcDbEntity
  8
0
  6
Continuous
 62
     7
370
    15
100
AcDbCircle
 10
54.4215587497
 20
96.1300971235
 30
0.0
 40
2.222499999999996
100
AcDbArc
 50
6.170398197
 51
21.1743261521
  0
ARC
  5
166
330
1F
100
AcDbEntity
  8
0
  6
Continuous
 62
     7
370
    15
100
AcDbCircle
 10
56.0090587497
 20
96.1300971235
 30
0.0
 40
2.222500000000001
100
AcDbArc
 50
144.3146652873
 51
173.9250060181
  0
ARC
  5
167
330
1F
100
AcDbEntity
  8
0
  6
Continuous
 62
     7
370
    15
100
AcDbCircle
 10
56.0090587497
 20
96.1308591235
 30
0.0
 40
2.222500000000001
100
AcDbArc
 50
186.0927378997
 51
215.6853347127
  0
ARC
  5
168
330
1F
100
AcDbEntity
  8
0
  6
Continuous
 62
     7
370
    15
100
AcDbCircle
 10
54.4215587497
 20
96.1308591235
 30
0.0
 40
2.222499999999997
100
AcDbArc
 50
338.8115294725
 51
353.8493601721
  0
ARC
  5
169
330
1F
100
AcDbEntity
  8
0
  6
Continuous
 62
     7
370
    15
100
AcDbCircle
 10
54.4215587497
 20
96.1308591235
 30
0.0
 40
2.222499999999998
100
AcDbArc
 50
324.3146652873
 51
326.6476608531
  0
ARC
  5
16A
330
1F
100
AcDbEntity
  8
0
  6
Continuous
 62
     7
370
    15
100
AcDbCircle
 10
97.94875
 20
71.2532819611
 30
0.0
 40
2.222500000000005
100
AcDbArc
 50
180.2427149464
 51
215.6853347127
  0
ARC
  5
16B
330
1F
100
AcDbEntity
  8
0
  6
Continuous
 62
     7
370
    15
100
AcDbCircle
 10
96.36125
 20
71.2532819611
 30
0.0
 40
2.222500000000005
100
AcDbArc
 50
324.3146652873
 51
359.7572850536
  0
ARC
  5
16C
330
1F
100
AcDbEntity
  8
0
  6
Continuous
 62
     7
370
    15
100
AcDbCircle
 10
96.36125
 20
71.2438670904
 30
0.0
 40
2.222500000000005
100
AcDbArc
 50
0.2427149464
 51
21.1231042508
  0
ARC
  5
16D
330
1F
100
AcDbEntity
  8
0
  6
Continuous
 62
     7
370
    15
100
AcDbCircle
 10
97.94875
 20
71.2438670904
 30
0.0
 40
2.222500000000005
100
AcDbArc
 50
158.8096650407
 51
179.7572850536
  0
ARC
  5
16E
330
1F
100
AcDbEntity
  8
0
  6
Continuous
 62
     7
370
    15
100
AcDbCircle
 10
138.3411376481
 20
95.0196091235
 30
0.0
 40
0.3175000000000142
100
AcDbArc
 50
215.6853347127
 51
270.0
  0
ARC
  5
16F
330
1F
100
AcDbEntity
  8
0
  6
Continuous
 62
     7
370
    15
100
AcDbCircle
 10
139.8482448525
 20
95.0196091235
 30
0.0
 40
0.3175000000000142
100
AcDbArc
 50
270.0
 51
324.3146652873
  0
ARC
  5
170
330
1F
100
AcDbEntity
  8
0
  6
Continuous
 62
     7
370
    15
100
AcDbCircle
 10
139.8482448525
 20
97.2413471235
 30
0.0
 40
0.3175000000000142
100
AcDbArc
 50
35.6853347127
 51
90.0
  0
ARC
  5
171
330
1F
100
AcDbEntity
  8
0
  6
Continuous
 62
     7
370
    15
100
AcDbCircle
 10
138.3411376481
 20
97.2413471235
 30
0.0
 40
0.3175000000000142
100
AcDbArc
 50
90.0
 51
144.3146652873
  0
ARC
  5
172
330
1F
100
AcDbEntity
  8
0
  6
Continuous
 62
     7
370
    15
100
AcDbCircle
 10
96.4014463978
 20
119.9058391566
 30
0.0
 40
0.3174999999999955
100
AcDbArc
 50
240.3963558241
 51
270.0
  0
ARC
  5
173
330
1F
100
AcDbEntity
  8
0
  6
Continuous
 62
     7
370
    15
100
AcDbCircle
 10
97.9085536022
 20
119.9058391566
 30
0.0
 40
0.3174999999999955
100
AcDbArc
 50
270.0
 51
299.6036441759
  0
ARC
  5
174
330
1F
100
AcDbEntity
  8
0
  6
Continuous
 62
     7
370
    15
100
AcDbCircle
 10
97.9085536022
 20
122.1369920273
 30
0.0
 40
0.3174999999999955
100
AcDbArc
 50
35.6853347127
 51
90.0
  0
ARC
  5
175
330
1F
100
AcDbEntity
  8
0
  6
Continuous
 62
     7
370
    15
100
AcDbCircle
 10
96.4014463978
 20
122.1369920273
 30
0.0
 40
0.3175000000000059
100
AcDbArc
 50
90.0
 51
144.3146652873
  0
ARC
  5
176
330
1F
100
AcDbEntity
  8
0
  6
Continuous
 62
     7
370
    15
100
AcDbCircle
 10
96.4014463978
 20
70.1420319611
 30
0.0
 40
0.3175000000000142
100
AcDbArc
 50
215.6853347127
 51
270.0
  0
ARC
  5
177
330
1F
100
AcDbEntity
  8
0
  6
Continuous
 62
     7
370
    15
100
AcDbCircle
 10
97.9085536022
 20
70.1420319611
 30
0.0
 40
0.3175000000000097
100
AcDbArc
 50
270.0
 51
324.3146652873
  0
ARC
  5
178
330
1F
100
AcDbEntity
  8
0
  6
Continuous
 62
     7
370
    15
100
AcDbCircle
 10
97.9085536022
 20
72.3551170904
 30
0.0
 40
0.3175000000000097
100
AcDbArc
 50
60.3963558242
 51
90.0
  0
ARC
  5
179
330
1F
100
AcDbEntity
  8
0
  6
Continuous
 62
     7
370
    15
100
AcDbCircle
 10
96.4014463978
 20
72.3551170904
 30
0.0
 40
0.3175000000000097
100
AcDbArc
 50
90.0
 51
119.6036441758
  0
ARC
  5
17A
330
1F
100
AcDbEntity
  8
0
  6
Continuous
 62
     7
370
    15
100
AcDbCircle
 10
55.9688623519
 20
97.2413471235
 30
0.0
 40
0.3175000000000097
100
AcDbArc
 50
35.6853347127
 51
90.0
  0
ARC
  5
17B
330
1F
100
AcDbEntity
  8
0
  6
Continuous
 62
     7
370
    15
100
AcDbCircle
 10
54.4617551475
 20
97.2413471235
 30
0.0
 40
0.3175000000000097
100
AcDbArc
 50
90.0
 51
144.3146652873
  0
ARC
  5
17C
330
1F
100
AcDbEntity
  8
0
  6
Continuous
 62
     7
370
    15
100
AcDbCircle
 10
54.4617551475
 20
95.0196091235
 30
0.0
 40
0.3175000000000097
100
AcDbArc
 50
215.6853347127
 51
270.0
  0
ARC
  5
17D
330
1F
100
AcDbEntity
  8
0
  6
Continuous
 62
     7
370
    15
100
AcDbCircle
 10
55.9688623519
 20
95.0196091235
 30
0.0
 40
0.3175000000000097
100
AcDbArc
 50
270.0
 51
324.3146652873
  0
LINE
  5
17E
330
1F
100
AcDbEntity
  8
0
  6
Continuous
 62
     7
370
    15
100
AcDbLine
 10
97.4724999962
 20
122.4544918604
 30
0.0
 11
97.4724999962
 21
150.3944920349
 31
0.0
  0
LINE
  5
17F
330
1F
100
AcDbEntity
  8
0
  6
Continuous
 62
     7
370
    15
100
AcDbLine
 10
96.8375000038
 20
150.3944920349
 30
0.0
 11
96.8375000038
 21
122.4544918604
 31
0.0
  0
LINE
  5
180
330
1F
100
AcDbEntity
  8
0
  6
Continuous
 62
     7
370
    15
100
AcDbLine
 10
94.7197497922
 20
73.2613748379
 30
0.0
 11
71.148563652
 21
86.8702060051
 31
0.0
  0
LINE
  5
181
330
1F
100
AcDbEntity
  8
0
  6
Continuous
 62
     7
370
    15
100
AcDbLine
 10
64.0091938066
 20
90.9921234913
 30
0.0
 11
62.2537893343
 21
92.0056051082
 31
0.0
  0
LINE
  5
182
330
1F
100
AcDbEntity
  8
0
  6
Continuous
 62
     7
370
    15
100
AcDbLine
 10
58.7788296032
 20
94.0118736095
 30
0.0
 11
56.4948839235
 21
95.3305071659
 31
0.0
  0
LINE
  5
183
330
1F
100
AcDbEntity
  8
0
  6
Continuous
 62
     7
370
    15
100
AcDbLine
 10
56.276209383
 20
94.9068373508
 30
0.0
 11
59.7547841358
 21
92.8984767265
 31
0.0
  0
LINE
  5
184
330
1F
100
AcDbEntity
  8
0
  6
Continuous
 62
     7
370
    15
100
AcDbLine
 10
60.8015847492
 20
92.2941094703
 30
0.0
 11
63.7789500046
 21
90.575123436
 31
0.0
  0
LINE
  5
185
330
1F
100
AcDbEntity
  8
0
  6
Continuous
 62
     7
370
    15
100
AcDbLine
 10
70.9025574017
 20
86.462307579
 30
0.0
 11
95.875425833
 21
72.0442181892
 31
0.0
  0
LINE
  5
186
330
1F
100
AcDbEntity
  8
0
  6
Continuous
 62
     7
370
    15
100
AcDbLine
 10
95.8754156816
 20
120.2167338199
 30
0.0
 11
70.9025574017
 21
105.7986474104
 31
0.0
  0
LINE
  5
187
330
1F
100
AcDbEntity
  8
0
  6
Continuous
 62
     7
370
    15
100
AcDbLine
 10
63.7789500046
 20
101.6858315534
 30
0.0
 11
60.7973826218
 21
99.9644225902
 31
0.0
  0
LINE
  5
188
330
1F
100
AcDbEntity
  8
0
  6
Continuous
 62
     7
370
    15
100
AcDbLine
 10
59.758327632
 20
99.3645256824
 30
0.0
 11
56.2764239597
 21
97.3542457886
 31
0.0
  0
LINE
  5
189
330
1F
100
AcDbEntity
  8
0
  6
Continuous
 62
     7
370
    15
100
AcDbLine
 10
56.4948958445
 20
96.9304567642
 30
0.0
 11
58.7795269775
 21
98.2494896717
 31
0.0
  0
LINE
  5
18A
330
1F
100
AcDbEntity
  8
0
  6
Continuous
 62
     7
370
    15
100
AcDbLine
 10
62.2524333286
 20
100.2545720405
 30
0.0
 11
64.0091938066
 21
101.2688344784
 31
0.0
  0
LINE
  5
18B
330
1F
100
AcDbEntity
  8
0
  6
Continuous
 62
     7
370
    15
100
AcDbLine
 10
71.148563652
 20
105.3907519645
 30
0.0
 11
94.7197497922
 21
118.9995831318
 31
0.0
  0
LINE
  5
18C
330
1F
100
AcDbEntity
  8
0
  6
Continuous
 62
     7
370
    15
100
AcDbLine
 10
99.5902502078
 20
118.9995831318
 30
0.0
 11
123.161436348
 21
105.3907519645
 31
0.0
  0
LINE
  5
18D
330
1F
100
AcDbEntity
  8
0
  6
Continuous
 62
     7
370
    15
100
AcDbLine
 10
130.3008061934
 20
101.2688344784
 30
0.0
 11
132.0575666714
 21
100.2545720405
 31
0.0
  0
LINE
  5
18E
330
1F
100
AcDbEntity
  8
0
  6
Continuous
 62
     7
370
    15
100
AcDbLine
 10
135.5304730225
 20
98.2494896717
 30
0.0
 11
137.8150773335
 21
96.9304686851
 31
0.0
  0
LINE
  5
18F
330
1F
100
AcDbEntity
  8
0
  6
Continuous
 62
     7
370
    15
100
AcDbLine
 10
138.0337220716
 20
97.3541623421
 30
0.0
 11
134.551672368
 21
99.3645256824
 31
0.0
  0
LINE
  5
190
330
1F
100
AcDbEntity
  8
0
  6
Continuous
 62
     7
370
    15
100
AcDbLine
 10
133.5126173782
 20
99.9644225902
 30
0.0
 11
130.5310499954
 21
101.6858315534
 31
0.0
  0
LINE
  5
191
330
1F
100
AcDbEntity
  8
0
  6
Continuous
 62
     7
370
    15
100
AcDbLine
 10
123.4074425983
 20
105.7986474104
 30
0.0
 11
98.4345776129
 21
120.2167368002
 31
0.0
  0
LINE
  5
192
330
1F
100
AcDbEntity
  8
0
  6
Continuous
 62
     7
370
    15
100
AcDbLine
 10
98.4346208262
 20
72.0442420311
 30
0.0
 11
123.4074425983
 21
86.462307579
 31
0.0
  0
LINE
  5
193
330
1F
100
AcDbEntity
  8
0
  6
Continuous
 62
     7
370
    15
100
AcDbLine
 10
130.5310499954
 20
90.575123436
 30
0.0
 11
133.5084152508
 21
92.2941094703
 31
0.0
  0
LINE
  5
194
330
1F
100
AcDbEntity
  8
0
  6
Continuous
 62
     7
370
    15
100
AcDbLine
 10
134.5552158642
 20
92.8984767265
 30
0.0
 11
138.0337459135
 21
94.9068075485
 31
0.0
  0
LINE
  5
195
330
1F
100
AcDbEntity
  8
0
  6
Continuous
 62
     7
370
    15
100
AcDbLine
 10
137.8150832939
 20
95.3304892845
 30
0.0
 11
135.5311703968
 21
94.0118736095
 31
0.0
  0
LINE
  5
196
330
1F
100
AcDbEntity
  8
0
  6
Continuous
 62
     7
370
    15
100
AcDbLine
 10
132.0562106657
 20
92.0056051082
 30
0.0
 11
130.3008061934
 21
90.9921234913
 31
0.0
  0
LINE
  5
197
330
1F
100
AcDbEntity
  8
0
  6
Continuous
 62
     7
370
    15
100
AcDbLine
 10
123.161436348
 20
86.8702060051
 30
0.0
 11
99.5902502078
 21
73.2613748379
 31
0.0
  0
LINE
  5
198
330
1F
100
AcDbEntity
  8
0
  6
Continuous
 62
     7
370
    15
100
AcDbLine
 10
139.3328172255
 20
93.1332713432
 30
0.0
 11
139.3328172255
 21
94.702107317
 31
0.0
  0
LINE
  5
199
330
1F
100
AcDbEntity
  8
0
  6
Continuous
 62
     7
370
    15
100
AcDbLine
 10
138.856567173
 20
94.702107317
 30
0.0
 11
138.856567173
 21
93.1332713432
 31
0.0
  0
LINE
  5
19A
330
1F
100
AcDbEntity
  8
0
  6
Continuous
 62
     7
370
    15
100
AcDbLine
 10
138.856567173
 20
99.1276866264
 30
0.0
 11
138.856567173
 21
97.5588446922
 31
0.0
  0
LINE
  5
19B
330
1F
100
AcDbEntity
  8
0
  6
Continuous
 62
     7
370
    15
100
AcDbLine
 10
139.3328172255
 20
97.5588446922
 30
0.0
 11
139.3328172255
 21
99.1276866264
 31
0.0
  0
LINE
  5
19C
330
1F
100
AcDbEntity
  8
0
  6
Continuous
 62
     7
370
    15
100
AcDbLine
 10
142.0811665344
 20
96.3682240314
 30
0.0
 11
140.5104649353
 21
96.3682240314
 31
0.0
  0
LINE
  5
19D
330
1F
100
AcDbEntity
  8
0
  6
Continuous
 62
     7
370
    15
100
AcDbLine
 10
140.5103874493
 20
95.8919709987
 30
0.0
 11
142.0811665344
 21
95.8919709987
 31
0.0
  0
LINE
  5
19E
330
1F
100
AcDbEntity
  8
0
  6
Continuous
 62
     7
370
    15
100
AcDbLine
 10
52.2288334656
 20
95.8919709987
 30
0.0
 11
53.7996125507
 21
95.8919709987
 31
0.0
  0
LINE
  5
19F
330
1F
100
AcDbEntity
  8
0
  6
Continuous
 62
     7
370
    15
100
AcDbLine
 10
53.7995350647
 20
96.3682240314
 30
0.0
 11
52.2288334656
 21
96.3682240314
 31
0.0
  0
LINE
  5
1A0
330
1F
100
AcDbEntity
  8
0
  6
Continuous
 62
     7
370
    15
100
AcDbLine
 10
54.9771827745
 20
99.1276866264
 30
0.0
 11
54.9771827745
 21
97.5588446922
 31
0.0
  0
LINE
  5
1A1
330
1F
100
AcDbEntity
  8
0
  6
Continuous
 62
     7
370
    15
100
AcDbLine
 10
55.453432827
 20
97.5588446922
 30
0.0
 11
55.453432827
 21
99.1276866264
 31
0.0
  0
LINE
  5
1A2
330
1F
100
AcDbEntity
  8
0
  6
Continuous
 62
     7
370
    15
100
AcDbLine
 10
55.453432827
 20
93.1332713432
 30
0.0
 11
55.453432827
 21
94.702107317
 31
0.0
  0
LINE
  5
1A3
330
1F
100
AcDbEntity
  8
0
  6
Continuous
 62
     7
370
    15
100
AcDbLine
 10
54.9771827745
 20
94.702107317
 30
0.0
 11
54.9771827745
 21
93.1332713432
 31
0.0
  0
LINE
  5
1A4
330
1F
100
AcDbEntity
  8
0
  6
Continuous
 62
     7
370
    15
100
AcDbLine
 10
97.3931250029
 20
68.2556933231
 30
0.0
 11
97.3931250029
 21
69.8245292969
 31
0.0
  0
LINE
  5
1A5
330
1F
100
AcDbEntity
  8
0
  6
Continuous
 62
     7
370
    15
100
AcDbLine
 10
96.9168749971
 20
69.8245292969
 30
0.0
 11
96.9168749971
 21
68.2556933231
 31
0.0
  0
LINE
  5
1A6
330
1F
100
AcDbEntity
  8
0
  6
Continuous
 62
     7
370
    15
100
AcDbLine
 10
99.7584999639
 20
92.0224076576
 30
0.0
 11
97.5325238991
 21
92.0224076576
 31
0.0
  0
LINE
  5
1A7
330
1F
100
AcDbEntity
  8
0
  6
Continuous
 62
     7
370
    15
100
AcDbLine
 10
96.7774761009
 20
92.0224076576
 30
0.0
 11
94.5515000361
 21
92.0224076576
 31
0.0
  0
LINE
  5
1A8
330
1F
100
AcDbEntity
  8
0
  6
Continuous
 62
     7
370
    15
100
AcDbLine
 10
95.3025589797
 20
100.2385443516
 30
0.0
 11
96.7858610076
 21
100.2385443516
 31
0.0
  0
LINE
  5
1A9
330
1F
100
AcDbEntity
  8
0
  6
Continuous
 62
     7
370
    15
100
AcDbLine
 10
97.5241389924
 20
100.2385443516
 30
0.0
 11
99.7584999639
 21
100.2385443516
 31
0.0
  0
LINE
  5
1AA
330
1F
100
AcDbEntity
  8
0
  6
Continuous
 62
     7
370
    15
100
AcDbLine
 10
94.5515000361
 20
100.2385443516
 30
0.0
 11
95.3025589797
 21
100.2385443516
 31
0.0
  0
SPLINE
  5
1AB
330
1F
100
AcDbEntity
  8
0
  6
Continuous
 62
     7
370
    15
100
AcDbSpline
210
0.0
220
0.0
230
1.0
 70
     8
 71
     3
 72
    13
 73
     9
 74
     0
 42
0.000000001
 43
0.00000001
 40
0.0
 40
0.0
 40
0.0
 40
0.0
 40
0.0710678883398452
 40
0.2854091699028629
 40
0.4998741009550063
 40
0.7146866685681863
 40
0.9295182779160163
 40
1.0
 40
1.0
 40
1.0
 40
1.0
 10
68.80702796459197
 20
96.36599481771339
 30
0.0
 10
68.8036979811684
 20
96.36682155540805
 30
0.0
 10
68.79032474288998
 20
96.37014174015917
 30
0.0
 10
68.76581404125139
 20
96.34832567348532
 30
0.0
 10
68.73826642981703
 20
96.30270847233439
 30
0.0
 10
68.7180889723955
 20
96.23589991551181
 30
0.0
 10
68.71020422796083
 20
96.17503207074044
 30
0.0
 10
68.70969197333088
 20
96.13961069304382
 30
0.0
 10
68.7095654296875
 20
96.13086045453895
 30
0.0
  0
SPLINE
  5
1AC
330
1F
100
AcDbEntity
  8
0
  6
Continuous
 62
     7
370
    15
100
AcDbSpline
210
0.0
220
0.0
230
1.0
 70
     8
 71
     3
 72
    12
 73
     8
 74
     0
 42
0.000000001
 43
0.00000001
 40
0.0
 40
0.0
 40
0.0
 40
0.0
 40
0.1806690568152658
 40
0.3950360630719438
 40
0.6096255830250737
 40
0.824439806057571
 40
0.9999999999999999
 40
0.9999999999999999
 40
0.9999999999999999
 40
0.9999999999999999
 10
68.7095654296875
 20
96.13086045453895
 30
0.0
 10
68.71038767809226
 20
96.10836585309879
 30
0.0
 10
68.71218553865792
 20
96.05918101231899
 30
0.0
 10
68.72743367166396
 20
95.98960648574857
 30
0.0
 10
68.75172542776649
 20
95.93287036166912
 30
0.0
 10
68.78003868656977
 20
95.89777564692005
 30
0.0
 10
68.79884672598716
 20
95.89568350031566
 30
0.0
 10
68.80730512619019
 20
95.8947426147257
 30
0.0
  0
SPLINE
  5
1AD
330
1F
100
AcDbEntity
  8
0
  6
Continuous
 62
     7
370
    15
100
AcDbSpline
210
0.0
220
0.0
230
1.0
 70
     8
 71
     3
 72
    13
 73
     9
 74
     0
 42
0.000000001
 43
0.00000001
 40
0.0
 40
0.0
 40
0.0
 40
0.0
 40
0.0710678748118079
 40
0.2854091155741641
 40
0.4998740058021088
 40
0.7146865325249162
 40
0.9295181009787489
 40
1.0
 40
1.0
 40
1.0
 40
1.0
 10
125.502972035408
 20
96.36599481771339
 30
0.0
 10
125.5063020177961
 20
96.36682155538335
 30
0.0
 10
125.5196752519162
 20
96.3701417400354
 30
0.0
 10
125.544186034019
 20
96.34832567527904
 30
0.0
 10
125.5717332970051
 20
96.30270846582444
 30
0.0
 10
125.5919120467981
 20
96.2358999397997
 30
0.0
 10
125.59979305191
 20
96.17503198267988
 30
0.0
 10
125.6003098774721
 20
96.1396106898686
 30
0.0
 10
125.6004375505447
 20
96.13086045453895
 30
0.0
  0
LINE
  5
1AE
330
1F
100
AcDbEntity
  8
0
  6
Continuous
 62
     7
370
    15
100
AcDbLine
 10
125.6004375505
 20
96.1308604545
 30
0.0
 11
125.6004345703
 21
96.1300975151
 31
0.0
  0
SPLINE
  5
1AF
330
1F
100
AcDbEntity
  8
0
  6
Continuous
 62
     7
370
    15
100
AcDbSpline
210
0.0
220
0.0
230
1.0
 70
     8
 71
     3
 72
    12
 73
     8
 74
     0
 42
0.000000001
 43
0.00000001
 40
0.0
 40
0.0
 40
0.0
 40
0.0
 40
0.2128674075050156
 40
0.4277697418330421
 40
0.6429112034160557
 40
0.8582248908836677
 40
1.0
 40
1.0
 40
1.0
 40
1.0
 10
125.6004345703125
 20
96.13009751508582
 30
0.0
 10
125.5992634683866
 20
96.10362846631895
 30
0.0
 10
125.5969100692714
 20
96.05043733532206
 30
0.0
 10
125.5791896360813
 20
95.97922400808356
 30
0.0
 10
125.5537975453515
 20
95.92586152378888
 30
0.0
 10
125.5265804787506
 20
95.89553875962531
 30
0.0
 10
125.5095385311759
 20
95.89570271811176
 30
0.0
 10
125.502772359848
 20
95.89576781461584
 30
0.0
  0
SPLINE
  5
1B0
330
1F
100
AcDbEntity
  8
0
  6
Continuous
 62
     7
370
    15
100
AcDbSpline
210
0.0
220
0.0
230
1.0
 70
     8
 71
     3
 72
     9
 73
     5
 74
     0
 42
0.000000001
 43
0.00000001
 40
0.0
 40
0.0
 40
0.0
 40
0.0
 40
0.5889169304362927
 40
0.9999999999999999
 40
0.9999999999999999
 40
0.9999999999999999
 40
0.9999999999999999
 10
96.95471516877411
 20
72.13860810468542
 30
0.0
 10
96.94172376012646
 20
72.15941068162499
 30
0.0
 10
96.91966392795621
 20
72.19473413025494
 30
0.0
 10
96.91969536616232
 20
72.23538039613075
 30
0.0
 10
96.91970828987658
 20
72.2520893878733
 30
0.0
  0
SPLINE
  5
1B1
330
1F
100
AcDbEntity
  8
0
  6
Continuous
 62
     7
370
    15
100
AcDbSpline
210
0.0
220
0.0
230
1.0
 70
     8
 71
     3
 72
    15
 73
    11
 74
     0
 42
0.000000001
 43
0.00000001
 40
0.0
 40
0.0
 40
0.0
 40
0.0
 40
0.1284631449568399
 40
0.259502749033011
 40
0.3905478029062517
 40
0.521728144267428
 40
0.6529519043004708
 40
0.7841529553052934
 40
0.9153661964025942
 40
1.0
 40
1.0
 40
1.0
 40
1.0
 10
97.39283131036906
 20
72.2518748111521
 30
0.0
 10
97.39043515309072
 20
72.22868068153318
 30
0.0
 10
97.38559478116103
 20
72.18182724041932
 30
0.0
 10
97.34533187281012
 20
72.12002501776486
 30
0.0
 10
97.28540404159473
 20
72.07287560637485
 30
0.0
 10
97.21024346618694
 20
72.0458063903267
 30
0.0
 10
97.128874641115
 20
72.0415163545942
 30
0.0
 10
97.05076539049176
 20
72.06069428680841
 30
0.0
 10
96.99109040856064
 20
72.09582504535364
 30
0.0
 10
96.96496066334522
 20
72.12655777581634
 30
0.0
 10
96.95471516877411
 20
72.13860810468542
 30
0.0
  0
SPLINE
  5
1B2
330
1F
100
AcDbEntity
  8
0
  6
Continuous
 62
     7
370
    15
100
AcDbSpline
210
0.0
220
0.0
230
1.0
 70
     8
 71
     3
 72
    17
 73
    13
 74
     0
 42
0.000000001
 43
0.00000001
 40
0.0
 40
0.0
 40
0.0
 40
0.0
 40
0.040640521535292
 40
0.1480068866144729
 40
0.2552008183669482
 40
0.36247349651808
 40
0.4698385784096963
 40
0.5772049832072979
 40
0.6845604694679857
 40
0.79193548517696
 40
0.899276955780255
 40
1.0
 40
1.0
 40
1.0
 40
1.0
 10
96.9200657314807
 20
120.0091338224207
 30
0.0
 10
96.91923899974384
 20
120.0181265154619
 30
0.0
 10
96.91622816263305
 20
120.0508765995904
 30
0.0
 10
96.93915508957188
 20
120.1050054060257
 30
0.0
 10
96.98596311395755
 20
120.1619587820856
 30
0.0
 10
97.0534982837189
 20
120.2015315285136
 30
0.0
 10
97.13205918149143
 20
120.2196793563993
 30
0.0
 10
97.21330782538917
 20
120.2145268959341
 30
0.0
 10
97.28810901012422
 20
120.1865871828023
 30
0.0
 10
97.34731906327593
 20
120.1386912046095
 30
0.0
 10
97.38624467230613
 20
120.0772228080781
 30
0.0
 10
97.39036670173662
 20
120.031257338244
 30
0.0
 10
97.3923621566221
 20
120.0090056724345
 30
0.0
  0
LINE
  5
1B3
330
1F
100
AcDbEntity
  8
0
  6
Continuous
 62
     7
370
    15
100
AcDbLine
 10
124.2073905754
 20
92.0224076576
 30
0.0
 11
124.2073399115
 21
92.0224076576
 31
0.0
  0
LINE
  5
1B4
330
1F
100
AcDbEntity
  8
0
  6
Continuous
 62
     7
370
    15
100
AcDbLine
 10
129.4143390942
 20
92.0224076576
 30
0.0
 11
124.2073905754
 21
92.0224076576
 31
0.0
  0
LINE
  5
1B5
330
1F
100
AcDbEntity
  8
0
  6
Continuous
 62
     7
370
    15
100
AcDbLine
 10
70.1026600885
 20
92.0224076576
 30
0.0
 11
64.8956609058
 21
92.0224076576
 31
0.0
  0
LINE
  5
1B6
330
1F
100
AcDbEntity
  8
0
  6
Continuous
 62
     7
370
    15
100
AcDbLine
 10
126.7945421028
 20
100.2385443516
 30
0.0
 11
129.4143390942
 21
100.2385443516
 31
0.0
  0
LINE
  5
1B7
330
1F
100
AcDbEntity
  8
0
  6
Continuous
 62
     7
370
    15
100
AcDbLine
 10
124.2073399115
 20
100.2385443516
 30
0.0
 11
126.7945421028
 21
100.2385443516
 31
0.0
  0
LINE
  5
1B8
330
1F
100
AcDbEntity
  8
0
  6
Continuous
 62
     7
370
    15
100
AcDbLine
 10
64.8956609058
 20
100.2385443516
 30
0.0
 11
70.1026600885
 21
100.2385443516
 31
0.0
  0
SPLINE
  5
1B9
330
1F
100
AcDbEntity
  8
0
  6
Continuous
 62
     7
370
    15
100
AcDbSpline
210
0.0
220
0.0
230
1.0
 70
     8
 71
     3
 72
    13
 73
     9
 74
     0
 42
0.000000001
 43
0.00000001
 40
0.0
 40
0.0
 40
0.0
 40
0.0
 40
0.0732678198490215
 40
0.288035065913766
 40
0.5029555272519658
 40
0.7182111729442174
 40
0.933469799470613
 40
1.0
 40
1.0
 40
1.0
 40
1.0
 10
127.8118294763565
 20
96.36519015500892
 30
0.0
 10
127.8054444781077
 20
96.36601700027438
 30
0.0
 10
127.7803433710291
 20
96.3692675464354
 30
0.0
 10
127.7362192215437
 20
96.34725033169103
 30
0.0
 10
127.6877332995274
 20
96.30138686533229
 30
0.0
 10
127.6529919112244
 20
96.23443649248853
 30
0.0
 10
127.6397532741077
 20
96.17400865758417
 30
0.0
 10
127.6388279148083
 20
96.13910191817928
 30
0.0
 10
127.6386094379425
 20
96.13086045453895
 30
0.0
  0
SPLINE
  5
1BA
330
1F
100
AcDbEntity
  8
0
  6
Continuous
 62
     7
370
    15
100
AcDbSpline
210
0.0
220
0.0
230
1.0
 70
     8
 71
     3
 72
    12
 73
     8
 74
     0
 42
0.000000001
 43
0.00000001
 40
0.0
 40
0.0
 40
0.0
 40
0.0
 40
0.2124294237638528
 40
0.4268803581960706
 40
0.6415912556254306
 40
0.8564554336688631
 40
1.0
 40
1.0
 40
1.0
 40
1.0
 10
127.6386094379425
 20
96.13009751508582
 30
0.0
 10
127.640538179013
 20
96.10361985398575
 30
0.0
 10
127.6444140153471
 20
96.05041256634013
 30
0.0
 10
127.6747024147797
 20
95.97907630274759
 30
0.0
 10
127.7190104683026
 20
95.92549869625907
 30
0.0
 10
127.7676304719265
 20
95.89490850393204
 30
0.0
 10
127.7993174791019
 20
95.89494752412226
 30
0.0
 10
127.8120082902908
 20
95.89496315191137
 30
0.0
  0
LINE
  5
1BB
330
1F
100
AcDbEntity
  8
0
  6
Continuous
 62
     7
370
    15
100
AcDbLine
 10
127.6386094379
 20
96.1308604545
 30
0.0
 11
127.6386094379
 21
96.1300975151
 31
0.0
  0
SPLINE
  5
1BC
330
1F
100
AcDbEntity
  8
0
  6
Continuous
 62
     7
370
    15
100
AcDbSpline
210
0.0
220
0.0
230
1.0
 70
     8
 71
     3
 72
    12
 73
     8
 74
     0
 42
0.000000001
 43
0.00000001
 40
0.0
 40
0.0
 40
0.0
 40
0.0
 40
0.2128672391018475
 40
0.4277706332431069
 40
0.6429109319767455
 40
0.8582255021519088
 40
0.9999999999999999
 40
0.9999999999999999
 40
0.9999999999999999
 40
0.9999999999999999
 10
66.67139056205748
 20
96.13086045453895
 30
0.0
 10
66.66939038537093
 20
96.15732962031468
 30
0.0
 10
66.66537089955712
 20
96.21052113937174
 30
0.0
 10
66.63490081055981
 20
96.28173269066677
 30
0.0
 10
66.59045587637412
 20
96.33509982375425
 30
0.0
 10
66.54194589446968
 20
96.36540936317662
 30
0.0
 10
66.51044700080642
 20
96.36525245285952
 30
0.0
 10
66.4979410457611
 20
96.36519015500892
 30
0.0
  0
LINE
  5
1BD
330
1F
100
AcDbEntity
  8
0
  6
Continuous
 62
     7
370
    15
100
AcDbLine
 10
66.6713905621
 20
96.1300975151
 30
0.0
 11
66.6713905621
 21
96.1308604545
 31
0.0
  0
SPLINE
  5
1BE
330
1F
100
AcDbEntity
  8
0
  6
Continuous
 62
     7
370
    15
100
AcDbSpline
210
0.0
220
0.0
230
1.0
 70
     8
 71
     3
 72
    13
 73
     9
 74
     0
 42
0.000000001
 43
0.00000001
 40
0.0
 40
0.0
 40
0.0
 40
0.0
 40
0.0710681312889968
 40
0.2854019824330722
 40
0.4998781945923014
 40
0.7146879921127414
 40
0.9295029748090304
 40
0.9999999999999999
 40
0.9999999999999999
 40
0.9999999999999999
 40
0.9999999999999999
 10
66.49823012828826
 20
95.89496315191137
 30
0.0
 10
66.50443392959438
 20
95.89413652002375
 30
0.0
 10
66.52934772934226
 20
95.89081685514451
 30
0.0
 10
66.57332482021403
 20
95.91262401365317
 30
0.0
 10
66.62190146723204
 20
95.95824980506401
 30
0.0
 10
66.6567785583021
 20
96.02505642428943
 30
0.0
 10
66.67027441195822
 20
96.08592364263619
 30
0.0
 10
66.67116941741429
 20
96.12134527354792
 30
0.0
 10
66.67139056205748
 20
96.13009751508582
 30
0.0
  0
LINE
  5
1BF
330
1F
100
AcDbEntity
  8
0
  6
Continuous
 62
     7
370
    15
100
AcDbLine
 10
126.5727144766
 20
93.1332713432
 30
0.0
 11
127.048964529
 21
93.1332713432
 31
0.0
  0
LINE
  5
1C0
330
1F
100
AcDbEntity
  8
0
  6
Continuous
 62
     7
370
    15
100
AcDbLine
 10
67.261035471
 20
93.1332713432
 30
0.0
 11
67.7372855234
 21
93.1332713432
 31
0.0
  0
LINE
  5
1C1
330
1F
100
AcDbEntity
  8
0
  6
Continuous
 62
     7
370
    15
100
AcDbLine
 10
126.8108409929
 20
99.1276866264
 30
0.0
 11
126.5727144766
 21
99.1276866264
 31
0.0
  0
LINE
  5
1C2
330
1F
100
AcDbEntity
  8
0
  6
Continuous
 62
     7
370
    15
100
AcDbLine
 10
127.048964529
 20
99.1276866264
 30
0.0
 11
126.8108409929
 21
99.1276866264
 31
0.0
  0
LINE
  5
1C3
330
1F
100
AcDbEntity
  8
0
  6
Continuous
 62
     7
370
    15
100
AcDbLine
 10
67.7372855234
 20
99.1276866264
 30
0.0
 11
67.261035471
 21
99.1276866264
 31
0.0
  0
LINE
  5
1C4
330
1F
100
AcDbEntity
  8
0
  6
Continuous
 62
     7
370
    15
100
AcDbLine
 10
127.6386094379
 20
96.1308604545
 30
0.0
 11
125.6004375505
 21
96.1308604545
 31
0.0
  0
LINE
  5
1C5
330
1F
100
AcDbEntity
  8
0
  6
Continuous
 62
     7
370
    15
100
AcDbLine
 10
68.7095654297
 20
96.1308604545
 30
0.0
 11
66.6713905621
 21
96.1308604545
 31
0.0
  0
LINE
  5
1C6
330
1F
100
AcDbEntity
  8
0
  6
Continuous
 62
     7
370
    15
100
AcDbLine
 10
127.5643927145
 20
94.702107317
 30
0.0
 11
126.0572862911
 21
94.702107317
 31
0.0
  0
LINE
  5
1C7
330
1F
100
AcDbEntity
  8
0
  6
Continuous
 62
     7
370
    15
100
AcDbLine
 10
126.2779963303
 20
97.5588446922
 30
0.0
 11
127.5643927145
 21
97.5588446922
 31
0.0
  0
LINE
  5
1C8
330
1F
100
AcDbEntity
  8
0
  6
Continuous
 62
     7
370
    15
100
AcDbLine
 10
126.0572862911
 20
97.5588446922
 30
0.0
 11
126.2779963303
 21
97.5588446922
 31
0.0
  0
LINE
  5
1C9
330
1F
100
AcDbEntity
  8
0
  6
Continuous
 62
     7
370
    15
100
AcDbLine
 10
66.7456072855
 20
97.5588446922
 30
0.0
 11
68.2527137089
 21
97.5588446922
 31
0.0
  0
LINE
  5
1CA
330
1F
100
AcDbEntity
  8
0
  6
Continuous
 62
     7
370
    15
100
AcDbLine
 10
68.0320036697
 20
94.702107317
 30
0.0
 11
66.7456072855
 21
94.702107317
 31
0.0
  0
LINE
  5
1CB
330
1F
100
AcDbEntity
  8
0
  6
Continuous
 62
     7
370
    15
100
AcDbLine
 10
68.2527137089
 20
94.702107317
 30
0.0
 11
68.0320036697
 21
94.702107317
 31
0.0
  0
SPLINE
  5
1CC
330
1F
100
AcDbEntity
  8
0
  6
Continuous
 62
     7
370
    15
100
AcDbSpline
210
0.0
220
0.0
230
1.0
 70
     8
 71
     3
 72
    17
 73
    13
 74
     0
 42
0.000000001
 43
0.00000001
 40
0.0
 40
0.0
 40
0.0
 40
0.0
 40
0.0706527671301916
 40
0.1779422174522658
 40
0.2852132768612944
 40
0.3924941711935651
 40
0.4997770722099004
 40
0.6069679691841531
 40
0.7140767975208596
 40
0.821339001109876
 40
0.9290026187358775
 40
1.0
 40
1.0
 40
1.0
 40
1.0
 10
96.1858502689004
 20
120.1927310294901
 30
0.0
 10
96.194128689753
 20
120.1995756060623
 30
0.0
 10
96.21497827036178
 20
120.2168139844337
 30
0.0
 10
96.26570602339207
 20
120.2191447231773
 30
0.0
 10
96.3285780048285
 20
120.201571958776
 30
0.0
 10
96.39283647921212
 20
120.1617221108252
 30
0.0
 10
96.44993654287565
 20
120.1047167071476
 30
0.0
 10
96.49304813547418
 20
120.0363866297886
 30
0.0
 10
96.5171102428097
 20
119.9639200297574
 30
0.0
 10
96.51866197834553
 20
119.8963796753005
 30
0.0
 10
96.50281233315083
 20
119.8442569163554
 30
0.0
 10
96.48008765818379
 20
119.8259208812806
 30
0.0
 10
96.47105719029902
 20
119.8186343974863
 30
0.0
  0
SPLINE
  5
1CD
330
1F
100
AcDbEntity
  8
0
  6
Continuous
 62
     7
370
    15
100
AcDbSpline
210
0.0
220
0.0
230
1.0
 70
     8
 71
     3
 72
    17
 73
    13
 74
     0
 42
0.000000001
 43
0.00000001
 40
0.0
 40
0.0
 40
0.0
 40
0.0
 40
0.0660288974775586
 40
0.1732843329615003
 40
0.2810945703065407
 40
0.3887952366857903
 40
0.4960910624585695
 40
0.6032011705376635
 40
0.7103836870954107
 40
0.8176624822138375
 40
0.9249455333222011
 40
1.0
 40
1.0
 40
1.0
 40
1.0
 10
97.83897168070077
 20
119.8187238044535
 30
0.0
 10
97.8304709193296
 20
119.8253452094777
 30
0.0
 10
97.8081617665171
 20
119.8427222337311
 30
0.0
 10
97.7918143663213
 20
119.8934411878309
 30
0.0
 10
97.79227240398231
 20
119.9606995186918
 30
0.0
 10
97.81555232328807
 20
120.0334637806688
 30
0.0
 10
97.8580680056606
 20
120.1022020777787
 30
0.0
 10
97.91471307096171
 20
120.1597485324665
 30
0.0
 10
97.97877194389913
 20
120.2003476530946
 30
0.0
 10
98.04184496885031
 20
120.2188860598707
 30
0.0
 10
98.09363975892418
 20
120.2172274910247
 30
0.0
 10
98.11535092135887
 20
120.199975437085
 30
0.0
 10
98.12428775310515
 20
120.1928740806376
 30
0.0
  0
SPLINE
  5
1CE
330
1F
100
AcDbEntity
  8
0
  6
Continuous
 62
     7
370
    15
100
AcDbSpline
210
0.0
220
0.0
230
1.0
 70
     8
 71
     3
 72
    13
 73
     9
 74
     0
 42
0.000000001
 43
0.00000001
 40
0.0
 40
0.0
 40
0.0
 40
0.0
 40
0.1806232510116041
 40
0.3612517895861512
 40
0.5417898672078015
 40
0.7226786633736634
 40
0.9042471179061974
 40
0.9999999999999999
 40
0.9999999999999999
 40
0.9999999999999999
 40
0.9999999999999999
 10
97.91039015233515
 20
72.10864484975684
 30
0.0
 10
97.89129197176608
 20
72.12709726723824
 30
0.0
 10
97.85309505154801
 20
72.16400264237689
 30
0.0
 10
97.81274371588523
 20
72.2341768083061
 30
0.0
 10
97.79129620115675
 20
72.30636197380397
 30
0.0
 10
97.79282298522952
 20
72.37265758821415
 30
0.0
 10
97.80977326108123
 20
72.42100591761447
 30
0.0
 10
97.83154545129376
 20
72.4366040859458
 30
0.0
 10
97.83906290374696
 20
72.44198978612769
 30
0.0
  0
SPLINE
  5
1CF
330
1F
100
AcDbEntity
  8
0
  6
Continuous
 62
     7
370
    15
100
AcDbSpline
210
0.0
220
0.0
230
1.0
 70
     8
 71
     3
 72
    12
 73
     8
 74
     0
 42
0.000000001
 43
0.00000001
 40
0.0
 40
0.0
 40
0.0
 40
0.0
 40
0.0384711470890383
 40
0.3022459176209165
 40
0.5660125356775579
 40
0.8297604348901049
 40
1.0
 40
1.0
 40
1.0
 40
1.0
 10
98.12484859555958
 20
72.06704080770362
 30
0.0
 10
98.12336955569917
 20
72.06514181485268
 30
0.0
 10
98.11174958089639
 20
72.0502225083017
 30
0.0
 10
98.07331615751974
 20
72.04212158429213
 30
0.0
 10
98.01467351537423
 20
72.04716664615826
 30
0.0
 10
97.95690326726094
 20
72.07259517984163
 30
0.0
 10
97.92349511466085
 20
72.09848793881149
 30
0.0
 10
97.91039015233515
 20
72.10864484975684
 30
0.0
  0
SPLINE
  5
1D0
330
1F
100
AcDbEntity
  8
0
  6
Continuous
 62
     7
370
    15
100
AcDbSpline
210
0.0
220
0.0
230
1.0
 70
     8
 71
     3
 72
    18
 73
    14
 74
     0
 42
0.000000001
 43
0.00000001
 40
0.0
 40
0.0
 40
0.0
 40
0.0
 40
0.0105809676425679
 40
0.1174639304699797
 40
0.2250918558975873
 40
0.3329541720111833
 40
0.4404952554706725
 40
0.5476867741525315
 40
0.6548461060617718
 40
0.7621158854384832
 40
0.8694378731448552
 40
0.9767413816598334
 40
1.0
 40
1.0
 40
1.0
 40
1.0
 10
96.47232164695859
 20
72.4437123603617
 30
0.0
 10
96.47386061489172
 20
72.44295327275704
 30
0.0
 10
96.49094536823375
 20
72.43452631062786
 30
0.0
 10
96.50950602325416
 20
72.39734962081798
 30
0.0
 10
96.52119042446874
 20
72.33688005201392
 30
0.0
 10
96.50907669303363
 20
72.26511576151556
 30
0.0
 10
96.47617167411563
 20
72.19350218469644
 30
0.0
 10
96.4260021293031
 20
72.12921646450393
 30
0.0
 10
96.36500858847626
 20
72.07935196320024
 30
0.0
 10
96.29996949351336
 20
72.04839932757571
 30
0.0
 10
96.24048524365175
 20
72.0417166553867
 30
0.0
 10
96.20051823572824
 20
72.04926867654159
 30
0.0
 10
96.18781068719007
 20
72.06475323230069
 30
0.0
 10
96.18554693713784
 20
72.06751168439735
 30
0.0
  0
SPLINE
  5
1D1
330
1F
100
AcDbEntity
  8
0
  6
Continuous
 62
     7
370
    15
100
AcDbSpline
210
0.0
220
0.0
230
1.0
 70
     8
 71
     3
 72
    13
 73
     9
 74
     0
 42
0.000000001
 43
0.00000001
 40
0.0
 40
0.0
 40
0.0
 40
0.0
 40
0.071067422375969
 40
0.2854042027910855
 40
0.4998742281323116
 40
0.7146863465959316
 40
0.9295180753664036
 40
1.0
 40
1.0
 40
1.0
 40
1.0
 10
138.5530841636658
 20
96.36599481771339
 30
0.0
 10
138.5612154880669
 20
96.36682157311259
 30
0.0
 10
138.5938705933283
 20
96.37014179295069
 30
0.0
 10
138.6506219880586
 20
96.34832450160427
 30
0.0
 10
138.7128398116721
 20
96.30270948249215
 30
0.0
 10
138.7571006052344
 20
96.23589969797703
 30
0.0
 10
138.7741600647125
 20
96.17503200669988
 30
0.0
 10
138.7752982038443
 20
96.13961069260408
 30
0.0
 10
138.7755793619156
 20
96.13086045453895
 30
0.0
  0
LINE
  5
1D2
330
1F
100
AcDbEntity
  8
0
  6
Continuous
 62
     7
370
    15
100
AcDbLine
 10
138.7755793619
 20
96.1308604545
 30
0.0
 11
138.7755763817
 21
96.1300975151
 31
0.0
  0
SPLINE
  5
1D3
330
1F
100
AcDbEntity
  8
0
  6
Continuous
 62
     7
370
    15
100
AcDbSpline
210
0.0
220
0.0
230
1.0
 70
     8
 71
     3
 72
    12
 73
     8
 74
     0
 42
0.000000001
 43
0.00000001
 40
0.0
 40
0.0
 40
0.0
 40
0.0
 40
0.2128666704690987
 40
0.4277693934532834
 40
0.6429114822031149
 40
0.8582239888217249
 40
0.9999999999999999
 40
0.9999999999999999
 40
0.9999999999999999
 40
0.9999999999999999
 10
138.7755763816833
 20
96.13009751508582
 30
0.0
 10
138.7730527214856
 20
96.1036284364888
 30
0.0
 10
138.767981262484
 20
96.05043710469522
 30
0.0
 10
138.7293993730305
 20
95.97922397617994
 30
0.0
 10
138.6726648617648
 20
95.92586174673889
 30
0.0
 10
138.6102476947906
 20
95.89553866651596
 30
0.0
 10
138.5690888334819
 20
95.89570269131748
 30
0.0
 10
138.5527473974228
 20
95.89576781461584
 30
0.0
  0
LINE
  5
1D4
330
1F
100
AcDbEntity
  8
0
  6
Continuous
 62
     7
370
    15
100
AcDbLine
 10
55.5344236183
 20
96.1300975151
 30
0.0
 11
55.5344206381
 21
96.1308604545
 31
0.0
  0
SPLINE
  5
1D5
330
1F
100
AcDbEntity
  8
0
  6
Continuous
 62
     7
370
    15
100
AcDbSpline
210
0.0
220
0.0
230
1.0
 70
     8
 71
     3
 72
    12
 73
     8
 74
     0
 42
0.000000001
 43
0.00000001
 40
0.0
 40
0.0
 40
0.0
 40
0.0
 40
0.2124285225765188
 40
0.4268784974694982
 40
0.6415901894294996
 40
0.8564535870914258
 40
0.9999999999999999
 40
0.9999999999999999
 40
0.9999999999999999
 40
0.9999999999999999
 10
55.53442063808439
 20
96.13086045453893
 30
0.0
 10
55.53685992538093
 20
96.15733810273093
 30
0.0
 10
55.54176171203093
 20
96.21054535823338
 30
0.0
 10
55.58012309543178
 20
96.28188200295779
 30
0.0
 10
55.63668534136964
 20
96.33545903147174
 30
0.0
 10
55.69924569795459
 20
96.36604959615639
 30
0.0
 10
55.74064711419316
 20
96.36601048292209
 30
0.0
 10
55.75722876071929
 20
96.36599481771339
 30
0.0
  0
SPLINE
  5
1D6
330
1F
100
AcDbEntity
  8
0
  6
Continuous
 62
     7
370
    15
100
AcDbSpline
210
0.0
220
0.0
230
1.0
 70
     8
 71
     3
 72
    13
 73
     9
 74
     0
 42
0.000000001
 43
0.00000001
 40
0.0
 40
0.0
 40
0.0
 40
0.0
 40
0.0732670116061916
 40
0.2880360247996522
 40
0.5029471096160769
 40
0.7182127188021011
 40
0.93347035247802
 40
0.9999999999999999
 40
0.9999999999999999
 40
0.9999999999999999
 40
0.9999999999999999
 10
55.75695159912109
 20
95.89576781461584
 30
0.0
 10
55.74858262101846
 20
95.8949385679611
 30
0.0
 10
55.71568149496633
 20
95.89167853449214
 30
0.0
 10
55.65875390007837
 20
95.91371310042449
 30
0.0
 10
55.59666302235483
 20
95.95956313535788
 30
0.0
 10
55.55259243293926
 20
96.02652201933127
 30
0.0
 10
55.53586682260497
 20
96.0869490756431
 30
0.0
 10
55.53469927495198
 20
96.12185602513642
 30
0.0
 10
55.53442361831664
 20
96.13009751508582
 30
0.0
  0
LINE
  5
1D7
330
1F
100
AcDbEntity
  8
0
  6
Continuous
 62
     7
370
    15
100
AcDbLine
 10
97.155
 20
150.3944920349
 30
0.0
 11
93.9799998987
 21
150.3944920349
 31
0.0
  0
LINE
  5
1D8
330
1F
100
AcDbEntity
  8
0
  6
Continuous
 62
     7
370
    15
100
AcDbLine
 10
100.3300001013
 20
150.3944920349
 30
0.0
 11
97.155
 21
150.3944920349
 31
0.0
  0
LINE
  5
1D9
330
1F
100
AcDbEntity
  8
0
  6
Continuous
 62
     7
370
    15
100
AcDbLine
 10
97.155
 20
151.0294920273
 30
0.0
 11
93.9799998987
 21
151.0294920273
 31
0.0
  0
LINE
  5
1DA
330
1F
100
AcDbEntity
  8
0
  6
Continuous
 62
     7
370
    15
100
AcDbLine
 10
100.3300001013
 20
151.0294920273
 30
0.0
 11
97.155
 21
151.0294920273
 31
0.0
  0
LINE
  5
1DB
330
1F
100
AcDbEntity
  8
0
  6
Continuous
 62
     7
370
    15
100
AcDbLine
 10
137.2652989912
 20
92.0224076576
 30
0.0
 11
136.4911926079
 21
92.0224076576
 31
0.0
  0
LINE
  5
1DC
330
1F
100
AcDbEntity
  8
0
  6
Continuous
 62
     7
370
    15
100
AcDbLine
 10
141.6981917906
 20
92.0224076576
 30
0.0
 11
137.2652989912
 21
92.0224076576
 31
0.0
  0
LINE
  5
1DD
330
1F
100
AcDbEntity
  8
0
  6
Continuous
 62
     7
370
    15
100
AcDbLine
 10
140.924082427
 20
100.2385443516
 30
0.0
 11
141.6981917906
 21
100.2385443516
 31
0.0
  0
LINE
  5
1DE
330
1F
100
AcDbEntity
  8
0
  6
Continuous
 62
     7
370
    15
100
AcDbLine
 10
136.4911926079
 20
100.2385443516
 30
0.0
 11
140.924082427
 21
100.2385443516
 31
0.0
  0
LINE
  5
1DF
330
1F
100
AcDbEntity
  8
0
  6
Continuous
 62
     7
370
    15
100
AcDbLine
 10
143.19203022
 20
94.3007057972
 30
0.0
 11
143.19203022
 21
93.5265964336
 31
0.0
  0
LINE
  5
1E0
330
1F
100
AcDbEntity
  8
0
  6
Continuous
 62
     7
370
    15
100
AcDbLine
 10
143.19203022
 20
98.7335985966
 30
0.0
 11
143.19203022
 21
94.3007057972
 31
0.0
  0
LINE
  5
1E1
330
1F
100
AcDbEntity
  8
0
  6
Continuous
 62
     7
370
    15
100
AcDbLine
 10
99.7584999639
 20
116.9086402721
 30
0.0
 11
97.3931250029
 21
116.9086402721
 31
0.0
  0
LINE
  5
1E2
330
1F
100
AcDbEntity
  8
0
  6
Continuous
 62
     7
370
    15
100
AcDbLine
 10
96.9168749971
 20
116.9086402721
 30
0.0
 11
94.5515000361
 21
116.9086402721
 31
0.0
  0
LINE
  5
1E3
330
1F
100
AcDbEntity
  8
0
  6
Continuous
 62
     7
370
    15
100
AcDbLine
 10
95.3025589797
 20
75.3523176975
 30
0.0
 11
96.9168749971
 21
75.3523176975
 31
0.0
  0
LINE
  5
1E4
330
1F
100
AcDbEntity
  8
0
  6
Continuous
 62
     7
370
    15
100
AcDbLine
 10
97.3931250029
 20
75.3523176975
 30
0.0
 11
99.7584999639
 21
75.3523176975
 31
0.0
  0
LINE
  5
1E5
330
1F
100
AcDbEntity
  8
0
  6
Continuous
 62
     7
370
    15
100
AcDbLine
 10
94.5515000361
 20
75.3523176975
 30
0.0
 11
95.3025589797
 21
75.3523176975
 31
0.0
  0
LINE
  5
1E6
330
1F
100
AcDbEntity
  8
0
  6
Continuous
 62
     7
370
    15
100
AcDbLine
 10
51.11796978
 20
93.5265964336
 30
0.0
 11
51.11796978
 21
98.7335985966
 31
0.0
  0
LINE
  5
1E7
330
1F
100
AcDbEntity
  8
0
  6
Continuous
 62
     7
370
    15
100
AcDbLine
 10
52.6118082094
 20
100.2385443516
 30
0.0
 11
57.8188073921
 21
100.2385443516
 31
0.0
  0
LINE
  5
1E8
330
1F
100
AcDbEntity
  8
0
  6
Continuous
 62
     7
370
    15
100
AcDbLine
 10
57.8188073921
 20
92.0224076576
 30
0.0
 11
52.6118082094
 21
92.0224076576
 31
0.0
  0
LINE
  5
1E9
330
1F
100
AcDbEntity
  8
0
  6
Continuous
 62
     7
370
    15
100
AcDbLine
 10
94.5726544696
 20
67.1448296375
 30
0.0
 11
94.5515000361
 21
67.1448296375
 31
0.0
  0
LINE
  5
1EA
330
1F
100
AcDbEntity
  8
0
  6
Continuous
 62
     7
370
    15
100
AcDbLine
 10
99.7584999639
 20
67.1448296375
 30
0.0
 11
94.5726544696
 21
67.1448296375
 31
0.0
  0
LINE
  5
1EB
330
1F
100
AcDbEntity
  8
0
  6
Continuous
 62
     7
370
    15
100
AcDbLine
 10
138.856567173
 20
93.1332713432
 30
0.0
 11
139.3328172255
 21
93.1332713432
 31
0.0
  0
LINE
  5
1EC
330
1F
100
AcDbEntity
  8
0
  6
Continuous
 62
     7
370
    15
100
AcDbLine
 10
139.0946907091
 20
99.1276866264
 30
0.0
 11
138.856567173
 21
99.1276866264
 31
0.0
  0
LINE
  5
1ED
330
1F
100
AcDbEntity
  8
0
  6
Continuous
 62
     7
370
    15
100
AcDbLine
 10
139.3328172255
 20
99.1276866264
 30
0.0
 11
139.0946907091
 21
99.1276866264
 31
0.0
  0
LINE
  5
1EE
330
1F
100
AcDbEntity
  8
0
  6
Continuous
 62
     7
370
    15
100
AcDbLine
 10
142.0811665344
 20
95.8919709987
 30
0.0
 11
142.0811665344
 21
96.3682240314
 31
0.0
  0
LINE
  5
1EF
330
1F
100
AcDbEntity
  8
0
  6
Continuous
 62
     7
370
    15
100
AcDbLine
 10
52.2288334656
 20
96.1300975151
 30
0.0
 11
52.2288334656
 21
95.8919709987
 31
0.0
  0
LINE
  5
1F0
330
1F
100
AcDbEntity
  8
0
  6
Continuous
 62
     7
370
    15
100
AcDbLine
 10
52.2288334656
 20
96.3682240314
 30
0.0
 11
52.2288334656
 21
96.1300975151
 31
0.0
  0
LINE
  5
1F1
330
1F
100
AcDbEntity
  8
0
  6
Continuous
 62
     7
370
    15
100
AcDbLine
 10
55.2153092909
 20
99.1276866264
 30
0.0
 11
54.9771827745
 21
99.1276866264
 31
0.0
  0
LINE
  5
1F2
330
1F
100
AcDbEntity
  8
0
  6
Continuous
 62
     7
370
    15
100
AcDbLine
 10
55.453432827
 20
99.1276866264
 30
0.0
 11
55.2153092909
 21
99.1276866264
 31
0.0
  0
LINE
  5
1F3
330
1F
100
AcDbEntity
  8
0
  6
Continuous
 62
     7
370
    15
100
AcDbLine
 10
54.9771827745
 20
93.1332713432
 30
0.0
 11
55.453432827
 21
93.1332713432
 31
0.0
  0
LINE
  5
1F4
330
1F
100
AcDbEntity
  8
0
  6
Continuous
 62
     7
370
    15
100
AcDbLine
 10
96.9168749971
 20
68.2556933231
 30
0.0
 11
97.3931250029
 21
68.2556933231
 31
0.0
  0
SPLINE
  5
1F5
330
1F
100
AcDbEntity
  8
0
  6
Continuous
 62
     7
370
    15
100
AcDbSpline
210
0.0
220
0.0
230
1.0
 70
     8
 71
     3
 72
    18
 73
    14
 74
     0
 42
0.000000001
 43
0.00000001
 40
0.0
 40
0.0
 40
0.0
 40
0.0
 40
0.0215516950761612
 40
0.1280017614083604
 40
0.2346050897981302
 40
0.3419496357965665
 40
0.4497366809615467
 40
0.5573002417874717
 40
0.6644773538848885
 40
0.7715288290085679
 40
0.8786761768024691
 40
0.9859051899856615
 40
1.0
 40
1.0
 40
1.0
 40
1.0
 10
138.0326462078094
 20
97.35228479574072
 30
0.0
 10
138.0329113919146
 20
97.35291718362919
 30
0.0
 10
138.0344863971492
 20
97.35667311852576
 30
0.0
 10
138.0271719469297
 20
97.33916695954555
 30
0.0
 10
138.0104728157337
 20
97.30056944640921
 30
0.0
 10
137.983598610094
 20
97.24175252020088
 30
0.0
 10
137.9497178652941
 20
97.17233415600657
 30
0.0
 10
137.9119529525784
 20
97.09980797411023
 30
0.0
 10
137.8750060766559
 20
97.0327572058139
 30
0.0
 10
137.8433243964654
 20
96.97780468447361
 30
0.0
 10
137.8222315392183
 20
96.94234453882294
 30
0.0
 10
137.8141763095381
 20
96.92899054343192
 30
0.0
 10
137.8153893980448
 20
96.93101972591712
 30
0.0
 10
137.8155303287506
 20
96.9312554664408
 30
0.0
  0
SPLINE
  5
1F6
330
1F
100
AcDbEntity
  8
0
  6
Continuous
 62
     7
370
    15
100
AcDbSpline
210
0.0
220
0.0
230
1.0
 70
     8
 71
     3
 72
    13
 73
     9
 74
     0
 42
0.000000001
 43
0.00000001
 40
0.0
 40
0.0
 40
0.0
 40
0.0
 40
0.0738665270788526
 40
0.288496648927227
 40
0.5032770393976705
 40
0.7183918650569402
 40
0.9335128393152246
 40
1.0
 40
1.0
 40
1.0
 40
1.0
 10
140.5104649353027
 20
96.36517823407996
 30
0.0
 10
140.5105145960214
 20
96.36601420067305
 30
0.0
 10
140.5107085533049
 20
96.36927919187079
 30
0.0
 10
140.5093822790826
 20
96.34725676474429
 30
0.0
 10
140.5070418049767
 20
96.30138537492674
 30
0.0
 10
140.5046136404584
 20
96.23443620625723
 30
0.0
 10
140.5035469798733
 20
96.17400888706686
 30
0.0
 10
140.5034753265312
 20
96.13910192405262
 30
0.0
 10
140.5034584093094
 20
96.13086045453895
 30
0.0
  0
LINE
  5
1F7
330
1F
100
AcDbEntity
  8
0
  6
Continuous
 62
     7
370
    15
100
AcDbLine
 10
140.5034584093
 20
96.1308604545
 30
0.0
 11
138.7755793619
 21
96.1308604545
 31
0.0
  0
LINE
  5
1F8
330
1F
100
AcDbEntity
  8
0
  6
Continuous
 62
     7
370
    15
100
AcDbLine
 10
140.5034584093
 20
96.1308604545
 30
0.0
 11
140.5034584093
 21
96.1300975151
 31
0.0
  0
SPLINE
  5
1F9
330
1F
100
AcDbEntity
  8
0
  6
Continuous
 62
     7
370
    15
100
AcDbSpline
210
0.0
220
0.0
230
1.0
 70
     8
 71
     3
 72
    12
 73
     8
 74
     0
 42
0.000000001
 43
0.00000001
 40
0.0
 40
0.0
 40
0.0
 40
0.0
 40
0.2125435099804374
 40
0.4271096542380195
 40
0.6419339230151193
 40
0.8569175746700424
 40
1.0
 40
1.0
 40
1.0
 40
1.0
 10
140.5034584093094
 20
96.13009751508582
 30
0.0
 10
140.5036073562736
 20
96.10361990343698
 30
0.0
 10
140.5039066676307
 20
96.05041271043717
 30
0.0
 10
140.506148386873
 20
95.97907590795812
 30
0.0
 10
140.5086081095049
 20
95.92550097296665
 30
0.0
 10
140.5103855308933
 20
95.89492754760296
 30
0.0
 10
140.5103869015522
 20
95.89496150395567
 30
0.0
 10
140.5103874492645
 20
95.89497507284034
 30
0.0
  0
SPLINE
  5
1FA
330
1F
100
AcDbEntity
  8
0
  6
Continuous
 62
     7
370
    15
100
AcDbSpline
210
0.0
220
0.0
230
1.0
 70
     8
 71
     3
 72
    18
 73
    14
 74
     0
 42
0.000000001
 43
0.00000001
 40
0.0
 40
0.0
 40
0.0
 40
0.0
 40
0.0244424194887261
 40
0.1308857301729565
 40
0.2375093689194024
 40
0.3448789881597866
 40
0.4526604653269839
 40
0.5602223529719859
 40
0.6673907306674552
 40
0.7744415170836982
 40
0.8815965581153062
 40
0.9888278180449024
 40
1.0
 40
1.0
 40
1.0
 40
1.0
 10
138.032565741539
 20
94.9088639087473
 30
0.0
 10
138.0328502761921
 20
94.90818566659803
 30
0.0
 10
138.0343739193752
 20
94.90455377496046
 30
0.0
 10
138.0268385513787
 20
94.92257957738471
 30
0.0
 10
138.0098264960552
 20
94.96184745245344
 30
0.0
 10
137.9827204620792
 20
95.02106919394097
 30
0.0
 10
137.9486726382143
 20
95.0906873282939
 30
0.0
 10
137.9108621792722
 20
95.16318921664812
 30
0.0
 10
137.8740347761102
 20
95.22991856719123
 30
0.0
 10
137.8424467465974
 20
95.28462573549022
 30
0.0
 10
137.82216750108
 20
95.3187375764244
 30
0.0
 10
137.813237755896
 20
95.33348626856444
 30
0.0
 10
137.8154987797144
 20
95.32975641718127
 30
0.0
 10
137.8157121229171
 20
95.32940447996008
 30
0.0
  0
SPLINE
  5
1FB
330
1F
100
AcDbEntity
  8
0
  6
Continuous
 62
     7
370
    15
100
AcDbSpline
210
0.0
220
0.0
230
1.0
 70
     8
 71
     3
 72
    12
 73
     8
 74
     0
 42
0.000000001
 43
0.00000001
 40
0.0
 40
0.0
 40
0.0
 40
0.0
 40
0.1644354711537717
 40
0.3937188756589518
 40
0.6230439899877026
 40
0.8522974606929876
 40
1.0
 40
1.0
 40
1.0
 40
1.0
 10
95.8767852845788
 20
120.2143615550791
 30
0.0
 10
95.87692828096283
 20
120.2141272728601
 30
0.0
 10
95.87727066679453
 20
120.2135663152322
 30
0.0
 10
95.89377445150463
 20
120.1860964840791
 30
0.0
 10
95.92138118969584
 20
120.1387540588332
 30
0.0
 10
95.95263057434002
 20
120.0835920051447
 30
0.0
 10
95.97313538767288
 20
120.0447478450589
 30
0.0
 10
95.98116978138685
 20
120.0295275516306
 30
0.0
  0
SPLINE
  5
1FC
330
1F
100
AcDbEntity
  8
0
  6
Continuous
 62
     7
370
    15
100
AcDbSpline
210
0.0
220
0.0
230
1.0
 70
     8
 71
     3
 72
    13
 73
     9
 74
     0
 42
0.000000001
 43
0.00000001
 40
0.0
 40
0.0
 40
0.0
 40
0.0
 40
0.0022686509932645
 40
0.2311729583624284
 40
0.459656190590792
 40
0.6882802789160352
 40
0.9171184229991451
 40
1.0
 40
1.0
 40
1.0
 40
1.0
 10
98.32867282509802
 20
120.0296586818491
 30
0.0
 10
98.32879325780699
 20
120.0298931513961
 30
0.0
 10
98.34106521400456
 20
120.0537853318019
 30
0.0
 10
98.3666025289641
 20
120.0997673637344
 30
0.0
 10
98.39980812576276
 20
120.1582435312391
 30
0.0
 10
98.4234501764966
 20
120.1981539437264
 30
0.0
 10
98.43506661838312
 20
120.2174375237372
 30
0.0
 10
98.43344742233762
 20
120.2147486583301
 30
0.0
 10
98.43301690250635
 20
120.2140337295328
 30
0.0
  0
LINE
  5
1FD
330
1F
100
AcDbEntity
  8
0
  6
Continuous
 62
     7
370
    15
100
AcDbLine
 10
95.7262500289
 20
121.025741703
 30
0.0
 11
98.5837499711
 21
121.025741703
 31
0.0
  0
LINE
  5
1FE
330
1F
100
AcDbEntity
  8
0
  6
Continuous
 62
     7
370
    15
100
AcDbLine
 10
98.5837499711
 20
71.2532824344
 30
0.0
 11
95.7262500289
 21
71.2532824344
 31
0.0
  0
LINE
  5
1FF
330
1F
100
AcDbEntity
  8
0
  6
Continuous
 62
     7
370
    15
100
AcDbLine
 10
95.7262500289
 20
71.2438649006
 30
0.0
 11
98.5837499711
 21
71.2438649006
 31
0.0
  0
SPLINE
  5
200
330
1F
100
AcDbEntity
  8
0
  6
Continuous
 62
     7
370
    15
100
AcDbSpline
210
0.0
220
0.0
230
1.0
 70
     8
 71
     3
 72
    18
 73
    14
 74
     0
 42
0.000000001
 43
0.00000001
 40
0.0
 40
0.0
 40
0.0
 40
0.0
 40
0.0272109966048575
 40
0.1344349120983282
 40
0.2416683025604575
 40
0.3489006335651583
 40
0.4560531884534721
 40
0.5631076396439327
 40
0.6703166531963466
 40
0.7779172321690981
 40
0.8857052529397405
 40
0.9930117556402053
 40
1.0
 40
1.0
 40
1.0
 40
1.0
 10
56.49361732482909
 20
96.93266809652197
 30
0.0
 10
56.49401626248996
 20
96.93200579877562
 30
0.0
 10
56.49598719909883
 20
96.9287337415038
 30
0.0
 10
56.48559279653047
 20
96.9459567361268
 30
0.0
 10
56.46332374822671
 20
96.98353428827261
 30
0.0
 10
56.43063502890068
 20
97.04048363449478
 30
0.0
 10
56.39341138041819
 20
97.10848134485478
 30
0.0
 10
56.35601793333356
 20
97.18083282597696
 30
0.0
 10
56.32292407849551
 20
97.24914989066198
 30
0.0
 10
56.296899638182
 20
97.30652230676033
 30
0.0
 10
56.28146650591442
 20
97.34241647249607
 30
0.0
 10
56.27499578982356
 20
97.35787156292331
 30
0.0
 10
56.27672362734655
 20
97.35379189410344
 30
0.0
 10
56.27682927131652
 20
97.35354245374549
 30
0.0
  0
LINE
  5
201
330
1F
100
AcDbEntity
  8
0
  6
Continuous
 62
     7
370
    15
100
AcDbLine
 10
55.5344206381
 20
96.1308604545
 30
0.0
 11
53.8065415907
 21
96.1308604545
 31
0.0
  0
SPLINE
  5
202
330
1F
100
AcDbEntity
  8
0
  6
Continuous
 62
     7
370
    15
100
AcDbSpline
210
0.0
220
0.0
230
1.0
 70
     8
 71
     3
 72
    12
 73
     8
 74
     0
 42
0.000000001
 43
0.00000001
 40
0.0
 40
0.0
 40
0.0
 40
0.0
 40
0.2129774046412567
 40
0.4279918896140099
 40
0.6432470127334102
 40
0.8586678118310226
 40
1.0
 40
1.0
 40
1.0
 40
1.0
 10
53.8065415906906
 20
96.13086045453895
 30
0.0
 10
53.80637826754167
 20
96.15732951906693
 30
0.0
 10
53.80605005909513
 20
96.21052081869203
 30
0.0
 10
53.80377339707115
 20
96.28173428166454
 30
0.0
 10
53.8013012185335
 20
96.33509549011713
 30
0.0
 10
53.79952572639147
 20
96.36539235901014
 30
0.0
 10
53.79953241494324
 20
96.3652389922523
 30
0.0
 10
53.79953506469726
 20
96.36517823407996
 30
0.0
  0
SPLINE
  5
203
330
1F
100
AcDbEntity
  8
0
  6
Continuous
 62
     7
370
    15
100
AcDbSpline
210
0.0
220
0.0
230
1.0
 70
     8
 71
     3
 72
    17
 73
    13
 74
     0
 42
0.000000001
 43
0.00000001
 40
0.0
 40
0.0
 40
0.0
 40
0.0
 40
0.0645655174629307
 40
0.1718936023776896
 40
0.2792384362545726
 40
0.3865583350913383
 40
0.4937653966754614
 40
0.6009431131139232
 40
0.7083831560960722
 40
0.8162158048079552
 40
0.9240133338804197
 40
1.0
 40
1.0
 40
1.0
 40
1.0
 10
56.49326565742491
 20
95.32770574758398
 30
0.0
 10
56.49342721212015
 20
95.32797511321144
 30
0.0
 10
56.49385732125014
 20
95.32869224876421
 30
0.0
 10
56.47905848004038
 20
95.30408144751684
 30
0.0
 10
56.45267373344226
 20
95.25911582096106
 30
0.0
 10
56.41784760231211
 20
95.19751429102004
 30
0.0
 10
56.38002509001409
 20
95.12709172176264
 30
0.0
 10
56.34371604584888
 20
95.05526623829583
 30
0.0
 10
56.31276926155504
 20
94.98983445254152
 30
0.0
 10
56.29043377367609
 20
94.93961221869955
 30
0.0
 10
56.27789434720329
 20
94.90998363888501
 30
0.0
 10
56.27768058996733
 20
94.90945711318471
 30
0.0
 10
56.27759221076964
 20
94.90923941800939
 30
0.0
  0
SPLINE
  5
204
330
1F
100
AcDbEntity
  8
0
  6
Continuous
 62
     7
370
    15
100
AcDbSpline
210
0.0
220
0.0
230
1.0
 70
     8
 71
     3
 72
    13
 73
     9
 74
     0
 42
0.000000001
 43
0.00000001
 40
0.0
 40
0.0
 40
0.0
 40
0.0
 40
0.0716932137529646
 40
0.2858834071960884
 40
0.5002167072594188
 40
0.7148801941885982
 40
0.9295503308767342
 40
1.0
 40
1.0
 40
1.0
 40
1.0
 10
53.79961255073546
 20
95.89497507284034
 30
0.0
 10
53.79956288438873
 20
95.8941392370361
 30
0.0
 10
53.79936483517756
 20
95.89080626345239
 30
0.0
 10
53.80067628492316
 20
95.91261718785123
 30
0.0
 10
53.8029927352823
 20
95.95825112671048
 30
0.0
 10
53.8054040171172
 20
96.02505624858642
 30
0.0
 10
53.80646743475034
 20
96.08592374803602
 30
0.0
 10
53.80652689803045
 20
96.12134528101635
 30
0.0
 10
53.80654159069059
 20
96.13009751508581
 30
0.0
  0
LINE
  5
205
330
1F
100
AcDbEntity
  8
0
  6
Continuous
 62
     7
370
    15
100
AcDbLine
 10
53.8065415907
 20
96.1300975151
 30
0.0
 11
53.8065415907
 21
96.1308604545
 31
0.0
  0
SPLINE
  5
206
330
1F
100
AcDbEntity
  8
0
  6
Continuous
 62
     7
370
    15
100
AcDbSpline
210
0.0
220
0.0
230
1.0
 70
     8
 71
     3
 72
    13
 73
     9
 74
     0
 42
0.000000001
 43
0.00000001
 40
0.0
 40
0.0
 40
0.0
 40
0.0
 40
0.0091086383043863
 40
0.2379901312355374
 40
0.4668767414312782
 40
0.6957867975118579
 40
0.9245662527285485
 40
0.9999999999999999
 40
0.9999999999999999
 40
0.9999999999999999
 40
0.9999999999999999
 10
98.43436350181697
 20
72.04468906591285
 30
0.0
 10
98.43445167954017
 20
72.04454268130081
 30
0.0
 10
98.43675558350647
 20
72.0407179501097
 30
0.0
 10
98.42837826264345
 20
72.05459000620371
 30
0.0
 10
98.40895150272317
 20
72.08715024218323
 30
0.0
 10
98.37784863104686
 20
72.14110397989545
 30
0.0
 10
98.34930826416839
 20
72.19203433029553
 30
0.0
 10
98.3328993914124
 20
72.22360263345692
 30
0.0
 10
98.32883059114216
 20
72.23143041799415
 30
0.0
  0
SPLINE
  5
207
330
1F
100
AcDbEntity
  8
0
  6
Continuous
 62
     7
370
    15
100
AcDbSpline
210
0.0
220
0.0
230
1.0
 70
     8
 71
     3
 72
    12
 73
     8
 74
     0
 42
0.000000001
 43
0.00000001
 40
0.0
 40
0.0
 40
0.0
 40
0.0
 40
0.1822739830673714
 40
0.4111457358778794
 40
0.6400783404139142
 40
0.8692445736224318
 40
0.9999999999999999
 40
0.9999999999999999
 40
0.9999999999999999
 40
0.9999999999999999
 10
95.98121951401232
 20
72.2313886947428
 30
0.0
 10
95.97128263303502
 20
72.21270318024506
 30
0.0
 10
95.94886853875235
 20
72.17055525831371
 30
0.0
 10
95.91660258993525
 20
72.11389624981967
 30
0.0
 10
95.8905905618158
 20
72.06951424990187
 30
0.0
 10
95.87624080903561
 20
72.04569028657384
 30
0.0
 10
95.87685784267886
 20
72.04671346397429
 30
0.0
 10
95.87708200395106
 20
72.0470851726328
 30
0.0
  0
LINE
  5
208
330
1F
100
AcDbEntity
  8
0
  6
Continuous
 62
     7
370
    15
100
AcDbLine
 10
139.8482454109
 20
94.702107317
 30
0.0
 11
138.3411389875
 21
94.702107317
 31
0.0
  0
LINE
  5
209
330
1F
100
AcDbEntity
  8
0
  6
Continuous
 62
     7
370
    15
100
AcDbLine
 10
139.0946907091
 20
97.5588446922
 30
0.0
 11
139.8482454109
 21
97.5588446922
 31
0.0
  0
LINE
  5
20A
330
1F
100
AcDbEntity
  8
0
  6
Continuous
 62
     7
370
    15
100
AcDbLine
 10
138.3411389875
 20
97.5588446922
 30
0.0
 11
139.0946907091
 21
97.5588446922
 31
0.0
  0
LINE
  5
20B
330
1F
100
AcDbEntity
  8
0
  6
Continuous
 62
     7
370
    15
100
AcDbLine
 10
96.4128945588
 20
119.5883399315
 30
0.0
 11
96.4014464158
 21
119.5883399315
 31
0.0
  0
LINE
  5
20C
330
1F
100
AcDbEntity
  8
0
  6
Continuous
 62
     7
370
    15
100
AcDbLine
 10
97.9085535842
 20
119.5883399315
 30
0.0
 11
97.3931250029
 21
119.5883399315
 31
0.0
  0
LINE
  5
20D
330
1F
100
AcDbEntity
  8
0
  6
Continuous
 62
     7
370
    15
100
AcDbLine
 10
96.9168749971
 20
119.5883399315
 30
0.0
 11
96.4128945588
 21
119.5883399315
 31
0.0
  0
LINE
  5
20E
330
1F
100
AcDbEntity
  8
0
  6
Continuous
 62
     7
370
    15
100
AcDbLine
 10
97.8971054412
 20
122.4544918604
 30
0.0
 11
97.9085535842
 21
122.4544918604
 31
0.0
  0
LINE
  5
20F
330
1F
100
AcDbEntity
  8
0
  6
Continuous
 62
     7
370
    15
100
AcDbLine
 10
96.4014464158
 20
122.4544918604
 30
0.0
 11
97.8971054412
 21
122.4544918604
 31
0.0
  0
LINE
  5
210
330
1F
100
AcDbEntity
  8
0
  6
Continuous
 62
     7
370
    15
100
AcDbLine
 10
96.4128945588
 20
69.8245292969
 30
0.0
 11
96.4014464158
 21
69.8245292969
 31
0.0
  0
LINE
  5
211
330
1F
100
AcDbEntity
  8
0
  6
Continuous
 62
     7
370
    15
100
AcDbLine
 10
97.9085535842
 20
69.8245292969
 30
0.0
 11
96.4128945588
 21
69.8245292969
 31
0.0
  0
LINE
  5
212
330
1F
100
AcDbEntity
  8
0
  6
Continuous
 62
     7
370
    15
100
AcDbLine
 10
97.8971054412
 20
72.6726180382
 30
0.0
 11
97.9085535842
 21
72.6726180382
 31
0.0
  0
LINE
  5
213
330
1F
100
AcDbEntity
  8
0
  6
Continuous
 62
     7
370
    15
100
AcDbLine
 10
96.4014464158
 20
72.6726180382
 30
0.0
 11
96.9168749971
 21
72.6726180382
 31
0.0
  0
LINE
  5
214
330
1F
100
AcDbEntity
  8
0
  6
Continuous
 62
     7
370
    15
100
AcDbLine
 10
97.3931250029
 20
72.6726180382
 30
0.0
 11
97.8971054412
 21
72.6726180382
 31
0.0
  0
LINE
  5
215
330
1F
100
AcDbEntity
  8
0
  6
Continuous
 62
     7
370
    15
100
AcDbLine
 10
54.4617545891
 20
97.5588446922
 30
0.0
 11
55.9688610125
 21
97.5588446922
 31
0.0
  0
LINE
  5
216
330
1F
100
AcDbEntity
  8
0
  6
Continuous
 62
     7
370
    15
100
AcDbLine
 10
55.2153092909
 20
94.702107317
 30
0.0
 11
54.4617545891
 21
94.702107317
 31
0.0
  0
LINE
  5
217
330
1F
100
AcDbEntity
  8
0
  6
Continuous
 62
     7
370
    15
100
AcDbLine
 10
55.9688610125
 20
94.702107317
 30
0.0
 11
55.2153092909
 21
94.702107317
 31
0.0
  0
LINE
  5
218
330
1F
100
AcDbEntity
  8
0
  6
Continuous
 62
     8
370
    15
100
AcDbLine
 10
125.1594138432
 20
92.8395932979
 30
0.0
 11
125.1593810606
 21
92.8395932979
 31
0.0
  0
LINE
  5
219
330
1F
100
AcDbEntity
  8
0
  6
Continuous
 62
     8
370
    15
100
AcDbLine
 10
128.462297945
 20
92.8395932979
 30
0.0
 11
125.1594138432
 21
92.8395932979
 31
0.0
  0
LINE
  5
21A
330
1F
100
AcDbEntity
  8
0
  6
Continuous
 62
     8
370
    15
100
AcDbLine
 10
69.1506189394
 20
92.8395932979
 30
0.0
 11
65.847702055
 21
92.8395932979
 31
0.0
  0
LINE
  5
21B
330
1F
100
AcDbEntity
  8
0
  6
Continuous
 62
     8
370
    15
100
AcDbLine
 10
126.8005025673
 20
99.4213646717
 30
0.0
 11
128.462297945
 21
99.4213646717
 31
0.0
  0
LINE
  5
21C
330
1F
100
AcDbEntity
  8
0
  6
Continuous
 62
     8
370
    15
100
AcDbLine
 10
125.1593810606
 20
99.4213646717
 30
0.0
 11
126.8005025673
 21
99.4213646717
 31
0.0
  0
LINE
  5
21D
330
1F
100
AcDbEntity
  8
0
  6
Continuous
 62
     8
370
    15
100
AcDbLine
 10
65.847702055
 20
99.4213646717
 30
0.0
 11
69.1506189394
 21
99.4213646717
 31
0.0
  0
LINE
  5
21E
330
1F
100
AcDbEntity
  8
0
  6
Continuous
 62
     8
370
    15
100
AcDbLine
 10
125.7994038153
 20
94.834399826
 30
0.0
 11
127.8222781706
 21
94.834399826
 31
0.0
  0
LINE
  5
21F
330
1F
100
AcDbEntity
  8
0
  6
Continuous
 62
     8
370
    15
100
AcDbLine
 10
126.0956448603
 20
97.4265581436
 30
0.0
 11
125.7994038153
 21
97.4265581436
 31
0.0
  0
LINE
  5
220
330
1F
100
AcDbEntity
  8
0
  6
Continuous
 62
     8
370
    15
100
AcDbLine
 10
127.8222781706
 20
97.4265581436
 30
0.0
 11
126.0956448603
 21
97.4265581436
 31
0.0
  0
LINE
  5
221
330
1F
100
AcDbEntity
  8
0
  6
Continuous
 62
     8
370
    15
100
AcDbLine
 10
68.2143551397
 20
94.834399826
 30
0.0
 11
68.5105961847
 21
94.834399826
 31
0.0
  0
LINE
  5
222
330
1F
100
AcDbEntity
  8
0
  6
Continuous
 62
     8
370
    15
100
AcDbLine
 10
66.4877218294
 20
94.834399826
 30
0.0
 11
68.2143551397
 21
94.834399826
 31
0.0
  0
LINE
  5
223
330
1F
100
AcDbEntity
  8
0
  6
Continuous
 62
     8
370
    15
100
AcDbLine
 10
68.5105961847
 20
97.4265581436
 30
0.0
 11
66.4877218294
 21
97.4265581436
 31
0.0
  0
LINE
  5
224
330
1F
100
AcDbEntity
  8
0
  6
Continuous
 62
     8
370
    15
100
AcDbLine
 10
137.9342657614
 20
92.8395932979
 30
0.0
 11
137.443233757
 21
92.8395932979
 31
0.0
  0
LINE
  5
225
330
1F
100
AcDbEntity
  8
0
  6
Continuous
 62
     8
370
    15
100
AcDbLine
 10
140.7461506414
 20
92.8395932979
 30
0.0
 11
137.9342657614
 21
92.8395932979
 31
0.0
  0
LINE
  5
226
330
1F
100
AcDbEntity
  8
0
  6
Continuous
 62
     8
370
    15
100
AcDbLine
 10
140.2551156569
 20
99.4213646717
 30
0.0
 11
140.7461506414
 21
99.4213646717
 31
0.0
  0
LINE
  5
227
330
1F
100
AcDbEntity
  8
0
  6
Continuous
 62
     8
370
    15
100
AcDbLine
 10
137.443233757
 20
99.4213646717
 30
0.0
 11
140.2551156569
 21
99.4213646717
 31
0.0
  0
LINE
  5
228
330
1F
100
AcDbEntity
  8
0
  6
Continuous
 62
     8
370
    15
100
AcDbLine
 10
142.3748475599
 20
94.9696725673
 30
0.0
 11
142.3748475599
 21
94.4786375828
 31
0.0
  0
LINE
  5
229
330
1F
100
AcDbEntity
  8
0
  6
Continuous
 62
     8
370
    15
100
AcDbLine
 10
142.3748475599
 20
97.7815574474
 30
0.0
 11
142.3748475599
 21
94.9696725673
 31
0.0
  0
LINE
  5
22A
330
1F
100
AcDbEntity
  8
0
  6
Continuous
 62
     8
370
    15
100
AcDbLine
 10
98.8064580697
 20
117.725819952
 30
0.0
 11
97.3931250029
 21
117.725819952
 31
0.0
  0
LINE
  5
22B
330
1F
100
AcDbEntity
  8
0
  6
Continuous
 62
     8
370
    15
100
AcDbLine
 10
96.9168749971
 20
117.725819952
 30
0.0
 11
95.5035419303
 21
117.725819952
 31
0.0
  0
LINE
  5
22C
330
1F
100
AcDbEntity
  8
0
  6
Continuous
 62
     8
370
    15
100
AcDbLine
 10
95.9799554299
 20
74.5351380176
 30
0.0
 11
96.9168749971
 21
74.5351380176
 31
0.0
  0
LINE
  5
22D
330
1F
100
AcDbEntity
  8
0
  6
Continuous
 62
     8
370
    15
100
AcDbLine
 10
97.3931250029
 20
74.5351380176
 30
0.0
 11
98.8064580697
 21
74.5351380176
 31
0.0
  0
LINE
  5
22E
330
1F
100
AcDbEntity
  8
0
  6
Continuous
 62
     8
370
    15
100
AcDbLine
 10
95.5035419303
 20
74.5351380176
 30
0.0
 11
95.9799554299
 21
74.5351380176
 31
0.0
  0
LINE
  5
22F
330
1F
100
AcDbEntity
  8
0
  6
Continuous
 62
     8
370
    15
100
AcDbLine
 10
51.9351524401
 20
94.4786375828
 30
0.0
 11
51.9351524401
 21
97.7815574474
 31
0.0
  0
LINE
  5
230
330
1F
100
AcDbEntity
  8
0
  6
Continuous
 62
     8
370
    15
100
AcDbLine
 10
53.5638493586
 20
99.4213646717
 30
0.0
 11
56.866766243
 21
99.4213646717
 31
0.0
  0
LINE
  5
231
330
1F
100
AcDbEntity
  8
0
  6
Continuous
 62
     8
370
    15
100
AcDbLine
 10
56.866766243
 20
92.8395932979
 30
0.0
 11
53.5638493586
 21
92.8395932979
 31
0.0
  0
LINE
  5
232
330
1F
100
AcDbEntity
  8
0
  6
Continuous
 62
     8
370
    15
100
AcDbLine
 10
95.5169607985
 20
67.9620152778
 30
0.0
 11
95.5035419303
 21
67.9620152778
 31
0.0
  0
LINE
  5
233
330
1F
100
AcDbEntity
  8
0
  6
Continuous
 62
     8
370
    15
100
AcDbLine
 10
98.8064580697
 20
67.9620152778
 30
0.0
 11
95.5169607985
 21
67.9620152778
 31
0.0
  0
LINE
  5
234
330
1F
100
AcDbEntity
  8
0
  6
Continuous
 62
     8
370
    15
100
AcDbLine
 10
139.0946907091
 20
97.4265581436
 30
0.0
 11
138.0832535315
 21
97.4265581436
 31
0.0
  0
LINE
  5
235
330
1F
100
AcDbEntity
  8
0
  6
Continuous
 62
     8
370
    15
100
AcDbLine
 10
140.1061278868
 20
97.4265581436
 30
0.0
 11
139.0946907091
 21
97.4265581436
 31
0.0
  0
LINE
  5
236
330
1F
100
AcDbEntity
  8
0
  6
Continuous
 62
     8
370
    15
100
AcDbLine
 10
138.0832535315
 20
94.834399826
 30
0.0
 11
140.1061278868
 21
94.834399826
 31
0.0
  0
LINE
  5
237
330
1F
100
AcDbEntity
  8
0
  6
Continuous
 62
     8
370
    15
100
AcDbLine
 10
96.3558659057
 20
119.7206294603
 30
0.0
 11
96.9168749971
 21
119.7206294603
 31
0.0
  0
LINE
  5
238
330
1F
100
AcDbEntity
  8
0
  6
Continuous
 62
     8
370
    15
100
AcDbLine
 10
97.3931250029
 20
119.7206294603
 30
0.0
 11
97.9541340943
 21
119.7206294603
 31
0.0
  0
LINE
  5
239
330
1F
100
AcDbEntity
  8
0
  6
Continuous
 62
     8
370
    15
100
AcDbLine
 10
98.1510715659
 20
122.3221993513
 30
0.0
 11
96.1435624498
 21
122.3221993513
 31
0.0
  0
LINE
  5
23A
330
1F
100
AcDbEntity
  8
0
  6
Continuous
 62
     8
370
    15
100
AcDbLine
 10
98.1664375502
 20
122.3221993513
 30
0.0
 11
98.1510715659
 21
122.3221993513
 31
0.0
  0
LINE
  5
23B
330
1F
100
AcDbEntity
  8
0
  6
Continuous
 62
     8
370
    15
100
AcDbLine
 10
95.7262549649
 20
71.2485736675
 30
0.0
 11
98.5837450351
 21
71.2485736675
 31
0.0
  0
LINE
  5
23C
330
1F
100
AcDbEntity
  8
0
  6
Continuous
 62
     8
370
    15
100
AcDbLine
 10
56.2267464685
 20
97.4265581436
 30
0.0
 11
54.2038721132
 21
97.4265581436
 31
0.0
  0
LINE
  5
23D
330
1F
100
AcDbEntity
  8
0
  6
Continuous
 62
     8
370
    15
100
AcDbLine
 10
55.2153092909
 20
94.834399826
 30
0.0
 11
56.2267464685
 21
94.834399826
 31
0.0
  0
LINE
  5
23E
330
1F
100
AcDbEntity
  8
0
  6
Continuous
 62
     8
370
    15
100
AcDbLine
 10
54.2038721132
 20
94.834399826
 30
0.0
 11
55.2153092909
 21
94.834399826
 31
0.0
  0
LINE
  5
23F
330
1F
100
AcDbEntity
  8
0
  6
Continuous
 62
     8
370
    15
100
AcDbLine
 10
96.1589284341
 20
69.9568218059
 30
0.0
 11
98.1664375502
 21
69.9568218059
 31
0.0
  0
LINE
  5
240
330
1F
100
AcDbEntity
  8
0
  6
Continuous
 62
     8
370
    15
100
AcDbLine
 10
96.1435624498
 20
69.9568218059
 30
0.0
 11
96.1589284341
 21
69.9568218059
 31
0.0
  0
LINE
  5
241
330
1F
100
AcDbEntity
  8
0
  6
Continuous
 62
     8
370
    15
100
AcDbLine
 10
97.9541340943
 20
72.5403255291
 30
0.0
 11
97.3931250029
 21
72.5403255291
 31
0.0
  0
LINE
  5
242
330
1F
100
AcDbEntity
  8
0
  6
Continuous
 62
     8
370
    15
100
AcDbLine
 10
96.9168749971
 20
72.5403255291
 30
0.0
 11
96.3558659057
 21
72.5403255291
 31
0.0
  0
INSERT
  5
24E
330
1F
100
AcDbEntity
  8
0
  6
Continuous
 62
     7
370
     0
100
AcDbBlockReference
  2
SW_CENTERMARKSYMBOL_0
 10
97.155
 20
96.1300971235
 30
0.0
  0
LINE
  5
24F
330
1F
100
AcDbEntity
  8
0
  6
Continuous
 62
     7
370
    15
100
AcDbLine
 10
99.562120727
 20
219.2403610033
 30
0.0
 11
124.0672689962
 21
243.7455087137
 31
0.0
  0
LINE
  5
250
330
1F
100
AcDbEntity
  8
0
  6
Continuous
 62
     7
370
    15
100
AcDbLine
 10
123.7305087137
 20
244.0822689962
 30
0.0
 11
99.2253610033
 21
219.577120727
 31
0.0
  0
LINE
  5
251
330
1F
100
AcDbEntity
  8
0
  6
Continuous
 62
     7
370
    15
100
AcDbLine
 10
93.988942458
 20
217.4081250029
 30
0.0
 11
59.3334299612
 21
217.4081250029
 31
0.0
  0
LINE
  5
252
330
1F
100
AcDbEntity
  8
0
  6
Continuous
 62
     7
370
    15
100
AcDbLine
 10
59.3334299612
 20
216.9318749971
 30
0.0
 11
93.988942458
 21
216.9318749971
 31
0.0
  0
LINE
  5
253
330
1F
100
AcDbEntity
  8
0
  6
Continuous
 62
     7
370
    15
100
AcDbLine
 10
96.9168749971
 20
214.003942458
 30
0.0
 11
96.9168749971
 21
179.3484299612
 31
0.0
  0
LINE
  5
254
330
1F
100
AcDbEntity
  8
0
  6
Continuous
 62
     7
370
    15
100
AcDbLine
 10
97.3931250029
 20
179.3484299612
 30
0.0
 11
97.3931250029
 21
214.003942458
 31
0.0
  0
LINE
  5
255
330
1F
100
AcDbEntity
  8
0
  6
Continuous
 62
     7
370
    15
100
AcDbLine
 10
95.0846389967
 20
219.577120727
 30
0.0
 11
70.5794912863
 21
244.0822689962
 31
0.0
  0
LINE
  5
256
330
1F
100
AcDbEntity
  8
0
  6
Continuous
 62
     7
370
    15
100
AcDbLine
 10
70.2427310038
 20
243.7455087137
 30
0.0
 11
94.747879273
 21
219.2403610033
 31
0.0
  0
LINE
  5
257
330
1F
100
AcDbEntity
  8
0
  6
Continuous
 62
     7
370
    15
100
AcDbLine
 10
94.747879273
 20
215.0996389967
 30
0.0
 11
70.2427310038
 21
190.5944912863
 31
0.0
  0
LINE
  5
258
330
1F
100
AcDbEntity
  8
0
  6
Continuous
 62
     7
370
    15
100
AcDbLine
 10
70.5794912863
 20
190.2577310038
 30
0.0
 11
95.0846389967
 21
214.762879273
 31
0.0
  0
LINE
  5
259
330
1F
100
AcDbEntity
  8
0
  6
Continuous
 62
     7
370
    15
100
AcDbLine
 10
99.2253610033
 20
214.762879273
 30
0.0
 11
123.7305087137
 21
190.2577310038
 31
0.0
  0
LINE
  5
25A
330
1F
100
AcDbEntity
  8
0
  6
Continuous
 62
     7
370
    15
100
AcDbLine
 10
124.0672689962
 20
190.5944912863
 30
0.0
 11
99.562120727
 21
215.0996389967
 31
0.0
  0
LINE
  5
25B
330
1F
100
AcDbEntity
  8
0
  6
Continuous
 62
     7
370
    15
100
AcDbLine
 10
97.3931250029
 20
220.336057542
 30
0.0
 11
97.3931250029
 21
254.9915700388
 31
0.0
  0
LINE
  5
25C
330
1F
100
AcDbEntity
  8
0
  6
Continuous
 62
     7
370
    15
100
AcDbLine
 10
96.9168749971
 20
254.9915700388
 30
0.0
 11
96.9168749971
 21
220.336057542
 31
0.0
  0
LINE
  5
25D
330
1F
100
AcDbEntity
  8
0
  6
Continuous
 62
     7
370
    15
100
AcDbLine
 10
100.321057542
 20
216.9318749971
 30
0.0
 11
134.9765700388
 21
216.9318749971
 31
0.0
  0
LINE
  5
25E
330
1F
100
AcDbEntity
  8
0
  6
Continuous
 62
     7
370
    15
100
AcDbLine
 10
134.9765700388
 20
217.4081250029
 30
0.0
 11
100.321057542
 21
217.4081250029
 31
0.0
  0
ARC
  5
25F
330
1F
100
AcDbEntity
  8
0
  6
Continuous
 62
     7
370
    15
100
AcDbCircle
 10
97.155
 20
217.17
 30
0.0
 40
4.125000000000027
100
AcDbArc
 50
273.309368873
 51
311.690631127
  0
ARC
  5
260
330
1F
100
AcDbEntity
  8
0
  6
Continuous
 62
     7
370
    15
100
AcDbCircle
 10
97.155
 20
217.17
 30
0.0
 40
4.12500000000003
100
AcDbArc
 50
318.309368873
 51
356.690631127
  0
ARC
  5
261
330
1F
100
AcDbEntity
  8
0
  6
Continuous
 62
     7
370
    15
100
AcDbCircle
 10
97.155
 20
217.17
 30
0.0
 40
4.125
100
AcDbArc
 50
3.309368873
 51
41.690631127
  0
ARC
  5
262
330
1F
100
AcDbEntity
  8
0
  6
Continuous
 62
     7
370
    15
100
AcDbCircle
 10
97.155
 20
217.17
 30
0.0
 40
4.124999999999999
100
AcDbArc
 50
48.309368873
 51
86.690631127
  0
ARC
  5
263
330
1F
100
AcDbEntity
  8
0
  6
Continuous
 62
     7
370
    15
100
AcDbCircle
 10
97.155
 20
217.17
 30
0.0
 40
4.125000000000003
100
AcDbArc
 50
93.309368873
 51
131.690631127
  0
ARC
  5
264
330
1F
100
AcDbEntity
  8
0
  6
Continuous
 62
     7
370
    15
100
AcDbCircle
 10
97.155
 20
217.17
 30
0.0
 40
4.125000000000001
100
AcDbArc
 50
138.309368873
 51
176.690631127
  0
ARC
  5
265
330
1F
100
AcDbEntity
  8
0
  6
Continuous
 62
     7
370
    15
100
AcDbCircle
 10
97.155
 20
217.17
 30
0.0
 40
4.125000000000004
100
AcDbArc
 50
183.309368873
 51
221.690631127
  0
ARC
  5
266
330
1F
100
AcDbEntity
  8
0
  6
Continuous
 62
     7
370
    15
100
AcDbCircle
 10
97.155
 20
217.17
 30
0.0
 40
4.125000000000012
100
AcDbArc
 50
228.309368873
 51
266.690631127
  0
CIRCLE
  5
267
330
1F
100
AcDbEntity
  8
0
  6
Continuous
 62
     7
370
    15
100
AcDbCircle
 10
97.155
 20
259.1096912503
 30
0.0
 40
4.125000000000028
  0
CIRCLE
  5
268
330
1F
100
AcDbEntity
  8
0
  6
Continuous
 62
     7
370
    15
100
AcDbCircle
 10
126.810840084
 20
246.825840084
 30
0.0
 40
4.125
  0
CIRCLE
  5
269
330
1F
100
AcDbEntity
  8
0
  6
Continuous
 62
     7
370
    15
100
AcDbCircle
 10
67.499159916
 20
246.825840084
 30
0.0
 40
4.125
  0
CIRCLE
  5
26A
330
1F
100
AcDbEntity
  8
0
  6
Continuous
 62
     7
370
    15
100
AcDbCircle
 10
55.2153087497
 20
217.17
 30
0.0
 40
4.124999999999972
  0
CIRCLE
  5
26B
330
1F
100
AcDbEntity
  8
0
  6
Continuous
 62
     7
370
    15
100
AcDbCircle
 10
139.0946912503
 20
217.17
 30
0.0
 40
4.125
  0
CIRCLE
  5
26C
330
1F
100
AcDbEntity
  8
0
  6
Continuous
 62
     7
370
    15
100
AcDbCircle
 10
67.499159916
 20
187.514159916
 30
0.0
 40
4.125000000000028
  0
CIRCLE
  5
26D
330
1F
100
AcDbEntity
  8
0
  6
Continuous
 62
     7
370
    15
100
AcDbCircle
 10
126.810840084
 20
187.514159916
 30
0.0
 40
4.125
  0
CIRCLE
  5
26E
330
1F
100
AcDbEntity
  8
0
  6
Continuous
 62
     7
370
    15
100
AcDbCircle
 10
97.155
 20
175.2303087497
 30
0.0
 40
4.125000000000028
  0
ARC
  5
26F
330
1F
100
AcDbEntity
  8
0
  6
Continuous
 62
     7
370
    15
100
AcDbCircle
 10
97.155
 20
266.4363527386
 30
0.0
 40
4.125000000000001
100
AcDbArc
 50
308.4762233208
 51
231.5237766792
  0
ARC
  5
270
330
1F
100
AcDbEntity
  8
0
  6
Continuous
 62
     7
370
    15
100
AcDbCircle
 10
62.3184278942
 20
252.0065721058
 30
0.0
 40
4.125
100
AcDbArc
 50
353.4762233208
 51
270.0
  0
ARC
  5
271
330
1F
100
AcDbEntity
  8
0
  6
Continuous
 62
     7
370
    15
100
AcDbCircle
 10
62.3184278942
 20
252.0065721058
 30
0.0
 40
4.125
100
AcDbArc
 50
270.0
 51
276.5237766792
  0
ARC
  5
272
330
1F
100
AcDbEntity
  8
0
  6
Continuous
 62
     7
370
    15
100
AcDbCircle
 10
131.9915721058
 20
252.0065721058
 30
0.0
 40
4.124999999999972
100
AcDbArc
 50
263.4762233208
 51
270.0
  0
ARC
  5
273
330
1F
100
AcDbEntity
  8
0
  6
Continuous
 62
     7
370
    15
100
AcDbCircle
 10
131.9915721058
 20
252.0065721058
 30
0.0
 40
4.125000000000002
100
AcDbArc
 50
270.0
 51
186.5237766792
  0
ARC
  5
274
330
1F
100
AcDbEntity
  8
0
  6
Continuous
 62
     7
370
    15
100
AcDbCircle
 10
146.4213527386
 20
217.17
 30
0.0
 40
4.125000000000006
100
AcDbArc
 50
218.4762233208
 51
270.0
  0
ARC
  5
275
330
1F
100
AcDbEntity
  8
0
  6
Continuous
 62
     7
370
    15
100
AcDbCircle
 10
146.4213527386
 20
217.17
 30
0.0
 40
4.125000000000014
100
AcDbArc
 50
270.0
 51
141.5237766792
  0
ARC
  5
276
330
1F
100
AcDbEntity
  8
0
  6
Continuous
 62
     7
370
    15
100
AcDbCircle
 10
47.8886472614
 20
217.17
 30
0.0
 40
4.125
100
AcDbArc
 50
38.4762233208
 51
270.0
  0
ARC
  5
277
330
1F
100
AcDbEntity
  8
0
  6
Continuous
 62
     7
370
    15
100
AcDbCircle
 10
47.8886472614
 20
217.17
 30
0.0
 40
4.125000000000009
100
AcDbArc
 50
270.0
 51
321.5237766792
  0
ARC
  5
278
330
1F
100
AcDbEntity
  8
0
  6
Continuous
 62
     7
370
    15
100
AcDbCircle
 10
131.9915721058
 20
182.3334278942
 30
0.0
 40
4.125000000000004
100
AcDbArc
 50
173.4762233208
 51
270.0
  0
ARC
  5
279
330
1F
100
AcDbEntity
  8
0
  6
Continuous
 62
     7
370
    15
100
AcDbCircle
 10
131.9915721058
 20
182.3334278942
 30
0.0
 40
4.12500000000002
100
AcDbArc
 50
270.0
 51
96.5237766792
  0
ARC
  5
27A
330
1F
100
AcDbEntity
  8
0
  6
Continuous
 62
     7
370
    15
100
AcDbCircle
 10
62.3184278942
 20
182.3334278942
 30
0.0
 40
4.125
100
AcDbArc
 50
83.4762233208
 51
270.0
  0
ARC
  5
27B
330
1F
100
AcDbEntity
  8
0
  6
Continuous
 62
     7
370
    15
100
AcDbCircle
 10
62.3184278942
 20
182.3334278942
 30
0.0
 40
4.125
100
AcDbArc
 50
270.0
 51
6.5237766792
  0
ARC
  5
27C
330
1F
100
AcDbEntity
  8
0
  6
Continuous
 62
     7
370
    15
100
AcDbCircle
 10
97.155
 20
167.9036472614
 30
0.0
 40
4.125000000000019
100
AcDbArc
 50
128.4762233208
 51
270.0
  0
ARC
  5
27D
330
1F
100
AcDbEntity
  8
0
  6
Continuous
 62
     7
370
    15
100
AcDbCircle
 10
97.155
 20
167.9036472614
 30
0.0
 40
4.12500000000001
100
AcDbArc
 50
270.0
 51
51.5237766792
  0
ARC
  5
27E
330
1F
100
AcDbEntity
  8
0
  6
Continuous
 62
     7
370
    15
100
AcDbCircle
 10
96.28634821
 20
264.2650106444
 30
0.0
 40
2.032000000000036
100
AcDbArc
 50
211.3765589782
 51
232.3991723106
  0
ARC
  5
27F
330
1F
100
AcDbEntity
  8
0
  6
Continuous
 62
     7
370
    15
100
AcDbCircle
 10
98.02365179
 20
264.2650106444
 30
0.0
 40
2.03200000000003
100
AcDbArc
 50
307.6008276894
 51
328.6234410218
  0
ARC
  5
280
330
1F
100
AcDbEntity
  8
0
  6
Continuous
 62
     7
370
    15
100
AcDbCircle
 10
63.239569042
 20
249.8569718155
 30
0.0
 40
2.032000000000017
100
AcDbArc
 50
256.3765589782
 51
277.3991723105
  0
ARC
  5
281
330
1F
100
AcDbEntity
  8
0
  6
Continuous
 62
     7
370
    15
100
AcDbCircle
 10
64.4680281845
 20
251.085430958
 30
0.0
 40
2.032000000000011
100
AcDbArc
 50
352.6008276894
 51
13.6234410218
  0
ARC
  5
282
330
1F
100
AcDbEntity
  8
0
  6
Continuous
 62
     7
370
    15
100
AcDbCircle
 10
129.8419718155
 20
251.085430958
 30
0.0
 40
2.032000000000015
100
AcDbArc
 50
166.3765589782
 51
187.3991723105
  0
ARC
  5
283
330
1F
100
AcDbEntity
  8
0
  6
Continuous
 62
     7
370
    15
100
AcDbCircle
 10
131.070430958
 20
249.8569718155
 30
0.0
 40
2.031999999999993
100
AcDbArc
 50
262.6008276896
 51
283.6234410218
  0
ARC
  5
284
330
1F
100
AcDbEntity
  8
0
  6
Continuous
 62
     7
370
    15
100
AcDbCircle
 10
144.2500106444
 20
218.03865179
 30
0.0
 40
2.032000000000003
100
AcDbArc
 50
121.3765589782
 51
142.3991723105
  0
ARC
  5
285
330
1F
100
AcDbEntity
  8
0
  6
Continuous
 62
     7
370
    15
100
AcDbCircle
 10
144.2500106444
 20
216.30134821
 30
0.0
 40
2.031999999999993
100
AcDbArc
 50
217.6008276894
 51
238.6234410218
  0
ARC
  5
286
330
1F
100
AcDbEntity
  8
0
  6
Continuous
 62
     7
370
    15
100
AcDbCircle
 10
50.0599893556
 20
216.30134821
 30
0.0
 40
2.03200000000002
100
AcDbArc
 50
301.3765589782
 51
322.3991723106
  0
ARC
  5
287
330
1F
100
AcDbEntity
  8
0
  6
Continuous
 62
     7
370
    15
100
AcDbCircle
 10
50.0599893556
 20
218.03865179
 30
0.0
 40
2.032000000000023
100
AcDbArc
 50
37.6008276894
 51
58.6234410218
  0
ARC
  5
288
330
1F
100
AcDbEntity
  8
0
  6
Continuous
 62
     7
370
    15
100
AcDbCircle
 10
131.070430958
 20
184.4830281845
 30
0.0
 40
2.032000000000017
100
AcDbArc
 50
76.3765589782
 51
97.3991723105
  0
ARC
  5
289
330
1F
100
AcDbEntity
  8
0
  6
Continuous
 62
     7
370
    15
100
AcDbCircle
 10
129.8419718155
 20
183.254569042
 30
0.0
 40
2.032000000000022
100
AcDbArc
 50
172.6008276895
 51
193.6234410218
  0
ARC
  5
28A
330
1F
100
AcDbEntity
  8
0
  6
Continuous
 62
     7
370
    15
100
AcDbCircle
 10
64.4680281845
 20
183.254569042
 30
0.0
 40
2.032000000000012
100
AcDbArc
 50
346.3765589782
 51
7.3991723105
  0
ARC
  5
28B
330
1F
100
AcDbEntity
  8
0
  6
Continuous
 62
     7
370
    15
100
AcDbCircle
 10
63.239569042
 20
184.4830281845
 30
0.0
 40
2.032000000000025
100
AcDbArc
 50
82.6008276894
 51
103.6234410218
  0
ARC
  5
28C
330
1F
100
AcDbEntity
  8
0
  6
Continuous
 62
     7
370
    15
100
AcDbCircle
 10
98.02365179
 20
170.0749893556
 30
0.0
 40
2.032000000000026
100
AcDbArc
 50
31.3765589782
 51
52.3991723106
  0
ARC
  5
28D
330
1F
100
AcDbEntity
  8
0
  6
Continuous
 62
     7
370
    15
100
AcDbCircle
 10
96.28634821
 20
170.0749893556
 30
0.0
 40
2.03200000000003
100
AcDbArc
 50
127.6008276894
 51
148.6234410218
  0
LINE
  5
28E
330
1F
100
AcDbEntity
  8
0
  6
Continuous
 62
     7
370
    15
100
AcDbLine
 10
71.3949334908
 20
248.1817781162
 30
0.0
 11
93.4414786386
 21
257.3137550783
 31
0.0
  0
LINE
  5
28F
330
1F
100
AcDbEntity
  8
0
  6
Continuous
 62
     7
370
    15
100
AcDbLine
 10
93.2592255163
 20
257.7537535858
 30
0.0
 11
71.2126803684
 21
248.6217766237
 31
0.0
  0
LINE
  5
290
330
1F
100
AcDbEntity
  8
0
  6
Continuous
 62
     7
370
    15
100
AcDbLine
 10
100.8685213614
 20
257.3137550783
 30
0.0
 11
122.9150665092
 21
248.1817781162
 31
0.0
  0
LINE
  5
291
330
1F
100
AcDbEntity
  8
0
  6
Continuous
 62
     7
370
    15
100
AcDbLine
 10
123.0973196316
 20
248.6217766237
 30
0.0
 11
101.0507744837
 21
257.7537535858
 31
0.0
  0
LINE
  5
292
330
1F
100
AcDbEntity
  8
0
  6
Continuous
 62
     7
370
    15
100
AcDbLine
 10
57.0112449217
 20
220.8835213614
 30
0.0
 11
66.1432218838
 21
242.9300665092
 31
0.0
  0
LINE
  5
293
330
1F
100
AcDbEntity
  8
0
  6
Continuous
 62
     7
370
    15
100
AcDbLine
 10
65.7032233763
 20
243.1123196316
 30
0.0
 11
56.5712464142
 21
221.0657744837
 31
0.0
  0
LINE
  5
294
330
1F
100
AcDbEntity
  8
0
  6
Continuous
 62
     7
370
    15
100
AcDbLine
 10
128.1667781162
 20
242.9300665092
 30
0.0
 11
137.2987550783
 21
220.8835213614
 31
0.0
  0
LINE
  5
295
330
1F
100
AcDbEntity
  8
0
  6
Continuous
 62
     7
370
    15
100
AcDbLine
 10
137.7387535858
 20
221.0657744837
 30
0.0
 11
128.6067766237
 21
243.1123196316
 31
0.0
  0
LINE
  5
296
330
1F
100
AcDbEntity
  8
0
  6
Continuous
 62
     7
370
    15
100
AcDbLine
 10
66.1432218838
 20
191.4099334908
 30
0.0
 11
57.0112449217
 21
213.4564786386
 31
0.0
  0
LINE
  5
297
330
1F
100
AcDbEntity
  8
0
  6
Continuous
 62
     7
370
    15
100
AcDbLine
 10
56.5712464142
 20
213.2742255163
 30
0.0
 11
65.7032233763
 21
191.2276803684
 31
0.0
  0
LINE
  5
298
330
1F
100
AcDbEntity
  8
0
  6
Continuous
 62
     7
370
    15
100
AcDbLine
 10
137.2987550783
 20
213.4564786386
 30
0.0
 11
128.1667781162
 21
191.4099334908
 31
0.0
  0
LINE
  5
299
330
1F
100
AcDbEntity
  8
0
  6
Continuous
 62
     7
370
    15
100
AcDbLine
 10
128.6067766237
 20
191.2276803684
 30
0.0
 11
137.7387535858
 21
213.2742255163
 31
0.0
  0
LINE
  5
29A
330
1F
100
AcDbEntity
  8
0
  6
Continuous
 62
     7
370
    15
100
AcDbLine
 10
93.4414786386
 20
177.0262449217
 30
0.0
 11
71.3949334908
 21
186.1582218838
 31
0.0
  0
LINE
  5
29B
330
1F
100
AcDbEntity
  8
0
  6
Continuous
 62
     7
370
    15
100
AcDbLine
 10
71.2126803684
 20
185.7182233763
 30
0.0
 11
93.2592255163
 21
176.5862464142
 31
0.0
  0
LINE
  5
29C
330
1F
100
AcDbEntity
  8
0
  6
Continuous
 62
     7
370
    15
100
AcDbLine
 10
122.9150665092
 20
186.1582218838
 30
0.0
 11
100.8685213614
 21
177.0262449217
 31
0.0
  0
LINE
  5
29D
330
1F
100
AcDbEntity
  8
0
  6
Continuous
 62
     7
370
    15
100
AcDbLine
 10
101.0507744837
 20
176.5862464142
 30
0.0
 11
123.0973196316
 21
185.7182233763
 31
0.0
  0
CIRCLE
  5
29E
330
1F
100
AcDbEntity
  8
0
  6
Continuous
 62
     7
370
    15
100
AcDbCircle
 10
97.155
 20
217.17
 30
0.0
 40
3.174999999999983
  0
LINE
  5
29F
330
1F
100
AcDbEntity
  8
0
  6
Continuous
 62
     7
370
    15
100
AcDbLine
 10
94.5515000361
 20
263.20703022
 30
0.0
 11
96.6780823755
 21
263.20703022
 31
0.0
  0
LINE
  5
2A0
330
1F
100
AcDbEntity
  8
0
  6
Continuous
 62
     7
370
    15
100
AcDbLine
 10
97.6319176245
 20
263.20703022
 30
0.0
 11
99.7584999639
 21
263.20703022
 31
0.0
  0
LWPOLYLINE
  5
2A1
330
1F
100
AcDbEntity
  8
0
  6
Continuous
 62
     7
370
    15
100
AcDbPolyline
 90
       19
 70
   128
 43
0.0
 10
62.7609533358
 20
247.8821425867
 10
62.762085824
 20
247.883275075
 10
62.773699789
 20
247.89488904
 10
62.7978039074
 20
247.9189931583
 10
62.834231286
 20
247.955420537
 10
62.8827345657
 20
248.0039238167
 10
62.9429799604
 20
248.0641721916
 10
63.0145591784
 20
248.1357484293
 10
63.0969804811
 20
248.2181697321
 10
63.1896835852
 20
248.3108728361
 10
63.2920307207
 20
248.4132229519
 10
63.4033274937
 20
248.5245167446
 10
63.5228109646
 20
248.6440031958
 10
63.6496675301
 20
248.770856781
 10
63.7830269623
 20
248.9042162132
 10
63.9219802904
 20
249.0431725216
 10
64.0655798006
 20
249.1867690516
 10
64.2128420162
 20
249.3340312672
 10
64.2646742153
 20
249.3858634663
  0
LWPOLYLINE
  5
2A2
330
1F
100
AcDbEntity
  8
0
  6
Continuous
 62
     7
370
    15
100
AcDbPolyline
 90
       19
 70
   128
 43
0.0
 10
64.9391365337
 20
250.0603257847
 10
64.9684083748
 20
250.089600606
 10
65.1161384869
 20
250.237330718
 10
65.2603578854
 20
250.3815471363
 10
65.4000741529
 20
250.5212663841
 10
65.534342556
 20
250.6555318069
 10
65.6622392225
 20
250.7834284735
 10
65.7828939247
 20
250.9040831757
 10
65.8954811382
 20
251.0166703892
 10
65.9992319632
 20
251.1204212141
 10
66.0934371042
 20
251.2146263552
 10
66.1774528313
 20
251.2986420822
 10
66.2507069397
 20
251.3718961906
 10
66.3126957703
 20
251.4338880014
 10
66.3630020905
 20
251.4841913414
 10
66.4012742329
 20
251.522466464
 10
66.4272588778
 20
251.5484481287
 10
66.4407712507
 20
251.5619634819
 10
66.4428574133
 20
251.5640466642
  0
LWPOLYLINE
  5
2A3
330
1F
100
AcDbEntity
  8
0
  6
Continuous
 62
     7
370
    15
100
AcDbPolyline
 90
       19
 70
   128
 43
0.0
 10
127.8671425867
 20
251.5640466642
 10
127.868275075
 20
251.562914176
 10
127.87988904
 20
251.551300211
 10
127.9039931583
 20
251.5271960926
 10
127.940420537
 20
251.490768714
 10
127.9889238167
 20
251.4422654343
 10
128.0491721916
 20
251.3820200396
 10
128.1207484293
 20
251.3104408216
 10
128.2031697321
 20
251.2280195189
 10
128.2958728361
 20
251.1353164148
 10
128.3982229519
 20
251.0329692793
 10
128.5095167446
 20
250.9216725063
 10
128.6290031958
 20
250.8021890354
 10
128.755856781
 20
250.6753324699
 10
128.8892162132
 20
250.5419730377
 10
129.0281725216
 20
250.4030197096
 10
129.1717690516
 20
250.2594201994
 10
129.3190312672
 20
250.1121579838
 10
129.3708634663
 20
250.0603257847
  0
LWPOLYLINE
  5
2A4
330
1F
100
AcDbEntity
  8
0
  6
Continuous
 62
     7
370
    15
100
AcDbPolyline
 90
       19
 70
   128
 43
0.0
 10
130.0453257847
 20
249.3858634663
 10
130.074600606
 20
249.3565916252
 10
130.222330718
 20
249.2088615131
 10
130.3665471363
 20
249.0646421146
 10
130.5062663841
 20
248.9249258471
 10
130.6405318069
 20
248.790657444
 10
130.7684284735
 20
248.6627607775
 10
130.8890831757
 20
248.5421060753
 10
131.0016703892
 20
248.4295188618
 10
131.1054212141
 20
248.3257680368
 10
131.1996263552
 20
248.2315628958
 10
131.2836420822
 20
248.1475471687
 10
131.3568961906
 20
248.0742930603
 10
131.4188880014
 20
248.0123042297
 10
131.4691913414
 20
247.9619979095
 10
131.507466464
 20
247.9237257671
 10
131.5334481287
 20
247.8977411222
 10
131.5469634819
 20
247.8842287493
 10
131.5490466642
 20
247.8821425867
  0
LINE
  5
2A5
330
1F
100
AcDbEntity
  8
0
  6
Continuous
 62
     7
370
    15
100
AcDbLine
 10
143.19203022
 20
219.7734999639
 30
0.0
 11
143.19203022
 21
217.6469176245
 31
0.0
  0
LINE
  5
2A6
330
1F
100
AcDbEntity
  8
0
  6
Continuous
 62
     7
370
    15
100
AcDbLine
 10
143.19203022
 20
216.6930823755
 30
0.0
 11
143.19203022
 21
214.5665000361
 31
0.0
  0
LINE
  5
2A7
330
1F
100
AcDbEntity
  8
0
  6
Continuous
 62
     7
370
    15
100
AcDbLine
 10
51.11796978
 20
214.5665000361
 30
0.0
 11
51.11796978
 21
216.6930823755
 31
0.0
  0
LINE
  5
2A8
330
1F
100
AcDbEntity
  8
0
  6
Continuous
 62
     7
370
    15
100
AcDbLine
 10
51.11796978
 20
217.6469176245
 30
0.0
 11
51.11796978
 21
219.7734999639
 31
0.0
  0
LWPOLYLINE
  5
2A9
330
1F
100
AcDbEntity
  8
0
  6
Continuous
 62
     7
370
    15
100
AcDbPolyline
 90
       19
 70
   128
 43
0.0
 10
131.5490466642
 20
186.4578574133
 10
131.547914176
 20
186.456724925
 10
131.536300211
 20
186.44511096
 10
131.5121960926
 20
186.4210068417
 10
131.475768714
 20
186.384579463
 10
131.4272654343
 20
186.3360761833
 10
131.3670200396
 20
186.2758278084
 10
131.2954408216
 20
186.2042515707
 10
131.2130195189
 20
186.1218302679
 10
131.1203164148
 20
186.0291271639
 10
131.0179692793
 20
185.9267770481
 10
130.9066725063
 20
185.8154832554
 10
130.7871890354
 20
185.6959968042
 10
130.6603324699
 20
185.569143219
 10
130.5269730377
 20
185.4357837868
 10
130.3880197096
 20
185.2968274784
 10
130.2444201994
 20
185.1532309484
 10
130.0971579838
 20
185.0059687328
 10
130.0453257847
 20
184.9541365337
  0
LWPOLYLINE
  5
2AA
330
1F
100
AcDbEntity
  8
0
  6
Continuous
 62
     7
370
    15
100
AcDbPolyline
 90
       19
 70
   128
 43
0.0
 10
129.3708634663
 20
184.2796742153
 10
129.3415916252
 20
184.250399394
 10
129.1938615131
 20
184.102669282
 10
129.0496421146
 20
183.9584528637
 10
128.9099258471
 20
183.8187336159
 10
128.775657444
 20
183.6844681931
 10
128.6477607775
 20
183.5565715265
 10
128.5271060753
 20
183.4359168243
 10
128.4145188618
 20
183.3233296108
 10
128.3107680368
 20
183.2195787859
 10
128.2165628958
 20
183.1253736448
 10
128.1325471687
 20
183.0413579178
 10
128.0592930603
 20
182.9681038094
 10
127.9973042297
 20
182.9061119986
 10
127.9469979095
 20
182.8558086586
 10
127.9087257671
 20
182.817533536
 10
127.8827411222
 20
182.7915518713
 10
127.8692287493
 20
182.7780365181
 10
127.8671425867
 20
182.7759533358
  0
LWPOLYLINE
  5
2AB
330
1F
100
AcDbEntity
  8
0
  6
Continuous
 62
     7
370
    15
100
AcDbPolyline
 90
       19
 70
   128
 43
0.0
 10
66.4428574133
 20
182.7759533358
 10
66.441724925
 20
182.777085824
 10
66.43011096
 20
182.788699789
 10
66.4060068417
 20
182.8128039074
 10
66.369579463
 20
182.849231286
 10
66.3210761833
 20
182.8977345657
 10
66.2608278084
 20
182.9579799604
 10
66.1892515707
 20
183.0295591784
 10
66.1068302679
 20
183.1119804811
 10
66.0141271639
 20
183.2046835852
 10
65.9117770481
 20
183.3070307207
 10
65.8004832554
 20
183.4183274937
 10
65.6809968042
 20
183.5378109646
 10
65.554143219
 20
183.6646675301
 10
65.4207837868
 20
183.7980269623
 10
65.2818274784
 20
183.9369802904
 10
65.1382309484
 20
184.0805798006
 10
64.9909687328
 20
184.2278420162
 10
64.9391365337
 20
184.2796742153
  0
LWPOLYLINE
  5
2AC
330
1F
100
AcDbEntity
  8
0
  6
Continuous
 62
     7
370
    15
100
AcDbPolyline
 90
       19
 70
   128
 43
0.0
 10
64.2646742153
 20
184.9541365337
 10
64.235399394
 20
184.9834083748
 10
64.087669282
 20
185.1311384869
 10
63.9434528637
 20
185.2753578854
 10
63.8037336159
 20
185.4150741529
 10
63.6694681931
 20
185.549342556
 10
63.5415715265
 20
185.6772392225
 10
63.4209168243
 20
185.7978939247
 10
63.3083296108
 20
185.9104811382
 10
63.2045787859
 20
186.0142319632
 10
63.1103736448
 20
186.1084371042
 10
63.0263579178
 20
186.1924528313
 10
62.9531038094
 20
186.2657069397
 10
62.8911119986
 20
186.3276957703
 10
62.8408086586
 20
186.3780020905
 10
62.802533536
 20
186.4162742329
 10
62.7765518713
 20
186.4422588778
 10
62.7630365181
 20
186.4557712507
 10
62.7609533358
 20
186.4578574133
  0
LINE
  5
2AD
330
1F
100
AcDbEntity
  8
0
  6
Continuous
 62
     7
370
    15
100
AcDbLine
 10
99.7584999639
 20
171.13296978
 30
0.0
 11
97.6319176245
 21
171.13296978
 31
0.0
  0
LINE
  5
2AE
330
1F
100
AcDbEntity
  8
0
  6
Continuous
 62
     7
370
    15
100
AcDbLine
 10
96.6780823755
 20
171.13296978
 30
0.0
 11
94.5515000361
 21
171.13296978
 31
0.0
  0
INSERT
  5
2BA
330
1F
100
AcDbEntity
  8
0
  6
Continuous
 62
     7
370
     0
100
AcDbBlockReference
  2
SW_CENTERMARKSYMBOL_1
 10
97.155
 20
217.17
 30
0.0
  0
INSERT
  5
2C6
330
1F
100
AcDbEntity
  8
0
  6
Continuous
 62
     7
370
     0
100
AcDbBlockReference
  2
SW_CENTERMARKSYMBOL_2
 10
67.499159916
 20
187.514159916
 30
0.0
  0
INSERT
  5
2D2
330
1F
100
AcDbEntity
  8
0
  6
Continuous
 62
     7
370
     0
100
AcDbBlockReference
  2
SW_CENTERMARKSYMBOL_3
 10
67.499159916
 20
246.825840084
 30
0.0
  0
INSERT
  5
2DE
330
1F
100
AcDbEntity
  8
0
  6
Continuous
 62
     7
370
     0
100
AcDbBlockReference
  2
SW_CENTERMARKSYMBOL_4
 10
126.810840084
 20
246.825840084
 30
0.0
  0
INSERT
  5
2EA
330
1F
100
AcDbEntity
  8
0
  6
Continuous
 62
     7
370
     0
100
AcDbBlockReference
  2
SW_CENTERMARKSYMBOL_5
 10
126.810840084
 20
187.514159916
 30
0.0
  0
INSERT
  5
2F6
330
1F
100
AcDbEntity
  8
0
  6
Continuous
 62
     7
370
     0
100
AcDbBlockReference
  2
SW_CENTERMARKSYMBOL_6
 10
55.2153087497
 20
217.17
 30
0.0
  0
INSERT
  5
302
330
1F
100
AcDbEntity
  8
0
  6
Continuous
 62
     7
370
     0
100
AcDbBlockReference
  2
SW_CENTERMARKSYMBOL_7
 10
97.155
 20
259.1096912503
 30
0.0
  0
INSERT
  5
30E
330
1F
100
AcDbEntity
  8
0
  6
Continuous
 62
     7
370
     0
100
AcDbBlockReference
  2
SW_CENTERMARKSYMBOL_8
 10
139.0946912503
 20
217.17
 30
0.0
  0
INSERT
  5
31A
330
1F
100
AcDbEntity
  8
0
  6
Continuous
 62
     7
370
     0
100
AcDbBlockReference
  2
SW_CENTERMARKSYMBOL_9
 10
97.155
 20
175.2303087497
 30
0.0
  0
CIRCLE
  5
31B
330
1F
100
AcDbEntity
  8
0
  6
Continuous
 62
     7
370
    15
100
AcDbCircle
 10
248.285
 20
96.1300971235
 30
0.0
 40
4.125
  0
ARC
  5
31C
330
1F
100
AcDbEntity
  8
0
  6
Continuous
 62
     7
370
    15
100
AcDbCircle
 10
248.285
 20
88.7930851351
 30
0.0
 40
4.125000000000028
100
AcDbArc
 50
128.4762233208
 51
0.0
  0
ARC
  5
31D
330
1F
100
AcDbEntity
  8
0
  6
Continuous
 62
     7
370
    15
100
AcDbCircle
 10
248.285
 20
88.7930851351
 30
0.0
 40
4.125000000000028
100
AcDbArc
 50
0.0
 51
51.5237766792
  0
ARC
  5
31E
330
1F
100
AcDbEntity
  8
0
  6
Continuous
 62
     7
370
    15
100
AcDbCircle
 10
248.285
 20
103.4678711118
 30
0.0
 40
4.124999999999972
100
AcDbArc
 50
308.4762233208
 51
0.0
  0
ARC
  5
31F
330
1F
100
AcDbEntity
  8
0
  6
Continuous
 62
     7
370
    15
100
AcDbCircle
 10
248.285
 20
103.4678711118
 30
0.0
 40
4.124999999999996
100
AcDbArc
 50
0.0
 51
231.5237766792
  0
ARC
  5
320
330
1F
100
AcDbEntity
  8
0
  6
Continuous
 62
     7
370
    15
100
AcDbCircle
 10
249.15365179
 20
90.9644272293
 30
0.0
 40
2.032000000000027
100
AcDbArc
 50
31.3765589782
 51
52.6696132404
  0
ARC
  5
321
330
1F
100
AcDbEntity
  8
0
  6
Continuous
 62
     7
370
    15
100
AcDbCircle
 10
247.41634821
 20
90.9644272293
 30
0.0
 40
2.032000000000027
100
AcDbArc
 50
127.3303867596
 51
148.6234410218
  0
ARC
  5
322
330
1F
100
AcDbEntity
  8
0
  6
Continuous
 62
     7
370
    15
100
AcDbCircle
 10
247.41634821
 20
101.2965290176
 30
0.0
 40
2.031999999999995
100
AcDbArc
 50
211.3765589782
 51
232.689566217
  0
ARC
  5
323
330
1F
100
AcDbEntity
  8
0
  6
Continuous
 62
     7
370
    15
100
AcDbCircle
 10
249.15365179
 20
101.2965290176
 30
0.0
 40
2.031999999999988
100
AcDbArc
 50
307.310433783
 51
328.6234410218
  0
LINE
  5
324
330
1F
100
AcDbEntity
  8
0
  6
Continuous
 62
     7
370
    15
100
AcDbLine
 10
276.6329064703
 20
96.3689869709
 30
0.0
 11
252.4030770844
 21
96.3689869709
 31
0.0
  0
LINE
  5
325
330
1F
100
AcDbEntity
  8
0
  6
Continuous
 62
     7
370
    15
100
AcDbLine
 10
252.4031650013
 20
95.8927339382
 30
0.0
 11
276.6328349447
 21
95.8927339382
 31
0.0
  0
LINE
  5
326
330
1F
100
AcDbEntity
  8
0
  6
Continuous
 62
     7
370
    15
100
AcDbLine
 10
244.1669229156
 20
96.3689869709
 30
0.0
 11
219.9370935297
 21
96.3689869709
 31
0.0
  0
LINE
  5
327
330
1F
100
AcDbEntity
  8
0
  6
Continuous
 62
     7
370
    15
100
AcDbLine
 10
219.9371650553
 20
95.8927339382
 30
0.0
 11
244.1668349987
 21
95.8927339382
 31
0.0
  0
LINE
  5
328
330
1F
100
AcDbEntity
  8
0
  6
Continuous
 62
     7
370
    15
100
AcDbLine
 10
248.0468749971
 20
120.0090354748
 30
0.0
 11
248.0468749971
 21
107.5859910316
 31
0.0
  0
LINE
  5
329
330
1F
100
AcDbEntity
  8
0
  6
Continuous
 62
     7
370
    15
100
AcDbLine
 10
248.5231250029
 20
107.5859910316
 30
0.0
 11
248.5231250029
 21
120.0091248817
 31
0.0
  0
LINE
  5
32A
330
1F
100
AcDbEntity
  8
0
  6
Continuous
 62
     7
370
    15
100
AcDbLine
 10
248.5231250029
 20
72.2518450088
 30
0.0
 11
248.5231250029
 21
84.674966938
 31
0.0
  0
LINE
  5
32B
330
1F
100
AcDbEntity
  8
0
  6
Continuous
 62
     7
370
    15
100
AcDbLine
 10
248.0468749971
 20
84.674966938
 30
0.0
 11
248.0468749971
 21
72.2519403763
 31
0.0
  0
CIRCLE
  5
32C
330
1F
100
AcDbEntity
  8
0
  6
Continuous
 62
     7
370
    15
100
AcDbCircle
 10
283.1215721058
 20
96.1300971235
 30
0.0
 40
4.125000000000057
  0
CIRCLE
  5
32D
330
1F
100
AcDbEntity
  8
0
  6
Continuous
 62
     7
370
    15
100
AcDbCircle
 10
213.4484278942
 20
96.1300971235
 30
0.0
 40
4.124999999999972
  0
SPLINE
  5
32E
330
1F
100
AcDbEntity
  8
0
  6
Continuous
 62
     7
370
    15
100
AcDbSpline
210
0.0
220
0.0
230
1.0
 70
     8
 71
     3
 72
    20
 73
    16
 74
     0
 42
0.000000001
 43
0.00000001
 40
0.0
 40
0.0
 40
0.0
 40
0.0
 40
0.0508047546121442
 40
0.1308257372214058
 40
0.2114487783838385
 40
0.2925977974378721
 40
0.3742054352085163
 40
0.4562207228268358
 40
0.5386218983081755
 40
0.621400600080548
 40
0.7045569533248429
 40
0.788081968045009
 40
0.871922998221045
 40
0.9559925143622849
 40
1.0
 40
1.0
 40
1.0
 40
1.0
 10
279.2094632720948
 20
97.41388023565162
 30
0.0
 10
279.1913053469031
 20
97.37310607818965
 30
0.0
 10
279.1445474407241
 20
97.2681098184839
 30
0.0
 10
279.0841257929651
 20
97.091720299739
 30
0.0
 10
279.0267397138901
 20
96.88622886196491
 30
0.0
 10
278.9835803095701
 20
96.675353142627
 30
0.0
 10
278.9543353963186
 20
96.46058897830645
 30
0.0
 10
278.9394847881987
 20
96.24302296290955
 30
0.0
 10
278.9392381013049
 20
96.02384515630295
 30
0.0
 10
278.9537970635486
 20
95.80419676259784
 30
0.0
 10
278.9833965711705
 20
95.58528386323384
 30
0.0
 10
279.0279167693094
 20
95.36822050316862
 30
0.0
 10
279.0883602053344
 20
95.15478154413222
 30
0.0
 10
279.1495607115995
 20
94.97818694264147
 30
0.0
 10
279.1963002643606
 20
94.87586425495114
 30
0.0
 10
279.2123600578308
 20
94.84070599744665
 30
0.0
  0
SPLINE
  5
32F
330
1F
100
AcDbEntity
  8
0
  6
Continuous
 62
     7
370
    15
100
AcDbSpline
210
0.0
220
0.0
230
1.0
 70
     8
 71
     3
 72
    20
 73
    16
 74
     0
 42
0.000000001
 43
0.00000001
 40
0.0
 40
0.0
 40
0.0
 40
0.0
 40
0.0346598786940027
 40
0.1156942107078134
 40
0.1973456157857571
 40
0.2795339457529581
 40
0.3621859268030856
 40
0.4452553565280207
 40
0.5287152636503489
 40
0.6125588973464416
 40
0.6967858338893819
 40
0.7813843494847159
 40
0.866307990952463
 40
0.9514683492559814
 40
1.0
 40
1.0
 40
1.0
 40
1.0
 10
217.3742219543457
 20
94.8779529399668
 30
0.0
 10
217.3864641641928
 20
94.90540189042314
 30
0.0
 10
217.4273284966414
 20
94.99702611928558
 30
0.0
 10
217.4829058289532
 20
95.1596004973322
 30
0.0
 10
217.5410754206231
 20
95.36475229529641
 30
0.0
 10
217.5847910526319
 20
95.57545080374473
 30
0.0
 10
217.6146829210535
 20
95.79005753721415
 30
0.0
 10
217.6301642699442
 20
96.00752581226818
 30
0.0
 10
217.6310645072248
 20
96.22665687710271
 30
0.0
 10
217.6171581556121
 20
96.44631029565694
 30
0.0
 10
217.5882285394046
 20
96.66528214412222
 30
0.0
 10
217.544364610491
 20
96.88245251426173
 30
0.0
 10
217.4846395346688
 20
97.0960875490203
 30
0.0
 10
217.4227302167887
 20
97.2760600201335
 30
0.0
 10
217.374850812502
 20
97.38163066038841
 30
0.0
 10
217.3574700689315
 20
97.41995394895423
 30
0.0
  0
ARC
  5
330
330
1F
100
AcDbEntity
  8
0
  6
Continuous
 62
     7
370
    15
100
AcDbCircle
 10
277.940840084
 20
88.7930851351
 30
0.0
 40
4.125000000000008
100
AcDbArc
 50
128.4762233208
 51
0.0
  0
ARC
  5
331
330
1F
100
AcDbEntity
  8
0
  6
Continuous
 62
     7
370
    15
100
AcDbCircle
 10
277.940840084
 20
88.7930851351
 30
0.0
 40
4.125000000000008
100
AcDbArc
 50
0.0
 51
51.5237766792
  0
ARC
  5
332
330
1F
100
AcDbEntity
  8
0
  6
Continuous
 62
     7
370
    15
100
AcDbCircle
 10
277.940840084
 20
103.4678711118
 30
0.0
 40
4.125000000000057
100
AcDbArc
 50
308.4762233208
 51
0.0
  0
ARC
  5
333
330
1F
100
AcDbEntity
  8
0
  6
Continuous
 62
     7
370
    15
100
AcDbCircle
 10
277.940840084
 20
103.4678711118
 30
0.0
 40
4.125000000000057
100
AcDbArc
 50
0.0
 51
231.5237766792
  0
ARC
  5
334
330
1F
100
AcDbEntity
  8
0
  6
Continuous
 62
     7
370
    15
100
AcDbCircle
 10
218.629159916
 20
88.7930851351
 30
0.0
 40
4.125000000000028
100
AcDbArc
 50
128.4762233208
 51
0.0
  0
ARC
  5
335
330
1F
100
AcDbEntity
  8
0
  6
Continuous
 62
     7
370
    15
100
AcDbCircle
 10
218.629159916
 20
88.7930851351
 30
0.0
 40
4.125000000000028
100
AcDbArc
 50
0.0
 51
51.5237766792
  0
ARC
  5
336
330
1F
100
AcDbEntity
  8
0
  6
Continuous
 62
     7
370
    15
100
AcDbCircle
 10
218.629159916
 20
103.4678711118
 30
0.0
 40
4.125000000000028
100
AcDbArc
 50
308.4762233208
 51
0.0
  0
ARC
  5
337
330
1F
100
AcDbEntity
  8
0
  6
Continuous
 62
     7
370
    15
100
AcDbCircle
 10
218.629159916
 20
103.4678711118
 30
0.0
 40
4.125000000000028
100
AcDbArc
 50
0.0
 51
231.5237766792
  0
ARC
  5
338
330
1F
100
AcDbEntity
  8
0
  6
Continuous
 62
     7
370
    15
100
AcDbCircle
 10
278.809491874
 20
90.9644272293
 30
0.0
 40
2.032000000000027
100
AcDbArc
 50
31.3765589782
 51
67.3414024018
  0
ARC
  5
339
330
1F
100
AcDbEntity
  8
0
  6
Continuous
 62
     7
370
    15
100
AcDbCircle
 10
277.0721882939
 20
90.9644272293
 30
0.0
 40
2.032000000000027
100
AcDbArc
 50
112.6585975982
 51
148.6234410218
  0
ARC
  5
33A
330
1F
100
AcDbEntity
  8
0
  6
Continuous
 62
     7
370
    15
100
AcDbCircle
 10
277.0721882939
 20
101.2965290176
 30
0.0
 40
2.032000000000008
100
AcDbArc
 50
211.3765589782
 51
247.3414024018
  0
ARC
  5
33B
330
1F
100
AcDbEntity
  8
0
  6
Continuous
 62
     7
370
    15
100
AcDbCircle
 10
278.809491874
 20
101.2965290176
 30
0.0
 40
2.031999999999965
100
AcDbArc
 50
292.6585975982
 51
328.6234410218
  0
ARC
  5
33C
330
1F
100
AcDbEntity
  8
0
  6
Continuous
 62
     7
370
    15
100
AcDbCircle
 10
219.4978117061
 20
90.9644272293
 30
0.0
 40
2.032000000000003
100
AcDbArc
 50
31.3765589782
 51
67.3414024018
  0
ARC
  5
33D
330
1F
100
AcDbEntity
  8
0
  6
Continuous
 62
     7
370
    15
100
AcDbCircle
 10
217.760508126
 20
90.9644272293
 30
0.0
 40
2.032000000000003
100
AcDbArc
 50
112.6585975982
 51
148.6234410218
  0
ARC
  5
33E
330
1F
100
AcDbEntity
  8
0
  6
Continuous
 62
     7
370
    15
100
AcDbCircle
 10
217.760508126
 20
101.2965290176
 30
0.0
 40
2.031999999999997
100
AcDbArc
 50
211.3765589782
 51
247.3414024018
  0
ARC
  5
33F
330
1F
100
AcDbEntity
  8
0
  6
Continuous
 62
     7
370
    15
100
AcDbCircle
 10
219.4978117061
 20
101.2965290176
 30
0.0
 40
2.032000000000004
100
AcDbArc
 50
292.6585975982
 51
328.6234410218
  0
ARC
  5
340
330
1F
100
AcDbEntity
  8
0
  6
Continuous
 62
     7
370
    15
100
AcDbCircle
 10
278.1245363843
 20
89.3236591235
 30
0.0
 40
3.810000000000007
100
AcDbArc
 50
67.3414024018
 51
89.181459093
  0
ARC
  5
341
330
1F
100
AcDbEntity
  8
0
  6
Continuous
 62
     7
370
    15
100
AcDbCircle
 10
277.7571437836
 20
89.3236591235
 30
0.0
 40
3.810000000000007
100
AcDbArc
 50
90.818540907
 51
112.6585975982
  0
ARC
  5
342
330
1F
100
AcDbEntity
  8
0
  6
Continuous
 62
     7
370
    15
100
AcDbCircle
 10
277.7571437836
 20
102.9372971235
 30
0.0
 40
3.810000000000007
100
AcDbArc
 50
247.3414024018
 51
269.1814590929
  0
ARC
  5
343
330
1F
100
AcDbEntity
  8
0
  6
Continuous
 62
     7
370
    15
100
AcDbCircle
 10
278.1245363843
 20
102.9372971235
 30
0.0
 40
3.810000000000007
100
AcDbArc
 50
270.8185409071
 51
292.6585975982
  0
ARC
  5
344
330
1F
100
AcDbEntity
  8
0
  6
Continuous
 62
     7
370
    15
100
AcDbCircle
 10
218.8128562164
 20
89.3236591235
 30
0.0
 40
3.810000000000007
100
AcDbArc
 50
67.3414024018
 51
89.181459093
  0
ARC
  5
345
330
1F
100
AcDbEntity
  8
0
  6
Continuous
 62
     7
370
    15
100
AcDbCircle
 10
218.4454636157
 20
89.3236591235
 30
0.0
 40
3.809999999999997
100
AcDbArc
 50
90.818540907
 51
112.6585975982
  0
ARC
  5
346
330
1F
100
AcDbEntity
  8
0
  6
Continuous
 62
     7
370
    15
100
AcDbCircle
 10
218.4454636157
 20
102.9372971235
 30
0.0
 40
3.810000000000007
100
AcDbArc
 50
247.3414024018
 51
269.1814590929
  0
ARC
  5
347
330
1F
100
AcDbEntity
  8
0
  6
Continuous
 62
     7
370
    15
100
AcDbCircle
 10
218.8128562164
 20
102.9372971235
 30
0.0
 40
3.810000000000007
100
AcDbArc
 50
270.8185409071
 51
292.6585975982
  0
LWPOLYLINE
  5
348
330
1F
100
AcDbEntity
  8
0
  6
Continuous
 62
     7
370
    15
100
AcDbPolyline
 90
        3
 70
   128
 43
0.0
 10
279.1159614658
 20
97.1611446209
 10
279.047591958
 20
97.2823149032
 10
278.9522781706
 20
97.4265581436
  0
ARC
  5
349
330
1F
100
AcDbEntity
  8
0
  6
Continuous
 62
     7
370
    15
100
AcDbCircle
 10
278.734590084
 20
96.1300971235
 30
0.0
 40
2.222500000000041
100
AcDbArc
 50
144.3146652873
 51
173.829601803
  0
ARC
  5
34A
330
1F
100
AcDbEntity
  8
0
  6
Continuous
 62
     7
370
    15
100
AcDbCircle
 10
278.734590084
 20
96.1308591235
 30
0.0
 40
2.222500000000033
100
AcDbArc
 50
186.1506398279
 51
215.6853347127
  0
LWPOLYLINE
  5
34B
330
1F
100
AcDbEntity
  8
0
  6
Continuous
 62
     7
370
    15
100
AcDbPolyline
 90
        3
 70
   128
 43
0.0
 10
278.9522781706
 20
94.834399826
 10
279.047642622
 20
94.9787265129
 10
279.1135623789
 20
95.095247633
  0
ARC
  5
34C
330
1F
100
AcDbEntity
  8
0
  6
Continuous
 62
     7
370
    15
100
AcDbCircle
 10
217.835409916
 20
96.1300971235
 30
0.0
 40
2.222499999999995
100
AcDbArc
 50
6.170398197
 51
35.6853347127
  0
LWPOLYLINE
  5
34D
330
1F
100
AcDbEntity
  8
0
  6
Continuous
 62
     7
370
    15
100
AcDbPolyline
 90
        3
 70
   128
 43
0.0
 10
217.6177218294
 20
97.4265581436
 10
217.522408042
 20
97.2823149032
 10
217.4562021828
 20
97.1652633018
  0
LWPOLYLINE
  5
34E
330
1F
100
AcDbEntity
  8
0
  6
Continuous
 62
     7
370
    15
100
AcDbPolyline
 90
        3
 70
   128
 43
0.0
 10
217.4536362028
 20
95.1005822487
 10
217.522357378
 20
94.9787265129
 10
217.6177218294
 20
94.834399826
  0
ARC
  5
34F
330
1F
100
AcDbEntity
  8
0
  6
Continuous
 62
     7
370
    15
100
AcDbCircle
 10
217.835409916
 20
96.1308591235
 30
0.0
 40
2.222499999999989
100
AcDbArc
 50
324.3146652873
 51
353.8493601721
  0
ARC
  5
350
330
1F
100
AcDbEntity
  8
0
  6
Continuous
 62
     7
370
    15
100
AcDbCircle
 10
277.1872864817
 20
95.0196091235
 30
0.0
 40
0.3175000000000142
100
AcDbArc
 50
215.6853347127
 51
270.0
  0
ARC
  5
351
330
1F
100
AcDbEntity
  8
0
  6
Continuous
 62
     7
370
    15
100
AcDbCircle
 10
278.6943936862
 20
95.0196091235
 30
0.0
 40
0.3175000000000097
100
AcDbArc
 50
270.0
 51
324.3146652873
  0
ARC
  5
352
330
1F
100
AcDbEntity
  8
0
  6
Continuous
 62
     7
370
    15
100
AcDbCircle
 10
278.6943936862
 20
97.2413471235
 30
0.0
 40
0.3175000000000097
100
AcDbArc
 50
35.6853347127
 51
90.0
  0
ARC
  5
353
330
1F
100
AcDbEntity
  8
0
  6
Continuous
 62
     7
370
    15
100
AcDbCircle
 10
277.1872864817
 20
97.2413471235
 30
0.0
 40
0.3175000000000142
100
AcDbArc
 50
90.0
 51
144.3146652873
  0
ARC
  5
354
330
1F
100
AcDbEntity
  8
0
  6
Continuous
 62
     7
370
    15
100
AcDbCircle
 10
219.3827135183
 20
97.2413471235
 30
0.0
 40
0.3175000000000097
100
AcDbArc
 50
35.6853347127
 51
90.0
  0
ARC
  5
355
330
1F
100
AcDbEntity
  8
0
  6
Continuous
 62
     7
370
    15
100
AcDbCircle
 10
217.8756063138
 20
97.2413471235
 30
0.0
 40
0.3175000000000142
100
AcDbArc
 50
90.0
 51
144.3146652873
  0
ARC
  5
356
330
1F
100
AcDbEntity
  8
0
  6
Continuous
 62
     7
370
    15
100
AcDbCircle
 10
217.8756063138
 20
95.0196091235
 30
0.0
 40
0.3175000000000142
100
AcDbArc
 50
215.6853347127
 51
270.0
  0
ARC
  5
357
330
1F
100
AcDbEntity
  8
0
  6
Continuous
 62
     7
370
    15
100
AcDbCircle
 10
219.3827135183
 20
95.0196091235
 30
0.0
 40
0.3175000000000097
100
AcDbArc
 50
270.0
 51
324.3146652873
  0
LINE
  5
358
330
1F
100
AcDbEntity
  8
0
  6
Continuous
 62
     7
370
    15
100
AcDbLine
 10
278.178964529
 20
93.1332713432
 30
0.0
 11
278.178964529
 21
94.702107317
 31
0.0
  0
LINE
  5
359
330
1F
100
AcDbEntity
  8
0
  6
Continuous
 62
     7
370
    15
100
AcDbLine
 10
277.7027144766
 20
94.702107317
 30
0.0
 11
277.7027144766
 21
93.1332713432
 31
0.0
  0
LINE
  5
35A
330
1F
100
AcDbEntity
  8
0
  6
Continuous
 62
     7
370
    15
100
AcDbLine
 10
277.7027144766
 20
99.1276866264
 30
0.0
 11
277.7027144766
 21
97.5588446922
 31
0.0
  0
LINE
  5
35B
330
1F
100
AcDbEntity
  8
0
  6
Continuous
 62
     7
370
    15
100
AcDbLine
 10
278.178964529
 20
97.5588446922
 30
0.0
 11
278.178964529
 21
99.1276866264
 31
0.0
  0
LINE
  5
35C
330
1F
100
AcDbEntity
  8
0
  6
Continuous
 62
     7
370
    15
100
AcDbLine
 10
218.8672855234
 20
93.1332713432
 30
0.0
 11
218.8672855234
 21
94.702107317
 31
0.0
  0
LINE
  5
35D
330
1F
100
AcDbEntity
  8
0
  6
Continuous
 62
     7
370
    15
100
AcDbLine
 10
218.391035471
 20
94.702107317
 30
0.0
 11
218.391035471
 21
93.1332713432
 31
0.0
  0
LINE
  5
35E
330
1F
100
AcDbEntity
  8
0
  6
Continuous
 62
     7
370
    15
100
AcDbLine
 10
218.391035471
 20
99.1276866264
 30
0.0
 11
218.391035471
 21
97.5588446922
 31
0.0
  0
LINE
  5
35F
330
1F
100
AcDbEntity
  8
0
  6
Continuous
 62
     7
370
    15
100
AcDbLine
 10
218.8672855234
 20
97.5588446922
 30
0.0
 11
218.8672855234
 21
99.1276866264
 31
0.0
  0
LINE
  5
360
330
1F
100
AcDbEntity
  8
0
  6
Continuous
 62
     7
370
    15
100
AcDbLine
 10
247.3139994515
 20
120.1951390571
 30
0.0
 11
219.5395573711
 21
97.5174015827
 31
0.0
  0
LINE
  5
361
330
1F
100
AcDbEntity
  8
0
  6
Continuous
 62
     7
370
    15
100
AcDbLine
 10
219.8196455574
 20
97.1312528915
 30
0.0
 11
247.6030760182
 21
119.8163336582
 31
0.0
  0
LINE
  5
362
330
1F
100
AcDbEntity
  8
0
  6
Continuous
 62
     7
370
    15
100
AcDbLine
 10
249.2559946811
 20
72.065812952
 30
0.0
 11
277.0304426289
 21
94.7435563869
 31
0.0
  0
LINE
  5
363
330
1F
100
AcDbEntity
  8
0
  6
Continuous
 62
     7
370
    15
100
AcDbLine
 10
276.7503544426
 20
95.1296991176
 30
0.0
 11
248.9669585804
 21
72.4446541137
 31
0.0
  0
LINE
  5
364
330
1F
100
AcDbEntity
  8
0
  6
Continuous
 62
     7
370
    15
100
AcDbLine
 10
247.6030481251
 20
72.4446481533
 30
0.0
 11
219.8196455574
 21
95.1296991176
 31
0.0
  0
LINE
  5
365
330
1F
100
AcDbEntity
  8
0
  6
Continuous
 62
     7
370
    15
100
AcDbLine
 10
219.5395573711
 20
94.7435563869
 30
0.0
 11
247.3140061571
 21
72.065812952
 31
0.0
  0
LINE
  5
366
330
1F
100
AcDbEntity
  8
0
  6
Continuous
 62
     7
370
    15
100
AcDbLine
 10
248.9670654497
 20
119.8162174291
 30
0.0
 11
276.7503544426
 21
97.1312528915
 31
0.0
  0
LINE
  5
367
330
1F
100
AcDbEntity
  8
0
  6
Continuous
 62
     7
370
    15
100
AcDbLine
 10
277.0304426289
 20
97.5174015827
 30
0.0
 11
249.2560036218
 21
120.1951360769
 31
0.0
  0
LINE
  5
368
330
1F
100
AcDbEntity
  8
0
  6
Continuous
 62
     7
370
    15
100
AcDbLine
 10
289.6829291916
 20
96.3689869709
 30
0.0
 11
287.2396483755
 21
96.3689869709
 31
0.0
  0
LINE
  5
369
330
1F
100
AcDbEntity
  8
0
  6
Continuous
 62
     7
370
    15
100
AcDbLine
 10
287.2397377825
 20
95.8927339382
 30
0.0
 11
289.682896409
 21
95.8927339382
 31
0.0
  0
LINE
  5
36A
330
1F
100
AcDbEntity
  8
0
  6
Continuous
 62
     7
370
    15
100
AcDbLine
 10
209.3303516245
 20
96.3689869709
 30
0.0
 11
206.8870708084
 21
96.3689869709
 31
0.0
  0
LINE
  5
36B
330
1F
100
AcDbEntity
  8
0
  6
Continuous
 62
     7
370
    15
100
AcDbLine
 10
206.887103591
 20
95.8927339382
 30
0.0
 11
209.3302622175
 21
95.8927339382
 31
0.0
  0
ARC
  5
36C
330
1F
100
AcDbEntity
  8
0
  6
Continuous
 62
     7
370
    15
100
AcDbCircle
 10
290.2246912503
 20
88.7930851351
 30
0.0
 40
4.125
100
AcDbArc
 50
128.4762233208
 51
0.0
  0
ARC
  5
36D
330
1F
100
AcDbEntity
  8
0
  6
Continuous
 62
     7
370
    15
100
AcDbCircle
 10
290.2246912503
 20
88.7930851351
 30
0.0
 40
4.125000000000008
100
AcDbArc
 50
0.0
 51
51.5237766792
  0
ARC
  5
36E
330
1F
100
AcDbEntity
  8
0
  6
Continuous
 62
     7
370
    15
100
AcDbCircle
 10
290.2246912503
 20
103.4678711118
 30
0.0
 40
4.125
100
AcDbArc
 50
308.4762233208
 51
0.0
  0
ARC
  5
36F
330
1F
100
AcDbEntity
  8
0
  6
Continuous
 62
     7
370
    15
100
AcDbCircle
 10
290.2246912503
 20
103.4678711118
 30
0.0
 40
4.125000000000032
100
AcDbArc
 50
0.0
 51
231.5237766792
  0
ARC
  5
370
330
1F
100
AcDbEntity
  8
0
  6
Continuous
 62
     7
370
    15
100
AcDbCircle
 10
297.5513527386
 20
96.1300971235
 30
0.0
 40
4.125
100
AcDbArc
 50
218.4762233208
 51
0.0
  0
ARC
  5
371
330
1F
100
AcDbEntity
  8
0
  6
Continuous
 62
     7
370
    15
100
AcDbCircle
 10
297.5513527386
 20
96.1300971235
 30
0.0
 40
4.125
100
AcDbArc
 50
0.0
 51
141.5237766792
  0
ARC
  5
372
330
1F
100
AcDbEntity
  8
0
  6
Continuous
 62
     7
370
    15
100
AcDbCircle
 10
248.285
 20
78.5816410787
 30
0.0
 40
4.125000000000017
100
AcDbArc
 50
308.4762233208
 51
86.690631127
  0
ARC
  5
373
330
1F
100
AcDbEntity
  8
0
  6
Continuous
 62
     7
370
    15
100
AcDbCircle
 10
248.285
 20
78.5816410787
 30
0.0
 40
4.125000000000012
100
AcDbArc
 50
93.309368873
 51
231.5237766792
  0
ARC
  5
374
330
1F
100
AcDbEntity
  8
0
  6
Continuous
 62
     7
370
    15
100
AcDbCircle
 10
248.285
 20
113.6793151682
 30
0.0
 40
4.125000000000008
100
AcDbArc
 50
128.4762233208
 51
266.690631127
  0
ARC
  5
375
330
1F
100
AcDbEntity
  8
0
  6
Continuous
 62
     7
370
    15
100
AcDbCircle
 10
248.285
 20
113.6793151682
 30
0.0
 40
4.125000000000028
100
AcDbArc
 50
273.309368873
 51
0.0
  0
ARC
  5
376
330
1F
100
AcDbEntity
  8
0
  6
Continuous
 62
     7
370
    15
100
AcDbCircle
 10
248.285
 20
113.6793151682
 30
0.0
 40
4.125000000000028
100
AcDbArc
 50
0.0
 51
51.5237766792
  0
ARC
  5
377
330
1F
100
AcDbEntity
  8
0
  6
Continuous
 62
     7
370
    15
100
AcDbCircle
 10
199.0186472614
 20
96.1300971235
 30
0.0
 40
4.125000000000019
100
AcDbArc
 50
38.4762233208
 51
321.5237766792
  0
ARC
  5
378
330
1F
100
AcDbEntity
  8
0
  6
Continuous
 62
     7
370
    15
100
AcDbCircle
 10
206.3453087497
 20
103.4678711118
 30
0.0
 40
4.124999999999979
100
AcDbArc
 50
308.4762233208
 51
0.0
  0
ARC
  5
379
330
1F
100
AcDbEntity
  8
0
  6
Continuous
 62
     7
370
    15
100
AcDbCircle
 10
206.3453087497
 20
103.4678711118
 30
0.0
 40
4.125000000000014
100
AcDbArc
 50
0.0
 51
231.5237766792
  0
ARC
  5
37A
330
1F
100
AcDbEntity
  8
0
  6
Continuous
 62
     7
370
    15
100
AcDbCircle
 10
206.3453087497
 20
88.7930851351
 30
0.0
 40
4.125000000000028
100
AcDbArc
 50
128.4762233208
 51
0.0
  0
ARC
  5
37B
330
1F
100
AcDbEntity
  8
0
  6
Continuous
 62
     7
370
    15
100
AcDbCircle
 10
206.3453087497
 20
88.7930851351
 30
0.0
 40
4.125000000000028
100
AcDbArc
 50
0.0
 51
51.5237766792
  0
ARC
  5
37C
330
1F
100
AcDbEntity
  8
0
  6
Continuous
 62
     7
370
    15
100
AcDbCircle
 10
248.285
 20
63.9155079727
 30
0.0
 40
4.125000000000002
100
AcDbArc
 50
128.4762233208
 51
0.0
  0
ARC
  5
37D
330
1F
100
AcDbEntity
  8
0
  6
Continuous
 62
     7
370
    15
100
AcDbCircle
 10
248.285
 20
63.9155079727
 30
0.0
 40
4.124999999999985
100
AcDbArc
 50
0.0
 51
51.5237766792
  0
LINE
  5
37E
330
1F
100
AcDbEntity
  8
0
  6
Continuous
 62
     7
370
    15
100
AcDbLine
 10
245.1099998987
 20
151.0294920273
 30
0.0
 11
245.1099998987
 21
150.3944920349
 31
0.0
  0
LINE
  5
37F
330
1F
100
AcDbEntity
  8
0
  6
Continuous
 62
     7
370
    15
100
AcDbLine
 10
251.4600001013
 20
150.3944920349
 30
0.0
 11
251.4600001013
 21
151.0294920273
 31
0.0
  0
ARC
  5
380
330
1F
100
AcDbEntity
  8
0
  6
Continuous
 62
     7
370
    15
100
AcDbCircle
 10
291.0933430403
 20
90.9644272293
 30
0.0
 40
2.031999999999978
100
AcDbArc
 50
31.3765589782
 51
67.3414024018
  0
ARC
  5
381
330
1F
100
AcDbEntity
  8
0
  6
Continuous
 62
     7
370
    15
100
AcDbCircle
 10
289.3560394603
 20
90.9644272293
 30
0.0
 40
2.032000000000021
100
AcDbArc
 50
112.6585975982
 51
148.6234410218
  0
ARC
  5
382
330
1F
100
AcDbEntity
  8
0
  6
Continuous
 62
     7
370
    15
100
AcDbCircle
 10
289.3560394603
 20
101.2965290176
 30
0.0
 40
2.03200000000006
100
AcDbArc
 50
211.3765589782
 51
247.3414024018
  0
ARC
  5
383
330
1F
100
AcDbEntity
  8
0
  6
Continuous
 62
     7
370
    15
100
AcDbCircle
 10
291.0933430403
 20
101.2965290176
 30
0.0
 40
2.032000000000012
100
AcDbArc
 50
292.6585975982
 51
328.6234410218
  0
ARC
  5
384
330
1F
100
AcDbEntity
  8
0
  6
Continuous
 62
     7
370
    15
100
AcDbCircle
 10
295.3800106444
 20
96.9987489135
 30
0.0
 40
2.032000000000044
100
AcDbArc
 50
121.3765589782
 51
157.3414024018
  0
ARC
  5
385
330
1F
100
AcDbEntity
  8
0
  6
Continuous
 62
     7
370
    15
100
AcDbCircle
 10
295.3800106444
 20
95.2614453335
 30
0.0
 40
2.032000000000044
100
AcDbArc
 50
202.6585975982
 51
238.6234410218
  0
ARC
  5
386
330
1F
100
AcDbEntity
  8
0
  6
Continuous
 62
     7
370
    15
100
AcDbCircle
 10
247.41634821
 20
76.4102989845
 30
0.0
 40
2.031999999999997
100
AcDbArc
 50
211.3765589782
 51
247.3414024018
  0
ARC
  5
387
330
1F
100
AcDbEntity
  8
0
  6
Continuous
 62
     7
370
    15
100
AcDbCircle
 10
249.15365179
 20
76.4102989845
 30
0.0
 40
2.03200000000002
100
AcDbArc
 50
292.6585975982
 51
328.6234410218
  0
ARC
  5
388
330
1F
100
AcDbEntity
  8
0
  6
Continuous
 62
     7
370
    15
100
AcDbCircle
 10
249.15365179
 20
115.8506572624
 30
0.0
 40
2.032000000000003
100
AcDbArc
 50
31.3765589782
 51
67.3414024018
  0
ARC
  5
389
330
1F
100
AcDbEntity
  8
0
  6
Continuous
 62
     7
370
    15
100
AcDbCircle
 10
247.41634821
 20
115.8506572624
 30
0.0
 40
2.032000000000003
100
AcDbArc
 50
112.6585975982
 51
148.6234410218
  0
ARC
  5
38A
330
1F
100
AcDbEntity
  8
0
  6
Continuous
 62
     7
370
    15
100
AcDbCircle
 10
201.1899893556
 20
95.2614453335
 30
0.0
 40
2.032000000000017
100
AcDbArc
 50
301.3765589782
 51
337.3414024018
  0
ARC
  5
38B
330
1F
100
AcDbEntity
  8
0
  6
Continuous
 62
     7
370
    15
100
AcDbCircle
 10
201.1899893556
 20
96.9987489135
 30
0.0
 40
2.032000000000017
100
AcDbArc
 50
22.6585975982
 51
58.6234410218
  0
ARC
  5
38C
330
1F
100
AcDbEntity
  8
0
  6
Continuous
 62
     7
370
    15
100
AcDbCircle
 10
205.4766569597
 20
101.2965290176
 30
0.0
 40
2.031999999999988
100
AcDbArc
 50
211.3765589782
 51
247.3414024018
  0
ARC
  5
38D
330
1F
100
AcDbEntity
  8
0
  6
Continuous
 62
     7
370
    15
100
AcDbCircle
 10
207.2139605397
 20
101.2965290176
 30
0.0
 40
2.031999999999997
100
AcDbArc
 50
292.6585975982
 51
328.6234410218
  0
ARC
  5
38E
330
1F
100
AcDbEntity
  8
0
  6
Continuous
 62
     7
370
    15
100
AcDbCircle
 10
207.2139605397
 20
90.9644272293
 30
0.0
 40
2.032
100
AcDbArc
 50
31.3765589782
 51
67.3414024018
  0
ARC
  5
38F
330
1F
100
AcDbEntity
  8
0
  6
Continuous
 62
     7
370
    15
100
AcDbCircle
 10
205.4766569597
 20
90.9644272293
 30
0.0
 40
2.031999999999988
100
AcDbArc
 50
112.6585975982
 51
148.6234410218
  0
ARC
  5
390
330
1F
100
AcDbEntity
  8
0
  6
Continuous
 62
     7
370
    15
100
AcDbCircle
 10
249.15365179
 20
66.0868500669
 30
0.0
 40
2.03200000000002
100
AcDbArc
 50
31.3765589782
 51
67.3414024018
  0
ARC
  5
391
330
1F
100
AcDbEntity
  8
0
  6
Continuous
 62
     7
370
    15
100
AcDbCircle
 10
247.41634821
 20
66.0868500669
 30
0.0
 40
2.032
100
AcDbArc
 50
112.6585975982
 51
148.6234410218
  0
ARC
  5
392
330
1F
100
AcDbEntity
  8
0
  6
Continuous
 62
     7
370
    15
100
AcDbCircle
 10
290.4083875507
 20
89.3236591235
 30
0.0
 40
3.810000000000007
100
AcDbArc
 50
67.3414024018
 51
89.181459093
  0
ARC
  5
393
330
1F
100
AcDbEntity
  8
0
  6
Continuous
 62
     7
370
    15
100
AcDbCircle
 10
290.0409949499
 20
89.3236591235
 30
0.0
 40
3.810000000000007
100
AcDbArc
 50
90.818540907
 51
112.6585975982
  0
ARC
  5
394
330
1F
100
AcDbEntity
  8
0
  6
Continuous
 62
     7
370
    15
100
AcDbCircle
 10
290.0409949499
 20
102.9372971235
 30
0.0
 40
3.809999999999999
100
AcDbArc
 50
247.3414024018
 51
269.1814590929
  0
ARC
  5
395
330
1F
100
AcDbEntity
  8
0
  6
Continuous
 62
     7
370
    15
100
AcDbCircle
 10
290.4083875507
 20
102.9372971235
 30
0.0
 40
3.809999999999999
100
AcDbArc
 50
270.8185409071
 51
292.6585975982
  0
ARC
  5
396
330
1F
100
AcDbEntity
  8
0
  6
Continuous
 62
     7
370
    15
100
AcDbCircle
 10
297.0207787503
 20
96.3137934239
 30
0.0
 40
3.810000000000028
100
AcDbArc
 50
157.3414024018
 51
179.181459093
  0
ARC
  5
397
330
1F
100
AcDbEntity
  8
0
  6
Continuous
 62
     7
370
    15
100
AcDbCircle
 10
297.0207787503
 20
95.9464008231
 30
0.0
 40
3.810000000000028
100
AcDbArc
 50
180.8185409071
 51
202.6585975982
  0
ARC
  5
398
330
1F
100
AcDbEntity
  8
0
  6
Continuous
 62
     7
370
    15
100
AcDbCircle
 10
248.1013036996
 20
78.0510670904
 30
0.0
 40
3.810000000000011
100
AcDbArc
 50
247.3414024018
 51
269.181459093
  0
ARC
  5
399
330
1F
100
AcDbEntity
  8
0
  6
Continuous
 62
     7
370
    15
100
AcDbCircle
 10
248.4686963004
 20
78.0510670904
 30
0.0
 40
3.810000000000012
100
AcDbArc
 50
270.8185409071
 51
292.6585975982
  0
ARC
  5
39A
330
1F
100
AcDbEntity
  8
0
  6
Continuous
 62
     7
370
    15
100
AcDbCircle
 10
248.4686963004
 20
114.2098891566
 30
0.0
 40
3.809999999999997
100
AcDbArc
 50
67.3414024018
 51
89.181459093
  0
ARC
  5
39B
330
1F
100
AcDbEntity
  8
0
  6
Continuous
 62
     7
370
    15
100
AcDbCircle
 10
248.1013036996
 20
114.2098891566
 30
0.0
 40
3.809999999999997
100
AcDbArc
 50
90.818540907
 51
112.6585975982
  0
ARC
  5
39C
330
1F
100
AcDbEntity
  8
0
  6
Continuous
 62
     7
370
    15
100
AcDbCircle
 10
199.5492212497
 20
95.9464008231
 30
0.0
 40
3.809999999999997
100
AcDbArc
 50
337.3414024018
 51
359.181459093
  0
ARC
  5
39D
330
1F
100
AcDbEntity
  8
0
  6
Continuous
 62
     7
370
    15
100
AcDbCircle
 10
199.5492212497
 20
96.3137934239
 30
0.0
 40
3.809999999999997
100
AcDbArc
 50
0.818540907
 51
22.6585975982
  0
ARC
  5
39E
330
1F
100
AcDbEntity
  8
0
  6
Continuous
 62
     7
370
    15
100
AcDbCircle
 10
206.1616124493
 20
102.9372971235
 30
0.0
 40
3.810000000000007
100
AcDbArc
 50
247.3414024018
 51
269.1814590929
  0
ARC
  5
39F
330
1F
100
AcDbEntity
  8
0
  6
Continuous
 62
     7
370
    15
100
AcDbCircle
 10
206.5290050501
 20
102.9372971235
 30
0.0
 40
3.81
100
AcDbArc
 50
270.8185409071
 51
292.6585975982
  0
ARC
  5
3A0
330
1F
100
AcDbEntity
  8
0
  6
Continuous
 62
     7
370
    15
100
AcDbCircle
 10
206.5290050501
 20
89.3236591235
 30
0.0
 40
3.809999999999997
100
AcDbArc
 50
67.3414024018
 51
89.181459093
  0
ARC
  5
3A1
330
1F
100
AcDbEntity
  8
0
  6
Continuous
 62
     7
370
    15
100
AcDbCircle
 10
206.1616124493
 20
89.3236591235
 30
0.0
 40
3.809999999999997
100
AcDbArc
 50
90.818540907
 51
112.6585975982
  0
ARC
  5
3A2
330
1F
100
AcDbEntity
  8
0
  6
Continuous
 62
     7
370
    15
100
AcDbCircle
 10
248.4686963004
 20
64.4460819611
 30
0.0
 40
3.810000000000007
100
AcDbArc
 50
67.3414024018
 51
89.181459093
  0
ARC
  5
3A3
330
1F
100
AcDbEntity
  8
0
  6
Continuous
 62
     7
370
    15
100
AcDbCircle
 10
248.1013036996
 20
64.4460819611
 30
0.0
 40
3.809999999999997
100
AcDbArc
 50
90.818540907
 51
112.6585975982
  0
ARC
  5
3A4
330
1F
100
AcDbEntity
  8
0
  6
Continuous
 62
     7
370
    15
100
AcDbCircle
 10
289.4309412503
 20
96.1300971235
 30
0.0
 40
2.222500000000012
100
AcDbArc
 50
6.0719158652
 51
35.6853347127
  0
ARC
  5
3A5
330
1F
100
AcDbEntity
  8
0
  6
Continuous
 62
     7
370
    15
100
AcDbCircle
 10
291.0184412503
 20
96.1300971235
 30
0.0
 40
2.222500000000038
100
AcDbArc
 50
158.8609537063
 51
173.829601803
  0
ARC
  5
3A6
330
1F
100
AcDbEntity
  8
0
  6
Continuous
 62
     7
370
    15
100
AcDbCircle
 10
291.0184412503
 20
96.1300971235
 30
0.0
 40
2.222500000000041
100
AcDbArc
 50
144.3146652873
 51
146.6611351899
  0
ARC
  5
3A7
330
1F
100
AcDbEntity
  8
0
  6
Continuous
 62
     7
370
    15
100
AcDbCircle
 10
291.0184412503
 20
96.1308591235
 30
0.0
 40
2.222500000000033
100
AcDbArc
 50
213.3953437699
 51
215.6853347127
  0
ARC
  5
3A8
330
1F
100
AcDbEntity
  8
0
  6
Continuous
 62
     7
370
    15
100
AcDbCircle
 10
291.0184412503
 20
96.1308591235
 30
0.0
 40
2.222500000000018
100
AcDbArc
 50
186.1506398279
 51
201.1731782268
  0
ARC
  5
3A9
330
1F
100
AcDbEntity
  8
0
  6
Continuous
 62
     7
370
    15
100
AcDbCircle
 10
289.4309412503
 20
96.1308591235
 30
0.0
 40
2.222499999999987
100
AcDbArc
 50
324.3146652873
 51
353.9041890584
  0
ARC
  5
3AA
330
1F
100
AcDbEntity
  8
0
  6
Continuous
 62
     7
370
    15
100
AcDbCircle
 10
249.07875
 20
121.0170891566
 30
0.0
 40
2.222500000000021
100
AcDbArc
 50
179.7769294832
 51
201.1789207698
  0
ARC
  5
3AB
330
1F
100
AcDbEntity
  8
0
  6
Continuous
 62
     7
370
    15
100
AcDbCircle
 10
247.49125
 20
121.0170891566
 30
0.0
 40
2.222500000000009
100
AcDbArc
 50
338.8145571622
 51
0.2230705168
  0
ARC
  5
3AC
330
1F
100
AcDbEntity
  8
0
  6
Continuous
 62
     7
370
    15
100
AcDbCircle
 10
247.49125
 20
121.0257420273
 30
0.0
 40
2.222499999999997
100
AcDbArc
 50
0.0
 51
35.6853347127
  0
ARC
  5
3AD
330
1F
100
AcDbEntity
  8
0
  6
Continuous
 62
     7
370
    15
100
AcDbCircle
 10
249.07875
 20
121.0257420273
 30
0.0
 40
2.222500000000025
100
AcDbArc
 50
144.3146652873
 51
180.0
  0
ARC
  5
3AE
330
1F
100
AcDbEntity
  8
0
  6
Continuous
 62
     7
370
    15
100
AcDbCircle
 10
249.07875
 20
71.2532819611
 30
0.0
 40
2.222500000000025
100
AcDbArc
 50
180.0
 51
180.121357201
  0
ARC
  5
3AF
330
1F
100
AcDbEntity
  8
0
  6
Continuous
 62
     7
370
    15
100
AcDbCircle
 10
247.49125
 20
71.2532819611
 30
0.0
 40
2.222500000000011
100
AcDbArc
 50
359.878642799
 51
0.0
  0
ARC
  5
3B0
330
1F
100
AcDbEntity
  8
0
  6
Continuous
 62
     7
370
    15
100
AcDbCircle
 10
247.49125
 20
71.2438670904
 30
0.0
 40
2.222499999999989
100
AcDbArc
 50
0.0
 51
0.121357201
  0
ARC
  5
3B1
330
1F
100
AcDbEntity
  8
0
  6
Continuous
 62
     7
370
    15
100
AcDbCircle
 10
249.07875
 20
71.2438670904
 30
0.0
 40
2.222500000000011
100
AcDbArc
 50
179.878642799
 51
180.0
  0
ARC
  5
3B2
330
1F
100
AcDbEntity
  8
0
  6
Continuous
 62
     7
370
    15
100
AcDbCircle
 10
205.5515587497
 20
96.1300971235
 30
0.0
 40
2.222499999999995
100
AcDbArc
 50
33.3728229942
 51
35.6853347127
  0
ARC
  5
3B3
330
1F
100
AcDbEntity
  8
0
  6
Continuous
 62
     7
370
    15
100
AcDbCircle
 10
205.5515587497
 20
96.1300971235
 30
0.0
 40
2.222499999999992
100
AcDbArc
 50
6.170398197
 51
21.1949291443
  0
ARC
  5
3B4
330
1F
100
AcDbEntity
  8
0
  6
Continuous
 62
     7
370
    15
100
AcDbCircle
 10
207.1390587497
 20
96.1300971235
 30
0.0
 40
2.222500000000018
100
AcDbArc
 50
144.3146652873
 51
173.9250060181
  0
ARC
  5
3B5
330
1F
100
AcDbEntity
  8
0
  6
Continuous
 62
     7
370
    15
100
AcDbCircle
 10
207.1390587497
 20
96.1308591235
 30
0.0
 40
2.222500000000016
100
AcDbArc
 50
186.0927378997
 51
215.6853347127
  0
ARC
  5
3B6
330
1F
100
AcDbEntity
  8
0
  6
Continuous
 62
     7
370
    15
100
AcDbCircle
 10
205.5515587497
 20
96.1308591235
 30
0.0
 40
2.222499999999993
100
AcDbArc
 50
338.8083893755
 51
353.8493601721
  0
ARC
  5
3B7
330
1F
100
AcDbEntity
  8
0
  6
Continuous
 62
     7
370
    15
100
AcDbCircle
 10
205.5515587497
 20
96.1308591235
 30
0.0
 40
2.222499999999987
100
AcDbArc
 50
324.3146652873
 51
326.6212519765
  0
ARC
  5
3B8
330
1F
100
AcDbEntity
  8
0
  6
Continuous
 62
     7
370
    15
100
AcDbCircle
 10
249.07875
 20
71.2532819611
 30
0.0
 40
2.22250000000001
100
AcDbArc
 50
180.2427149464
 51
215.6853347127
  0
ARC
  5
3B9
330
1F
100
AcDbEntity
  8
0
  6
Continuous
 62
     7
370
    15
100
AcDbCircle
 10
247.49125
 20
71.2532819611
 30
0.0
 40
2.222500000000005
100
AcDbArc
 50
324.3146652873
 51
359.7572850536
  0
ARC
  5
3BA
330
1F
100
AcDbEntity
  8
0
  6
Continuous
 62
     7
370
    15
100
AcDbCircle
 10
247.49125
 20
71.2438670904
 30
0.0
 40
2.222499999999976
100
AcDbArc
 50
0.2427149464
 51
21.133517152
  0
ARC
  5
3BB
330
1F
100
AcDbEntity
  8
0
  6
Continuous
 62
     7
370
    15
100
AcDbCircle
 10
249.07875
 20
71.2438670904
 30
0.0
 40
2.222500000000005
100
AcDbArc
 50
158.8190491897
 51
179.7572850536
  0
ARC
  5
3BC
330
1F
100
AcDbEntity
  8
0
  6
Continuous
 62
     7
370
    15
100
AcDbCircle
 10
289.4711376481
 20
95.0196091235
 30
0.0
 40
0.3175000000000142
100
AcDbArc
 50
215.6853347127
 51
270.0
  0
ARC
  5
3BD
330
1F
100
AcDbEntity
  8
0
  6
Continuous
 62
     7
370
    15
100
AcDbCircle
 10
290.9782448525
 20
95.0196091235
 30
0.0
 40
0.3175000000000142
100
AcDbArc
 50
270.0
 51
324.3146652873
  0
ARC
  5
3BE
330
1F
100
AcDbEntity
  8
0
  6
Continuous
 62
     7
370
    15
100
AcDbCircle
 10
290.9782448525
 20
97.2413471235
 30
0.0
 40
0.3175000000000142
100
AcDbArc
 50
35.6853347127
 51
90.0
  0
ARC
  5
3BF
330
1F
100
AcDbEntity
  8
0
  6
Continuous
 62
     7
370
    15
100
AcDbCircle
 10
289.4711376481
 20
97.2413471235
 30
0.0
 40
0.3175000000000142
100
AcDbArc
 50
90.0
 51
144.3146652873
  0
ARC
  5
3C0
330
1F
100
AcDbEntity
  8
0
  6
Continuous
 62
     7
370
    15
100
AcDbCircle
 10
247.5314463978
 20
119.9058391566
 30
0.0
 40
0.3174999999999955
100
AcDbArc
 50
240.3963558241
 51
270.0
  0
ARC
  5
3C1
330
1F
100
AcDbEntity
  8
0
  6
Continuous
 62
     7
370
    15
100
AcDbCircle
 10
249.0385536022
 20
119.9058391566
 30
0.0
 40
0.3175000000000034
100
AcDbArc
 50
270.0
 51
299.6036441759
  0
ARC
  5
3C2
330
1F
100
AcDbEntity
  8
0
  6
Continuous
 62
     7
370
    15
100
AcDbCircle
 10
249.0385536022
 20
122.1369920273
 30
0.0
 40
0.3175000000000059
100
AcDbArc
 50
35.6853347127
 51
90.0
  0
ARC
  5
3C3
330
1F
100
AcDbEntity
  8
0
  6
Continuous
 62
     7
370
    15
100
AcDbCircle
 10
247.5314463978
 20
122.1369920273
 30
0.0
 40
0.3175000000000059
100
AcDbArc
 50
90.0
 51
144.3146652873
  0
ARC
  5
3C4
330
1F
100
AcDbEntity
  8
0
  6
Continuous
 62
     7
370
    15
100
AcDbCircle
 10
247.5314463978
 20
70.1420319611
 30
0.0
 40
0.3175000000000142
100
AcDbArc
 50
215.6853347127
 51
270.0
  0
ARC
  5
3C5
330
1F
100
AcDbEntity
  8
0
  6
Continuous
 62
     7
370
    15
100
AcDbCircle
 10
249.0385536022
 20
70.1420319611
 30
0.0
 40
0.3175000000000142
100
AcDbArc
 50
270.0
 51
324.3146652873
  0
ARC
  5
3C6
330
1F
100
AcDbEntity
  8
0
  6
Continuous
 62
     7
370
    15
100
AcDbCircle
 10
249.0385536022
 20
72.3551170904
 30
0.0
 40
0.3175000000000097
100
AcDbArc
 50
60.3963558242
 51
90.0
  0
ARC
  5
3C7
330
1F
100
AcDbEntity
  8
0
  6
Continuous
 62
     7
370
    15
100
AcDbCircle
 10
247.5314463978
 20
72.3551170904
 30
0.0
 40
0.3175000000000097
100
AcDbArc
 50
90.0
 51
119.6036441758
  0
ARC
  5
3C8
330
1F
100
AcDbEntity
  8
0
  6
Continuous
 62
     7
370
    15
100
AcDbCircle
 10
207.0988623519
 20
97.2413471235
 30
0.0
 40
0.3175000000000142
100
AcDbArc
 50
35.6853347127
 51
90.0
  0
ARC
  5
3C9
330
1F
100
AcDbEntity
  8
0
  6
Continuous
 62
     7
370
    15
100
AcDbCircle
 10
205.5917551475
 20
97.2413471235
 30
0.0
 40
0.3175000000000142
100
AcDbArc
 50
90.0
 51
144.3146652873
  0
ARC
  5
3CA
330
1F
100
AcDbEntity
  8
0
  6
Continuous
 62
     7
370
    15
100
AcDbCircle
 10
205.5917551475
 20
95.0196091235
 30
0.0
 40
0.3175000000000142
100
AcDbArc
 50
215.6853347127
 51
270.0
  0
ARC
  5
3CB
330
1F
100
AcDbEntity
  8
0
  6
Continuous
 62
     7
370
    15
100
AcDbCircle
 10
207.0988623519
 20
95.0196091235
 30
0.0
 40
0.3175000000000142
100
AcDbArc
 50
270.0
 51
324.3146652873
  0
LINE
  5
3CC
330
1F
100
AcDbEntity
  8
0
  6
Continuous
 62
     7
370
    15
100
AcDbLine
 10
248.6024999962
 20
122.4544918604
 30
0.0
 11
248.6024999962
 21
150.3944920349
 31
0.0
  0
LINE
  5
3CD
330
1F
100
AcDbEntity
  8
0
  6
Continuous
 62
     7
370
    15
100
AcDbLine
 10
247.9675000038
 20
150.3944920349
 30
0.0
 11
247.9675000038
 21
122.4544918604
 31
0.0
  0
LINE
  5
3CE
330
1F
100
AcDbEntity
  8
0
  6
Continuous
 62
     7
370
    15
100
AcDbLine
 10
245.8497497922
 20
73.2613748379
 30
0.0
 11
222.278563652
 21
86.8702060051
 31
0.0
  0
LINE
  5
3CF
330
1F
100
AcDbEntity
  8
0
  6
Continuous
 62
     7
370
    15
100
AcDbLine
 10
215.1391938066
 20
90.9921234913
 30
0.0
 11
213.3837893343
 21
92.0056051082
 31
0.0
  0
LINE
  5
3D0
330
1F
100
AcDbEntity
  8
0
  6
Continuous
 62
     7
370
    15
100
AcDbLine
 10
209.9088296032
 20
94.0118736095
 30
0.0
 11
207.6248809433
 21
95.3305131264
 31
0.0
  0
LINE
  5
3D1
330
1F
100
AcDbEntity
  8
0
  6
Continuous
 62
     7
370
    15
100
AcDbLine
 10
207.4063256121
 20
94.9067658253
 30
0.0
 11
210.8847841358
 21
92.8984767265
 31
0.0
  0
LINE
  5
3D2
330
1F
100
AcDbEntity
  8
0
  6
Continuous
 62
     7
370
    15
100
AcDbLine
 10
211.9315847492
 20
92.2941094703
 30
0.0
 11
214.9089500046
 21
90.575123436
 31
0.0
  0
LINE
  5
3D3
330
1F
100
AcDbEntity
  8
0
  6
Continuous
 62
     7
370
    15
100
AcDbLine
 10
222.0325574017
 20
86.462307579
 30
0.0
 11
247.0054193138
 21
72.0442181892
 31
0.0
  0
LINE
  5
3D4
330
1F
100
AcDbEntity
  8
0
  6
Continuous
 62
     7
370
    15
100
AcDbLine
 10
247.0054156816
 20
120.2167338199
 30
0.0
 11
222.0325574017
 21
105.7986474104
 31
0.0
  0
LINE
  5
3D5
330
1F
100
AcDbEntity
  8
0
  6
Continuous
 62
     7
370
    15
100
AcDbLine
 10
214.9089500046
 20
101.6858315534
 30
0.0
 11
211.9273826218
 21
99.9644225902
 31
0.0
  0
LINE
  5
3D6
330
1F
100
AcDbEntity
  8
0
  6
Continuous
 62
     7
370
    15
100
AcDbLine
 10
210.888327632
 20
99.3645256824
 30
0.0
 11
207.4063017702
 21
97.354174263
 31
0.0
  0
LINE
  5
3D7
330
1F
100
AcDbEntity
  8
0
  6
Continuous
 62
     7
370
    15
100
AcDbLine
 10
207.6248809433
 20
96.9304448433
 30
0.0
 11
209.9095269775
 21
98.2494896717
 31
0.0
  0
LINE
  5
3D8
330
1F
100
AcDbEntity
  8
0
  6
Continuous
 62
     7
370
    15
100
AcDbLine
 10
213.3824333286
 20
100.2545720405
 30
0.0
 11
215.1391938066
 21
101.2688344784
 31
0.0
  0
LINE
  5
3D9
330
1F
100
AcDbEntity
  8
0
  6
Continuous
 62
     7
370
    15
100
AcDbLine
 10
222.278563652
 20
105.3907519645
 30
0.0
 11
245.8497497922
 21
118.9995831318
 31
0.0
  0
LINE
  5
3DA
330
1F
100
AcDbEntity
  8
0
  6
Continuous
 62
     7
370
    15
100
AcDbLine
 10
250.7202502078
 20
118.9995831318
 30
0.0
 11
274.291436348
 21
105.3907519645
 31
0.0
  0
LINE
  5
3DB
330
1F
100
AcDbEntity
  8
0
  6
Continuous
 62
     7
370
    15
100
AcDbLine
 10
281.4308061934
 20
101.2688344784
 30
0.0
 11
283.1875666714
 21
100.2545720405
 31
0.0
  0
LINE
  5
3DC
330
1F
100
AcDbEntity
  8
0
  6
Continuous
 62
     7
370
    15
100
AcDbLine
 10
286.6604730225
 20
98.2494896717
 30
0.0
 11
288.9450832939
 21
96.9304686851
 31
0.0
  0
LINE
  5
3DD
330
1F
100
AcDbEntity
  8
0
  6
Continuous
 62
     7
370
    15
100
AcDbLine
 10
289.1638532019
 20
97.354084856
 30
0.0
 11
285.681672368
 21
99.3645256824
 31
0.0
  0
LINE
  5
3DE
330
1F
100
AcDbEntity
  8
0
  6
Continuous
 62
     7
370
    15
100
AcDbLine
 10
284.6426173782
 20
99.9644225902
 30
0.0
 11
281.6610499954
 21
101.6858315534
 31
0.0
  0
LINE
  5
3DF
330
1F
100
AcDbEntity
  8
0
  6
Continuous
 62
     7
370
    15
100
AcDbLine
 10
274.5374425983
 20
105.7986474104
 30
0.0
 11
249.5645776129
 21
120.2167368002
 31
0.0
  0
LINE
  5
3E0
330
1F
100
AcDbEntity
  8
0
  6
Continuous
 62
     7
370
    15
100
AcDbLine
 10
249.564614307
 20
72.0442420311
 30
0.0
 11
274.5374425983
 21
86.462307579
 31
0.0
  0
LINE
  5
3E1
330
1F
100
AcDbEntity
  8
0
  6
Continuous
 62
     7
370
    15
100
AcDbLine
 10
281.6610499954
 20
90.575123436
 30
0.0
 11
284.6384152508
 21
92.2941094703
 31
0.0
  0
LINE
  5
3E2
330
1F
100
AcDbEntity
  8
0
  6
Continuous
 62
     7
370
    15
100
AcDbLine
 10
285.6852158642
 20
92.8984767265
 30
0.0
 11
289.1635998821
 21
94.906724102
 31
0.0
  0
LINE
  5
3E3
330
1F
100
AcDbEntity
  8
0
  6
Continuous
 62
     7
370
    15
100
AcDbLine
 10
288.9451041555
 20
95.3305012054
 30
0.0
 11
286.6611703968
 21
94.0118736095
 31
0.0
  0
LINE
  5
3E4
330
1F
100
AcDbEntity
  8
0
  6
Continuous
 62
     7
370
    15
100
AcDbLine
 10
283.1862106657
 20
92.0056051082
 30
0.0
 11
281.4308061934
 21
90.9921234913
 31
0.0
  0
LINE
  5
3E5
330
1F
100
AcDbEntity
  8
0
  6
Continuous
 62
     7
370
    15
100
AcDbLine
 10
274.291436348
 20
86.8702060051
 30
0.0
 11
250.7202502078
 21
73.2613748379
 31
0.0
  0
LINE
  5
3E6
330
1F
100
AcDbEntity
  8
0
  6
Continuous
 62
     7
370
    15
100
AcDbLine
 10
290.4628172255
 20
93.1332713432
 30
0.0
 11
290.4628172255
 21
94.702107317
 31
0.0
  0
LINE
  5
3E7
330
1F
100
AcDbEntity
  8
0
  6
Continuous
 62
     7
370
    15
100
AcDbLine
 10
289.986567173
 20
94.702107317
 30
0.0
 11
289.986567173
 21
93.1332713432
 31
0.0
  0
LINE
  5
3E8
330
1F
100
AcDbEntity
  8
0
  6
Continuous
 62
     7
370
    15
100
AcDbLine
 10
289.986567173
 20
99.1276866264
 30
0.0
 11
289.986567173
 21
97.5588446922
 31
0.0
  0
LINE
  5
3E9
330
1F
100
AcDbEntity
  8
0
  6
Continuous
 62
     7
370
    15
100
AcDbLine
 10
290.4628172255
 20
97.5588446922
 30
0.0
 11
290.4628172255
 21
99.1276866264
 31
0.0
  0
LINE
  5
3EA
330
1F
100
AcDbEntity
  8
0
  6
Continuous
 62
     7
370
    15
100
AcDbLine
 10
293.2111665344
 20
96.3682240314
 30
0.0
 11
291.6404649353
 21
96.3682240314
 31
0.0
  0
LINE
  5
3EB
330
1F
100
AcDbEntity
  8
0
  6
Continuous
 62
     7
370
    15
100
AcDbLine
 10
291.6403874493
 20
95.8919709987
 30
0.0
 11
293.2111665344
 21
95.8919709987
 31
0.0
  0
LINE
  5
3EC
330
1F
100
AcDbEntity
  8
0
  6
Continuous
 62
     7
370
    15
100
AcDbLine
 10
203.3588334656
 20
95.8919709987
 30
0.0
 11
204.9296125507
 21
95.8919709987
 31
0.0
  0
LINE
  5
3ED
330
1F
100
AcDbEntity
  8
0
  6
Continuous
 62
     7
370
    15
100
AcDbLine
 10
204.9295350647
 20
96.3682240314
 30
0.0
 11
203.3588334656
 21
96.3682240314
 31
0.0
  0
LINE
  5
3EE
330
1F
100
AcDbEntity
  8
0
  6
Continuous
 62
     7
370
    15
100
AcDbLine
 10
206.1071827745
 20
99.1276866264
 30
0.0
 11
206.1071827745
 21
97.5588446922
 31
0.0
  0
LINE
  5
3EF
330
1F
100
AcDbEntity
  8
0
  6
Continuous
 62
     7
370
    15
100
AcDbLine
 10
206.583432827
 20
97.5588446922
 30
0.0
 11
206.583432827
 21
99.1276866264
 31
0.0
  0
LINE
  5
3F0
330
1F
100
AcDbEntity
  8
0
  6
Continuous
 62
     7
370
    15
100
AcDbLine
 10
206.583432827
 20
93.1332713432
 30
0.0
 11
206.583432827
 21
94.702107317
 31
0.0
  0
LINE
  5
3F1
330
1F
100
AcDbEntity
  8
0
  6
Continuous
 62
     7
370
    15
100
AcDbLine
 10
206.1071827745
 20
94.702107317
 30
0.0
 11
206.1071827745
 21
93.1332713432
 31
0.0
  0
LINE
  5
3F2
330
1F
100
AcDbEntity
  8
0
  6
Continuous
 62
     7
370
    15
100
AcDbLine
 10
248.5231250029
 20
68.2556933231
 30
0.0
 11
248.5231250029
 21
69.8245292969
 31
0.0
  0
LINE
  5
3F3
330
1F
100
AcDbEntity
  8
0
  6
Continuous
 62
     7
370
    15
100
AcDbLine
 10
248.0468749971
 20
69.8245292969
 30
0.0
 11
248.0468749971
 21
68.2556933231
 31
0.0
  0
LINE
  5
3F4
330
1F
100
AcDbEntity
  8
0
  6
Continuous
 62
     7
370
    15
100
AcDbLine
 10
250.8884999639
 20
92.0224076576
 30
0.0
 11
248.6625238991
 21
92.0224076576
 31
0.0
  0
LINE
  5
3F5
330
1F
100
AcDbEntity
  8
0
  6
Continuous
 62
     7
370
    15
100
AcDbLine
 10
247.9074761009
 20
92.0224076576
 30
0.0
 11
245.6815000361
 21
92.0224076576
 31
0.0
  0
LINE
  5
3F6
330
1F
100
AcDbEntity
  8
0
  6
Continuous
 62
     7
370
    15
100
AcDbLine
 10
246.4325589797
 20
100.2385443516
 30
0.0
 11
247.9158610076
 21
100.2385443516
 31
0.0
  0
LINE
  5
3F7
330
1F
100
AcDbEntity
  8
0
  6
Continuous
 62
     7
370
    15
100
AcDbLine
 10
248.6541389924
 20
100.2385443516
 30
0.0
 11
250.8884999639
 21
100.2385443516
 31
0.0
  0
LINE
  5
3F8
330
1F
100
AcDbEntity
  8
0
  6
Continuous
 62
     7
370
    15
100
AcDbLine
 10
245.6815000361
 20
100.2385443516
 30
0.0
 11
246.4325589797
 21
100.2385443516
 31
0.0
  0
SPLINE
  5
3F9
330
1F
100
AcDbEntity
  8
0
  6
Continuous
 62
     7
370
    15
100
AcDbSpline
210
0.0
220
0.0
230
1.0
 70
     8
 71
     3
 72
    13
 73
     9
 74
     0
 42
0.000000001
 43
0.00000001
 40
0.0
 40
0.0
 40
0.0
 40
0.0
 40
0.0710678883398452
 40
0.2854091699028629
 40
0.4998741009550063
 40
0.7146866685681863
 40
0.9295182779160163
 40
1.0
 40
1.0
 40
1.0
 40
1.0
 10
276.632972035408
 20
96.36599481771339
 30
0.0
 10
276.6363020188315
 20
96.36682155540805
 30
0.0
 10
276.64967525711
 20
96.37014174015917
 30
0.0
 10
276.6741859587486
 20
96.34832567348532
 30
0.0
 10
276.701733570183
 20
96.30270847233439
 30
0.0
 10
276.7219110276044
 20
96.23589991551181
 30
0.0
 10
276.7297957720392
 20
96.17503207074044
 30
0.0
 10
276.7303080266691
 20
96.13961069304382
 30
0.0
 10
276.7304345703125
 20
96.13086045453895
 30
0.0
  0
LINE
  5
3FA
330
1F
100
AcDbEntity
  8
0
  6
Continuous
 62
     7
370
    15
100
AcDbLine
 10
276.7304345703
 20
96.1308604545
 30
0.0
 11
276.7304345703
 21
96.1300975151
 31
0.0
  0
SPLINE
  5
3FB
330
1F
100
AcDbEntity
  8
0
  6
Continuous
 62
     7
370
    15
100
AcDbSpline
210
0.0
220
0.0
230
1.0
 70
     8
 71
     3
 72
    12
 73
     8
 74
     0
 42
0.000000001
 43
0.00000001
 40
0.0
 40
0.0
 40
0.0
 40
0.0
 40
0.2128674075050156
 40
0.4277697418330421
 40
0.6429112034160557
 40
0.8582248908836677
 40
1.0
 40
1.0
 40
1.0
 40
1.0
 10
276.7304345703125
 20
96.13009751508582
 30
0.0
 10
276.7292634683866
 20
96.10362846631895
 30
0.0
 10
276.7269100692714
 20
96.05043733532206
 30
0.0
 10
276.7091896360812
 20
95.97922400808356
 30
0.0
 10
276.6837975453515
 20
95.92586152378888
 30
0.0
 10
276.6565804787506
 20
95.89553875962531
 30
0.0
 10
276.6395385311759
 20
95.89570271811176
 30
0.0
 10
276.632772359848
 20
95.89576781461584
 30
0.0
  0
LINE
  5
3FC
330
1F
100
AcDbEntity
  8
0
  6
Continuous
 62
     7
370
    15
100
AcDbLine
 10
219.8395654297
 20
96.1300975151
 30
0.0
 11
219.8395624495
 21
96.1308604545
 31
0.0
  0
SPLINE
  5
3FD
330
1F
100
AcDbEntity
  8
0
  6
Continuous
 62
     7
370
    15
100
AcDbSpline
210
0.0
220
0.0
230
1.0
 70
     8
 71
     3
 72
    12
 73
     8
 74
     0
 42
0.000000001
 43
0.00000001
 40
0.0
 40
0.0
 40
0.0
 40
0.0
 40
0.2124294239654503
 40
0.4268782107973438
 40
0.641588978106553
 40
0.856453542408486
 40
1.0
 40
1.0
 40
1.0
 40
1.0
 10
219.8395624494552
 20
96.13086045453895
 30
0.0
 10
219.8406889141386
 20
96.15733804215445
 30
0.0
 10
219.8429525517251
 20
96.21054491442553
 30
0.0
 10
219.8605546893567
 20
96.2818820841936
 30
0.0
 10
219.8858642674774
 20
96.33545927462977
 30
0.0
 10
219.9131417537864
 20
96.3660495427915
 30
0.0
 10
219.930290775549
 20
96.36601046762681
 30
0.0
 10
219.9371590948105
 20
96.36599481771339
 30
0.0
  0
SPLINE
  5
3FE
330
1F
100
AcDbEntity
  8
0
  6
Continuous
 62
     7
370
    15
100
AcDbSpline
210
0.0
220
0.0
230
1.0
 70
     8
 71
     3
 72
    13
 73
     9
 74
     0
 42
0.000000001
 43
0.00000001
 40
0.0
 40
0.0
 40
0.0
 40
0.0
 40
0.0732629593999035
 40
0.2880381376744295
 40
0.5029449353819675
 40
0.718211764198878
 40
0.933470505663092
 40
1.0
 40
1.0
 40
1.0
 40
1.0
 10
219.9371024703979
 20
95.89576781461584
 30
0.0
 10
219.9336744553204
 20
95.89493862343481
 30
0.0
 10
219.9201969888499
 20
95.89167860383544
 30
0.0
 10
219.8955983710335
 20
95.9137119194608
 30
0.0
 10
219.8680883581962
 20
95.95956410222365
 30
0.0
 10
219.8479775145489
 20
96.02652194993915
 30
0.0
 10
219.8402307708708
 20
96.08694884351354
 30
0.0
 10
219.8396925113967
 20
96.12185601873742
 30
0.0
 10
219.8395654296875
 20
96.13009751508582
 30
0.0
  0
SPLINE
  5
3FF
330
1F
100
AcDbEntity
  8
0
  6
Continuous
 62
     7
370
    15
100
AcDbSpline
210
0.0
220
0.0
230
1.0
 70
     8
 71
     3
 72
    18
 73
    14
 74
     0
 42
0.000000001
 43
0.00000001
 40
0.0
 40
0.0
 40
0.0
 40
0.0
 40
0.0320153937178632
 40
0.1394192351098494
 40
0.2466255044764055
 40
0.3538978647176254
 40
0.4612706617349427
 40
0.5686499398853806
 40
0.6760155094151195
 40
0.7833993314181359
 40
0.890756442229307
 40
0.9980019435321328
 40
1.0
 40
1.0
 40
1.0
 40
1.0
 10
248.0497098032757
 20
120.0092023677622
 30
0.0
 10
248.0488951177488
 20
120.016271775922
 30
0.0
 10
248.0453473608785
 20
120.0470573251175
 30
0.0
 10
248.0664589044765
 20
120.0998858639512
 30
0.0
 10
248.111283182478
 20
120.1579745577285
 30
0.0
 10
248.1776130550899
 20
120.1991125621409
 30
0.0
 10
248.2555327717355
 20
120.219077918444
 30
0.0
 10
248.3370010642948
 20
120.2157951894837
 30
0.0
 10
248.4123426945521
 20
120.1896083790177
 30
0.0
 10
248.4741835244548
 20
120.1431308284752
 30
0.0
 10
248.5115312187698
 20
120.0814338991225
 30
0.0
 10
248.5273955298432
 20
120.0334914493793
 30
0.0
 10
248.5229622438773
 20
120.009594733419
 30
0.0
 10
248.5228811594098
 20
120.0091576642786
 30
0.0
  0
SPLINE
  5
400
330
1F
100
AcDbEntity
  8
0
  6
Continuous
 62
     7
370
    15
100
AcDbSpline
210
0.0
220
0.0
230
1.0
 70
     8
 71
     3
 72
    15
 73
    11
 74
     0
 42
0.000000001
 43
0.00000001
 40
0.0
 40
0.0
 40
0.0
 40
0.0
 40
0.1312045608541683
 40
0.2624028549539229
 40
0.3936481045741989
 40
0.5248751352907356
 40
0.6561050999423359
 40
0.7873485070693873
 40
0.9185170354311977
 40
1.0
 40
1.0
 40
1.0
 40
1.0
 10
248.4852848312258
 20
72.13860810468542
 30
0.0
 10
248.4685928767335
 20
72.12031423771757
 30
0.0
 10
248.4352097650107
 20
72.08372737755607
 30
0.0
 10
248.3621617119266
 20
72.0513588281928
 30
0.0
 10
248.2820097179017
 20
72.0403235523132
 30
0.0
 10
248.2018340161493
 20
72.05294072176149
 30
0.0
 10
248.1308543862482
 20
72.08761112593223
 30
0.0
 10
248.0783381012435
 20
72.14091004354248
 30
0.0
 10
248.0491760930386
 20
72.19865566875683
 30
0.0
 10
248.049798506306
 20
72.23726098970246
 30
0.0
 10
248.0500370001793
 20
72.2520536250864
 30
0.0
  0
SPLINE
  5
401
330
1F
100
AcDbEntity
  8
0
  6
Continuous
 62
     7
370
    15
100
AcDbSpline
210
0.0
220
0.0
230
1.0
 70
     8
 71
     3
 72
    10
 73
     6
 74
     0
 42
0.000000001
 43
0.00000001
 40
0.0
 40
0.0
 40
0.0
 40
0.0
 40
0.031388616859447
 40
0.6216600297906336
 40
1.0
 40
1.0
 40
1.0
 40
1.0
 10
248.522446045503
 20
72.25175560186256
 30
0.0
 10
248.5226701256829
 20
72.25050431636315
 30
0.0
 10
248.5271080941335
 20
72.22572226928165
 30
0.0
 10
248.5139219518044
 20
72.18507800488031
 30
0.0
 10
248.4933286015666
 20
72.15166085570843
 30
0.0
 10
248.4852848312258
 20
72.13860810468542
 30
0.0
  0
LINE
  5
402
330
1F
100
AcDbEntity
  8
0
  6
Continuous
 62
     7
370
    15
100
AcDbLine
 10
275.3373905754
 20
92.0224076576
 30
0.0
 11
275.3373399115
 21
92.0224076576
 31
0.0
  0
LINE
  5
403
330
1F
100
AcDbEntity
  8
0
  6
Continuous
 62
     7
370
    15
100
AcDbLine
 10
280.5443390942
 20
92.0224076576
 30
0.0
 11
275.3373905754
 21
92.0224076576
 31
0.0
  0
LINE
  5
404
330
1F
100
AcDbEntity
  8
0
  6
Continuous
 62
     7
370
    15
100
AcDbLine
 10
277.9245421028
 20
100.2385443516
 30
0.0
 11
280.5443390942
 21
100.2385443516
 31
0.0
  0
LINE
  5
405
330
1F
100
AcDbEntity
  8
0
  6
Continuous
 62
     7
370
    15
100
AcDbLine
 10
275.3373399115
 20
100.2385443516
 30
0.0
 11
277.9245421028
 21
100.2385443516
 31
0.0
  0
LINE
  5
406
330
1F
100
AcDbEntity
  8
0
  6
Continuous
 62
     7
370
    15
100
AcDbLine
 10
221.2326600885
 20
92.0224076576
 30
0.0
 11
216.0256609058
 21
92.0224076576
 31
0.0
  0
LINE
  5
407
330
1F
100
AcDbEntity
  8
0
  6
Continuous
 62
     7
370
    15
100
AcDbLine
 10
216.0256609058
 20
100.2385443516
 30
0.0
 11
221.2326600885
 21
100.2385443516
 31
0.0
  0
SPLINE
  5
408
330
1F
100
AcDbEntity
  8
0
  6
Continuous
 62
     7
370
    15
100
AcDbSpline
210
0.0
220
0.0
230
1.0
 70
     8
 71
     3
 72
    13
 73
     9
 74
     0
 42
0.000000001
 43
0.00000001
 40
0.0
 40
0.0
 40
0.0
 40
0.0
 40
0.0732678198490215
 40
0.288035065913766
 40
0.5029555272519658
 40
0.7182111729442174
 40
0.933469799470613
 40
1.0
 40
1.0
 40
1.0
 40
1.0
 10
278.9418294763565
 20
96.36519015500892
 30
0.0
 10
278.9354444781077
 20
96.36601700027438
 30
0.0
 10
278.9103433710291
 20
96.3692675464354
 30
0.0
 10
278.8662192215437
 20
96.34725033169103
 30
0.0
 10
278.8177332995274
 20
96.30138686533229
 30
0.0
 10
278.7829919112245
 20
96.23443649248853
 30
0.0
 10
278.7697532741077
 20
96.17400865758417
 30
0.0
 10
278.7688279148083
 20
96.13910191817928
 30
0.0
 10
278.7686094379425
 20
96.13086045453895
 30
0.0
  0
SPLINE
  5
409
330
1F
100
AcDbEntity
  8
0
  6
Continuous
 62
     7
370
    15
100
AcDbSpline
210
0.0
220
0.0
230
1.0
 70
     8
 71
     3
 72
    12
 73
     8
 74
     0
 42
0.000000001
 43
0.00000001
 40
0.0
 40
0.0
 40
0.0
 40
0.0
 40
0.2124294237638528
 40
0.4268803581960706
 40
0.6415912556254306
 40
0.8564554336688631
 40
1.0
 40
1.0
 40
1.0
 40
1.0
 10
278.7686094379425
 20
96.13009751508582
 30
0.0
 10
278.770538179013
 20
96.10361985398575
 30
0.0
 10
278.7744140153471
 20
96.05041256634013
 30
0.0
 10
278.8047024147797
 20
95.97907630274759
 30
0.0
 10
278.8490104683027
 20
95.92549869625907
 30
0.0
 10
278.8976304719265
 20
95.89490850393204
 30
0.0
 10
278.9293174791019
 20
95.89494752412226
 30
0.0
 10
278.9420082902908
 20
95.89496315191137
 30
0.0
  0
LINE
  5
40A
330
1F
100
AcDbEntity
  8
0
  6
Continuous
 62
     7
370
    15
100
AcDbLine
 10
278.7686094379
 20
96.1308604545
 30
0.0
 11
278.7686094379
 21
96.1300975151
 31
0.0
  0
SPLINE
  5
40B
330
1F
100
AcDbEntity
  8
0
  6
Continuous
 62
     7
370
    15
100
AcDbSpline
210
0.0
220
0.0
230
1.0
 70
     8
 71
     3
 72
    12
 73
     8
 74
     0
 42
0.000000001
 43
0.00000001
 40
0.0
 40
0.0
 40
0.0
 40
0.0
 40
0.2128672391018475
 40
0.4277706332431069
 40
0.6429109319767455
 40
0.8582255021519088
 40
0.9999999999999999
 40
0.9999999999999999
 40
0.9999999999999999
 40
0.9999999999999999
 10
217.8013905620575
 20
96.13086045453895
 30
0.0
 10
217.7993903853709
 20
96.15732962031468
 30
0.0
 10
217.7953708995571
 20
96.21052113937174
 30
0.0
 10
217.7649008105598
 20
96.28173269066677
 30
0.0
 10
217.7204558763741
 20
96.33509982375425
 30
0.0
 10
217.6719458944697
 20
96.36540936317662
 30
0.0
 10
217.6404470008064
 20
96.36525245285952
 30
0.0
 10
217.6279410457611
 20
96.36519015500892
 30
0.0
  0
LINE
  5
40C
330
1F
100
AcDbEntity
  8
0
  6
Continuous
 62
     7
370
    15
100
AcDbLine
 10
217.8013905621
 20
96.1300975151
 30
0.0
 11
217.8013905621
 21
96.1308604545
 31
0.0
  0
SPLINE
  5
40D
330
1F
100
AcDbEntity
  8
0
  6
Continuous
 62
     7
370
    15
100
AcDbSpline
210
0.0
220
0.0
230
1.0
 70
     8
 71
     3
 72
    13
 73
     9
 74
     0
 42
0.000000001
 43
0.00000001
 40
0.0
 40
0.0
 40
0.0
 40
0.0
 40
0.0710681312889968
 40
0.2854019824330722
 40
0.4998781945923014
 40
0.7146879921127414
 40
0.9295029748090304
 40
0.9999999999999999
 40
0.9999999999999999
 40
0.9999999999999999
 40
0.9999999999999999
 10
217.6282301282882
 20
95.89496315191137
 30
0.0
 10
217.6344339295944
 20
95.89413652002375
 30
0.0
 10
217.6593477293422
 20
95.89081685514451
 30
0.0
 10
217.703324820214
 20
95.91262401365317
 30
0.0
 10
217.751901467232
 20
95.95824980506401
 30
0.0
 10
217.7867785583021
 20
96.02505642428943
 30
0.0
 10
217.8002744119582
 20
96.08592364263619
 30
0.0
 10
217.8011694174143
 20
96.12134527354792
 30
0.0
 10
217.8013905620575
 20
96.13009751508582
 30
0.0
  0
LINE
  5
40E
330
1F
100
AcDbEntity
  8
0
  6
Continuous
 62
     7
370
    15
100
AcDbLine
 10
277.9408409929
 20
93.1332713432
 30
0.0
 11
278.178964529
 21
93.1332713432
 31
0.0
  0
LINE
  5
40F
330
1F
100
AcDbEntity
  8
0
  6
Continuous
 62
     7
370
    15
100
AcDbLine
 10
277.7027144766
 20
93.1332713432
 30
0.0
 11
277.9408409929
 21
93.1332713432
 31
0.0
  0
LINE
  5
410
330
1F
100
AcDbEntity
  8
0
  6
Continuous
 62
     7
370
    15
100
AcDbLine
 10
278.178964529
 20
99.1276866264
 30
0.0
 11
277.7027144766
 21
99.1276866264
 31
0.0
  0
LINE
  5
411
330
1F
100
AcDbEntity
  8
0
  6
Continuous
 62
     7
370
    15
100
AcDbLine
 10
218.391035471
 20
93.1332713432
 30
0.0
 11
218.8672855234
 21
93.1332713432
 31
0.0
  0
LINE
  5
412
330
1F
100
AcDbEntity
  8
0
  6
Continuous
 62
     7
370
    15
100
AcDbLine
 10
218.8672855234
 20
99.1276866264
 30
0.0
 11
218.391035471
 21
99.1276866264
 31
0.0
  0
LINE
  5
413
330
1F
100
AcDbEntity
  8
0
  6
Continuous
 62
     7
370
    15
100
AcDbLine
 10
278.7686094379
 20
96.1308604545
 30
0.0
 11
276.7304345703
 21
96.1308604545
 31
0.0
  0
LINE
  5
414
330
1F
100
AcDbEntity
  8
0
  6
Continuous
 62
     7
370
    15
100
AcDbLine
 10
219.8395624495
 20
96.1308604545
 30
0.0
 11
217.8013905621
 21
96.1308604545
 31
0.0
  0
LINE
  5
415
330
1F
100
AcDbEntity
  8
0
  6
Continuous
 62
     7
370
    15
100
AcDbLine
 10
278.6943927145
 20
94.702107317
 30
0.0
 11
277.1872862911
 21
94.702107317
 31
0.0
  0
LINE
  5
416
330
1F
100
AcDbEntity
  8
0
  6
Continuous
 62
     7
370
    15
100
AcDbLine
 10
277.4079963303
 20
97.5588446922
 30
0.0
 11
278.6943927145
 21
97.5588446922
 31
0.0
  0
LINE
  5
417
330
1F
100
AcDbEntity
  8
0
  6
Continuous
 62
     7
370
    15
100
AcDbLine
 10
277.1872862911
 20
97.5588446922
 30
0.0
 11
277.4079963303
 21
97.5588446922
 31
0.0
  0
LINE
  5
418
330
1F
100
AcDbEntity
  8
0
  6
Continuous
 62
     7
370
    15
100
AcDbLine
 10
217.8756072855
 20
97.5588446922
 30
0.0
 11
219.3827137089
 21
97.5588446922
 31
0.0
  0
LINE
  5
419
330
1F
100
AcDbEntity
  8
0
  6
Continuous
 62
     7
370
    15
100
AcDbLine
 10
219.1620036697
 20
94.702107317
 30
0.0
 11
217.8756072855
 21
94.702107317
 31
0.0
  0
LINE
  5
41A
330
1F
100
AcDbEntity
  8
0
  6
Continuous
 62
     7
370
    15
100
AcDbLine
 10
219.3827137089
 20
94.702107317
 30
0.0
 11
219.1620036697
 21
94.702107317
 31
0.0
  0
SPLINE
  5
41B
330
1F
100
AcDbEntity
  8
0
  6
Continuous
 62
     7
370
    15
100
AcDbSpline
210
0.0
220
0.0
230
1.0
 70
     8
 71
     3
 72
    18
 73
    14
 74
     0
 42
0.000000001
 43
0.00000001
 40
0.0
 40
0.0
 40
0.0
 40
0.0
 40
0.0053213345514874
 40
0.1126296231916155
 40
0.2199421689917543
 40
0.3272407049673494
 40
0.4345602643910989
 40
0.5418495624611589
 40
0.6490241473046339
 40
0.7561846417895146
 40
0.8636237398537827
 40
0.9714461198854374
 40
1.0
 40
1.0
 40
1.0
 40
1.0
 10
247.3144454619288
 20
120.1946860618388
 30
0.0
 10
247.3149288610301
 20
120.1953509169283
 30
0.0
 10
247.3251603279867
 20
120.2094230218649
 30
0.0
 10
247.3615674878068
 20
120.217961663235
 30
0.0
 10
247.419224586434
 20
120.2156187534543
 30
0.0
 10
247.4842629221445
 20
120.1881579590137
 30
0.0
 10
247.5464242608899
 20
120.1412034108063
 30
0.0
 10
247.598874561545
 20
120.0788508926269
 30
0.0
 10
247.6348988807536
 20
120.008123139332
 30
0.0
 10
247.6506707612278
 20
119.9360949779956
 30
0.0
 10
247.6430814313853
 20
119.8730411611439
 30
0.0
 10
247.6247844359878
 20
119.8316333096257
 30
0.0
 10
247.6055335058549
 20
119.8207419338561
 30
0.0
 10
247.601502828151
 20
119.8184615440165
 30
0.0
  0
SPLINE
  5
41C
330
1F
100
AcDbEntity
  8
0
  6
Continuous
 62
     7
370
    15
100
AcDbSpline
210
0.0
220
0.0
230
1.0
 70
     8
 71
     3
 72
    17
 73
    13
 74
     0
 42
0.000000001
 43
0.00000001
 40
0.0
 40
0.0
 40
0.0
 40
0.0
 40
0.0616046165248534
 40
0.1688956286226373
 40
0.2761693059286599
 40
0.3834457846860527
 40
0.4907344464954472
 40
0.5979431277389131
 40
0.7050461532316699
 40
0.8122841905239433
 40
0.9199185910303938
 40
1.0
 40
1.0
 40
1.0
 40
1.0
 10
249.2539447470009
 20
72.06840575406898
 30
0.0
 10
249.2469674976948
 20
72.0621570830725
 30
0.0
 10
249.2278386243394
 20
72.04502568488302
 30
0.0
 10
249.179274862863
 20
72.04141213069774
 30
0.0
 10
249.1169043194175
 20
72.05696768641188
 30
0.0
 10
249.0523796878006
 20
72.095162949735
 30
0.0
 10
248.9944139383439
 20
72.15091264117576
 30
0.0
 10
248.9498923031327
 20
72.21857405010546
 30
0.0
 10
248.9240913085367
 20
72.29098533561226
 30
0.0
 10
248.9205960939811
 20
72.35927697771125
 30
0.0
 10
248.9355788552922
 20
72.41388827657231
 30
0.0
 10
248.9587973082722
 20
72.43410028278751
 30
0.0
 10
248.9687025284767
 20
72.44272292325843
 30
0.0
  0
SPLINE
  5
41D
330
1F
100
AcDbEntity
  8
0
  6
Continuous
 62
     7
370
    15
100
AcDbSpline
210
0.0
220
0.0
230
1.0
 70
     8
 71
     3
 72
    17
 73
    13
 74
     0
 42
0.000000001
 43
0.00000001
 40
0.0
 40
0.0
 40
0.0
 40
0.0
 40
0.0764067594431658
 40
0.1837358361928811
 40
0.2915669514390216
 40
0.3992267165945954
 40
0.5064953332824551
 40
0.6136018683627598
 40
0.7207936914304272
 40
0.8280771167645345
 40
0.9353572262945316
 40
1.0
 40
1.0
 40
1.0
 40
1.0
 10
247.6012494618445
 20
72.44263351629127
 30
0.0
 10
247.6107824711461
 20
72.4345266470742
 30
0.0
 10
247.6337065612164
 20
72.41503200543042
 30
0.0
 10
247.6491359411672
 20
72.36147008840202
 30
0.0
 10
247.6464190368032
 20
72.29327160618487
 30
0.0
 10
247.62111424624
 20
72.22055234655234
 30
0.0
 10
247.5769657468673
 20
72.15258158877556
 30
0.0
 10
247.519306023314
 20
72.09647143201744
 30
0.0
 10
247.4549169796293
 20
72.05775563709281
 30
0.0
 10
247.3923869154296
 20
72.04153389505869
 30
0.0
 10
247.3431007872714
 20
72.0447183176566
 30
0.0
 10
247.3234051086695
 20
72.06190271895716
 30
0.0
 10
247.3159995599091
 20
72.06836403081762
 30
0.0
  0
SPLINE
  5
41E
330
1F
100
AcDbEntity
  8
0
  6
Continuous
 62
     7
370
    15
100
AcDbSpline
210
0.0
220
0.0
230
1.0
 70
     8
 71
     3
 72
    18
 73
    14
 74
     0
 42
0.000000001
 43
0.00000001
 40
0.0
 40
0.0
 40
0.0
 40
0.0
 40
0.0017724247865212
 40
0.1085888479062214
 40
0.216158185882344
 40
0.3240207944783195
 40
0.4315874070758157
 40
0.5387926316325978
 40
0.6459356897780427
 40
0.7531898975746483
 40
0.8605035073273353
 40
0.9678015616212883
 40
1.0
 40
1.0
 40
1.0
 40
1.0
 10
248.9671854505688
 20
119.8163992233073
 30
0.0
 10
248.9669243164778
 20
119.8165194931153
 30
0.0
 10
248.9509257532108
 20
119.8238879072725
 30
0.0
 10
248.9324517537679
 20
119.8593188195493
 30
0.0
 10
248.9188096249872
 20
119.9183644618401
 30
0.0
 10
248.9291029962633
 20
119.9897913343249
 30
0.0
 10
248.9603553601037
 20
120.0616593302264
 30
0.0
 10
249.0093076486543
 20
120.1268556210721
 30
0.0
 10
249.0696719167044
 20
120.178133261879
 30
0.0
 10
249.1346564788477
 20
120.2108081711317
 30
0.0
 10
249.1949303124649
 20
120.2196011206154
 30
0.0
 10
249.2367965373831
 20
120.2127424390031
 30
0.0
 10
249.250871072622
 20
120.1967138533663
 30
0.0
 10
249.2541197425127
 20
120.1930141515528
 30
0.0
  0
SPLINE
  5
41F
330
1F
100
AcDbEntity
  8
0
  6
Continuous
 62
     7
370
    15
100
AcDbSpline
210
0.0
220
0.0
230
1.0
 70
     8
 71
     3
 72
    13
 73
     9
 74
     0
 42
0.000000001
 43
0.00000001
 40
0.0
 40
0.0
 40
0.0
 40
0.0
 40
0.0710674220497329
 40
0.285404201480933
 40
0.4998742258376312
 40
0.7146863433151528
 40
0.9295180710994364
 40
0.9999999999999999
 40
0.9999999999999999
 40
0.9999999999999999
 40
0.9999999999999999
 10
289.6830841636657
 20
96.36599481771339
 30
0.0
 10
289.6912154880669
 20
96.366821573112
 30
0.0
 10
289.7238705933283
 20
96.3701417929477
 30
0.0
 10
289.7806219880581
 20
96.34832450164753
 30
0.0
 10
289.842839811674
 20
96.30270948233516
 30
0.0
 10
289.8871006052273
 20
96.2358996985627
 30
0.0
 10
289.9041600648881
 20
96.17503200457627
 30
0.0
 10
289.905298203868
 20
96.13961069252751
 30
0.0
 10
289.9055793619156
 20
96.13086045453895
 30
0.0
  0
LINE
  5
420
330
1F
100
AcDbEntity
  8
0
  6
Continuous
 62
     7
370
    15
100
AcDbLine
 10
289.9055793619
 20
96.1308604545
 30
0.0
 11
289.9055763817
 21
96.1300975151
 31
0.0
  0
SPLINE
  5
421
330
1F
100
AcDbEntity
  8
0
  6
Continuous
 62
     7
370
    15
100
AcDbSpline
210
0.0
220
0.0
230
1.0
 70
     8
 71
     3
 72
    12
 73
     8
 74
     0
 42
0.000000001
 43
0.00000001
 40
0.0
 40
0.0
 40
0.0
 40
0.0
 40
0.2128666704690987
 40
0.4277693934532834
 40
0.6429114822031149
 40
0.8582239888217249
 40
0.9999999999999999
 40
0.9999999999999999
 40
0.9999999999999999
 40
0.9999999999999999
 10
289.9055763816834
 20
96.13009751508582
 30
0.0
 10
289.9030527214856
 20
96.1036284364888
 30
0.0
 10
289.8979812624839
 20
96.05043710469522
 30
0.0
 10
289.8593993730304
 20
95.97922397617994
 30
0.0
 10
289.8026648617648
 20
95.92586174673889
 30
0.0
 10
289.7402476947906
 20
95.89553866651596
 30
0.0
 10
289.6990888334818
 20
95.89570269131748
 30
0.0
 10
289.6827473974228
 20
95.89576781461584
 30
0.0
  0
LINE
  5
422
330
1F
100
AcDbEntity
  8
0
  6
Continuous
 62
     7
370
    15
100
AcDbLine
 10
206.6644206381
 20
96.1308604545
 30
0.0
 11
206.6644236183
 21
96.1300975151
 31
0.0
  0
SPLINE
  5
423
330
1F
100
AcDbEntity
  8
0
  6
Continuous
 62
     7
370
    15
100
AcDbSpline
210
0.0
220
0.0
230
1.0
 70
     8
 71
     3
 72
    13
 73
     9
 74
     0
 42
0.000000001
 43
0.00000001
 40
0.0
 40
0.0
 40
0.0
 40
0.0
 40
0.071067422375969
 40
0.2854042027910855
 40
0.4998742281323116
 40
0.7146863465959316
 40
0.9295180753664036
 40
1.0
 40
1.0
 40
1.0
 40
1.0
 10
206.8869158363342
 20
96.36599481771339
 30
0.0
 10
206.878784511933
 20
96.36682157311259
 30
0.0
 10
206.8461294066717
 20
96.37014179295069
 30
0.0
 10
206.7893780119414
 20
96.34832450160427
 30
0.0
 10
206.7271601883278
 20
96.30270948249215
 30
0.0
 10
206.6828993947656
 20
96.23589969797703
 30
0.0
 10
206.6658399352874
 20
96.17503200669988
 30
0.0
 10
206.6647017961557
 20
96.13961069260408
 30
0.0
 10
206.6644206380844
 20
96.13086045453895
 30
0.0
  0
SPLINE
  5
424
330
1F
100
AcDbEntity
  8
0
  6
Continuous
 62
     7
370
    15
100
AcDbSpline
210
0.0
220
0.0
230
1.0
 70
     8
 71
     3
 72
    13
 73
     9
 74
     0
 42
0.000000001
 43
0.00000001
 40
0.0
 40
0.0
 40
0.0
 40
0.0
 40
0.0732670116061916
 40
0.2880360247996522
 40
0.5029471096160769
 40
0.7182127188021011
 40
0.93347035247802
 40
0.9999999999999999
 40
0.9999999999999999
 40
0.9999999999999999
 40
0.9999999999999999
 10
206.8869515991211
 20
95.89576781461584
 30
0.0
 10
206.8785826210184
 20
95.8949385679611
 30
0.0
 10
206.8456814949663
 20
95.89167853449214
 30
0.0
 10
206.7887539000783
 20
95.91371310042449
 30
0.0
 10
206.7266630223548
 20
95.95956313535788
 30
0.0
 10
206.6825924329392
 20
96.02652201933127
 30
0.0
 10
206.665866822605
 20
96.0869490756431
 30
0.0
 10
206.664699274952
 20
96.12185602513642
 30
0.0
 10
206.6644236183166
 20
96.13009751508582
 30
0.0
  0
LINE
  5
425
330
1F
100
AcDbEntity
  8
0
  6
Continuous
 62
     7
370
    15
100
AcDbLine
 10
251.4600001013
 20
151.0294920273
 30
0.0
 11
245.1099998987
 21
151.0294920273
 31
0.0
  0
LINE
  5
426
330
1F
100
AcDbEntity
  8
0
  6
Continuous
 62
     7
370
    15
100
AcDbLine
 10
251.4600001013
 20
150.3944920349
 30
0.0
 11
245.1099998987
 21
150.3944920349
 31
0.0
  0
LINE
  5
427
330
1F
100
AcDbEntity
  8
0
  6
Continuous
 62
     7
370
    15
100
AcDbLine
 10
288.3952989912
 20
92.0224076576
 30
0.0
 11
287.6211926079
 21
92.0224076576
 31
0.0
  0
LINE
  5
428
330
1F
100
AcDbEntity
  8
0
  6
Continuous
 62
     7
370
    15
100
AcDbLine
 10
292.8281917906
 20
92.0224076576
 30
0.0
 11
288.3952989912
 21
92.0224076576
 31
0.0
  0
LINE
  5
429
330
1F
100
AcDbEntity
  8
0
  6
Continuous
 62
     7
370
    15
100
AcDbLine
 10
292.054082427
 20
100.2385443516
 30
0.0
 11
292.8281917906
 21
100.2385443516
 31
0.0
  0
LINE
  5
42A
330
1F
100
AcDbEntity
  8
0
  6
Continuous
 62
     7
370
    15
100
AcDbLine
 10
287.6211926079
 20
100.2385443516
 30
0.0
 11
292.054082427
 21
100.2385443516
 31
0.0
  0
LINE
  5
42B
330
1F
100
AcDbEntity
  8
0
  6
Continuous
 62
     7
370
    15
100
AcDbLine
 10
294.32203022
 20
94.3007057972
 30
0.0
 11
294.32203022
 21
93.5265964336
 31
0.0
  0
LINE
  5
42C
330
1F
100
AcDbEntity
  8
0
  6
Continuous
 62
     7
370
    15
100
AcDbLine
 10
294.32203022
 20
98.7335985966
 30
0.0
 11
294.32203022
 21
94.3007057972
 31
0.0
  0
LINE
  5
42D
330
1F
100
AcDbEntity
  8
0
  6
Continuous
 62
     7
370
    15
100
AcDbLine
 10
245.6815000361
 20
75.3523176975
 30
0.0
 11
248.0468749971
 21
75.3523176975
 31
0.0
  0
LINE
  5
42E
330
1F
100
AcDbEntity
  8
0
  6
Continuous
 62
     7
370
    15
100
AcDbLine
 10
248.5231250029
 20
75.3523176975
 30
0.0
 11
250.8884999639
 21
75.3523176975
 31
0.0
  0
LINE
  5
42F
330
1F
100
AcDbEntity
  8
0
  6
Continuous
 62
     7
370
    15
100
AcDbLine
 10
250.8884999639
 20
116.9086402721
 30
0.0
 11
248.5231250029
 21
116.9086402721
 31
0.0
  0
LINE
  5
430
330
1F
100
AcDbEntity
  8
0
  6
Continuous
 62
     7
370
    15
100
AcDbLine
 10
248.0468749971
 20
116.9086402721
 30
0.0
 11
245.6815000361
 21
116.9086402721
 31
0.0
  0
LINE
  5
431
330
1F
100
AcDbEntity
  8
0
  6
Continuous
 62
     7
370
    15
100
AcDbLine
 10
202.24796978
 20
93.5265964336
 30
0.0
 11
202.24796978
 21
98.7335985966
 31
0.0
  0
LINE
  5
432
330
1F
100
AcDbEntity
  8
0
  6
Continuous
 62
     7
370
    15
100
AcDbLine
 10
203.7418082094
 20
100.2385443516
 30
0.0
 11
208.9488073921
 21
100.2385443516
 31
0.0
  0
LINE
  5
433
330
1F
100
AcDbEntity
  8
0
  6
Continuous
 62
     7
370
    15
100
AcDbLine
 10
208.9488073921
 20
92.0224076576
 30
0.0
 11
203.7418082094
 21
92.0224076576
 31
0.0
  0
LINE
  5
434
330
1F
100
AcDbEntity
  8
0
  6
Continuous
 62
     7
370
    15
100
AcDbLine
 10
250.8884999639
 20
67.1448296375
 30
0.0
 11
245.6815000361
 21
67.1448296375
 31
0.0
  0
LINE
  5
435
330
1F
100
AcDbEntity
  8
0
  6
Continuous
 62
     7
370
    15
100
AcDbLine
 10
290.2246907091
 20
93.1332713432
 30
0.0
 11
290.4628172255
 21
93.1332713432
 31
0.0
  0
LINE
  5
436
330
1F
100
AcDbEntity
  8
0
  6
Continuous
 62
     7
370
    15
100
AcDbLine
 10
289.986567173
 20
93.1332713432
 30
0.0
 11
290.2246907091
 21
93.1332713432
 31
0.0
  0
LINE
  5
437
330
1F
100
AcDbEntity
  8
0
  6
Continuous
 62
     7
370
    15
100
AcDbLine
 10
290.4628172255
 20
99.1276866264
 30
0.0
 11
289.986567173
 21
99.1276866264
 31
0.0
  0
LINE
  5
438
330
1F
100
AcDbEntity
  8
0
  6
Continuous
 62
     7
370
    15
100
AcDbLine
 10
293.2111665344
 20
95.8919709987
 30
0.0
 11
293.2111665344
 21
96.3682240314
 31
0.0
  0
LINE
  5
439
330
1F
100
AcDbEntity
  8
0
  6
Continuous
 62
     7
370
    15
100
AcDbLine
 10
203.3588334656
 20
96.1300975151
 30
0.0
 11
203.3588334656
 21
95.8919709987
 31
0.0
  0
LINE
  5
43A
330
1F
100
AcDbEntity
  8
0
  6
Continuous
 62
     7
370
    15
100
AcDbLine
 10
203.3588334656
 20
96.3682240314
 30
0.0
 11
203.3588334656
 21
96.1300975151
 31
0.0
  0
LINE
  5
43B
330
1F
100
AcDbEntity
  8
0
  6
Continuous
 62
     7
370
    15
100
AcDbLine
 10
206.583432827
 20
99.1276866264
 30
0.0
 11
206.1071827745
 21
99.1276866264
 31
0.0
  0
LINE
  5
43C
330
1F
100
AcDbEntity
  8
0
  6
Continuous
 62
     7
370
    15
100
AcDbLine
 10
206.3453092909
 20
93.1332713432
 30
0.0
 11
206.583432827
 21
93.1332713432
 31
0.0
  0
LINE
  5
43D
330
1F
100
AcDbEntity
  8
0
  6
Continuous
 62
     7
370
    15
100
AcDbLine
 10
206.1071827745
 20
93.1332713432
 30
0.0
 11
206.3453092909
 21
93.1332713432
 31
0.0
  0
LINE
  5
43E
330
1F
100
AcDbEntity
  8
0
  6
Continuous
 62
     7
370
    15
100
AcDbLine
 10
248.285
 20
68.2556933231
 30
0.0
 11
248.5231250029
 21
68.2556933231
 31
0.0
  0
LINE
  5
43F
330
1F
100
AcDbEntity
  8
0
  6
Continuous
 62
     7
370
    15
100
AcDbLine
 10
248.0468749971
 20
68.2556933231
 30
0.0
 11
248.285
 21
68.2556933231
 31
0.0
  0
SPLINE
  5
440
330
1F
100
AcDbEntity
  8
0
  6
Continuous
 62
     7
370
    15
100
AcDbSpline
210
0.0
220
0.0
230
1.0
 70
     8
 71
     3
 72
    17
 73
    13
 74
     0
 42
0.000000001
 43
0.00000001
 40
0.0
 40
0.0
 40
0.0
 40
0.0
 40
0.0464276949231761
 40
0.1529123018566847
 40
0.2597587742295024
 40
0.3673495585548243
 40
0.475214522367218
 40
0.5827695630991917
 40
0.6899690409127014
 40
0.7971157250750065
 40
0.9043788273568774
 40
1.0
 40
1.0
 40
1.0
 40
1.0
 10
289.1622021532059
 20
97.3512297935282
 30
0.0
 10
289.1625044037741
 20
97.35194569132345
 30
0.0
 10
289.1634998835238
 20
97.35430354216966
 30
0.0
 10
289.1541385627496
 20
97.33202300250807
 30
0.0
 10
289.1349132209333
 20
97.28809131691607
 30
0.0
 10
289.1061633427429
 20
97.22610095135919
 30
0.0
 10
289.0709949212848
 20
97.15516928643889
 30
0.0
 10
289.0330099623549
 20
97.08325233823842
 30
0.0
 10
288.9968148921889
 20
97.01835056039002
 30
0.0
 10
288.9675310140296
 20
96.967976113679
 30
0.0
 10
288.9482959194671
 20
96.93581671482977
 30
0.0
 10
288.9465560029739
 20
96.93294749967193
 30
0.0
 10
288.9457359647751
 20
96.93159521291601
 30
0.0
  0
LINE
  5
441
330
1F
100
AcDbEntity
  8
0
  6
Continuous
 62
     7
370
    15
100
AcDbLine
 10
291.6334584093
 20
96.1308604545
 30
0.0
 11
289.9055793619
 21
96.1308604545
 31
0.0
  0
SPLINE
  5
442
330
1F
100
AcDbEntity
  8
0
  6
Continuous
 62
     7
370
    15
100
AcDbSpline
210
0.0
220
0.0
230
1.0
 70
     8
 71
     3
 72
    13
 73
     9
 74
     0
 42
0.000000001
 43
0.00000001
 40
0.0
 40
0.0
 40
0.0
 40
0.0
 40
0.0738665270788526
 40
0.288496648927227
 40
0.5032770393976705
 40
0.7183918650569402
 40
0.9335128393152246
 40
1.0
 40
1.0
 40
1.0
 40
1.0
 10
291.6404649353027
 20
96.36517823407996
 30
0.0
 10
291.6405145960214
 20
96.36601420067305
 30
0.0
 10
291.6407085533048
 20
96.36927919187079
 30
0.0
 10
291.6393822790826
 20
96.34725676474429
 30
0.0
 10
291.6370418049766
 20
96.30138537492674
 30
0.0
 10
291.6346136404584
 20
96.23443620625723
 30
0.0
 10
291.6335469798733
 20
96.17400888706686
 30
0.0
 10
291.6334753265311
 20
96.13910192405262
 30
0.0
 10
291.6334584093094
 20
96.13086045453895
 30
0.0
  0
SPLINE
  5
443
330
1F
100
AcDbEntity
  8
0
  6
Continuous
 62
     7
370
    15
100
AcDbSpline
210
0.0
220
0.0
230
1.0
 70
     8
 71
     3
 72
    18
 73
    14
 74
     0
 42
0.000000001
 43
0.00000001
 40
0.0
 40
0.0
 40
0.0
 40
0.0
 40
0.0091635758807525
 40
0.1156603343095127
 40
0.2222106872539985
 40
0.3294780078123075
 40
0.4372494568152713
 40
0.5448678887863974
 40
0.6520833270567327
 40
0.7591394618702706
 40
0.866282181487777
 40
0.9735121736801193
 40
1.0
 40
1.0
 40
1.0
 40
1.0
 10
289.163078341484
 20
94.90763605306495
 30
0.0
 10
289.1632142071091
 20
94.90731454094791
 30
0.0
 10
289.1649290686242
 20
94.9032564964218
 30
0.0
 10
289.1584026951729
 20
94.91885202293444
 30
0.0
 10
289.1429941907712
 20
94.95467078790178
 30
0.0
 10
289.1170651019782
 20
95.01183516934832
 30
0.0
 10
289.0838766150646
 20
95.08034308664068
 30
0.0
 10
289.0463247111404
 20
95.15298061238148
 30
0.0
 10
289.0090652931598
 20
95.22100096998365
 30
0.0
 10
288.9764567110599
 20
95.27779497390334
 30
0.0
 10
288.9542999421961
 20
95.31519190136588
 30
0.0
 10
288.9439755507474
 20
95.33228151665953
 30
0.0
 10
288.9459647899275
 20
95.32897968701803
 30
0.0
 10
288.946358833313
 20
95.32832563588966
 30
0.0
  0
LINE
  5
444
330
1F
100
AcDbEntity
  8
0
  6
Continuous
 62
     7
370
    15
100
AcDbLine
 10
291.6334584093
 20
96.1308604545
 30
0.0
 11
291.6334584093
 21
96.1300975151
 31
0.0
  0
SPLINE
  5
445
330
1F
100
AcDbEntity
  8
0
  6
Continuous
 62
     7
370
    15
100
AcDbSpline
210
0.0
220
0.0
230
1.0
 70
     8
 71
     3
 72
    12
 73
     8
 74
     0
 42
0.000000001
 43
0.00000001
 40
0.0
 40
0.0
 40
0.0
 40
0.0
 40
0.2125435099804374
 40
0.4271096542380195
 40
0.6419339230151193
 40
0.8569175746700424
 40
1.0
 40
1.0
 40
1.0
 40
1.0
 10
291.6334584093094
 20
96.13009751508582
 30
0.0
 10
291.6336073562736
 20
96.10361990343698
 30
0.0
 10
291.6339066676308
 20
96.05041271043717
 30
0.0
 10
291.636148386873
 20
95.97907590795812
 30
0.0
 10
291.6386081095049
 20
95.92550097296665
 30
0.0
 10
291.6403855308934
 20
95.89492754760296
 30
0.0
 10
291.6403869015522
 20
95.89496150395567
 30
0.0
 10
291.6403874492645
 20
95.89497507284034
 30
0.0
  0
SPLINE
  5
446
330
1F
100
AcDbEntity
  8
0
  6
Continuous
 62
     7
370
    15
100
AcDbSpline
210
0.0
220
0.0
230
1.0
 70
     8
 71
     3
 72
    12
 73
     8
 74
     0
 42
0.000000001
 43
0.00000001
 40
0.0
 40
0.0
 40
0.0
 40
0.0
 40
0.1644354711537717
 40
0.3937188756589518
 40
0.6230439899877026
 40
0.8522974606929876
 40
1.0
 40
1.0
 40
1.0
 40
1.0
 10
247.0067852845788
 20
120.2143615550791
 30
0.0
 10
247.0069282809628
 20
120.2141272728601
 30
0.0
 10
247.0072706667945
 20
120.2135663152322
 30
0.0
 10
247.0237744515046
 20
120.1860964840791
 30
0.0
 10
247.0513811896958
 20
120.1387540588332
 30
0.0
 10
247.08263057434
 20
120.0835920051447
 30
0.0
 10
247.1031353876729
 20
120.0447478450589
 30
0.0
 10
247.1111697813868
 20
120.0295275516306
 30
0.0
  0
SPLINE
  5
447
330
1F
100
AcDbEntity
  8
0
  6
Continuous
 62
     7
370
    15
100
AcDbSpline
210
0.0
220
0.0
230
1.0
 70
     8
 71
     3
 72
    13
 73
     9
 74
     0
 42
0.000000001
 43
0.00000001
 40
0.0
 40
0.0
 40
0.0
 40
0.0
 40
0.0022686509932645
 40
0.2311729583624284
 40
0.459656190590792
 40
0.6882802789160352
 40
0.9171184229991451
 40
1.0
 40
1.0
 40
1.0
 40
1.0
 10
249.458672825098
 20
120.0296586818491
 30
0.0
 10
249.458793257807
 20
120.0298931513961
 30
0.0
 10
249.4710652140045
 20
120.0537853318019
 30
0.0
 10
249.4966025289641
 20
120.0997673637344
 30
0.0
 10
249.5298081257627
 20
120.1582435312391
 30
0.0
 10
249.5534501764966
 20
120.1981539437264
 30
0.0
 10
249.5650666183831
 20
120.2174375237372
 30
0.0
 10
249.5634474223376
 20
120.2147486583301
 30
0.0
 10
249.5630169025063
 20
120.2140337295328
 30
0.0
  0
LINE
  5
448
330
1F
100
AcDbEntity
  8
0
  6
Continuous
 62
     7
370
    15
100
AcDbLine
 10
246.8562500289
 20
121.025741703
 30
0.0
 11
249.7137499711
 21
121.025741703
 31
0.0
  0
LINE
  5
449
330
1F
100
AcDbEntity
  8
0
  6
Continuous
 62
     7
370
    15
100
AcDbLine
 10
248.5330998402
 20
71.2532824344
 30
0.0
 11
246.8562500289
 21
71.2532824344
 31
0.0
  0
LINE
  5
44A
330
1F
100
AcDbEntity
  8
0
  6
Continuous
 62
     7
370
    15
100
AcDbLine
 10
249.7137499711
 20
71.2532824344
 30
0.0
 11
248.5330998402
 21
71.2532824344
 31
0.0
  0
LINE
  5
44B
330
1F
100
AcDbEntity
  8
0
  6
Continuous
 62
     7
370
    15
100
AcDbLine
 10
246.8562500289
 20
71.2438649006
 30
0.0
 11
249.7137499711
 21
71.2438649006
 31
0.0
  0
LINE
  5
44C
330
1F
100
AcDbEntity
  8
0
  6
Continuous
 62
     7
370
    15
100
AcDbLine
 10
206.6644206381
 20
96.1308604545
 30
0.0
 11
204.9365415907
 21
96.1308604545
 31
0.0
  0
SPLINE
  5
44D
330
1F
100
AcDbEntity
  8
0
  6
Continuous
 62
     7
370
    15
100
AcDbSpline
210
0.0
220
0.0
230
1.0
 70
     8
 71
     3
 72
    13
 73
     9
 74
     0
 42
0.000000001
 43
0.00000001
 40
0.0
 40
0.0
 40
0.0
 40
0.0
 40
0.0737481034664772
 40
0.2884056698194473
 40
0.503213524009161
 40
0.7183558561515402
 40
0.9335043376791483
 40
1.0
 40
1.0
 40
1.0
 40
1.0
 10
204.9295350646972
 20
96.36517823407996
 30
0.0
 10
204.9294854587846
 20
96.36601329030938
 30
0.0
 10
204.9292914656405
 20
96.36927893294788
 30
0.0
 10
204.9306178389389
 20
96.34725478436997
 30
0.0
 10
204.9329581632636
 20
96.30138590784739
 30
0.0
 10
204.9353863683258
 20
96.23443605886008
 30
0.0
 10
204.9364530195673
 20
96.17400889645224
 30
0.0
 10
204.936524673362
 20
96.13910192584528
 30
0.0
 10
204.9365415906906
 20
96.13086045453895
 30
0.0
  0
SPLINE
  5
44E
330
1F
100
AcDbEntity
  8
0
  6
Continuous
 62
     7
370
    15
100
AcDbSpline
210
0.0
220
0.0
230
1.0
 70
     8
 71
     3
 72
    17
 73
    13
 74
     0
 42
0.000000001
 43
0.00000001
 40
0.0
 40
0.0
 40
0.0
 40
0.0
 40
0.0523562357023981
 40
0.1596631203991133
 40
0.266983502079067
 40
0.3742856120170996
 40
0.4814912722238823
 40
0.5886370527058342
 40
0.6960020742501787
 40
0.8037780950277086
 40
0.9115937909374573
 40
1.0
 40
1.0
 40
1.0
 40
1.0
 10
207.6231941318512
 20
96.93337143133033
 30
0.0
 10
207.6235437581714
 20
96.93279171238252
 30
0.0
 10
207.6246099621967
 20
96.93102382867353
 30
0.0
 10
207.6113796051775
 20
96.95298101102604
 30
0.0
 10
207.5862716137631
 20
96.99563202232032
 30
0.0
 10
207.5520854920192
 20
97.05578465987354
 30
0.0
 10
207.5143913792687
 20
97.12552882809828
 30
0.0
 10
207.477682344944
 20
97.19761701676212
 30
0.0
 10
207.4459559932256
 20
97.26416855556984
 30
0.0
 10
207.4225109018935
 20
97.31654833999487
 30
0.0
 10
207.4085329074125
 20
97.34942997958105
 30
0.0
 10
207.4076625005393
 20
97.35153779304437
 30
0.0
 10
207.4072703456878
 20
97.35248745153297
 30
0.0
  0
SPLINE
  5
44F
330
1F
100
AcDbEntity
  8
0
  6
Continuous
 62
     7
370
    15
100
AcDbSpline
210
0.0
220
0.0
230
1.0
 70
     8
 71
     3
 72
    17
 73
    13
 74
     0
 42
0.000000001
 43
0.00000001
 40
0.0
 40
0.0
 40
0.0
 40
0.0
 40
0.0498052945511308
 40
0.1571222160715885
 40
0.2644578055299747
 40
0.3717781757790301
 40
0.4789929358089167
 40
0.5861533244571339
 40
0.693529069149812
 40
0.8013082592420628
 40
0.909145160390193
 40
1.0
 40
1.0
 40
1.0
 40
1.0
 10
207.6232000923157
 20
95.3275984592234
 30
0.0
 10
207.6235751547031
 20
95.32822197501226
 30
0.0
 10
207.6247583749615
 20
95.33018899846601
 30
0.0
 10
207.6118456350301
 20
95.30875578466501
 30
0.0
 10
207.5870147122134
 20
95.26660202067087
 30
0.0
 10
207.5529728635991
 20
95.20676201506949
 30
0.0
 10
207.5153082501257
 20
95.1371786698322
 30
0.0
 10
207.4785246912864
 20
95.06504801443832
 30
0.0
 10
207.4466430689853
 20
94.99826628239485
 30
0.0
 10
207.4229632173822
 20
94.94545424260814
 30
0.0
 10
207.4086817097134
 20
94.91187547964753
 30
0.0
 10
207.4076579906349
 20
94.90940805219657
 30
0.0
 10
207.4071898794174
 20
94.90827978322852
 30
0.0
  0
SPLINE
  5
450
330
1F
100
AcDbEntity
  8
0
  6
Continuous
 62
     7
370
    15
100
AcDbSpline
210
0.0
220
0.0
230
1.0
 70
     8
 71
     3
 72
    13
 73
     9
 74
     0
 42
0.000000001
 43
0.00000001
 40
0.0
 40
0.0
 40
0.0
 40
0.0
 40
0.0716932137529646
 40
0.2858834071960884
 40
0.5002167072594188
 40
0.7148801941885982
 40
0.9295503308767342
 40
1.0
 40
1.0
 40
1.0
 40
1.0
 10
204.9296125507354
 20
95.89497507284034
 30
0.0
 10
204.9295628843887
 20
95.8941392370361
 30
0.0
 10
204.9293648351776
 20
95.89080626345239
 30
0.0
 10
204.9306762849232
 20
95.91261718785123
 30
0.0
 10
204.9329927352823
 20
95.95825112671048
 30
0.0
 10
204.9354040171172
 20
96.02505624858642
 30
0.0
 10
204.9364674347503
 20
96.08592374803602
 30
0.0
 10
204.9365268980304
 20
96.12134528101635
 30
0.0
 10
204.9365415906906
 20
96.13009751508581
 30
0.0
  0
LINE
  5
451
330
1F
100
AcDbEntity
  8
0
  6
Continuous
 62
     7
370
    15
100
AcDbLine
 10
204.9365415907
 20
96.1308604545
 30
0.0
 11
204.9365415907
 21
96.1300975151
 31
0.0
  0
SPLINE
  5
452
330
1F
100
AcDbEntity
  8
0
  6
Continuous
 62
     7
370
    15
100
AcDbSpline
210
0.0
220
0.0
230
1.0
 70
     8
 71
     3
 72
    12
 73
     8
 74
     0
 42
0.000000001
 43
0.00000001
 40
0.0
 40
0.0
 40
0.0
 40
0.0
 40
0.1571213115222961
 40
0.3861154640601621
 40
0.6151191402200679
 40
0.8443592337887956
 40
1.0
 40
1.0
 40
1.0
 40
1.0
 10
247.1111792808771
 20
72.23141849706519
 30
0.0
 10
247.1026253580858
 20
72.21524737570483
 30
0.0
 10
247.081604645898
 20
72.17550789053928
 30
0.0
 10
247.0500879436825
 20
72.11995147542208
 30
0.0
 10
247.0229113615829
 20
72.07340566094797
 30
0.0
 10
247.0069934514792
 20
72.04693404587626
 30
0.0
 10
247.0069213551993
 20
72.0468167150579
 30
0.0
 10
247.0068922004103
 20
72.04676926801551
 30
0.0
  0
SPLINE
  5
453
330
1F
100
AcDbEntity
  8
0
  6
Continuous
 62
     7
370
    15
100
AcDbSpline
210
0.0
220
0.0
230
1.0
 70
     8
 71
     3
 72
    12
 73
     8
 74
     0
 42
0.000000001
 43
0.00000001
 40
0.0
 40
0.0
 40
0.0
 40
0.0
 40
0.2121260645349675
 40
0.4413432753964323
 40
0.670602918641908
 40
0.8997413347779206
 40
1.0
 40
1.0
 40
1.0
 40
1.0
 10
249.5641494838893
 20
72.04504073331701
 30
0.0
 10
249.5631669890369
 20
72.04666768358298
 30
0.0
 10
249.5611228390304
 20
72.05005266864298
 30
0.0
 10
249.5413019349485
 20
72.08315376012195
 30
0.0
 10
249.5116941593768
 20
72.13433459706795
 30
0.0
 10
249.4820854231905
 20
72.18696576158199
 30
0.0
 10
249.4642698768694
 20
72.22106388521138
 30
0.0
 10
249.4588473549485
 20
72.23144233892309
 30
0.0
  0
LINE
  5
454
330
1F
100
AcDbEntity
  8
0
  6
Continuous
 62
     7
370
    15
100
AcDbLine
 10
290.9782454109
 20
94.702107317
 30
0.0
 11
289.4711389875
 21
94.702107317
 31
0.0
  0
LINE
  5
455
330
1F
100
AcDbEntity
  8
0
  6
Continuous
 62
     7
370
    15
100
AcDbLine
 10
290.2246907091
 20
97.5588446922
 30
0.0
 11
290.9782454109
 21
97.5588446922
 31
0.0
  0
LINE
  5
456
330
1F
100
AcDbEntity
  8
0
  6
Continuous
 62
     7
370
    15
100
AcDbLine
 10
289.4711389875
 20
97.5588446922
 30
0.0
 11
290.2246907091
 21
97.5588446922
 31
0.0
  0
LINE
  5
457
330
1F
100
AcDbEntity
  8
0
  6
Continuous
 62
     7
370
    15
100
AcDbLine
 10
249.0385535842
 20
119.5883399315
 30
0.0
 11
248.5231250029
 21
119.5883399315
 31
0.0
  0
LINE
  5
458
330
1F
100
AcDbEntity
  8
0
  6
Continuous
 62
     7
370
    15
100
AcDbLine
 10
248.0468749971
 20
119.5883399315
 30
0.0
 11
247.5314464158
 21
119.5883399315
 31
0.0
  0
LINE
  5
459
330
1F
100
AcDbEntity
  8
0
  6
Continuous
 62
     7
370
    15
100
AcDbLine
 10
248.1541467918
 20
122.4544918604
 30
0.0
 11
249.0385535842
 21
122.4544918604
 31
0.0
  0
LINE
  5
45A
330
1F
100
AcDbEntity
  8
0
  6
Continuous
 62
     7
370
    15
100
AcDbLine
 10
247.5314464158
 20
122.4544918604
 30
0.0
 11
248.1541467918
 21
122.4544918604
 31
0.0
  0
LINE
  5
45B
330
1F
100
AcDbEntity
  8
0
  6
Continuous
 62
     7
370
    15
100
AcDbLine
 10
249.0385535842
 20
69.8245292969
 30
0.0
 11
247.5314464158
 21
69.8245292969
 31
0.0
  0
LINE
  5
45C
330
1F
100
AcDbEntity
  8
0
  6
Continuous
 62
     7
370
    15
100
AcDbLine
 10
248.5231250029
 20
72.6726180382
 30
0.0
 11
249.0385535842
 21
72.6726180382
 31
0.0
  0
LINE
  5
45D
330
1F
100
AcDbEntity
  8
0
  6
Continuous
 62
     7
370
    15
100
AcDbLine
 10
247.5314464158
 20
72.6726180382
 30
0.0
 11
248.0468749971
 21
72.6726180382
 31
0.0
  0
LINE
  5
45E
330
1F
100
AcDbEntity
  8
0
  6
Continuous
 62
     7
370
    15
100
AcDbLine
 10
205.5917545891
 20
97.5588446922
 30
0.0
 11
207.0988610125
 21
97.5588446922
 31
0.0
  0
LINE
  5
45F
330
1F
100
AcDbEntity
  8
0
  6
Continuous
 62
     7
370
    15
100
AcDbLine
 10
206.3453092909
 20
94.702107317
 30
0.0
 11
205.5917545891
 21
94.702107317
 31
0.0
  0
LINE
  5
460
330
1F
100
AcDbEntity
  8
0
  6
Continuous
 62
     7
370
    15
100
AcDbLine
 10
207.0988610125
 20
94.702107317
 30
0.0
 11
206.3453092909
 21
94.702107317
 31
0.0
  0
LINE
  5
461
330
1F
100
AcDbEntity
  8
0
  6
Continuous
 62
     8
370
    15
100
AcDbLine
 10
276.2894138432
 20
92.8395932979
 30
0.0
 11
276.2893810606
 21
92.8395932979
 31
0.0
  0
LINE
  5
462
330
1F
100
AcDbEntity
  8
0
  6
Continuous
 62
     8
370
    15
100
AcDbLine
 10
279.592297945
 20
92.8395932979
 30
0.0
 11
276.2894138432
 21
92.8395932979
 31
0.0
  0
LINE
  5
463
330
1F
100
AcDbEntity
  8
0
  6
Continuous
 62
     8
370
    15
100
AcDbLine
 10
277.9305025673
 20
99.4213646717
 30
0.0
 11
279.592297945
 21
99.4213646717
 31
0.0
  0
LINE
  5
464
330
1F
100
AcDbEntity
  8
0
  6
Continuous
 62
     8
370
    15
100
AcDbLine
 10
276.2893810606
 20
99.4213646717
 30
0.0
 11
277.9305025673
 21
99.4213646717
 31
0.0
  0
LINE
  5
465
330
1F
100
AcDbEntity
  8
0
  6
Continuous
 62
     8
370
    15
100
AcDbLine
 10
220.2806189394
 20
92.8395932979
 30
0.0
 11
216.977702055
 21
92.8395932979
 31
0.0
  0
LINE
  5
466
330
1F
100
AcDbEntity
  8
0
  6
Continuous
 62
     8
370
    15
100
AcDbLine
 10
216.977702055
 20
99.4213646717
 30
0.0
 11
220.2806189394
 21
99.4213646717
 31
0.0
  0
LINE
  5
467
330
1F
100
AcDbEntity
  8
0
  6
Continuous
 62
     8
370
    15
100
AcDbLine
 10
277.2256448603
 20
97.4265581436
 30
0.0
 11
276.9294038153
 21
97.4265581436
 31
0.0
  0
LINE
  5
468
330
1F
100
AcDbEntity
  8
0
  6
Continuous
 62
     8
370
    15
100
AcDbLine
 10
278.9522781706
 20
97.4265581436
 30
0.0
 11
277.2256448603
 21
97.4265581436
 31
0.0
  0
LINE
  5
469
330
1F
100
AcDbEntity
  8
0
  6
Continuous
 62
     8
370
    15
100
AcDbLine
 10
276.9294038153
 20
94.834399826
 30
0.0
 11
278.9522781706
 21
94.834399826
 31
0.0
  0
LINE
  5
46A
330
1F
100
AcDbEntity
  8
0
  6
Continuous
 62
     8
370
    15
100
AcDbLine
 10
219.6405961847
 20
97.4265581436
 30
0.0
 11
217.6177218294
 21
97.4265581436
 31
0.0
  0
LINE
  5
46B
330
1F
100
AcDbEntity
  8
0
  6
Continuous
 62
     8
370
    15
100
AcDbLine
 10
219.3443551397
 20
94.834399826
 30
0.0
 11
219.6405961847
 21
94.834399826
 31
0.0
  0
LINE
  5
46C
330
1F
100
AcDbEntity
  8
0
  6
Continuous
 62
     8
370
    15
100
AcDbLine
 10
217.6177218294
 20
94.834399826
 30
0.0
 11
219.3443551397
 21
94.834399826
 31
0.0
  0
LINE
  5
46D
330
1F
100
AcDbEntity
  8
0
  6
Continuous
 62
     8
370
    15
100
AcDbLine
 10
289.0642657614
 20
92.8395932979
 30
0.0
 11
288.573233757
 21
92.8395932979
 31
0.0
  0
LINE
  5
46E
330
1F
100
AcDbEntity
  8
0
  6
Continuous
 62
     8
370
    15
100
AcDbLine
 10
291.8761506414
 20
92.8395932979
 30
0.0
 11
289.0642657614
 21
92.8395932979
 31
0.0
  0
LINE
  5
46F
330
1F
100
AcDbEntity
  8
0
  6
Continuous
 62
     8
370
    15
100
AcDbLine
 10
291.3851156569
 20
99.4213646717
 30
0.0
 11
291.8761506414
 21
99.4213646717
 31
0.0
  0
LINE
  5
470
330
1F
100
AcDbEntity
  8
0
  6
Continuous
 62
     8
370
    15
100
AcDbLine
 10
288.573233757
 20
99.4213646717
 30
0.0
 11
291.3851156569
 21
99.4213646717
 31
0.0
  0
LINE
  5
471
330
1F
100
AcDbEntity
  8
0
  6
Continuous
 62
     8
370
    15
100
AcDbLine
 10
293.5048475599
 20
94.9696725673
 30
0.0
 11
293.5048475599
 21
94.4786375828
 31
0.0
  0
LINE
  5
472
330
1F
100
AcDbEntity
  8
0
  6
Continuous
 62
     8
370
    15
100
AcDbLine
 10
293.5048475599
 20
97.7815574474
 30
0.0
 11
293.5048475599
 21
94.9696725673
 31
0.0
  0
LINE
  5
473
330
1F
100
AcDbEntity
  8
0
  6
Continuous
 62
     8
370
    15
100
AcDbLine
 10
246.6335419303
 20
74.5351380176
 30
0.0
 11
248.0468749971
 21
74.5351380176
 31
0.0
  0
LINE
  5
474
330
1F
100
AcDbEntity
  8
0
  6
Continuous
 62
     8
370
    15
100
AcDbLine
 10
248.5231250029
 20
74.5351380176
 30
0.0
 11
249.9364580697
 21
74.5351380176
 31
0.0
  0
LINE
  5
475
330
1F
100
AcDbEntity
  8
0
  6
Continuous
 62
     8
370
    15
100
AcDbLine
 10
249.9364580697
 20
117.725819952
 30
0.0
 11
248.5231250029
 21
117.725819952
 31
0.0
  0
LINE
  5
476
330
1F
100
AcDbEntity
  8
0
  6
Continuous
 62
     8
370
    15
100
AcDbLine
 10
248.0468749971
 20
117.725819952
 30
0.0
 11
246.6335419303
 21
117.725819952
 31
0.0
  0
LINE
  5
477
330
1F
100
AcDbEntity
  8
0
  6
Continuous
 62
     8
370
    15
100
AcDbLine
 10
203.0651524401
 20
94.4786375828
 30
0.0
 11
203.0651524401
 21
97.7815574474
 31
0.0
  0
LINE
  5
478
330
1F
100
AcDbEntity
  8
0
  6
Continuous
 62
     8
370
    15
100
AcDbLine
 10
204.6938493586
 20
99.4213646717
 30
0.0
 11
207.996766243
 21
99.4213646717
 31
0.0
  0
LINE
  5
479
330
1F
100
AcDbEntity
  8
0
  6
Continuous
 62
     8
370
    15
100
AcDbLine
 10
207.996766243
 20
92.8395932979
 30
0.0
 11
204.6938493586
 21
92.8395932979
 31
0.0
  0
LINE
  5
47A
330
1F
100
AcDbEntity
  8
0
  6
Continuous
 62
     8
370
    15
100
AcDbLine
 10
249.9364580697
 20
67.9620152778
 30
0.0
 11
246.6335419303
 21
67.9620152778
 31
0.0
  0
LINE
  5
47B
330
1F
100
AcDbEntity
  8
0
  6
Continuous
 62
     8
370
    15
100
AcDbLine
 10
290.2246907091
 20
97.4265581436
 30
0.0
 11
289.2132535315
 21
97.4265581436
 31
0.0
  0
LINE
  5
47C
330
1F
100
AcDbEntity
  8
0
  6
Continuous
 62
     8
370
    15
100
AcDbLine
 10
291.2361278868
 20
97.4265581436
 30
0.0
 11
290.2246907091
 21
97.4265581436
 31
0.0
  0
LINE
  5
47D
330
1F
100
AcDbEntity
  8
0
  6
Continuous
 62
     8
370
    15
100
AcDbLine
 10
289.2132535315
 20
94.834399826
 30
0.0
 11
291.2361278868
 21
94.834399826
 31
0.0
  0
LINE
  5
47E
330
1F
100
AcDbEntity
  8
0
  6
Continuous
 62
     8
370
    15
100
AcDbLine
 10
247.4858659057
 20
119.7206294603
 30
0.0
 11
248.0468749971
 21
119.7206294603
 31
0.0
  0
LINE
  5
47F
330
1F
100
AcDbEntity
  8
0
  6
Continuous
 62
     8
370
    15
100
AcDbLine
 10
248.5231250029
 20
119.7206294603
 30
0.0
 11
249.0841340943
 21
119.7206294603
 31
0.0
  0
LINE
  5
480
330
1F
100
AcDbEntity
  8
0
  6
Continuous
 62
     8
370
    15
100
AcDbLine
 10
248.1093657174
 20
122.3221993513
 30
0.0
 11
247.2735624498
 21
122.3221993513
 31
0.0
  0
LINE
  5
481
330
1F
100
AcDbEntity
  8
0
  6
Continuous
 62
     8
370
    15
100
AcDbLine
 10
249.2964375502
 20
122.3221993513
 30
0.0
 11
248.1093657174
 21
122.3221993513
 31
0.0
  0
LINE
  5
482
330
1F
100
AcDbEntity
  8
0
  6
Continuous
 62
     8
370
    15
100
AcDbLine
 10
246.8562549649
 20
71.2485736675
 30
0.0
 11
249.7137450351
 21
71.2485736675
 31
0.0
  0
LINE
  5
483
330
1F
100
AcDbEntity
  8
0
  6
Continuous
 62
     8
370
    15
100
AcDbLine
 10
207.3567464685
 20
97.4265581436
 30
0.0
 11
205.3338721132
 21
97.4265581436
 31
0.0
  0
LINE
  5
484
330
1F
100
AcDbEntity
  8
0
  6
Continuous
 62
     8
370
    15
100
AcDbLine
 10
206.3453092909
 20
94.834399826
 30
0.0
 11
207.3567464685
 21
94.834399826
 31
0.0
  0
LINE
  5
485
330
1F
100
AcDbEntity
  8
0
  6
Continuous
 62
     8
370
    15
100
AcDbLine
 10
205.3338721132
 20
94.834399826
 30
0.0
 11
206.3453092909
 21
94.834399826
 31
0.0
  0
LINE
  5
486
330
1F
100
AcDbEntity
  8
0
  6
Continuous
 62
     8
370
    15
100
AcDbLine
 10
247.2735624498
 20
69.9568218059
 30
0.0
 11
249.2964375502
 21
69.9568218059
 31
0.0
  0
LINE
  5
487
330
1F
100
AcDbEntity
  8
0
  6
Continuous
 62
     8
370
    15
100
AcDbLine
 10
248.0468749971
 20
72.5403255291
 30
0.0
 11
247.4858659057
 21
72.5403255291
 31
0.0
  0
LINE
  5
488
330
1F
100
AcDbEntity
  8
0
  6
Continuous
 62
     8
370
    15
100
AcDbLine
 10
249.0841340943
 20
72.5403255291
 30
0.0
 11
248.5231250029
 21
72.5403255291
 31
0.0
  0
INSERT
  5
494
330
1F
100
AcDbEntity
  8
0
  6
Continuous
 62
     7
370
     0
100
AcDbBlockReference
  2
SW_CENTERMARKSYMBOL_10
 10
248.285
 20
96.1300971235
 30
0.0
  0
ENDSEC
  0
SECTION
  2
OBJECTS
  0
DICTIONARY
  5
C
330
0
100
AcDbDictionary
281
     1
  3
ACAD_GROUP
350
D
  3
ACAD_LAYOUT
350
1A
  3
ACAD_MLINESTYLE
350
17
  3
ACAD_PLOTSETTINGS
350
19
  3
ACAD_PLOTSTYLENAME
350
E
  3
ACAD_SCALELIST
350
47
  0
DICTIONARY
  5
D
102
{ACAD_REACTORS
330
C
102
}
330
C
100
AcDbDictionary
281
     1
  0
DICTIONARY
  5
1A
102
{ACAD_REACTORS
330
C
102
}
330
C
100
AcDbDictionary
281
     1
  3
Layout1
350
1E
  3
Layout2
350
26
  3
Model
350
22
  0
DICTIONARY
  5
17
102
{ACAD_REACTORS
330
C
102
}
330
C
100
AcDbDictionary
281
     1
  3
Standard
350
18
  0
DICTIONARY
  5
19
102
{ACAD_REACTORS
330
C
102
}
330
C
100
AcDbDictionary
281
     1
  0
ACDBDICTIONARYWDFLT
  5
E
102
{ACAD_REACTORS
330
C
102
}
330
C
100
AcDbDictionary
281
     1
  3
Normal
350
F
100
AcDbDictionaryWithDefault
340
F
  0
DICTIONARY
  5
47
102
{ACAD_REACTORS
330
C
102
}
330
C
100
AcDbDictionary
281
     1
  3
A0
350
48
  3
A1
350
49
  3
A2
350
4A
  3
A3
350
4B
  3
A4
350
4C
  3
A5
350
4D
  3
A6
350
4E
  3
A7
350
4F
  3
A8
350
50
  3
A9
350
51
  3
B0
350
52
  3
B1
350
53
  3
B2
350
54
  3
B3
350
55
  3
B4
350
56
  3
B5
350
57
  3
B6
350
58
  3
B7
350
59
  3
B8
350
5A
  3
B9
350
5B
  3
C0
350
5C
  3
C1
350
5D
  3
C2
350
5E
  3
C3
350
5F
  3
C4
350
60
  3
C5
350
61
  3
C6
350
62
  3
C7
350
63
  3
C8
350
64
  3
C9
350
65
  3
D0
350
66
  3
D1
350
67
  3
D2
350
68
  0
LAYOUT
  5
1E
102
{ACAD_REACTORS
330
1A
102
}
330
1A
100
AcDbPlotSettings
  1

  2
none_device
  4

  6

 40
0.0
 41
0.0
 42
0.0
 43
0.0
 44
0.0
 45
0.0
 46
0.0
 47
0.0
 48
0.0
 49
0.0
140
0.0
141
0.0
142
1.0
143
1.0
 70
   688
 72
     1
 73
     0
 74
     5
  7

 75
    16
147
1.0
148
0.0
149
0.0
100
AcDbLayout
  1
Layout1
 70
     1
 71
     1
 10
0.0
 20
0.0
 11
420.0
 21
297.0
 12
0.0
 22
0.0
 32
0.0
 14
1.0000000000E+20
 24
1.0000000000E+20
 34
1.0000000000E+20
 15
-1.0000000000E+20
 25
-1.0000000000E+20
 35
-1.0000000000E+20
146
0.0
 13
0.0
 23
0.0
 33
0.0
 16
1.0
 26
0.0
 36
0.0
 17
0.0
 27
1.0
 37
0.0
 76
     0
330
1B
  0
LAYOUT
  5
26
102
{ACAD_REACTORS
330
1A
102
}
330
1A
100
AcDbPlotSettings
  1

  2
none_device
  4

  6

 40
0.0
 41
0.0
 42
0.0
 43
0.0
 44
0.0
 45
0.0
 46
0.0
 47
0.0
 48
0.0
 49
0.0
140
0.0
141
0.0
142
1.0
143
1.0
 70
   688
 72
     1
 73
     0
 74
     5
  7

 75
    16
147
1.0
148
0.0
149
0.0
100
AcDbLayout
  1
Layout2
 70
     1
 71
     2
 10
0.0
 20
0.0
 11
0.0
 21
0.0
 12
0.0
 22
0.0
 32
0.0
 14
0.0
 24
0.0
 34
0.0
 15
0.0
 25
0.0
 35
0.0
146
0.0
 13
0.0
 23
0.0
 33
0.0
 16
1.0
 26
0.0
 36
0.0
 17
0.0
 27
1.0
 37
0.0
 76
     0
330
23
  0
LAYOUT
  5
22
102
{ACAD_REACTORS
330
1A
102
}
330
1A
100
AcDbPlotSettings
  1

  2
none_device
  4
Letter_(8.50_x_11.00_Inches)
  6

 40
6.35
 41
6.35
 42
6.35000508
 43
6.35000508
 44
215.9
 45
279.4
 46
0.0
 47
0.0
 48
0.0
 49
0.0
140
0.0
141
0.0
142
1.0
143
1.0
 70
  1712
 72
     1
 73
     0
 74
     0
  7

 75
     0
147
1.0
148
0.0
149
0.0
100
AcDbLayout
  1
Model
 70
     1
 71
     0
 10
0.0
 20
0.0
 11
431.8
 21
279.4
 12
0.0
 22
0.0
 32
0.0
 14
0.0
 24
0.0
 34
0.0
 15
431.8
 25
279.4
 35
0.0
146
0.0
 13
0.0
 23
0.0
 33
0.0
 16
1.0
 26
0.0
 36
0.0
 17
0.0
 27
1.0
 37
0.0
 76
     0
330
1F
331
29
  0
MLINESTYLE
  5
18
102
{ACAD_REACTORS
330
17
102
}
330
17
100
AcDbMlineStyle
  2
Standard
 70
     0
  3

 62
   256
 51
90.0
 52
90.0
 71
     2
 49
0.5
 62
   256
  6
BYLAYER
 49
-0.5
 62
   256
  6
BYLAYER
  0
ACDBPLACEHOLDER
  5
F
102
{ACAD_REACTORS
330
E
102
}
330
E
  0
SCALE
  5
48
102
{ACAD_REACTORS
330
47
102
}
330
47
100
AcDbScale
 70
     0
300
1:1
140
1.0
141
1.0
290
     1
  0
SCALE
  5
49
102
{ACAD_REACTORS
330
47
102
}
330
47
100
AcDbScale
 70
     0
300
1:2
140
1.0
141
2.0
290
     0
  0
SCALE
  5
4A
102
{ACAD_REACTORS
330
47
102
}
330
47
100
AcDbScale
 70
     0
300
1:4
140
1.0
141
4.0
290
     0
  0
SCALE
  5
4B
102
{ACAD_REACTORS
330
47
102
}
330
47
100
AcDbScale
 70
     0
300
1:5
140
1.0
141
5.0
290
     0
  0
SCALE
  5
4C
102
{ACAD_REACTORS
330
47
102
}
330
47
100
AcDbScale
 70
     0
300
1:8
140
1.0
141
8.0
290
     0
  0
SCALE
  5
4D
102
{ACAD_REACTORS
330
47
102
}
330
47
100
AcDbScale
 70
     0
300
1:10
140
1.0
141
10.0
290
     0
  0
SCALE
  5
4E
102
{ACAD_REACTORS
330
47
102
}
330
47
100
AcDbScale
 70
     0
300
1:16
140
1.0
141
16.0
290
     0
  0
SCALE
  5
4F
102
{ACAD_REACTORS
330
47
102
}
330
47
100
AcDbScale
 70
     0
300
1:20
140
1.0
141
20.0
290
     0
  0
SCALE
  5
50
102
{ACAD_REACTORS
330
47
102
}
330
47
100
AcDbScale
 70
     0
300
1:30
140
1.0
141
30.0
290
     0
  0
SCALE
  5
51
102
{ACAD_REACTORS
330
47
102
}
330
47
100
AcDbScale
 70
     0
300
1:40
140
1.0
141
40.0
290
     0
  0
SCALE
  5
52
102
{ACAD_REACTORS
330
47
102
}
330
47
100
AcDbScale
 70
     0
300
1:50
140
1.0
141
50.0
290
     0
  0
SCALE
  5
53
102
{ACAD_REACTORS
330
47
102
}
330
47
100
AcDbScale
 70
     0
300
1:100
140
1.0
141
100.0
290
     0
  0
SCALE
  5
54
102
{ACAD_REACTORS
330
47
102
}
330
47
100
AcDbScale
 70
     0
300
2:1
140
2.0
141
1.0
290
     0
  0
SCALE
  5
55
102
{ACAD_REACTORS
330
47
102
}
330
47
100
AcDbScale
 70
     0
300
4:1
140
4.0
141
1.0
290
     0
  0
SCALE
  5
56
102
{ACAD_REACTORS
330
47
102
}
330
47
100
AcDbScale
 70
     0
300
8:1
140
8.0
141
1.0
290
     0
  0
SCALE
  5
57
102
{ACAD_REACTORS
330
47
102
}
330
47
100
AcDbScale
 70
     0
300
10:1
140
10.0
141
1.0
290
     0
  0
SCALE
  5
58
102
{ACAD_REACTORS
330
47
102
}
330
47
100
AcDbScale
 70
     0
300
100:1
140
100.0
141
1.0
290
     0
  0
SCALE
  5
59
102
{ACAD_REACTORS
330
47
102
}
330
47
100
AcDbScale
 70
     0
300
1/128" = 1'-0"
140
0.0078125
141
12.0
290
     0
  0
SCALE
  5
5A
102
{ACAD_REACTORS
330
47
102
}
330
47
100
AcDbScale
 70
     0
300
1/64" = 1'-0"
140
0.015625
141
12.0
290
     0
  0
SCALE
  5
5B
102
{ACAD_REACTORS
330
47
102
}
330
47
100
AcDbScale
 70
     0
300
1/32" = 1'-0"
140
0.03125
141
12.0
290
     0
  0
SCALE
  5
5C
102
{ACAD_REACTORS
330
47
102
}
330
47
100
AcDbScale
 70
     0
300
1/16" = 1'-0"
140
0.0625
141
12.0
290
     0
  0
SCALE
  5
5D
102
{ACAD_REACTORS
330
47
102
}
330
47
100
AcDbScale
 70
     0
300
3/32" = 1'-0"
140
0.09375
141
12.0
290
     0
  0
SCALE
  5
5E
102
{ACAD_REACTORS
330
47
102
}
330
47
100
AcDbScale
 70
     0
300
1/8" = 1'-0"
140
0.125
141
12.0
290
     0
  0
SCALE
  5
5F
102
{ACAD_REACTORS
330
47
102
}
330
47
100
AcDbScale
 70
     0
300
3/16" = 1'-0"
140
0.1875
141
12.0
290
     0
  0
SCALE
  5
60
102
{ACAD_REACTORS
330
47
102
}
330
47
100
AcDbScale
 70
     0
300
1/4" = 1'-0"
140
0.25
141
12.0
290
     0
  0
SCALE
  5
61
102
{ACAD_REACTORS
330
47
102
}
330
47
100
AcDbScale
 70
     0
300
3/8" = 1'-0"
140
0.375
141
12.0
290
     0
  0
SCALE
  5
62
102
{ACAD_REACTORS
330
47
102
}
330
47
100
AcDbScale
 70
     0
300
1/2" = 1'-0"
140
0.5
141
12.0
290
     0
  0
SCALE
  5
63
102
{ACAD_REACTORS
330
47
102
}
330
47
100
AcDbScale
 70
     0
300
3/4" = 1'-0"
140
0.75
141
12.0
290
     0
  0
SCALE
  5
64
102
{ACAD_REACTORS
330
47
102
}
330
47
100
AcDbScale
 70
     0
300
1" = 1'-0"
140
1.0
141
12.0
290
     0
  0
SCALE
  5
65
102
{ACAD_REACTORS
330
47
102
}
330
47
100
AcDbScale
 70
     0
300
1-1/2" = 1'-0"
140
1.5
141
12.0
290
     0
  0
SCALE
  5
66
102
{ACAD_REACTORS
330
47
102
}
330
47
100
AcDbScale
 70
     0
300
3" = 1'-0"
140
3.0
141
12.0
290
     0
  0
SCALE
  5
67
102
{ACAD_REACTORS
330
47
102
}
330
47
100
AcDbScale
 70
     0
300
6" = 1'-0"
140
6.0
141
12.0
290
     0
  0
SCALE
  5
68
102
{ACAD_REACTORS
330
47
102
}
330
47
100
AcDbScale
 70
     0
300
1'-0" = 1'-0"
140
12.0
141
12.0
290
     0
  0
ENDSEC
  0
EOF
