  0
SECTION
  2
HEADER
  9
$ACADVER
  1
AC1015
  9
$ACADMAINTVER
 70
     6
  9
$DWGCODEPAGE
  3
ANSI_1252
  9
$INSBASE
 10
0.0
 20
0.0
 30
0.0
  9
$EXTMIN
 10
0.0
 20
0.0
 30
0.0
  9
$EXTMAX
 10
431.8
 20
279.4
 30
0.0
  9
$LIMMIN
 10
0.0
 20
0.0
  9
$LIMMAX
 10
431.8
 20
279.4
  9
$ORTHOMODE
 70
     0
  9
$REGENMODE
 70
     1
  9
$FILLMODE
 70
     1
  9
$QTEXTMODE
 70
     0
  9
$MIRRTEXT
 70
     1
  9
$LTSCALE
 40
1.0
  9
$ATTMODE
 70
     1
  9
$TEXTSIZE
 40
3.175
  9
$TRACEWID
 40
1.0
  9
$TEXTSTYLE
  7
Standard
  9
$CLAYER
  8
0
  9
$CELTYPE
  6
ByLayer
  9
$CECOLOR
 62
   256
  9
$CELTSCALE
 40
1.0
  9
$DISPSILH
 70
     0
  9
$DIMSCALE
 40
1.0
  9
$DIMASZ
 40
3.302
  9
$DIMEXO
 40
1.27
  9
$DIMDLI
 40
3.75
  9
$DIMRND
 40
0.0
  9
$DIMDLE
 40
0.0
  9
$DIMEXE
 40
3.175
  9
$DIMTP
 40
0.0
  9
$DIMTM
 40
0.0
  9
$DIMTXT
 40
3.175
  9
$DIMCEN
 40
2.5
  9
$DIMTSZ
 40
0.0
  9
$DIMTOL
 70
     0
  9
$DIMLIM
 70
     0
  9
$DIMTIH
 70
     1
  9
$DIMTOH
 70
     1
  9
$DIMSE1
 70
     0
  9
$DIMSE2
 70
     0
  9
$DIMTAD
 70
     0
  9
$DIMZIN
 70
     0
  9
$DIMBLK
  1

  9
$DIMASO
 70
     1
  9
$DIMSHO
 70
     1
  9
$DIMPOST
  1

  9
$DIMAPOST
  1

  9
$DIMALT
 70
     0
  9
$DIMALTD
 70
     3
  9
$DIMALTF
 40
0.0393700787
  9
$DIMLFAC
 40
18.0
  9
$DIMTOFL
 70
     1
  9
$DIMTVP
 40
0.0
  9
$DIMTIX
 70
     0
  9
$DIMSOXD
 70
     0
  9
$DIMSAH
 70
     0
  9
$DIMBLK1
  1

  9
$DIMBLK2
  1

  9
$DIMSTYLE
  2
ISO-25
  9
$DIMCLRD
 70
     0
  9
$DIMCLRE
 70
     0
  9
$DIMCLRT
 70
     0
  9
$DIMTFAC
 40
1.0
  9
$DIMGAP
 40
1.524
  9
$DIMJUST
 70
     0
  9
$DIMSD1
 70
     0
  9
$DIMSD2
 70
     0
  9
$DIMTOLJ
 70
     0
  9
$DIMTZIN
 70
     0
  9
$DIMALTZ
 70
     0
  9
$DIMALTTZ
 70
     0
  9
$DIMUPT
 70
     0
  9
$DIMDEC
 70
     0
  9
$DIMTDEC
 70
     0
  9
$DIMALTU
 70
     2
  9
$DIMALTTD
 70
     3
  9
$DIMTXSTY
  7
Standard
  9
$DIMAUNIT
 70
     0
  9
$DIMADEC
 70
     0
  9
$DIMALTRND
 40
0.0
  9
$DIMAZIN
 70
     0
  9
$DIMDSEP
 70
    44
  9
$DIMATFIT
 70
     3
  9
$DIMFRAC
 70
     0
  9
$DIMLDRBLK
  1

  9
$DIMLUNIT
 70
     2
  9
$DIMLWD
 70
    -2
  9
$DIMLWE
 70
    -2
  9
$DIMTMOVE
 70
     0
  9
$LUNITS
 70
     2
  9
$LUPREC
 70
     2
  9
$SKETCHINC
 40
1.0
  9
$FILLETRAD
 40
10.0
  9
$AUNITS
 70
     0
  9
$AUPREC
 70
     2
  9
$MENU
  1
.
  9
$ELEVATION
 40
0.0
  9
$PELEVATION
 40
0.0
  9
$THICKNESS
 40
0.0
  9
$LIMCHECK
 70
     0
  9
$CHAMFERA
 40
0.0
  9
$CHAMFERB
 40
0.0
  9
$CHAMFERC
 40
0.0
  9
$CHAMFERD
 40
0.0
  9
$SKPOLY
 70
     0
  9
$TDCREATE
 40
2458583.483423102
  9
$TDUCREATE
 40
2458583.650089769
  9
$TDUPDATE
 40
2458583.483424028
  9
$TDUUPDATE
 40
2458583.650090694
  9
$TDINDWG
 40
0.0000000116
  9
$TDUSRTIMER
 40
0.0000000116
  9
$USRTIMER
 70
     1
  9
$ANGBASE
 50
0.0
  9
$ANGDIR
 70
     0
  9
$PDMODE
 70
     0
  9
$PDSIZE
 40
-1.0
  9
$PLINEWID
 40
0.0
  9
$SPLFRAME
 70
     0
  9
$SPLINETYPE
 70
     6
  9
$SPLINESEGS
 70
     8
  9
$HANDSEED
  5
386
  9
$SURFTAB1
 70
     6
  9
$SURFTAB2
 70
     6
  9
$SURFTYPE
 70
     6
  9
$SURFU
 70
     6
  9
$SURFV
 70
     6
  9
$UCSBASE
  2

  9
$UCSNAME
  2

  9
$UCSORG
 10
0.0
 20
0.0
 30
0.0
  9
$UCSXDIR
 10
1.0
 20
0.0
 30
0.0
  9
$UCSYDIR
 10
0.0
 20
1.0
 30
0.0
  9
$UCSORTHOREF
  2

  9
$UCSORTHOVIEW
 70
     0
  9
$UCSORGTOP
 10
0.0
 20
0.0
 30
0.0
  9
$UCSORGBOTTOM
 10
0.0
 20
0.0
 30
0.0
  9
$UCSORGLEFT
 10
0.0
 20
0.0
 30
0.0
  9
$UCSORGRIGHT
 10
0.0
 20
0.0
 30
0.0
  9
$UCSORGFRONT
 10
0.0
 20
0.0
 30
0.0
  9
$UCSORGBACK
 10
0.0
 20
0.0
 30
0.0
  9
$PUCSBASE
  2

  9
$PUCSNAME
  2

  9
$PUCSORG
 10
0.0
 20
0.0
 30
0.0
  9
$PUCSXDIR
 10
1.0
 20
0.0
 30
0.0
  9
$PUCSYDIR
 10
0.0
 20
1.0
 30
0.0
  9
$PUCSORTHOREF
  2

  9
$PUCSORTHOVIEW
 70
     0
  9
$PUCSORGTOP
 10
0.0
 20
0.0
 30
0.0
  9
$PUCSORGBOTTOM
 10
0.0
 20
0.0
 30
0.0
  9
$PUCSORGLEFT
 10
0.0
 20
0.0
 30
0.0
  9
$PUCSORGRIGHT
 10
0.0
 20
0.0
 30
0.0
  9
$PUCSORGFRONT
 10
0.0
 20
0.0
 30
0.0
  9
$PUCSORGBACK
 10
0.0
 20
0.0
 30
0.0
  9
$USERI1
 70
     0
  9
$USERI2
 70
     0
  9
$USERI3
 70
     0
  9
$USERI4
 70
     0
  9
$USERI5
 70
     0
  9
$USERR1
 40
0.0
  9
$USERR2
 40
0.0
  9
$USERR3
 40
0.0
  9
$USERR4
 40
0.0
  9
$USERR5
 40
0.0
  9
$WORLDVIEW
 70
     1
  9
$SHADEDGE
 70
     3
  9
$SHADEDIF
 70
    70
  9
$TILEMODE
 70
     1
  9
$MAXACTVP
 70
    64
  9
$PINSBASE
 10
0.0
 20
0.0
 30
0.0
  9
$PLIMCHECK
 70
     0
  9
$PEXTMIN
 10
1.0000000000E+20
 20
1.0000000000E+20
 30
1.0000000000E+20
  9
$PEXTMAX
 10
-1.0000000000E+20
 20
-1.0000000000E+20
 30
-1.0000000000E+20
  9
$PLIMMIN
 10
0.0
 20
0.0
  9
$PLIMMAX
 10
420.0
 20
297.0
  9
$UNITMODE
 70
     0
  9
$VISRETAIN
 70
     1
  9
$PLINEGEN
 70
     0
  9
$PSLTSCALE
 70
     1
  9
$TREEDEPTH
 70
  3020
  9
$CMLSTYLE
  2
Standard
  9
$CMLJUST
 70
     0
  9
$CMLSCALE
 40
20.0
  9
$PROXYGRAPHICS
 70
     1
  9
$MEASUREMENT
 70
     1
  9
$CELWEIGHT
370
    -1
  9
$ENDCAPS
280
     0
  9
$JOINSTYLE
280
     0
  9
$LWDISPLAY
290
     1
  9
$INSUNITS
 70
     4
  9
$HYPERLINKBASE
  1

  9
$STYLESHEET
  1

  9
$XEDIT
290
     1
  9
$CEPSNTYPE
380
     0
  9
$PSTYLEMODE
290
     1
  9
$FINGERPRINTGUID
  2
{EB17AF55-A24C-47F0-AB3C-51755CC1F537}
  9
$VERSIONGUID
  2
{FAEB1C32-E019-11D5-929B-00C0DF256EC4}
  9
$EXTNAMES
290
     1
  9
$PSVPSCALE
 40
0.0
  9
$OLESTARTUP
290
     0
  0
ENDSEC
  0
SECTION
  2
CLASSES
  0
CLASS
  1
ACDBDICTIONARYWDFLT
  2
AcDbDictionaryWithDefault
  3
ObjectDBX Classes
 90
        0
280
     0
281
     0
  0
CLASS
  1
VISUALSTYLE
  2
AcDbVisualStyle
  3
ObjectDBX Classes
 90
     4095
280
     0
281
     0
  0
CLASS
  1
MATERIAL
  2
AcDbMaterial
  3
ObjectDBX Classes
 90
     1153
280
     0
281
     0
  0
CLASS
  1
SCALE
  2
AcDbScale
  3
ObjectDBX Classes
 90
     1153
280
     0
281
     0
  0
CLASS
  1
TABLESTYLE
  2
AcDbTableStyle
  3
ObjectDBX Classes
 90
     4095
280
     0
281
     0
  0
CLASS
  1
MLEADERSTYLE
  2
AcDbMLeaderStyle
  3
ACDB_MLEADERSTYLE_CLASS
 90
     4095
280
     0
281
     0
  0
CLASS
  1
SUN
  2
AcDbSun
  3
SCENEOE
 90
     1153
280
     0
281
     0
  0
CLASS
  1
ACDBPLACEHOLDER
  2
AcDbPlaceHolder
  3
ObjectDBX Classes
 90
        0
280
     0
281
     0
  0
CLASS
  1
LAYOUT
  2
AcDbLayout
  3
ObjectDBX Classes
 90
        0
280
     0
281
     0
  0
ENDSEC
  0
SECTION
  2
TABLES
  0
TABLE
  2
VPORT
  5
8
330
0
100
AcDbSymbolTable
 70
     1
  0
VPORT
  5
29
330
8
100
AcDbSymbolTableRecord
100
AcDbViewportTableRecord
  2
*Active
 70
     0
 10
0.0
 20
0.0
 11
1.0
 21
1.0
 12
215.9
 22
139.7
 13
0.0
 23
0.0
 14
10.0
 24
10.0
 15
10.0
 25
10.0
 16
0.0
 26
0.0
 36
1.0
 17
0.0
 27
0.0
 37
0.0
 40
279.4
 41
1.5454545455
 42
50.0
 43
0.0
 44
0.0
 50
0.0
 51
0.0
 71
     0
 72
  2000
 73
     1
 74
     3
 75
     0
 76
     0
 77
     0
 78
     0
281
     0
 65
     1
110
0.0
120
0.0
130
0.0
111
1.0
121
0.0
131
0.0
112
0.0
122
1.0
132
0.0
 79
     0
146
0.0
  0
ENDTAB
  0
TABLE
  2
LTYPE
  5
5
330
0
100
AcDbSymbolTable
 70
     6
  0
LTYPE
  5
14
330
5
100
AcDbSymbolTableRecord
100
AcDbLinetypeTableRecord
  2
ByBlock
 70
     0
  3

 72
    65
 73
     0
 40
0.0
  0
LTYPE
  5
15
330
5
100
AcDbSymbolTableRecord
100
AcDbLinetypeTableRecord
  2
ByLayer
 70
     0
  3

 72
    65
 73
     0
 40
0.0
  0
LTYPE
  5
16
330
5
100
AcDbSymbolTableRecord
100
AcDbLinetypeTableRecord
  2
Continuous
 70
     0
  3
Solid line
 72
    65
 73
     0
 40
0.0
  0
LTYPE
  5
6E
330
5
100
AcDbSymbolTableRecord
100
AcDbLinetypeTableRecord
  2
HIDDEN
 70
     0
  3
Hidden __ __ __ __ __ __ __ __ __ __ __ __ __ __
 72
    65
 73
     2
 40
1.905
 49
1.27
 74
     0
 49
-0.635
 74
     0
  0
LTYPE
  5
6F
330
5
100
AcDbSymbolTableRecord
100
AcDbLinetypeTableRecord
  2
PHANTOM
 70
     0
  3
Phantom ______  __  __  ______  __  __  ______
 72
    65
 73
     6
 40
12.7
 49
6.35
 74
     0
 49
-1.27
 74
     0
 49
1.27
 74
     0
 49
-1.27
 74
     0
 49
1.27
 74
     0
 49
-1.27
 74
     0
  0
LTYPE
  5
70
330
5
100
AcDbSymbolTableRecord
100
AcDbLinetypeTableRecord
  2
CENTER
 70
     0
  3
Center ____ _ ____ _ ____ _ ____ _ ____ _ ____
 72
    65
 73
     4
 40
10.16
 49
6.35
 74
     0
 49
-1.27
 74
     0
 49
1.27
 74
     0
 49
-1.27
 74
     0
  0
LTYPE
  5
71
330
5
100
AcDbSymbolTableRecord
100
AcDbLinetypeTableRecord
  2
CENTERX2
 70
     0
  3
Center (2x) ________  __  ________  __  _____
 72
    65
 73
     4
 40
20.32
 49
12.7
 74
     0
 49
-2.54
 74
     0
 49
2.54
 74
     0
 49
-2.54
 74
     0
  0
LTYPE
  5
72
330
5
100
AcDbSymbolTableRecord
100
AcDbLinetypeTableRecord
  2
DOT2
 70
     0
  3
Dot (.5x) ........................................
 72
    65
 73
     2
 40
0.635
 49
0.0
 74
     0
 49
-0.635
 74
     0
  0
ENDTAB
  0
TABLE
  2
LAYER
  5
2
330
0
100
AcDbSymbolTable
 70
     2
  0
LAYER
  5
10
330
2
100
AcDbSymbolTableRecord
100
AcDbLayerTableRecord
  2
0
 70
     0
 62
     7
  6
Continuous
370
    -3
390
F
  0
LAYER
  5
73
330
2
100
AcDbSymbolTableRecord
100
AcDbLayerTableRecord
  2
FORMAT
 70
     0
 62
     7
  6
Continuous
370
    -3
390
F
  0
ENDTAB
  0
TABLE
  2
STYLE
  5
3
330
0
100
AcDbSymbolTable
 70
     2
  0
STYLE
  5
11
330
3
100
AcDbSymbolTableRecord
100
AcDbTextStyleTableRecord
  2
Standard
 70
     0
 40
0.0
 41
1.0
 50
0.0
 71
     0
 42
3.175
  3
txt
  4

  0
STYLE
  5
B8
330
3
100
AcDbSymbolTableRecord
100
AcDbTextStyleTableRecord
  2
SLDTEXTSTYLE0
 70
     0
 40
0.0
 41
0.7
 50
0.0
 71
     0
 42
3.175
  3
TXT
  4

  0
ENDTAB
  0
TABLE
  2
VIEW
  5
6
330
0
100
AcDbSymbolTable
 70
     0
  0
ENDTAB
  0
TABLE
  2
UCS
  5
7
330
0
100
AcDbSymbolTable
 70
     0
  0
ENDTAB
  0
TABLE
  2
APPID
  5
9
330
0
100
AcDbSymbolTable
 70
     1
  0
APPID
  5
12
330
9
100
AcDbSymbolTableRecord
100
AcDbRegAppTableRecord
  2
ACAD
 70
     0
  0
ENDTAB
  0
TABLE
  2
DIMSTYLE
  5
A
330
0
100
AcDbSymbolTable
 70
     1
100
AcDbDimStyleTable
  0
DIMSTYLE
105
27
330
A
100
AcDbSymbolTableRecord
100
AcDbDimStyleTableRecord
  2
ISO-25
 70
     0
 41
2.5
 42
0.625
 43
3.75
 44
1.25
 73
     0
 74
     0
 77
     1
 78
     8
140
2.5
141
2.5
143
0.0393700787
147
0.625
171
     3
172
     1
178
     0
271
     2
272
     2
274
     3
278
    44
283
     0
284
     8
340
11
  0
ENDTAB
  0
TABLE
  2
BLOCK_RECORD
  5
1
330
0
100
AcDbSymbolTable
 70
    11
  0
BLOCK_RECORD
  5
1F
330
1
100
AcDbSymbolTableRecord
100
AcDbBlockTableRecord
  2
*Model_Space
340
22
  0
BLOCK_RECORD
  5
1B
330
1
100
AcDbSymbolTableRecord
100
AcDbBlockTableRecord
  2
*Paper_Space
340
1E
  0
BLOCK_RECORD
  5
23
330
1
100
AcDbSymbolTableRecord
100
AcDbBlockTableRecord
  2
*Paper_Space0
340
26
  0
BLOCK_RECORD
  5
BB
330
1
100
AcDbSymbolTableRecord
100
AcDbBlockTableRecord
  2
SW_NOTE_0
340
0
102
{BLKREFS
331
C1
102
}
  0
BLOCK_RECORD
  5
C6
330
1
100
AcDbSymbolTableRecord
100
AcDbBlockTableRecord
  2
SW_NOTE_1
340
0
102
{BLKREFS
331
CC
102
}
  0
BLOCK_RECORD
  5
1AC
330
1
100
AcDbSymbolTableRecord
100
AcDbBlockTableRecord
  2
SW_CENTERMARKSYMBOL_0
340
0
102
{BLKREFS
331
1B7
102
}
  0
BLOCK_RECORD
  5
200
330
1
100
AcDbSymbolTableRecord
100
AcDbBlockTableRecord
  2
SW_CENTERMARKSYMBOL_1
340
0
102
{BLKREFS
331
20B
102
}
  0
BLOCK_RECORD
  5
20C
330
1
100
AcDbSymbolTableRecord
100
AcDbBlockTableRecord
  2
SW_CENTERMARKSYMBOL_2
340
0
102
{BLKREFS
331
217
102
}
  0
BLOCK_RECORD
  5
218
330
1
100
AcDbSymbolTableRecord
100
AcDbBlockTableRecord
  2
SW_CENTERMARKSYMBOL_3
340
0
102
{BLKREFS
331
223
102
}
  0
BLOCK_RECORD
  5
224
330
1
100
AcDbSymbolTableRecord
100
AcDbBlockTableRecord
  2
SW_CENTERMARKSYMBOL_4
340
0
102
{BLKREFS
331
22F
102
}
  0
BLOCK_RECORD
  5
230
330
1
100
AcDbSymbolTableRecord
100
AcDbBlockTableRecord
  2
SW_CENTERMARKSYMBOL_5
340
0
102
{BLKREFS
331
23B
102
}
  0
BLOCK_RECORD
  5
23C
330
1
100
AcDbSymbolTableRecord
100
AcDbBlockTableRecord
  2
SW_CENTERMARKSYMBOL_6
340
0
102
{BLKREFS
331
247
102
}
  0
BLOCK_RECORD
  5
248
330
1
100
AcDbSymbolTableRecord
100
AcDbBlockTableRecord
  2
SW_CENTERMARKSYMBOL_7
340
0
102
{BLKREFS
331
253
102
}
  0
ENDTAB
  0
ENDSEC
  0
SECTION
  2
BLOCKS
  0
BLOCK
  5
20
330
1F
100
AcDbEntity
  8
0
100
AcDbBlockBegin
  2
*Model_Space
 70
     0
 10
0.0
 20
0.0
 30
0.0
  3
*Model_Space
  1

  0
ENDBLK
  5
21
330
1F
100
AcDbEntity
  8
0
100
AcDbBlockEnd
  0
BLOCK
  5
1C
330
1B
100
AcDbEntity
 67
     1
  8
0
100
AcDbBlockBegin
  2
*Paper_Space
 70
     0
 10
0.0
 20
0.0
 30
0.0
  3
*Paper_Space
  1

  0
ENDBLK
  5
1D
330
1B
100
AcDbEntity
 67
     1
  8
0
100
AcDbBlockEnd
  0
BLOCK
  5
24
330
23
100
AcDbEntity
  8
0
100
AcDbBlockBegin
  2
*Paper_Space0
 70
     0
 10
0.0
 20
0.0
 30
0.0
  3
*Paper_Space0
  1

  0
ENDBLK
  5
25
330
23
100
AcDbEntity
  8
0
100
AcDbBlockEnd
  0
BLOCK
  5
BC
330
BB
100
AcDbEntity
  8
0
100
AcDbBlockBegin
  2
SW_NOTE_0
 70
     0
 10
0.0
 20
0.0
 30
0.0
  3
SW_NOTE_0
  1

  0
MTEXT
  5
BE
330
BB
100
AcDbEntity
  8
0
  6
Continuous
 62
     0
370
     0
100
AcDbMText
 10
0.0
 20
2.0463950369
 30
0.0
 40
1.5875
 41
0.0
 71
     1
 72
     1
  1
87 34th Street, Unit 11, Brooklyn, NY 11232
  7
SLDTEXTSTYLE0
 73
     1
 44
1.0
  0
MTEXT
  5
BF
330
BB
100
AcDbEntity
  8
0
  6
Continuous
 62
     0
370
     0
100
AcDbMText
 10
0.0
 20
-0.0702716042
 30
0.0
 40
1.5875
 41
0.0
 71
     1
 72
     1
  1
T +1 718-387-6132
  7
SLDTEXTSTYLE0
 73
     1
 44
1.0
  0
MTEXT
  5
C0
330
BB
100
AcDbEntity
  8
0
  6
Continuous
 62
     0
370
     0
100
AcDbMText
 10
0.0
 20
-2.1869382453
 30
0.0
 40
1.5875
 41
0.0
 71
     1
 72
     1
  1
www.rollandhill.com
  7
SLDTEXTSTYLE0
 73
     1
 44
1.0
  0
ENDBLK
  5
BD
330
BB
100
AcDbEntity
  8
0
100
AcDbBlockEnd
  0
BLOCK
  5
C7
330
C6
100
AcDbEntity
  8
0
100
AcDbBlockBegin
  2
SW_NOTE_1
 70
     0
 10
0.0
 20
0.0
 30
0.0
  3
SW_NOTE_1
  1

  0
MTEXT
  5
C9
330
C6
100
AcDbEntity
  8
0
  6
Continuous
 62
     0
370
     0
100
AcDbMText
 10
0.0
 20
2.0463950369
 30
0.0
 40
1.5875
 41
0.0
 71
     1
 72
     1
  1
\LPROPRIETARY AND CONFIDENTIAL
  7
SLDTEXTSTYLE0
 73
     1
 44
1.0
  0
MTEXT
  5
CA
330
C6
100
AcDbEntity
  8
0
  6
Continuous
 62
     0
370
     0
100
AcDbMText
 10
37.3117625713
 20
2.0463950369
 30
0.0
 40
1.5875
 41
0.0
 71
     1
 72
     1
  1
THE INFORMATION CONTAINED IN THIS DRAWING IS THE SOLE PROPERTY OF ROLL & HILL LLC. ANY REPRODUCTION IN
  7
SLDTEXTSTYLE0
 73
     1
 44
1.0
  0
MTEXT
  5
CB
330
C6
100
AcDbEntity
  8
0
  6
Continuous
 62
     0
370
     0
100
AcDbMText
 10
0.0
 20
-0.0702716042
 30
0.0
 40
1.5875
 41
0.0
 71
     1
 72
     1
  1
PART OR AS A WHOLE WITHOUT THE WRITTEN PERMISSION OF ROLL & HILL LLC. IS PROHIBITED.
  7
SLDTEXTSTYLE0
 73
     1
 44
1.0
  0
ENDBLK
  5
C8
330
C6
100
AcDbEntity
  8
0
100
AcDbBlockEnd
  0
BLOCK
  5
1AD
330
1AC
100
AcDbEntity
  8
0
100
AcDbBlockBegin
  2
SW_CENTERMARKSYMBOL_0
 70
     0
 10
0.0
 20
0.0
 30
0.0
  3
SW_CENTERMARKSYMBOL_0
  1

  0
LINE
  5
1AF
330
1AC
100
AcDbEntity
  8
0
  6
Continuous
 62
     0
370
     0
100
AcDbLine
 10
0.0
 20
0.0
 30
0.0
 11
0.0
 21
0.1411111111
 31
0.0
  0
LINE
  5
1B0
330
1AC
100
AcDbEntity
  8
0
  6
Continuous
 62
     0
370
     0
100
AcDbLine
 10
0.0
 20
0.0
 30
0.0
 11
-0.1411111111
 21
0.0
 31
0.0
  0
LINE
  5
1B1
330
1AC
100
AcDbEntity
  8
0
  6
Continuous
 62
     0
370
     0
100
AcDbLine
 10
0.0
 20
0.0
 30
0.0
 11
0.0
 21
-0.1411111111
 31
0.0
  0
LINE
  5
1B2
330
1AC
100
AcDbEntity
  8
0
  6
Continuous
 62
     0
370
     0
100
AcDbLine
 10
0.0
 20
0.0
 30
0.0
 11
0.1411111111
 21
0.0
 31
0.0
  0
LINE
  5
1B3
330
1AC
100
AcDbEntity
  8
0
  6
Continuous
 62
     0
370
     0
100
AcDbLine
 10
0.0
 20
0.2822222222
 30
0.0
 11
0.0
 21
2.6105555556
 31
0.0
  0
LINE
  5
1B4
330
1AC
100
AcDbEntity
  8
0
  6
Continuous
 62
     0
370
     0
100
AcDbLine
 10
-0.2822222222
 20
0.0
 30
0.0
 11
-2.6105555556
 21
0.0
 31
0.0
  0
LINE
  5
1B5
330
1AC
100
AcDbEntity
  8
0
  6
Continuous
 62
     0
370
     0
100
AcDbLine
 10
0.0
 20
-0.2822222222
 30
0.0
 11
0.0
 21
-2.6105555556
 31
0.0
  0
LINE
  5
1B6
330
1AC
100
AcDbEntity
  8
0
  6
Continuous
 62
     0
370
     0
100
AcDbLine
 10
0.2822222222
 20
0.0
 30
0.0
 11
2.6105555556
 21
0.0
 31
0.0
  0
ENDBLK
  5
1AE
330
1AC
100
AcDbEntity
  8
0
100
AcDbBlockEnd
  0
BLOCK
  5
201
330
200
100
AcDbEntity
  8
0
100
AcDbBlockBegin
  2
SW_CENTERMARKSYMBOL_1
 70
     0
 10
0.0
 20
0.0
 30
0.0
  3
SW_CENTERMARKSYMBOL_1
  1

  0
LINE
  5
203
330
200
100
AcDbEntity
  8
0
  6
Continuous
 62
     0
370
     0
100
AcDbLine
 10
0.0
 20
0.0
 30
0.0
 11
0.0
 21
0.1411111111
 31
0.0
  0
LINE
  5
204
330
200
100
AcDbEntity
  8
0
  6
Continuous
 62
     0
370
     0
100
AcDbLine
 10
0.0
 20
0.0
 30
0.0
 11
-0.1411111111
 21
0.0
 31
0.0
  0
LINE
  5
205
330
200
100
AcDbEntity
  8
0
  6
Continuous
 62
     0
370
     0
100
AcDbLine
 10
0.0
 20
0.0
 30
0.0
 11
0.0
 21
-0.1411111111
 31
0.0
  0
LINE
  5
206
330
200
100
AcDbEntity
  8
0
  6
Continuous
 62
     0
370
     0
100
AcDbLine
 10
0.0
 20
0.0
 30
0.0
 11
0.1411111111
 21
0.0
 31
0.0
  0
LINE
  5
207
330
200
100
AcDbEntity
  8
0
  6
Continuous
 62
     0
370
     0
100
AcDbLine
 10
0.0
 20
0.2822222222
 30
0.0
 11
0.0
 21
3.6688888889
 31
0.0
  0
LINE
  5
208
330
200
100
AcDbEntity
  8
0
  6
Continuous
 62
     0
370
     0
100
AcDbLine
 10
-0.2822222222
 20
0.0
 30
0.0
 11
-3.6688888889
 21
0.0
 31
0.0
  0
LINE
  5
209
330
200
100
AcDbEntity
  8
0
  6
Continuous
 62
     0
370
     0
100
AcDbLine
 10
0.0
 20
-0.2822222222
 30
0.0
 11
0.0
 21
-3.6688888889
 31
0.0
  0
LINE
  5
20A
330
200
100
AcDbEntity
  8
0
  6
Continuous
 62
     0
370
     0
100
AcDbLine
 10
0.2822222222
 20
0.0
 30
0.0
 11
3.6688888889
 21
0.0
 31
0.0
  0
ENDBLK
  5
202
330
200
100
AcDbEntity
  8
0
100
AcDbBlockEnd
  0
BLOCK
  5
20D
330
20C
100
AcDbEntity
  8
0
100
AcDbBlockBegin
  2
SW_CENTERMARKSYMBOL_2
 70
     0
 10
0.0
 20
0.0
 30
0.0
  3
SW_CENTERMARKSYMBOL_2
  1

  0
LINE
  5
20F
330
20C
100
AcDbEntity
  8
0
  6
Continuous
 62
     0
370
     0
100
AcDbLine
 10
0.0
 20
0.0
 30
0.0
 11
0.0
 21
0.1411111111
 31
0.0
  0
LINE
  5
210
330
20C
100
AcDbEntity
  8
0
  6
Continuous
 62
     0
370
     0
100
AcDbLine
 10
0.0
 20
0.0
 30
0.0
 11
-0.1411111111
 21
0.0
 31
0.0
  0
LINE
  5
211
330
20C
100
AcDbEntity
  8
0
  6
Continuous
 62
     0
370
     0
100
AcDbLine
 10
0.0
 20
0.0
 30
0.0
 11
0.0
 21
-0.1411111111
 31
0.0
  0
LINE
  5
212
330
20C
100
AcDbEntity
  8
0
  6
Continuous
 62
     0
370
     0
100
AcDbLine
 10
0.0
 20
0.0
 30
0.0
 11
0.1411111111
 21
0.0
 31
0.0
  0
LINE
  5
213
330
20C
100
AcDbEntity
  8
0
  6
Continuous
 62
     0
370
     0
100
AcDbLine
 10
0.0
 20
0.2822222222
 30
0.0
 11
0.0
 21
2.6105555556
 31
0.0
  0
LINE
  5
214
330
20C
100
AcDbEntity
  8
0
  6
Continuous
 62
     0
370
     0
100
AcDbLine
 10
-0.2822222222
 20
0.0
 30
0.0
 11
-2.6105555556
 21
0.0
 31
0.0
  0
LINE
  5
215
330
20C
100
AcDbEntity
  8
0
  6
Continuous
 62
     0
370
     0
100
AcDbLine
 10
0.0
 20
-0.2822222222
 30
0.0
 11
0.0
 21
-2.6105555556
 31
0.0
  0
LINE
  5
216
330
20C
100
AcDbEntity
  8
0
  6
Continuous
 62
     0
370
     0
100
AcDbLine
 10
0.2822222222
 20
0.0
 30
0.0
 11
2.6105555556
 21
0.0
 31
0.0
  0
ENDBLK
  5
20E
330
20C
100
AcDbEntity
  8
0
100
AcDbBlockEnd
  0
BLOCK
  5
219
330
218
100
AcDbEntity
  8
0
100
AcDbBlockBegin
  2
SW_CENTERMARKSYMBOL_3
 70
     0
 10
0.0
 20
0.0
 30
0.0
  3
SW_CENTERMARKSYMBOL_3
  1

  0
LINE
  5
21B
330
218
100
AcDbEntity
  8
0
  6
Continuous
 62
     0
370
     0
100
AcDbLine
 10
0.0
 20
0.0
 30
0.0
 11
0.0
 21
0.1411111111
 31
0.0
  0
LINE
  5
21C
330
218
100
AcDbEntity
  8
0
  6
Continuous
 62
     0
370
     0
100
AcDbLine
 10
0.0
 20
0.0
 30
0.0
 11
-0.1411111111
 21
0.0
 31
0.0
  0
LINE
  5
21D
330
218
100
AcDbEntity
  8
0
  6
Continuous
 62
     0
370
     0
100
AcDbLine
 10
0.0
 20
0.0
 30
0.0
 11
0.0
 21
-0.1411111111
 31
0.0
  0
LINE
  5
21E
330
218
100
AcDbEntity
  8
0
  6
Continuous
 62
     0
370
     0
100
AcDbLine
 10
0.0
 20
0.0
 30
0.0
 11
0.1411111111
 21
0.0
 31
0.0
  0
LINE
  5
21F
330
218
100
AcDbEntity
  8
0
  6
Continuous
 62
     0
370
     0
100
AcDbLine
 10
0.0
 20
0.2822222222
 30
0.0
 11
0.0
 21
2.6105555556
 31
0.0
  0
LINE
  5
220
330
218
100
AcDbEntity
  8
0
  6
Continuous
 62
     0
370
     0
100
AcDbLine
 10
-0.2822222222
 20
0.0
 30
0.0
 11
-2.6105555556
 21
0.0
 31
0.0
  0
LINE
  5
221
330
218
100
AcDbEntity
  8
0
  6
Continuous
 62
     0
370
     0
100
AcDbLine
 10
0.0
 20
-0.2822222222
 30
0.0
 11
0.0
 21
-2.6105555556
 31
0.0
  0
LINE
  5
222
330
218
100
AcDbEntity
  8
0
  6
Continuous
 62
     0
370
     0
100
AcDbLine
 10
0.2822222222
 20
0.0
 30
0.0
 11
2.6105555556
 21
0.0
 31
0.0
  0
ENDBLK
  5
21A
330
218
100
AcDbEntity
  8
0
100
AcDbBlockEnd
  0
BLOCK
  5
225
330
224
100
AcDbEntity
  8
0
100
AcDbBlockBegin
  2
SW_CENTERMARKSYMBOL_4
 70
     0
 10
0.0
 20
0.0
 30
0.0
  3
SW_CENTERMARKSYMBOL_4
  1

  0
LINE
  5
227
330
224
100
AcDbEntity
  8
0
  6
Continuous
 62
     0
370
     0
100
AcDbLine
 10
0.0
 20
0.0
 30
0.0
 11
0.0
 21
0.1411111111
 31
0.0
  0
LINE
  5
228
330
224
100
AcDbEntity
  8
0
  6
Continuous
 62
     0
370
     0
100
AcDbLine
 10
0.0
 20
0.0
 30
0.0
 11
-0.1411111111
 21
0.0
 31
0.0
  0
LINE
  5
229
330
224
100
AcDbEntity
  8
0
  6
Continuous
 62
     0
370
     0
100
AcDbLine
 10
0.0
 20
0.0
 30
0.0
 11
0.0
 21
-0.1411111111
 31
0.0
  0
LINE
  5
22A
330
224
100
AcDbEntity
  8
0
  6
Continuous
 62
     0
370
     0
100
AcDbLine
 10
0.0
 20
0.0
 30
0.0
 11
0.1411111111
 21
0.0
 31
0.0
  0
LINE
  5
22B
330
224
100
AcDbEntity
  8
0
  6
Continuous
 62
     0
370
     0
100
AcDbLine
 10
0.0
 20
0.2822222222
 30
0.0
 11
0.0
 21
2.6105555556
 31
0.0
  0
LINE
  5
22C
330
224
100
AcDbEntity
  8
0
  6
Continuous
 62
     0
370
     0
100
AcDbLine
 10
-0.2822222222
 20
0.0
 30
0.0
 11
-2.6105555556
 21
0.0
 31
0.0
  0
LINE
  5
22D
330
224
100
AcDbEntity
  8
0
  6
Continuous
 62
     0
370
     0
100
AcDbLine
 10
0.0
 20
-0.2822222222
 30
0.0
 11
0.0
 21
-2.6105555556
 31
0.0
  0
LINE
  5
22E
330
224
100
AcDbEntity
  8
0
  6
Continuous
 62
     0
370
     0
100
AcDbLine
 10
0.2822222222
 20
0.0
 30
0.0
 11
2.6105555556
 21
0.0
 31
0.0
  0
ENDBLK
  5
226
330
224
100
AcDbEntity
  8
0
100
AcDbBlockEnd
  0
BLOCK
  5
231
330
230
100
AcDbEntity
  8
0
100
AcDbBlockBegin
  2
SW_CENTERMARKSYMBOL_5
 70
     0
 10
0.0
 20
0.0
 30
0.0
  3
SW_CENTERMARKSYMBOL_5
  1

  0
LINE
  5
233
330
230
100
AcDbEntity
  8
0
  6
Continuous
 62
     0
370
     0
100
AcDbLine
 10
0.0
 20
0.0
 30
0.0
 11
0.0
 21
0.1411111111
 31
0.0
  0
LINE
  5
234
330
230
100
AcDbEntity
  8
0
  6
Continuous
 62
     0
370
     0
100
AcDbLine
 10
0.0
 20
0.0
 30
0.0
 11
-0.1411111111
 21
0.0
 31
0.0
  0
LINE
  5
235
330
230
100
AcDbEntity
  8
0
  6
Continuous
 62
     0
370
     0
100
AcDbLine
 10
0.0
 20
0.0
 30
0.0
 11
0.0
 21
-0.1411111111
 31
0.0
  0
LINE
  5
236
330
230
100
AcDbEntity
  8
0
  6
Continuous
 62
     0
370
     0
100
AcDbLine
 10
0.0
 20
0.0
 30
0.0
 11
0.1411111111
 21
0.0
 31
0.0
  0
LINE
  5
237
330
230
100
AcDbEntity
  8
0
  6
Continuous
 62
     0
370
     0
100
AcDbLine
 10
0.0
 20
0.2822222222
 30
0.0
 11
0.0
 21
2.6105555556
 31
0.0
  0
LINE
  5
238
330
230
100
AcDbEntity
  8
0
  6
Continuous
 62
     0
370
     0
100
AcDbLine
 10
-0.2822222222
 20
0.0
 30
0.0
 11
-2.6105555556
 21
0.0
 31
0.0
  0
LINE
  5
239
330
230
100
AcDbEntity
  8
0
  6
Continuous
 62
     0
370
     0
100
AcDbLine
 10
0.0
 20
-0.2822222222
 30
0.0
 11
0.0
 21
-2.6105555556
 31
0.0
  0
LINE
  5
23A
330
230
100
AcDbEntity
  8
0
  6
Continuous
 62
     0
370
     0
100
AcDbLine
 10
0.2822222222
 20
0.0
 30
0.0
 11
2.6105555556
 21
0.0
 31
0.0
  0
ENDBLK
  5
232
330
230
100
AcDbEntity
  8
0
100
AcDbBlockEnd
  0
BLOCK
  5
23D
330
23C
100
AcDbEntity
  8
0
100
AcDbBlockBegin
  2
SW_CENTERMARKSYMBOL_6
 70
     0
 10
0.0
 20
0.0
 30
0.0
  3
SW_CENTERMARKSYMBOL_6
  1

  0
LINE
  5
23F
330
23C
100
AcDbEntity
  8
0
  6
Continuous
 62
     0
370
     0
100
AcDbLine
 10
0.0
 20
0.0
 30
0.0
 11
0.0
 21
0.1411111111
 31
0.0
  0
LINE
  5
240
330
23C
100
AcDbEntity
  8
0
  6
Continuous
 62
     0
370
     0
100
AcDbLine
 10
0.0
 20
0.0
 30
0.0
 11
-0.1411111111
 21
0.0
 31
0.0
  0
LINE
  5
241
330
23C
100
AcDbEntity
  8
0
  6
Continuous
 62
     0
370
     0
100
AcDbLine
 10
0.0
 20
0.0
 30
0.0
 11
0.0
 21
-0.1411111111
 31
0.0
  0
LINE
  5
242
330
23C
100
AcDbEntity
  8
0
  6
Continuous
 62
     0
370
     0
100
AcDbLine
 10
0.0
 20
0.0
 30
0.0
 11
0.1411111111
 21
0.0
 31
0.0
  0
LINE
  5
243
330
23C
100
AcDbEntity
  8
0
  6
Continuous
 62
     0
370
     0
100
AcDbLine
 10
0.0
 20
0.2822222222
 30
0.0
 11
0.0
 21
2.6105555556
 31
0.0
  0
LINE
  5
244
330
23C
100
AcDbEntity
  8
0
  6
Continuous
 62
     0
370
     0
100
AcDbLine
 10
-0.2822222222
 20
0.0
 30
0.0
 11
-2.6105555556
 21
0.0
 31
0.0
  0
LINE
  5
245
330
23C
100
AcDbEntity
  8
0
  6
Continuous
 62
     0
370
     0
100
AcDbLine
 10
0.0
 20
-0.2822222222
 30
0.0
 11
0.0
 21
-2.6105555556
 31
0.0
  0
LINE
  5
246
330
23C
100
AcDbEntity
  8
0
  6
Continuous
 62
     0
370
     0
100
AcDbLine
 10
0.2822222222
 20
0.0
 30
0.0
 11
2.6105555556
 21
0.0
 31
0.0
  0
ENDBLK
  5
23E
330
23C
100
AcDbEntity
  8
0
100
AcDbBlockEnd
  0
BLOCK
  5
249
330
248
100
AcDbEntity
  8
0
100
AcDbBlockBegin
  2
SW_CENTERMARKSYMBOL_7
 70
     0
 10
0.0
 20
0.0
 30
0.0
  3
SW_CENTERMARKSYMBOL_7
  1

  0
LINE
  5
24B
330
248
100
AcDbEntity
  8
0
  6
Continuous
 62
     0
370
     0
100
AcDbLine
 10
0.0
 20
0.0
 30
0.0
 11
0.0
 21
0.1411111111
 31
0.0
  0
LINE
  5
24C
330
248
100
AcDbEntity
  8
0
  6
Continuous
 62
     0
370
     0
100
AcDbLine
 10
0.0
 20
0.0
 30
0.0
 11
-0.1411111111
 21
0.0
 31
0.0
  0
LINE
  5
24D
330
248
100
AcDbEntity
  8
0
  6
Continuous
 62
     0
370
     0
100
AcDbLine
 10
0.0
 20
0.0
 30
0.0
 11
0.0
 21
-0.1411111111
 31
0.0
  0
LINE
  5
24E
330
248
100
AcDbEntity
  8
0
  6
Continuous
 62
     0
370
     0
100
AcDbLine
 10
0.0
 20
0.0
 30
0.0
 11
0.1411111111
 21
0.0
 31
0.0
  0
LINE
  5
24F
330
248
100
AcDbEntity
  8
0
  6
Continuous
 62
     0
370
     0
100
AcDbLine
 10
0.0
 20
0.2822222222
 30
0.0
 11
0.0
 21
2.6105555556
 31
0.0
  0
LINE
  5
250
330
248
100
AcDbEntity
  8
0
  6
Continuous
 62
     0
370
     0
100
AcDbLine
 10
-0.2822222222
 20
0.0
 30
0.0
 11
-2.6105555556
 21
0.0
 31
0.0
  0
LINE
  5
251
330
248
100
AcDbEntity
  8
0
  6
Continuous
 62
     0
370
     0
100
AcDbLine
 10
0.0
 20
-0.2822222222
 30
0.0
 11
0.0
 21
-2.6105555556
 31
0.0
  0
LINE
  5
252
330
248
100
AcDbEntity
  8
0
  6
Continuous
 62
     0
370
     0
100
AcDbLine
 10
0.2822222222
 20
0.0
 30
0.0
 11
2.6105555556
 21
0.0
 31
0.0
  0
ENDBLK
  5
24A
330
248
100
AcDbEntity
  8
0
100
AcDbBlockEnd
  0
ENDSEC
  0
SECTION
  2
ENTITIES
  0
HATCH
  5
74
330
1F
100
AcDbEntity
  8
0
  6
Continuous
 62
     7
100
AcDbHatch
 10
0.0
 20
0.0
 30
0.0
210
0.0
220
0.0
230
1.0
  2
SOLID
 70
     1
 71
     0
 91
        2
 92
        0
 93
        6
 72
     4
 94
        3
 73
     1
 74
     0
 95
       20
 96
       16
 40
0.0
 40
0.0
 40
0.0
 40
0.0
 40
1.0
 40
1.0
 40
1.0
 40
2.0
 40
2.0
 40
2.0
 40
3.0
 40
3.0
 40
3.0
 40
4.0
 40
4.0
 40
4.0
 40
5.0
 40
5.0
 40
5.0
 40
5.0
 10
261.0219043336847
 20
23.63056361828031
 42
1.0
 10
261.2341319795987
 20
23.68742184709604
 42
1.0
 10
261.3945785321864
 20
23.72473719781129
 42
1.0
 10
261.5515161764629
 20
23.77337299628437
 42
1.0
 10
262.5617362220245
 20
24.08644572151765
 42
1.0
 10
262.9966382899503
 20
24.76217905347502
 42
1.0
 10
262.9131259646454
 20
25.88395655371281
 42
1.0
 10
262.8488620904764
 20
26.74717259793779
 42
1.0
 10
262.3071445332423
 20
27.30037799580671
 42
1.0
 10
261.2989762515715
 20
27.40941936834727
 42
1.0
 10
260.5093946232761
 20
27.49481913962259
 42
1.0
 10
259.7094699986221
 20
27.48819126576296
 42
1.0
 10
258.913837050576
 20
27.51251762112626
 42
1.0
 10
258.5159962651877
 20
27.52468175973202
 42
1.0
 10
258.1174764912431
 20
27.51463645747964
 42
1.0
 10
257.7192638284546
 20
27.51463645747964
 42
1.0
 72
     4
 94
        3
 73
     1
 74
     0
 95
       14
 96
       10
 40
17.0
 40
17.0
 40
17.0
 40
17.0
 40
18.0
 40
18.0
 40
18.0
 40
19.0
 40
19.0
 40
19.0
 40
20.0
 40
20.0
 40
20.0
 40
20.0
 10
257.7192638284546
 20
27.51463645747964
 42
1.0
 10
258.2057453879524
 20
27.36893835120056
 42
1.0
 10
258.4151924094879
 20
27.04153921726714
 42
1.0
 10
258.4151320634913
 20
26.55729487989966
 42
1.0
 10
258.4149081683119
 20
24.76100595804667
 42
1.0
 10
258.4191609275175
 20
22.96470127704905
 42
1.0
 10
258.4124688639662
 20
21.16843695483816
 42
1.0
 10
258.4104423723632
 20
20.62446660851326
 42
1.0
 10
258.2139995287706
 20
20.39587059142628
 42
1.0
 10
257.7053577757453
 20
20.25910042553502
 42
1.0
 72
     1
 10
257.7053577757453
 20
20.25910042553502
 11
260.1134120717832
 21
20.25910042553502
 72
     4
 94
        3
 73
     1
 74
     0
 95
       14
 96
       10
 40
13.0
 40
13.0
 40
13.0
 40
13.0
 40
14.0
 40
14.0
 40
14.0
 40
15.0
 40
15.0
 40
15.0
 40
16.0
 40
16.0
 40
16.0
 40
16.0
 10
260.1134120717832
 20
20.25910042553502
 42
1.0
 10
259.6377614656041
 20
20.40079128856704
 42
1.0
 10
259.4435911100346
 20
20.64162793377141
 42
1.0
 10
259.4408326829897
 20
21.14221143023692
 42
1.0
 10
259.4366701545022
 20
21.89763799307775
 42
1.0
 10
259.4392191002215
 20
22.65310606781492
 42
1.0
 10
259.4405559370167
 20
23.40855338660287
 42
1.0
 10
259.4406539512153
 20
23.46398560492077
 42
1.0
 10
259.4539911852495
 20
23.51939476107442
 42
1.0
 10
259.4607286043899
 20
23.57138302951071
 42
1.0
 72
     4
 94
        3
 73
     1
 74
     0
 95
       20
 96
       16
 40
8.0
 40
8.0
 40
8.0
 40
8.0
 40
9.0
 40
9.0
 40
9.0
 40
10.0
 40
10.0
 40
10.0
 40
11.0
 40
11.0
 40
11.0
 40
12.0
 40
12.0
 40
12.0
 40
13.0
 40
13.0
 40
13.0
 40
13.0
 10
259.4607286043899
 20
23.57138302951071
 42
1.0
 10
260.3725694925604
 20
23.65083910446931
 42
1.0
 10
260.6054131759577
 20
23.52556773374194
 42
1.0
 10
261.0037355762117
 20
22.71920223094413
 42
1.0
 10
261.378026816807
 20
21.9614848264415
 42
1.0
 10
261.7451764738302
 20
21.200166649339
 42
1.0
 10
262.1067370153144
 20
20.43629933433309
 42
1.0
 10
262.1765046750147
 20
20.28890135435546
 42
1.0
 10
262.2549406335689
 20
20.22203337745712
 42
1.0
 10
262.427398730108
 20
20.22724465786873
 42
1.0
 10
262.8718696744063
 20
20.24067529366942
 42
1.0
 10
263.3170171088603
 20
20.2311736819415
 42
1.0
 10
263.7618904879274
 20
20.2323936704376
 42
1.0
 10
263.8264337986554
 20
20.23257048036439
 42
1.0
 10
263.8909540472192
 20
20.24131411562171
 42
1.0
 10
263.9554858268652
 20
20.24609336482204
 42
1.0
 72
     4
 94
        3
 73
     1
 74
     0
 95
       14
 96
       10
 40
5.0
 40
5.0
 40
5.0
 40
5.0
 40
6.0
 40
6.0
 40
6.0
 40
7.0
 40
7.0
 40
7.0
 40
8.0
 40
8.0
 40
8.0
 40
8.0
 10
263.9554858268652
 20
20.24609336482204
 42
1.0
 10
263.5606000734738
 20
20.32757122285868
 42
1.0
 10
263.3178377375433
 20
20.57267359973515
 42
1.0
 10
263.1292772534607
 20
20.88520667032095
 42
1.0
 10
262.8739775562312
 20
21.30835818112304
 42
1.0
 10
262.6276890153665
 20
21.7369354504649
 42
1.0
 10
262.3739921385617
 20
22.16106556577572
 42
1.0
 10
262.033208300972
 20
22.73079019980925
 42
1.0
 10
261.7521543160346
 20
23.35408286053947
 42
1.0
 10
261.0219043336847
 20
23.63056361828031
 42
1.0
 97
        0
 92
        0
 93
        2
 72
     1
 10
259.4558811296203
 20
23.74052094311722
 11
259.4558811296203
 21
27.35855230546976
 72
     4
 94
        3
 73
     1
 74
     0
 95
       20
 96
       16
 40
1.0
 40
1.0
 40
1.0
 40
1.0
 40
2.0
 40
2.0
 40
2.0
 40
3.0
 40
3.0
 40
3.0
 40
4.0
 40
4.0
 40
4.0
 40
5.0
 40
5.0
 40
5.0
 40
6.0
 40
6.0
 40
6.0
 40
6.0
 10
259.4558811296203
 20
27.35855230546976
 42
1.0
 10
259.8103733099057
 20
27.35855230546976
 42
1.0
 10
260.1467440101549
 20
27.38072599997261
 42
1.0
 10
260.4792308497364
 20
27.35420547185249
 42
1.0
 10
261.3230227860075
 20
27.28690123567825
 42
1.0
 10
261.7108519014664
 20
26.95476897687368
 42
1.0
 10
261.8164781518313
 20
26.10478869315943
 42
1.0
 10
261.8719876284001
 20
25.65810454981779
 42
1.0
 10
261.8389787525148
 20
25.18024881635489
 42
1.0
 10
261.7413862071132
 20
24.73962656292206
 42
1.0
 10
261.608259863196
 20
24.13857044109259
 42
1.0
 10
261.1506181168165
 20
23.81517009427841
 42
1.0
 10
260.5489927438957
 20
23.74778168120397
 42
1.0
 10
260.1942113256325
 20
23.70804326575078
 42
1.0
 10
259.8313410453958
 20
23.74052094311722
 42
1.0
 10
259.4558811296203
 20
23.74052094311722
 42
1.0
 97
        0
 75
     0
 76
     1
 98
        1
 10
0.0
 20
0.0
  0
HATCH
  5
75
330
1F
100
AcDbEntity
  8
0
  6
Continuous
 62
     7
100
AcDbHatch
 10
0.0
 20
0.0
 30
0.0
210
0.0
220
0.0
230
1.0
  2
SOLID
 70
     1
 71
     0
 91
        2
 92
        0
 93
        2
 72
     4
 94
        3
 73
     1
 74
     0
 95
       14
 96
       10
 40
0.0
 40
0.0
 40
0.0
 40
0.0
 40
1.0
 40
1.0
 40
1.0
 40
2.0
 40
2.0
 40
2.0
 40
3.0
 40
3.0
 40
3.0
 40
3.0
 10
267.2336118279071
 20
20.23490821509466
 42
1.0
 10
268.1650050112285
 20
19.98240211471103
 42
1.0
 10
269.1482911393735
 20
20.33660467264827
 42
1.0
 10
269.7215189161771
 20
21.13111084177937
 42
1.0
 10
270.3723808569537
 20
22.03321892002499
 42
1.0
 10
270.372934348899
 20
23.32205720159637
 42
1.0
 10
269.7103360726668
 20
24.21398909980579
 42
1.0
 10
269.2464106552308
 20
24.83848445240961
 42
1.0
 10
268.6216197225536
 20
25.16033694362372
 42
1.0
 10
267.7758432870376
 20
25.16748813643033
 42
1.0
 72
     4
 94
        3
 73
     1
 74
     0
 95
       14
 96
       10
 40
3.0
 40
3.0
 40
3.0
 40
3.0
 40
4.0
 40
4.0
 40
4.0
 40
5.0
 40
5.0
 40
5.0
 40
6.0
 40
6.0
 40
6.0
 40
6.0
 10
267.7758432870376
 20
25.16748813643033
 42
1.0
 10
266.9062728477855
 20
25.1505801106106
 42
1.0
 10
266.225828300013
 20
24.723612195973
 42
1.0
 10
265.7739382574312
 20
23.92202056120339
 42
1.0
 10
265.4879189885011
 20
23.41465794151554
 42
1.0
 10
265.4259332718035
 20
22.86561853145873
 42
1.0
 10
265.4837047623288
 20
22.29272284982232
 42
1.0
 10
265.5792320909092
 20
21.34541139190241
 42
1.0
 10
266.3034040398354
 20
20.48709452013179
 42
1.0
 10
267.2336118279071
 20
20.23490821509466
 42
1.0
 97
        0
 92
        0
 93
        2
 72
     4
 94
        3
 73
     1
 74
     0
 95
       17
 96
       13
 40
0.0
 40
0.0
 40
0.0
 40
0.0
 40
1.0
 40
1.0
 40
1.0
 40
2.0
 40
2.0
 40
2.0
 40
3.0
 40
3.0
 40
3.0
 40
4.0
 40
4.0
 40
4.0
 40
4.0
 10
266.4699528411193
 20
22.82140374989816
 42
1.0
 10
266.4968487059656
 20
23.23360918874381
 42
1.0
 10
266.5993976948625
 20
23.64490674705059
 42
1.0
 10
266.7072125446274
 20
24.04607386528146
 42
1.0
 10
266.7597204805012
 20
24.2414496033099
 42
1.0
 10
266.882078331128
 20
24.42789874624283
 42
1.0
 10
267.0072628343699
 20
24.59213287496141
 42
1.0
 10
267.4640605055332
 20
25.19142205062979
 42
1.0
 10
268.2143234497673
 20
25.18405330473933
 42
1.0
 10
268.6683621173312
 20
24.58056604641373
 42
1.0
 10
269.0963628325642
 20
24.01168817818241
 42
1.0
 10
269.195680043492
 20
23.34551372899321
 42
1.0
 10
269.218762963826
 20
22.68351122534059
 42
1.0
 72
     4
 94
        3
 73
     1
 74
     0
 95
       17
 96
       13
 40
4.0
 40
4.0
 40
4.0
 40
4.0
 40
5.0
 40
5.0
 40
5.0
 40
6.0
 40
6.0
 40
6.0
 40
7.0
 40
7.0
 40
7.0
 40
8.0
 40
8.0
 40
8.0
 40
8.0
 10
269.218762963826
 20
22.68351122534059
 42
1.0
 10
269.202432645224
 20
22.05765558940843
 42
1.0
 10
269.1208448575376
 20
21.47214721006825
 42
1.0
 10
268.810867074766
 20
20.94311038392242
 42
1.0
 10
268.6078393105943
 20
20.5966013640246
 42
1.0
 10
268.3388937306983
 20
20.33416469565678
 42
1.0
 10
267.9076604687568
 20
20.30531315927085
 42
1.0
 10
267.4153070900211
 20
20.27237193240103
 42
1.0
 10
267.1048165584612
 20
20.54785025472892
 42
1.0
 10
266.8746830637486
 20
20.93428603108956
 42
1.0
 10
266.5287029361534
 20
21.51524885782822
 42
1.0
 10
266.4269741915698
 20
22.16270989809668
 42
1.0
 10
266.4699528411193
 20
22.82140374989816
 42
1.0
 97
        0
 75
     0
 76
     1
 98
        1
 10
0.0
 20
0.0
  0
HATCH
  5
76
330
1F
100
AcDbEntity
  8
0
  6
Continuous
 62
     7
100
AcDbHatch
 10
0.0
 20
0.0
 30
0.0
210
0.0
220
0.0
230
1.0
  2
SOLID
 70
     1
 71
     0
 91
        1
 92
        0
 93
        4
 72
     1
 10
273.9540333846496
 20
27.87257450949275
 11
272.4594267850394
 21
27.32510813123116
 72
     4
 94
        3
 73
     1
 74
     0
 95
       14
 96
       10
 40
6.0
 40
6.0
 40
6.0
 40
6.0
 40
7.0
 40
7.0
 40
7.0
 40
8.0
 40
8.0
 40
8.0
 40
9.0
 40
9.0
 40
9.0
 40
9.0
 10
272.4594267850394
 20
27.32510813123116
 42
1.0
 10
272.9826104338649
 20
27.28380667758701
 42
1.0
 10
273.0476395875227
 20
27.23250104921648
 42
1.0
 10
273.0527409382852
 20
26.65700799131587
 42
1.0
 10
273.0685846452182
 20
24.86961337752774
 42
1.0
 10
273.0702866329497
 20
23.08209538116094
 42
1.0
 10
273.0783845276048
 20
21.29462927466367
 42
1.0
 10
273.0805785081768
 20
20.81042375860576
 42
1.0
 10
273.0059923935969
 20
20.37668517687364
 42
1.0
 10
272.426404840594
 20
20.2590796695872
 42
1.0
 72
     1
 10
272.426404840594
 20
20.2590796695872
 11
274.6224502449564
 21
20.2590796695872
 72
     4
 94
        3
 73
     1
 74
     0
 95
       17
 96
       13
 40
1.0
 40
1.0
 40
1.0
 40
1.0
 40
2.0
 40
2.0
 40
2.0
 40
3.0
 40
3.0
 40
3.0
 40
4.0
 40
4.0
 40
4.0
 40
5.0
 40
5.0
 40
5.0
 40
5.0
 10
274.6224502449564
 20
20.2590796695872
 42
1.0
 10
274.1836818051716
 20
20.38260600321025
 42
1.0
 10
274.0006220316647
 20
20.58964274029083
 42
1.0
 10
273.9590578615309
 20
21.04279505200226
 42
1.0
 10
273.9506540088286
 20
21.13443409966764
 42
1.0
 10
273.954217881965
 20
21.22727776105204
 42
1.0
 10
273.9542086570993
 20
21.31956562427539
 42
1.0
 10
273.9539872603212
 20
23.41776441505853
 42
1.0
 10
273.9540349221275
 20
25.51596282147274
 42
1.0
 10
273.9540333846496
 20
27.61416161225588
 42
1.0
 10
273.9540333846496
 20
27.71082379150879
 42
1.0
 10
273.9540333846496
 20
27.8074859707617
 42
1.0
 10
273.9540333846496
 20
27.87257450949275
 42
1.0
 97
        0
 75
     0
 76
     1
 98
        1
 10
0.0
 20
0.0
  0
HATCH
  5
77
330
1F
100
AcDbEntity
  8
0
  6
Continuous
 62
     7
100
AcDbHatch
 10
0.0
 20
0.0
 30
0.0
210
0.0
220
0.0
230
1.0
  2
SOLID
 70
     1
 71
     0
 91
        1
 92
        0
 93
        4
 72
     1
 10
276.9460186560295
 20
20.2549177176549
 11
279.1055120673172
 21
20.2549177176549
 72
     4
 94
        3
 73
     1
 74
     0
 95
       14
 96
       10
 40
6.0
 40
6.0
 40
6.0
 40
6.0
 40
7.0
 40
7.0
 40
7.0
 40
8.0
 40
8.0
 40
8.0
 40
9.0
 40
9.0
 40
9.0
 40
9.0
 10
279.1055120673172
 20
20.2549177176549
 42
1.0
 10
278.6550987719953
 20
20.40793364087759
 42
1.0
 10
278.4823339486704
 20
20.63637283524633
 42
1.0
 10
278.4822124879378
 20
21.11904779232805
 42
1.0
 10
278.4816605334703
 20
23.30086999117493
 42
1.0
 10
278.4819664915176
 20
25.48269219002111
 42
1.0
 10
278.4819649540404
 20
27.66451419668386
 42
1.0
 10
278.4819649540404
 20
27.75219577693941
 42
1.0
 10
278.4819664915176
 20
27.83987735719566
 42
1.0
 10
278.4819664915176
 20
27.88441039662488
 42
1.0
 72
     1
 10
278.4819664915176
 20
27.88441039662488
 11
276.9846800684063
 21
27.3296354262854
 72
     4
 94
        3
 73
     1
 74
     0
 95
       17
 96
       13
 40
1.0
 40
1.0
 40
1.0
 40
1.0
 40
2.0
 40
2.0
 40
2.0
 40
3.0
 40
3.0
 40
3.0
 40
4.0
 40
4.0
 40
4.0
 40
5.0
 40
5.0
 40
5.0
 40
5.0
 10
276.9846800684063
 20
27.3296354262854
 42
1.0
 10
277.5366914227135
 20
27.25167954511983
 42
1.0
 10
277.5738092075535
 20
27.20775573119973
 42
1.0
 10
277.5772915943764
 20
26.57154691311976
 42
1.0
 10
277.5773838430334
 20
26.55476419172763
 42
1.0
 10
277.577359243392
 20
26.53798031722657
 42
1.0
 10
277.577359243392
 20
26.52119721146337
 42
1.0
 10
277.5773700057348
 20
24.72538990447762
 42
1.0
 10
277.5776652014392
 20
22.92958298186009
 42
1.0
 10
277.5771993457187
 20
21.13377529050539
 42
1.0
 10
277.5770686601204
 20
20.6342380475635
 42
1.0
 10
277.4179566381115
 20
20.4199152040148
 42
1.0
 10
276.9460186560295
 20
20.2549177176549
 42
1.0
 97
        0
 75
     0
 76
     1
 98
        1
 10
0.0
 20
0.0
  0
HATCH
  5
78
330
1F
100
AcDbEntity
  8
0
  6
Continuous
 62
     7
100
AcDbHatch
 10
0.0
 20
0.0
 30
0.0
210
0.0
220
0.0
230
1.0
  2
SOLID
 70
     1
 71
     0
 91
        3
 92
        0
 93
        9
 72
     4
 94
        3
 73
     1
 74
     0
 95
       14
 96
       10
 40
0.0
 40
0.0
 40
0.0
 40
0.0
 40
1.0
 40
1.0
 40
1.0
 40
2.0
 40
2.0
 40
2.0
 40
3.0
 40
3.0
 40
3.0
 40
3.0
 10
287.0539854214827
 20
21.61211917311517
 42
1.0
 10
287.2972697310664
 20
21.3082559388604
 42
1.0
 10
287.5152010346028
 20
21.01001756649998
 42
1.0
 10
287.7601488949774
 20
20.73592220529573
 42
1.0
 10
288.1784811821614
 20
20.26780485511384
 42
1.0
 10
288.7048673968812
 20
20.09831485913089
 42
1.0
 10
289.3271645408483
 20
20.20870037148624
 42
1.0
 10
289.9739444785289
 20
20.32342848939635
 42
1.0
 10
290.7160910783766
 20
21.04182259740494
 42
1.0
 10
290.8103661314317
 20
21.70506046432864
 42
1.0
 72
     4
 94
        3
 73
     1
 74
     0
 95
       14
 96
       10
 40
24.0
 40
24.0
 40
24.0
 40
24.0
 40
25.0
 40
25.0
 40
25.0
 40
26.0
 40
26.0
 40
26.0
 40
27.0
 40
27.0
 40
27.0
 40
27.0
 10
290.8103661314317
 20
21.70506046432864
 42
1.0
 10
290.6825002672103
 20
21.49939669476813
 42
1.0
 10
290.5884281612034
 20
21.32571784099438
 42
1.0
 10
290.4735170834558
 20
21.16713932372221
 42
1.0
 10
289.9836367374808
 20
20.49110656799653
 42
1.0
 10
289.3841588364346
 20
20.43289382139212
 42
1.0
 10
288.8166481701822
 20
21.05011190802389
 42
1.0
 10
288.4270667146001
 20
21.47381844824843
 42
1.0
 10
288.0996055050067
 20
21.95463920731319
 42
1.0
 10
287.7314564875268
 20
22.4264857094768
 42
1.0
 72
     4
 94
        3
 73
     1
 74
     0
 95
       11
 96
        7
 40
22.0
 40
22.0
 40
22.0
 40
22.0
 40
23.0
 40
23.0
 40
23.0
 40
24.0
 40
24.0
 40
24.0
 40
24.0
 10
287.7314564875268
 20
22.4264857094768
 42
1.0
 10
288.1508588591387
 20
23.00030157147278
 42
1.0
 10
288.5466855488353
 20
23.55949371503118
 42
1.0
 10
288.9612633156569
 20
24.10441845059237
 42
1.0
 10
289.4290162836425
 20
24.71923384406366
 42
1.0
 10
289.9536528488242
 20
25.26443186627322
 42
1.0
 10
290.7742138825406
 20
25.39867403457779
 42
1.0
 72
     1
 10
290.7742138825406
 20
25.39867403457779
 11
287.7715077796773
 21
25.39867403457779
 72
     4
 94
        3
 73
     1
 74
     0
 95
       17
 96
       13
 40
16.0
 40
16.0
 40
16.0
 40
16.0
 40
17.0
 40
17.0
 40
17.0
 40
18.0
 40
18.0
 40
18.0
 40
19.0
 40
19.0
 40
19.0
 40
20.0
 40
20.0
 40
20.0
 40
20.0
 10
287.7715077796773
 20
25.39867403457779
 42
1.0
 10
287.9710693005408
 20
25.34310267453518
 42
1.0
 10
288.1718392788191
 20
25.32949945687163
 42
1.0
 10
288.3670435880915
 20
25.28904726743022
 42
1.0
 10
288.7601181928394
 20
25.20759054971102
 42
1.0
 10
288.9174636530569
 20
24.97387165717582
 42
1.0
 10
288.8543009972361
 20
24.57697987985169
 42
1.0
 10
288.8373887433532
 20
24.47070865762303
 42
1.0
 10
288.8131334963293
 20
24.35736772890119
 42
1.0
 10
288.7595985254019
 20
24.26650702928458
 42
1.0
 10
288.4211781752921
 20
23.692108847638
 42
1.0
 10
288.0735790837579
 20
23.12311989664797
 42
1.0
 10
287.7233847299918
 20
22.54303496963325
 42
1.0
 72
     1
 10
287.7233847299918
 20
22.54303496963325
 11
285.8065406500284
 21
24.86455968857224
 72
     4
 94
        3
 73
     1
 74
     0
 95
       20
 96
       16
 40
10.0
 40
10.0
 40
10.0
 40
10.0
 40
11.0
 40
11.0
 40
11.0
 40
12.0
 40
12.0
 40
12.0
 40
13.0
 40
13.0
 40
13.0
 40
14.0
 40
14.0
 40
14.0
 40
15.0
 40
15.0
 40
15.0
 40
15.0
 10
285.8065406500283
 20
24.86455968857225
 42
1.0
 10
285.9002991106001
 20
24.9215528310502
 42
1.0
 10
286.0025259979348
 20
24.975621306713
 42
1.0
 10
286.0959738880259
 20
25.04203380586477
 42
1.0
 10
286.361711520857
 20
25.23088333574105
 42
1.0
 10
286.6551698752792
 20
25.39378370261948
 42
1.0
 10
286.8815726805328
 20
25.62247811827483
 42
1.0
 10
287.5614237619422
 20
26.30921056516709
 42
1.0
 10
287.361321048954
 20
27.32558686332681
 42
1.0
 10
286.4793408590448
 20
27.71426216803416
 42
1.0
 10
285.840402057257
 20
27.99583274545401
 42
1.0
 10
285.1912113546599
 20
27.99239110178883
 42
1.0
 10
284.558084218296
 20
27.68711127408746
 42
1.0
 10
283.9109291360762
 20
27.37506654483262
 42
1.0
 10
283.6309452355653
 20
26.8393466878164
 42
1.0
 10
283.7149530130354
 20
26.1296866058298
 42
1.0
 72
     4
 94
        3
 73
     1
 74
     0
 95
       11
 96
        7
 40
8.0
 40
8.0
 40
8.0
 40
8.0
 40
9.0
 40
9.0
 40
9.0
 40
10.0
 40
10.0
 40
10.0
 40
10.0
 10
283.7149530130354
 20
26.1296866058298
 42
1.0
 10
283.7707819005811
 20
25.65802498535045
 42
1.0
 10
284.0198409761273
 20
25.28515591156022
 42
1.0
 10
284.3077767109179
 20
24.93075271279267
 42
1.0
 10
284.4323277733789
 20
24.77744812814591
 42
1.0
 10
284.5641388051866
 20
24.6300390014551
 42
1.0
 10
284.7027239634148
 20
24.46818604120849
 42
1.0
 72
     4
 94
        3
 73
     1
 74
     0
 95
       20
 96
       16
 40
3.0
 40
3.0
 40
3.0
 40
3.0
 40
4.0
 40
4.0
 40
4.0
 40
5.0
 40
5.0
 40
5.0
 40
6.0
 40
6.0
 40
6.0
 40
7.0
 40
7.0
 40
7.0
 40
8.0
 40
8.0
 40
8.0
 40
8.0
 10
284.7027239634148
 20
24.46818604120849
 42
1.0
 10
284.5513685160267
 20
24.38851087568819
 42
1.0
 10
284.4255536469583
 20
24.32317807019961
 42
1.0
 10
284.3005597909425
 20
24.25632085564481
 42
1.0
 10
283.8607304915963
 20
24.02105948868024
 42
1.0
 10
283.460866385652
 20
23.73663343094009
 42
1.0
 10
283.1417229300147
 20
23.34576433784628
 42
1.0
 10
282.3522343191156
 20
22.37884389028816
 42
1.0
 10
282.6109241545095
 20
20.5355588898502
 42
1.0
 10
284.198169930981
 20
20.23446388406056
 42
1.0
 10
285.1515567317372
 20
20.05360962220845
 42
1.0
 10
285.9488126796034
 20
20.36759637788916
 42
1.0
 10
286.5896302790503
 20
21.09003174583673
 42
1.0
 10
286.7443651022574
 20
21.26447318851251
 42
1.0
 10
286.8995550188436
 20
21.43851181205056
 42
1.0
 10
287.0539854214827
 20
21.61211917311517
 42
1.0
 97
        0
 92
        0
 93
        2
 72
     4
 94
        3
 73
     1
 74
     0
 95
       14
 96
       10
 40
0.0
 40
0.0
 40
0.0
 40
0.0
 40
1.0
 40
1.0
 40
1.0
 40
2.0
 40
2.0
 40
2.0
 40
3.0
 40
3.0
 40
3.0
 40
3.0
 10
284.688382372121
 20
27.15085253116304
 42
1.0
 10
284.8337724063213
 20
27.5710895609412
 42
1.0
 10
285.1818973152029
 20
27.79269159230804
 42
1.0
 10
285.6158934244382
 20
27.76810636414938
 42
1.0
 10
285.9916529561654
 20
27.74682017860581
 42
1.0
 10
286.2400293916459
 20
27.5110460628537
 42
1.0
 10
286.3549927436335
 20
27.06650131962916
 42
1.0
 10
286.5713650448558
 20
26.2298440482801
 42
1.0
 10
286.3259713159692
 20
25.4295804098103
 42
1.0
 10
285.6520579731507
 20
24.9254318870995
 42
1.0
 72
     4
 94
        3
 73
     1
 74
     0
 95
       11
 96
        7
 40
3.0
 40
3.0
 40
3.0
 40
3.0
 40
4.0
 40
4.0
 40
4.0
 40
5.0
 40
5.0
 40
5.0
 40
5.0
 10
285.6520579731507
 20
24.9254318870995
 42
1.0
 10
285.3510444536752
 20
25.31853032275095
 42
1.0
 10
285.0380140090768
 20
25.68714980838475
 42
1.0
 10
284.7721626029031
 20
26.08712768767229
 42
1.0
 10
284.5571094574822
 20
26.41068293535724
 42
1.0
 10
284.5630810205802
 20
26.788679112661
 42
1.0
 10
284.688382372121
 20
27.15085253116304
 42
1.0
 97
        0
 92
        0
 93
        2
 72
     1
 10
284.845288113738
 20
24.3712657578988
 11
287.0009947176327
 21
21.77781006188367
 72
     4
 94
        3
 73
     1
 74
     0
 95
       14
 96
       10
 40
1.0
 40
1.0
 40
1.0
 40
1.0
 40
2.0
 40
2.0
 40
2.0
 40
3.0
 40
3.0
 40
3.0
 40
4.0
 40
4.0
 40
4.0
 40
4.0
 10
287.0009947176327
 20
21.77781006188367
 42
1.0
 10
286.5509442670314
 20
21.22618922689351
 42
1.0
 10
286.0339581905155
 20
20.90925282038733
 42
1.0
 10
285.3603677179978
 20
20.87638462370451
 42
1.0
 10
284.4974276510072
 20
20.83427541775252
 42
1.0
 10
283.8665083325146
 20
21.39392726712143
 42
1.0
 10
283.7780264951535
 20
22.28619625730053
 42
1.0
 10
283.6988925217564
 20
23.08417174469389
 42
1.0
 10
284.1054815548355
 20
23.90423117633508
 42
1.0
 10
284.845288113738
 20
24.3712657578988
 42
1.0
 97
        0
 75
     0
 76
     1
 98
        1
 10
0.0
 20
0.0
  0
HATCH
  5
79
330
1F
100
AcDbEntity
  8
0
  6
Continuous
 62
     7
100
AcDbHatch
 10
0.0
 20
0.0
 30
0.0
210
0.0
220
0.0
230
1.0
  2
SOLID
 70
     1
 71
     0
 91
        1
 92
        0
 93
        2
 72
     4
 94
        3
 73
     1
 74
     0
 95
       11
 96
        7
 40
0.0
 40
0.0
 40
0.0
 40
0.0
 40
1.0
 40
1.0
 40
1.0
 40
2.0
 40
2.0
 40
2.0
 40
2.0
 10
303.0570519104932
 20
26.35430478392947
 42
1.0
 10
303.0628482011429
 20
25.96449808787493
 42
1.0
 10
303.3259905717408
 20
25.69768229885988
 42
1.0
 10
303.6993639381942
 20
25.70301926806731
 42
1.0
 10
304.0680572227529
 20
25.70828897263022
 42
1.0
 10
304.3293945946187
 20
25.98752450590587
 42
1.0
 10
304.327448147944
 20
26.37412133304796
 42
1.0
 72
     4
 94
        3
 73
     1
 74
     0
 95
       11
 96
        7
 40
2.0
 40
2.0
 40
2.0
 40
2.0
 40
3.0
 40
3.0
 40
3.0
 40
4.0
 40
4.0
 40
4.0
 40
4.0
 10
304.327448147944
 20
26.37412133304796
 42
1.0
 10
304.3255386007336
 20
26.75299425696746
 42
1.0
 10
304.0507636744179
 20
27.04560238626284
 42
1.0
 10
303.6924299141011
 20
27.05034857969325
 42
1.0
 10
303.3266947364936
 20
27.05519259513757
 42
1.0
 10
303.0511172468595
 20
26.75330175249256
 42
1.0
 10
303.0570519104932
 20
26.35430478392947
 42
1.0
 97
        0
 75
     0
 76
     1
 98
        1
 10
0.0
 20
0.0
  0
HATCH
  5
7A
330
1F
100
AcDbEntity
  8
0
  6
Continuous
 62
     7
100
AcDbHatch
 10
0.0
 20
0.0
 30
0.0
210
0.0
220
0.0
230
1.0
  2
SOLID
 70
     1
 71
     0
 91
        1
 92
        0
 93
        4
 72
     1
 10
302.6973344203136
 20
20.2539775500868
 11
304.8038079156778
 21
20.2539775500868
 72
     4
 94
        3
 73
     1
 74
     0
 95
       17
 96
       13
 40
6.0
 40
6.0
 40
6.0
 40
6.0
 40
7.0
 40
7.0
 40
7.0
 40
8.0
 40
8.0
 40
8.0
 40
9.0
 40
9.0
 40
9.0
 40
10.0
 40
10.0
 40
10.0
 40
10.0
 10
304.8038079156778
 20
20.2539775500868
 42
1.0
 10
304.4578262506061
 20
20.33981031349822
 42
1.0
 10
304.2621822227331
 20
20.55023795748124
 42
1.0
 10
304.2107535961514
 20
20.89393877449616
 42
1.0
 10
304.1922454404932
 20
21.01764883669525
 42
1.0
 10
304.1821011631179
 20
21.14380579453512
 42
1.0
 10
304.1818797663412
 20
21.26887114326077
 42
1.0
 10
304.1797703470369
 20
22.46084295323946
 42
1.0
 10
304.1808527312862
 20
23.65282014439031
 42
1.0
 10
304.1800932173391
 20
24.84479541369365
 42
1.0
 10
304.1800409430993
 20
24.93136078519359
 42
1.0
 10
304.1727133247369
 20
25.01792115989102
 42
1.0
 10
304.1706223551654
 20
25.06377258638473
 42
1.0
 72
     1
 10
304.1706223551654
 20
25.06377258638473
 11
302.7125031745686
 21
24.50968064047992
 72
     4
 94
        3
 73
     1
 74
     0
 95
       17
 96
       13
 40
1.0
 40
1.0
 40
1.0
 40
1.0
 40
2.0
 40
2.0
 40
2.0
 40
3.0
 40
3.0
 40
3.0
 40
4.0
 40
4.0
 40
4.0
 40
5.0
 40
5.0
 40
5.0
 40
5.0
 10
302.7125031745686
 20
24.50968064047994
 42
1.0
 10
302.7604109773859
 20
24.50557288463289
 42
1.0
 10
302.8224697242704
 20
24.49650561033552
 42
1.0
 10
302.8846514693661
 20
24.49557889569631
 42
1.0
 10
303.1332831261333
 20
24.4918735746181
 42
1.0
 10
303.2632153602819
 20
24.35030186610297
 42
1.0
 10
303.2668591822546
 20
24.11891186780057
 42
1.0
 10
303.2829750227277
 20
23.09531768874206
 42
1.0
 10
303.296603224403
 20
22.071496731734
 42
1.0
 10
303.2916556214044
 20
21.04785181591346
 42
1.0
 10
303.2897768237453
 20
20.65853557522151
 42
1.0
 10
303.1321361678242
 20
20.3494649042487
 42
1.0
 10
302.6973344203136
 20
20.2539775500868
 42
1.0
 97
        0
 75
     0
 76
     1
 98
        1
 10
0.0
 20
0.0
  0
HATCH
  5
7B
330
1F
100
AcDbEntity
  8
0
  6
Continuous
 62
     7
100
AcDbHatch
 10
0.0
 20
0.0
 30
0.0
210
0.0
220
0.0
230
1.0
  2
SOLID
 70
     1
 71
     0
 91
        1
 92
        0
 93
        4
 72
     1
 10
308.65963267846
 20
27.88697759989075
 11
307.1608133901539
 21
27.32540717062984
 72
     4
 94
        3
 73
     1
 74
     0
 95
       20
 96
       16
 40
5.0
 40
5.0
 40
5.0
 40
5.0
 40
6.0
 40
6.0
 40
6.0
 40
7.0
 40
7.0
 40
7.0
 40
8.0
 40
8.0
 40
8.0
 40
9.0
 40
9.0
 40
9.0
 40
10.0
 40
10.0
 40
10.0
 40
10.0
 10
307.1608133901539
 20
27.32540717062984
 42
1.0
 10
307.6774858212348
 20
27.28280885460759
 42
1.0
 10
307.7501131893193
 20
27.20350460556406
 42
1.0
 10
307.7547502218385
 20
26.63215658734291
 42
1.0
 10
307.7552944889174
 20
26.56503146731187
 42
1.0
 10
307.7550361926765
 20
26.49789904426262
 42
1.0
 10
307.7550361926765
 20
26.43077008053731
 42
1.0
 10
307.7550484924979
 20
24.69380511724257
 42
1.0
 10
307.7587445887104
 20
22.95682170421714
 42
1.0
 10
307.7500732149022
 20
21.21990094340409
 42
1.0
 10
307.7490584796685
 20
21.01681475508336
 42
1.0
 10
307.7285516030971
 20
20.78446498637255
 42
1.0
 10
307.6283941606454
 20
20.61954360515536
 42
1.0
 10
307.5293898264143
 20
20.45652254628292
 42
1.0
 10
307.3179589782804
 20
20.36177625633667
 42
1.0
 10
307.178408284104
 20
20.25443648715803
 42
1.0
 72
     1
 10
307.178408284104
 20
20.25443648715803
 11
309.3620693061908
 21
20.25443648715802
 72
     4
 94
        3
 73
     1
 74
     0
 95
       14
 96
       10
 40
1.0
 40
1.0
 40
1.0
 40
1.0
 40
2.0
 40
2.0
 40
2.0
 40
3.0
 40
3.0
 40
3.0
 40
4.0
 40
4.0
 40
4.0
 40
4.0
 10
309.3620693061908
 20
20.25443648715802
 42
1.0
 10
308.807415027844
 20
20.43200746554105
 42
1.0
 10
308.6597679764911
 20
20.6374237012035
 42
1.0
 10
308.6597187772069
 20
21.15880542625192
 42
1.0
 10
308.6595035303402
 20
23.32371921490944
 42
1.0
 10
308.65963267846
 20
25.48863300356693
 42
1.0
 10
308.65963267846
 20
27.65354698440997
 42
1.0
 10
308.65963267846
 20
27.74275854708867
 42
1.0
 10
308.65963267846
 20
27.83196991758182
 42
1.0
 10
308.65963267846
 20
27.88697759989075
 42
1.0
 97
        0
 75
     0
 76
     1
 98
        1
 10
0.0
 20
0.0
  0
HATCH
  5
7C
330
1F
100
AcDbEntity
  8
0
  6
Continuous
 62
     7
100
AcDbHatch
 10
0.0
 20
0.0
 30
0.0
210
0.0
220
0.0
230
1.0
  2
SOLID
 70
     1
 71
     0
 91
        1
 92
        0
 93
        4
 72
     1
 10
313.1781318226163
 20
27.87703492426926
 11
311.6691528821608
 21
27.32445797038016
 72
     4
 94
        3
 73
     1
 74
     0
 95
       17
 96
       13
 40
6.0
 40
6.0
 40
6.0
 40
6.0
 40
7.0
 40
7.0
 40
7.0
 40
8.0
 40
8.0
 40
8.0
 40
9.0
 40
9.0
 40
9.0
 40
10.0
 40
10.0
 40
10.0
 40
10.0
 10
311.6691528821608
 20
27.32445797038016
 42
1.0
 10
312.2096131670664
 20
27.27631108979181
 42
1.0
 10
312.2683694120104
 20
27.21300429544448
 42
1.0
 10
312.2823973578678
 20
26.60716642601487
 42
1.0
 10
312.2845313768121
 20
26.51487279724974
 42
1.0
 10
312.2871512386867
 20
26.42255802816857
 42
1.0
 10
312.2871819882395
 20
26.33025248395311
 42
1.0
 10
312.2877662297369
 20
24.60974045310045
 42
1.0
 10
312.2890700107628
 20
22.88922803787955
 42
1.0
 10
312.2876555313485
 20
21.16871754450475
 42
1.0
 10
312.2872188877024
 20
20.63608302071405
 42
1.0
 10
312.1185268426077
 20
20.41647125413319
 42
1.0
 10
311.6156486607861
 20
20.25320881127337
 42
1.0
 72
     1
 10
311.6156486607861
 20
20.25320881127337
 11
313.8867245107604
 21
20.25320881127337
 72
     4
 94
        3
 73
     1
 74
     0
 95
       17
 96
       13
 40
1.0
 40
1.0
 40
1.0
 40
1.0
 40
2.0
 40
2.0
 40
2.0
 40
3.0
 40
3.0
 40
3.0
 40
4.0
 40
4.0
 40
4.0
 40
5.0
 40
5.0
 40
5.0
 40
5.0
 10
313.8867245107604
 20
20.25320881127337
 42
1.0
 10
313.3266152617988
 20
20.4348325806782
 42
1.0
 10
313.1888880160859
 20
20.62648762285203
 42
1.0
 10
313.1786115156352
 20
21.17082388885262
 42
1.0
 10
313.1771847363981
 20
21.24633325874564
 42
1.0
 10
313.1781441224363
 20
21.32188875296783
 42
1.0
 10
313.1781441224363
 20
21.39742349124222
 42
1.0
 10
313.1781256727049
 20
23.48721689184593
 42
1.0
 10
313.1781318226163
 20
25.57700952371036
 42
1.0
 10
313.1781318226163
 20
27.66680273212925
 42
1.0
 10
313.1781318226163
 20
27.75161518695077
 42
1.0
 10
313.1781318226163
 20
27.83642744958889
 42
1.0
 10
313.1781318226163
 20
27.87703492426926
 42
1.0
 97
        0
 75
     0
 76
     1
 98
        1
 10
0.0
 20
0.0
  0
HATCH
  5
7D
330
1F
100
AcDbEntity
  8
0
  6
Continuous
 62
     7
100
AcDbHatch
 10
0.0
 20
0.0
 30
0.0
210
0.0
220
0.0
230
1.0
  2
SOLID
 70
     1
 71
     0
 91
        1
 92
        0
 93
       12
 72
     1
 10
296.2715297073844
 20
27.50458020069891
 11
293.841527870193
 21
27.50458020069891
 72
     4
 94
        3
 73
     1
 74
     0
 95
       17
 96
       13
 40
21.0
 40
21.0
 40
21.0
 40
21.0
 40
22.0
 40
22.0
 40
22.0
 40
23.0
 40
23.0
 40
23.0
 40
24.0
 40
24.0
 40
24.0
 40
25.0
 40
25.0
 40
25.0
 40
25.0
 10
293.841527870193
 20
27.50458020069891
 42
1.0
 10
294.4654639653083
 20
27.35271373418588
 42
1.0
 10
294.541848928711
 20
26.88863860486635
 42
1.0
 10
294.5396718603926
 20
26.35648992400541
 42
1.0
 10
294.5326947869268
 20
24.65236702027423
 42
1.0
 10
294.54232862173
 20
22.9481603240125
 42
1.0
 10
294.5304592944584
 20
21.24409084762873
 42
1.0
 10
294.52894334152
 20
21.02641399663968
 42
1.0
 10
294.4888489999954
 20
20.77588586122133
 42
1.0
 10
294.3739502220706
 20
20.60171040217499
 42
1.0
 10
294.2655211499942
 20
20.43733713173098
 42
1.0
 10
294.0348564567621
 20
20.35359533789035
 42
1.0
 10
293.8906841048422
 20
20.25643828302682
 42
1.0
 72
     1
 10
293.8906841048422
 20
20.25643828302682
 11
296.2880237673525
 21
20.25643828302682
 72
     4
 94
        3
 73
     1
 74
     0
 95
       14
 96
       10
 40
17.0
 40
17.0
 40
17.0
 40
17.0
 40
18.0
 40
18.0
 40
18.0
 40
19.0
 40
19.0
 40
19.0
 40
20.0
 40
20.0
 40
20.0
 40
20.0
 10
296.2880237673525
 20
20.25643828302682
 42
1.0
 10
295.7413366980624
 20
20.4024294709773
 42
1.0
 10
295.5628078711177
 20
20.63015527572819
 42
1.0
 10
295.5619960829322
 20
21.2138824872384
 42
1.0
 10
295.560827599936
 20
22.05336910178782
 42
1.0
 10
295.561359567195
 20
22.89285956003151
 42
1.0
 10
295.5621928800676
 20
23.73234771205876
 42
1.0
 10
295.5622759038603
 20
23.81306182808445
 42
1.0
 10
295.5696219719554
 20
23.89376787235267
 42
1.0
 10
295.5733857171835
 20
23.97022240661697
 42
1.0
 72
     1
 10
295.5733857171835
 20
23.97022240661697
 11
298.4851131190222
 21
23.97022240661697
 72
     4
 94
        3
 73
     1
 74
     0
 95
       11
 96
        7
 40
14.0
 40
14.0
 40
14.0
 40
14.0
 40
15.0
 40
15.0
 40
15.0
 40
16.0
 40
16.0
 40
16.0
 40
16.0
 10
298.4851131190222
 20
23.97022240661697
 42
1.0
 10
298.4851131190222
 20
23.04419117651474
 42
1.0
 10
298.4852207424561
 20
22.13796342697173
 42
1.0
 10
298.485073144605
 20
21.23173567742801
 42
1.0
 10
298.4849747460367
 20
20.62384393007452
 42
1.0
 10
298.3307257657572
 20
20.41986831094703
 42
1.0
 10
297.7632396991476
 20
20.25412130424438
 42
1.0
 72
     1
 10
297.7632396991476
 20
20.25412130424438
 11
300.2193725060648
 21
20.25412130424438
 72
     4
 94
        3
 73
     1
 74
     0
 95
       17
 96
       13
 40
9.0
 40
9.0
 40
9.0
 40
9.0
 40
10.0
 40
10.0
 40
10.0
 40
11.0
 40
11.0
 40
11.0
 40
12.0
 40
12.0
 40
12.0
 40
13.0
 40
13.0
 40
13.0
 40
13.0
 10
300.2193725060648
 20
20.25412130424438
 42
1.0
 10
299.739442715284
 20
20.41422423058344
 42
1.0
 10
299.5427163031618
 20
20.62720562490344
 42
1.0
 10
299.542119761843
 20
21.03839632851544
 42
1.0
 10
299.5393769017586
 20
22.92724217217554
 42
1.0
 10
299.5395583241182
 20
24.8160968563317
 42
1.0
 10
299.5421628112159
 20
26.70494346873036
 42
1.0
 10
299.5426363543262
 20
27.0468754177367
 42
1.0
 10
299.7248336028849
 20
27.28837413924314
 42
1.0
 10
300.049118383702
 20
27.40930924651266
 42
1.0
 10
300.1052670665942
 20
27.43024796211264
 42
1.0
 10
300.1600043450263
 20
27.45496618208605
 42
1.0
 10
300.2549312885929
 20
27.49433829349534
 42
1.0
 72
     1
 10
300.2549312885929
 20
27.49433829349534
 11
297.7186989723292
 21
27.49433829349534
 72
     4
 94
        3
 73
     1
 74
     0
 95
       14
 96
       10
 40
5.0
 40
5.0
 40
5.0
 40
5.0
 40
6.0
 40
6.0
 40
6.0
 40
7.0
 40
7.0
 40
7.0
 40
8.0
 40
8.0
 40
8.0
 40
8.0
 10
297.7186989723292
 20
27.49433829349534
 42
1.0
 10
298.3648823686909
 20
27.26685790861022
 42
1.0
 10
298.4850762195593
 20
27.0944786077999
 42
1.0
 10
298.4851069691121
 20
26.45733654080182
 42
1.0
 10
298.4851377186649
 20
25.7773505457302
 42
1.0
 10
298.4851131190222
 20
25.09736416629037
 42
1.0
 10
298.4851131190222
 20
24.41737817121947
 42
1.0
 10
298.4851131190222
 20
24.32893553953832
 42
1.0
 10
298.4851131190222
 20
24.24049329222682
 42
1.0
 10
298.4851131190222
 20
24.16049564077468
 42
1.0
 72
     1
 10
298.4851131190222
 20
24.16049564077468
 11
295.5632814142282
 21
24.16049564077468
 72
     4
 94
        3
 73
     1
 74
     0
 95
       14
 96
       10
 40
1.0
 40
1.0
 40
1.0
 40
1.0
 40
2.0
 40
2.0
 40
2.0
 40
3.0
 40
3.0
 40
3.0
 40
4.0
 40
4.0
 40
4.0
 40
4.0
 10
295.5632814142282
 20
24.16049564077468
 42
1.0
 10
295.5632814142282
 20
25.01272602299438
 42
1.0
 10
295.5627432970579
 20
25.84365465270932
 42
1.0
 10
295.5644406723573
 20
26.67457866999212
 42
1.0
 10
295.5645605956114
 20
26.73240397223375
 42
1.0
 10
295.5792681065788
 20
26.79059327230427
 42
1.0
 10
295.5906023916358
 20
26.8479388815276
 42
1.0
 10
295.6648994604227
 20
27.22384581892186
 42
1.0
 10
295.9411319155254
 20
27.38780204855992
 42
1.0
 10
296.2715297073844
 20
27.50458020069891
 42
1.0
 97
        0
 75
     0
 76
     1
 98
        1
 10
0.0
 20
0.0
  0
SPLINE
  5
7E
330
1F
100
AcDbEntity
  8
0
  6
Continuous
 62
   179
370
     0
100
AcDbSpline
210
0.0
220
0.0
230
1.0
 70
     8
 71
     3
 72
    14
 73
    10
 74
     0
 42
0.000000001
 43
0.00000001
 40
24.0
 40
24.0
 40
24.0
 40
24.0
 40
25.0
 40
25.0
 40
25.0
 40
26.0
 40
26.0
 40
26.0
 40
27.0
 40
27.0
 40
27.0
 40
27.0
 10
287.7314564875268
 20
22.4264857094768
 30
0.0
 10
288.0996055050067
 20
21.95463920731319
 30
0.0
 10
288.4270667146001
 20
21.47381844824842
 30
0.0
 10
288.8166481701822
 20
21.05011190802389
 30
0.0
 10
289.3841588364346
 20
20.43289382139212
 30
0.0
 10
289.9836367374808
 20
20.49110656799653
 30
0.0
 10
290.4735170834557
 20
21.16713932372221
 30
0.0
 10
290.5884281612034
 20
21.32571784099438
 30
0.0
 10
290.6825002672103
 20
21.49939669476813
 30
0.0
 10
290.8103661314317
 20
21.70506046432864
 30
0.0
  0
SPLINE
  5
7F
330
1F
100
AcDbEntity
  8
0
  6
Continuous
 62
   179
370
     0
100
AcDbSpline
210
0.0
220
0.0
230
1.0
 70
     8
 71
     3
 72
    11
 73
     7
 74
     0
 42
0.000000001
 43
0.00000001
 40
22.0
 40
22.0
 40
22.0
 40
22.0
 40
23.0
 40
23.0
 40
23.0
 40
24.0
 40
24.0
 40
24.0
 40
24.0
 10
290.7742138825405
 20
25.39867403457779
 30
0.0
 10
289.9536528488242
 20
25.26443186627322
 30
0.0
 10
289.4290162836425
 20
24.71923384406366
 30
0.0
 10
288.9612633156569
 20
24.10441845059237
 30
0.0
 10
288.5466855488353
 20
23.55949371503118
 30
0.0
 10
288.1508588591387
 20
23.00030157147278
 30
0.0
 10
287.7314564875268
 20
22.4264857094768
 30
0.0
  0
SPLINE
  5
80
330
1F
100
AcDbEntity
  8
0
  6
Continuous
 62
   179
370
     0
100
AcDbSpline
210
0.0
220
0.0
230
1.0
 70
     8
 71
     3
 72
    11
 73
     7
 74
     0
 42
0.000000001
 43
0.00000001
 40
20.0
 40
20.0
 40
20.0
 40
20.0
 40
21.0
 40
21.0
 40
21.0
 40
22.0
 40
22.0
 40
22.0
 40
22.0
 10
287.7715077796772
 20
25.39867403457779
 30
0.0
 10
288.2706160663608
 20
25.39867403457779
 30
0.0
 10
288.76972127809
 20
25.39867441894744
 30
0.0
 10
289.2688295647749
 20
25.39867441894744
 30
0.0
 10
289.7706253623486
 20
25.39867441894744
 30
0.0
 10
290.2724180849667
 20
25.39867403457779
 30
0.0
 10
290.7742138825405
 20
25.39867403457779
 30
0.0
  0
SPLINE
  5
81
330
1F
100
AcDbEntity
  8
0
  6
Continuous
 62
   179
370
     0
100
AcDbSpline
210
0.0
220
0.0
230
1.0
 70
     8
 71
     3
 72
    17
 73
    13
 74
     0
 42
0.000000001
 43
0.00000001
 40
16.0
 40
16.0
 40
16.0
 40
16.0
 40
17.0
 40
17.0
 40
17.0
 40
18.0
 40
18.0
 40
18.0
 40
19.0
 40
19.0
 40
19.0
 40
20.0
 40
20.0
 40
20.0
 40
20.0
 10
287.7233847299917
 20
22.54303496963325
 30
0.0
 10
288.0735790837578
 20
23.12311989664797
 30
0.0
 10
288.421178175292
 20
23.692108847638
 30
0.0
 10
288.7595985254019
 20
24.26650702928458
 30
0.0
 10
288.8131334963293
 20
24.35736772890119
 30
0.0
 10
288.8373887433531
 20
24.47070865762302
 30
0.0
 10
288.8543009972361
 20
24.57697987985169
 30
0.0
 10
288.9174636530569
 20
24.97387165717582
 30
0.0
 10
288.7601181928394
 20
25.20759054971102
 30
0.0
 10
288.3670435880915
 20
25.28904726743022
 30
0.0
 10
288.1718392788191
 20
25.32949945687163
 30
0.0
 10
287.9710693005408
 20
25.34310267453518
 30
0.0
 10
287.7715077796772
 20
25.39867403457779
 30
0.0
  0
SPLINE
  5
82
330
1F
100
AcDbEntity
  8
0
  6
Continuous
 62
   179
370
     0
100
AcDbSpline
210
0.0
220
0.0
230
1.0
 70
     8
 71
     3
 72
     8
 73
     4
 74
     0
 42
0.000000001
 43
0.00000001
 40
15.0
 40
15.0
 40
15.0
 40
15.0
 40
16.0
 40
16.0
 40
16.0
 40
16.0
 10
285.8065406500283
 20
24.86455968857224
 30
0.0
 10
286.4380688096611
 20
24.09970377545334
 30
0.0
 10
287.0596648638312
 20
23.34687900912474
 30
0.0
 10
287.7233847299917
 20
22.54303496963325
 30
0.0
  0
SPLINE
  5
83
330
1F
100
AcDbEntity
  8
0
  6
Continuous
 62
   179
370
     0
100
AcDbSpline
210
0.0
220
0.0
230
1.0
 70
     8
 71
     3
 72
    26
 73
    22
 74
     0
 42
0.000000001
 43
0.00000001
 40
8.0
 40
8.0
 40
8.0
 40
8.0
 40
9.0
 40
9.0
 40
9.0
 40
10.0
 40
10.0
 40
10.0
 40
11.0
 40
11.0
 40
11.0
 40
12.0
 40
12.0
 40
12.0
 40
13.0
 40
13.0
 40
13.0
 40
14.0
 40
14.0
 40
14.0
 40
15.0
 40
15.0
 40
15.0
 40
15.0
 10
284.7027239634148
 20
24.46818604120849
 30
0.0
 10
284.5641388051865
 20
24.6300390014551
 30
0.0
 10
284.4323277733789
 20
24.77744812814591
 30
0.0
 10
284.3077767109179
 20
24.93075271279266
 30
0.0
 10
284.0198409761273
 20
25.28515591156022
 30
0.0
 10
283.7707819005811
 20
25.65802498535045
 30
0.0
 10
283.7149530130354
 20
26.1296866058298
 30
0.0
 10
283.6309452355653
 20
26.8393466878164
 30
0.0
 10
283.9109291360762
 20
27.37506654483262
 30
0.0
 10
284.558084218296
 20
27.68711127408746
 30
0.0
 10
285.1912113546598
 20
27.99239110178883
 30
0.0
 10
285.840402057257
 20
27.99583274545401
 30
0.0
 10
286.4793408590448
 20
27.71426216803416
 30
0.0
 10
287.3613210489539
 20
27.32558686332681
 30
0.0
 10
287.5614237619422
 20
26.30921056516708
 30
0.0
 10
286.8815726805328
 20
25.62247811827483
 30
0.0
 10
286.6551698752792
 20
25.39378370261947
 30
0.0
 10
286.3617115208569
 20
25.23088333574105
 30
0.0
 10
286.0959738880258
 20
25.04203380586476
 30
0.0
 10
286.0025259979348
 20
24.975621306713
 30
0.0
 10
285.9002991106001
 20
24.92155283105019
 30
0.0
 10
285.8065406500283
 20
24.86455968857224
 30
0.0
  0
SPLINE
  5
84
330
1F
100
AcDbEntity
  8
0
  6
Continuous
 62
   179
370
     0
100
AcDbSpline
210
0.0
220
0.0
230
1.0
 70
     8
 71
     3
 72
    20
 73
    16
 74
     0
 42
0.000000001
 43
0.00000001
 40
3.0
 40
3.0
 40
3.0
 40
3.0
 40
4.0
 40
4.0
 40
4.0
 40
5.0
 40
5.0
 40
5.0
 40
6.0
 40
6.0
 40
6.0
 40
7.0
 40
7.0
 40
7.0
 40
8.0
 40
8.0
 40
8.0
 40
8.0
 10
287.0539854214827
 20
21.61211917311517
 30
0.0
 10
286.8995550188435
 20
21.43851181205056
 30
0.0
 10
286.7443651022574
 20
21.26447318851251
 30
0.0
 10
286.5896302790503
 20
21.09003174583673
 30
0.0
 10
285.9488126796034
 20
20.36759637788916
 30
0.0
 10
285.1515567317371
 20
20.05360962220845
 30
0.0
 10
284.198169930981
 20
20.23446388406056
 30
0.0
 10
282.6109241545095
 20
20.5355588898502
 30
0.0
 10
282.3522343191156
 20
22.37884389028816
 30
0.0
 10
283.1417229300147
 20
23.34576433784628
 30
0.0
 10
283.460866385652
 20
23.73663343094009
 30
0.0
 10
283.8607304915963
 20
24.02105948868024
 30
0.0
 10
284.3005597909425
 20
24.25632085564481
 30
0.0
 10
284.4255536469582
 20
24.3231780701996
 30
0.0
 10
284.5513685160266
 20
24.38851087568819
 30
0.0
 10
284.7027239634148
 20
24.46818604120849
 30
0.0
  0
SPLINE
  5
85
330
1F
100
AcDbEntity
  8
0
  6
Continuous
 62
   179
370
     0
100
AcDbSpline
210
0.0
220
0.0
230
1.0
 70
     8
 71
     3
 72
    14
 73
    10
 74
     0
 42
0.000000001
 43
0.00000001
 40
0.0
 40
0.0
 40
0.0
 40
0.0
 40
1.0
 40
1.0
 40
1.0
 40
2.0
 40
2.0
 40
2.0
 40
3.0
 40
3.0
 40
3.0
 40
3.0
 10
290.8103661314317
 20
21.70506046432864
 30
0.0
 10
290.7160910783766
 20
21.04182259740494
 30
0.0
 10
289.9739444785289
 20
20.32342848939634
 30
0.0
 10
289.3271645408483
 20
20.20870037148623
 30
0.0
 10
288.7048673968811
 20
20.09831485913089
 30
0.0
 10
288.1784811821614
 20
20.26780485511384
 30
0.0
 10
287.7601488949774
 20
20.73592220529572
 30
0.0
 10
287.5152010346027
 20
21.01001756649998
 30
0.0
 10
287.2972697310664
 20
21.3082559388604
 30
0.0
 10
287.0539854214827
 20
21.61211917311517
 30
0.0
  0
SPLINE
  5
86
330
1F
100
AcDbEntity
  8
0
  6
Continuous
 62
   179
370
     0
100
AcDbSpline
210
0.0
220
0.0
230
1.0
 70
     8
 71
     3
 72
    14
 73
    10
 74
     0
 42
0.000000001
 43
0.00000001
 40
1.0
 40
1.0
 40
1.0
 40
1.0
 40
2.0
 40
2.0
 40
2.0
 40
3.0
 40
3.0
 40
3.0
 40
4.0
 40
4.0
 40
4.0
 40
4.0
 10
284.845288113738
 20
24.3712657578988
 30
0.0
 10
284.1054815548355
 20
23.90423117633508
 30
0.0
 10
283.6988925217564
 20
23.08417174469388
 30
0.0
 10
283.7780264951535
 20
22.28619625730053
 30
0.0
 10
283.8665083325145
 20
21.39392726712142
 30
0.0
 10
284.4974276510072
 20
20.83427541775252
 30
0.0
 10
285.3603677179977
 20
20.87638462370451
 30
0.0
 10
286.0339581905155
 20
20.90925282038733
 30
0.0
 10
286.5509442670314
 20
21.22618922689351
 30
0.0
 10
287.0009947176327
 20
21.77781006188367
 30
0.0
  0
SPLINE
  5
87
330
1F
100
AcDbEntity
  8
0
  6
Continuous
 62
   179
370
     0
100
AcDbSpline
210
0.0
220
0.0
230
1.0
 70
     8
 71
     3
 72
     8
 73
     4
 74
     0
 42
0.000000001
 43
0.00000001
 40
0.0
 40
0.0
 40
0.0
 40
0.0
 40
1.0
 40
1.0
 40
1.0
 40
1.0
 10
287.0009947176327
 20
21.77781006188367
 30
0.0
 10
286.2819902310068
 20
22.64282111123716
 30
0.0
 10
285.5612360948443
 20
23.50993158628786
 30
0.0
 10
284.845288113738
 20
24.3712657578988
 30
0.0
  0
SPLINE
  5
88
330
1F
100
AcDbEntity
  8
0
  6
Continuous
 62
   179
370
     0
100
AcDbSpline
210
0.0
220
0.0
230
1.0
 70
     8
 71
     3
 72
    11
 73
     7
 74
     0
 42
0.000000001
 43
0.00000001
 40
3.0
 40
3.0
 40
3.0
 40
3.0
 40
4.0
 40
4.0
 40
4.0
 40
5.0
 40
5.0
 40
5.0
 40
5.0
 10
284.688382372121
 20
27.15085253116304
 30
0.0
 10
284.5630810205801
 20
26.788679112661
 30
0.0
 10
284.5571094574822
 20
26.41068293535723
 30
0.0
 10
284.772162602903
 20
26.08712768767229
 30
0.0
 10
285.0380140090767
 20
25.68714980838475
 30
0.0
 10
285.3510444536752
 20
25.31853032275095
 30
0.0
 10
285.6520579731506
 20
24.9254318870995
 30
0.0
  0
SPLINE
  5
89
330
1F
100
AcDbEntity
  8
0
  6
Continuous
 62
   179
370
     0
100
AcDbSpline
210
0.0
220
0.0
230
1.0
 70
     8
 71
     3
 72
    14
 73
    10
 74
     0
 42
0.000000001
 43
0.00000001
 40
0.0
 40
0.0
 40
0.0
 40
0.0
 40
1.0
 40
1.0
 40
1.0
 40
2.0
 40
2.0
 40
2.0
 40
3.0
 40
3.0
 40
3.0
 40
3.0
 10
285.6520579731506
 20
24.9254318870995
 30
0.0
 10
286.3259713159692
 20
25.4295804098103
 30
0.0
 10
286.5713650448558
 20
26.2298440482801
 30
0.0
 10
286.3549927436334
 20
27.06650131962916
 30
0.0
 10
286.2400293916459
 20
27.5110460628537
 30
0.0
 10
285.9916529561654
 20
27.74682017860581
 30
0.0
 10
285.6158934244382
 20
27.76810636414937
 30
0.0
 10
285.1818973152029
 20
27.79269159230804
 30
0.0
 10
284.8337724063213
 20
27.5710895609412
 30
0.0
 10
284.688382372121
 20
27.15085253116304
 30
0.0
  0
SPLINE
  5
8A
330
1F
100
AcDbEntity
  8
0
  6
Continuous
 62
   179
370
     0
100
AcDbSpline
210
0.0
220
0.0
230
1.0
 70
     8
 71
     3
 72
    17
 73
    13
 74
     0
 42
0.000000001
 43
0.00000001
 40
21.0
 40
21.0
 40
21.0
 40
21.0
 40
22.0
 40
22.0
 40
22.0
 40
23.0
 40
23.0
 40
23.0
 40
24.0
 40
24.0
 40
24.0
 40
25.0
 40
25.0
 40
25.0
 40
25.0
 10
293.8906841048422
 20
20.25643828302682
 30
0.0
 10
294.0348564567621
 20
20.35359533789035
 30
0.0
 10
294.2655211499941
 20
20.43733713173098
 30
0.0
 10
294.3739502220706
 20
20.60171040217499
 30
0.0
 10
294.4888489999954
 20
20.77588586122133
 30
0.0
 10
294.52894334152
 20
21.02641399663968
 30
0.0
 10
294.5304592944584
 20
21.24409084762873
 30
0.0
 10
294.54232862173
 20
22.9481603240125
 30
0.0
 10
294.5326947869268
 20
24.65236702027423
 30
0.0
 10
294.5396718603926
 20
26.35648992400541
 30
0.0
 10
294.541848928711
 20
26.88863860486635
 30
0.0
 10
294.4654639653083
 20
27.35271373418588
 30
0.0
 10
293.841527870193
 20
27.50458020069891
 30
0.0
  0
SPLINE
  5
8B
330
1F
100
AcDbEntity
  8
0
  6
Continuous
 62
   179
370
     0
100
AcDbSpline
210
0.0
220
0.0
230
1.0
 70
    24
 71
     3
 72
     8
 73
     4
 74
     0
 42
0.000000001
 43
0.00000001
 40
20.0
 40
20.0
 40
20.0
 40
20.0
 40
21.0
 40
21.0
 40
21.0
 40
21.0
 10
296.2880237673525
 20
20.25643828302682
 30
0.0
 10
295.4693261565182
 20
20.25643828302682
 30
0.0
 10
294.6506254707311
 20
20.25643828302682
 30
0.0
 10
293.8906841048422
 20
20.25643828302682
 30
0.0
  0
SPLINE
  5
8C
330
1F
100
AcDbEntity
  8
0
  6
Continuous
 62
   179
370
     0
100
AcDbSpline
210
0.0
220
0.0
230
1.0
 70
     8
 71
     3
 72
    14
 73
    10
 74
     0
 42
0.000000001
 43
0.00000001
 40
17.0
 40
17.0
 40
17.0
 40
17.0
 40
18.0
 40
18.0
 40
18.0
 40
19.0
 40
19.0
 40
19.0
 40
20.0
 40
20.0
 40
20.0
 40
20.0
 10
295.5733857171835
 20
23.97022240661697
 30
0.0
 10
295.5696219719554
 20
23.89376787235267
 30
0.0
 10
295.5622759038602
 20
23.81306182808445
 30
0.0
 10
295.5621928800676
 20
23.73234771205876
 30
0.0
 10
295.5613595671949
 20
22.89285956003151
 30
0.0
 10
295.560827599936
 20
22.05336910178782
 30
0.0
 10
295.5619960829322
 20
21.2138824872384
 30
0.0
 10
295.5628078711177
 20
20.63015527572818
 30
0.0
 10
295.7413366980624
 20
20.4024294709773
 30
0.0
 10
296.2880237673525
 20
20.25643828302682
 30
0.0
  0
SPLINE
  5
8D
330
1F
100
AcDbEntity
  8
0
  6
Continuous
 62
   179
370
     0
100
AcDbSpline
210
0.0
220
0.0
230
1.0
 70
    24
 71
     3
 72
     8
 73
     4
 74
     0
 42
0.000000001
 43
0.00000001
 40
16.0
 40
16.0
 40
16.0
 40
16.0
 40
17.0
 40
17.0
 40
17.0
 40
17.0
 10
298.4851131190221
 20
23.97022240661697
 30
0.0
 10
297.5154382802974
 20
23.97022240661697
 30
0.0
 10
296.5557754958724
 20
23.97022240661697
 30
0.0
 10
295.5733857171835
 20
23.97022240661697
 30
0.0
  0
SPLINE
  5
8E
330
1F
100
AcDbEntity
  8
0
  6
Continuous
 62
   179
370
     0
100
AcDbSpline
210
0.0
220
0.0
230
1.0
 70
     8
 71
     3
 72
    11
 73
     7
 74
     0
 42
0.000000001
 43
0.00000001
 40
14.0
 40
14.0
 40
14.0
 40
14.0
 40
15.0
 40
15.0
 40
15.0
 40
16.0
 40
16.0
 40
16.0
 40
16.0
 10
297.7632396991476
 20
20.25412130424437
 30
0.0
 10
298.3307257657572
 20
20.41986831094703
 30
0.0
 10
298.4849747460366
 20
20.62384393007452
 30
0.0
 10
298.485073144605
 20
21.23173567742801
 30
0.0
 10
298.4852207424561
 20
22.13796342697173
 30
0.0
 10
298.4851131190221
 20
23.04419117651474
 30
0.0
 10
298.4851131190221
 20
23.97022240661697
 30
0.0
  0
SPLINE
  5
8F
330
1F
100
AcDbEntity
  8
0
  6
Continuous
 62
   179
370
     0
100
AcDbSpline
210
0.0
220
0.0
230
1.0
 70
    24
 71
     3
 72
     8
 73
     4
 74
     0
 42
0.000000001
 43
0.00000001
 40
13.0
 40
13.0
 40
13.0
 40
13.0
 40
14.0
 40
14.0
 40
14.0
 40
14.0
 10
300.2193725060648
 20
20.25412130424437
 30
0.0
 10
299.4006625954105
 20
20.25412130424437
 30
0.0
 10
298.5819526847563
 20
20.25412130424437
 30
0.0
 10
297.7632396991476
 20
20.25412130424437
 30
0.0
  0
SPLINE
  5
90
330
1F
100
AcDbEntity
  8
0
  6
Continuous
 62
   179
370
     0
100
AcDbSpline
210
0.0
220
0.0
230
1.0
 70
     8
 71
     3
 72
    17
 73
    13
 74
     0
 42
0.000000001
 43
0.00000001
 40
9.0
 40
9.0
 40
9.0
 40
9.0
 40
10.0
 40
10.0
 40
10.0
 40
11.0
 40
11.0
 40
11.0
 40
12.0
 40
12.0
 40
12.0
 40
13.0
 40
13.0
 40
13.0
 40
13.0
 10
300.2549312885928
 20
27.49433829349534
 30
0.0
 10
300.1600043450263
 20
27.45496618208605
 30
0.0
 10
300.1052670665941
 20
27.43024796211264
 30
0.0
 10
300.049118383702
 20
27.40930924651266
 30
0.0
 10
299.7248336028849
 20
27.28837413924313
 30
0.0
 10
299.5426363543262
 20
27.0468754177367
 30
0.0
 10
299.5421628112159
 20
26.70494346873036
 30
0.0
 10
299.5395583241182
 20
24.81609685633169
 30
0.0
 10
299.5393769017585
 20
22.92724217217554
 30
0.0
 10
299.542119761843
 20
21.03839632851544
 30
0.0
 10
299.5427163031618
 20
20.62720562490344
 30
0.0
 10
299.739442715284
 20
20.41422423058344
 30
0.0
 10
300.2193725060648
 20
20.25412130424437
 30
0.0
  0
SPLINE
  5
91
330
1F
100
AcDbEntity
  8
0
  6
Continuous
 62
   179
370
     0
100
AcDbSpline
210
0.0
220
0.0
230
1.0
 70
    24
 71
     3
 72
     8
 73
     4
 74
     0
 42
0.000000001
 43
0.00000001
 40
8.0
 40
8.0
 40
8.0
 40
8.0
 40
9.0
 40
9.0
 40
9.0
 40
9.0
 10
297.7186989723292
 20
27.49433829349534
 30
0.0
 10
298.5854396840106
 20
27.49433829349534
 30
0.0
 10
299.3949493285535
 20
27.49433829349534
 30
0.0
 10
300.2549312885928
 20
27.49433829349534
 30
0.0
  0
SPLINE
  5
92
330
1F
100
AcDbEntity
  8
0
  6
Continuous
 62
   179
370
     0
100
AcDbSpline
210
0.0
220
0.0
230
1.0
 70
     8
 71
     3
 72
    14
 73
    10
 74
     0
 42
0.000000001
 43
0.00000001
 40
5.0
 40
5.0
 40
5.0
 40
5.0
 40
6.0
 40
6.0
 40
6.0
 40
7.0
 40
7.0
 40
7.0
 40
8.0
 40
8.0
 40
8.0
 40
8.0
 10
298.4851131190221
 20
24.16049564077468
 30
0.0
 10
298.4851131190221
 20
24.24049329222682
 30
0.0
 10
298.4851131190221
 20
24.32893553953832
 30
0.0
 10
298.4851131190221
 20
24.41737817121947
 30
0.0
 10
298.4851131190221
 20
25.09736416629036
 30
0.0
 10
298.4851377186649
 20
25.77735054573019
 30
0.0
 10
298.4851069691121
 20
26.45733654080182
 30
0.0
 10
298.4850762195593
 20
27.0944786077999
 30
0.0
 10
298.3648823686909
 20
27.26685790861022
 30
0.0
 10
297.7186989723292
 20
27.49433829349534
 30
0.0
  0
SPLINE
  5
93
330
1F
100
AcDbEntity
  8
0
  6
Continuous
 62
   179
370
     0
100
AcDbSpline
210
0.0
220
0.0
230
1.0
 70
    24
 71
     3
 72
     8
 73
     4
 74
     0
 42
0.000000001
 43
0.00000001
 40
4.0
 40
4.0
 40
4.0
 40
4.0
 40
5.0
 40
5.0
 40
5.0
 40
5.0
 10
295.5632814142282
 20
24.16049564077468
 30
0.0
 10
296.5292663066503
 20
24.16049564077468
 30
0.0
 10
297.4889290910767
 20
24.16049564077468
 30
0.0
 10
298.4851131190221
 20
24.16049564077468
 30
0.0
  0
SPLINE
  5
94
330
1F
100
AcDbEntity
  8
0
  6
Continuous
 62
   179
370
     0
100
AcDbSpline
210
0.0
220
0.0
230
1.0
 70
     8
 71
     3
 72
    14
 73
    10
 74
     0
 42
0.000000001
 43
0.00000001
 40
1.0
 40
1.0
 40
1.0
 40
1.0
 40
2.0
 40
2.0
 40
2.0
 40
3.0
 40
3.0
 40
3.0
 40
4.0
 40
4.0
 40
4.0
 40
4.0
 10
296.2715297073844
 20
27.50458020069891
 30
0.0
 10
295.9411319155254
 20
27.38780204855992
 30
0.0
 10
295.6648994604226
 20
27.22384581892185
 30
0.0
 10
295.5906023916358
 20
26.8479388815276
 30
0.0
 10
295.5792681065788
 20
26.79059327230427
 30
0.0
 10
295.5645605956114
 20
26.73240397223375
 30
0.0
 10
295.5644406723573
 20
26.67457866999212
 30
0.0
 10
295.5627432970579
 20
25.84365465270932
 30
0.0
 10
295.5632814142282
 20
25.01272602299438
 30
0.0
 10
295.5632814142282
 20
24.16049564077468
 30
0.0
  0
SPLINE
  5
95
330
1F
100
AcDbEntity
  8
0
  6
Continuous
 62
   179
370
     0
100
AcDbSpline
210
0.0
220
0.0
230
1.0
 70
    24
 71
     3
 72
     8
 73
     4
 74
     0
 42
0.000000001
 43
0.00000001
 40
0.0
 40
0.0
 40
0.0
 40
0.0
 40
1.0
 40
1.0
 40
1.0
 40
1.0
 10
293.841527870193
 20
27.50458020069891
 30
0.0
 10
294.6515264326192
 20
27.50458020069891
 30
0.0
 10
295.4615280700011
 20
27.50458020069891
 30
0.0
 10
296.2715297073844
 20
27.50458020069891
 30
0.0
  0
SPLINE
  5
96
330
1F
100
AcDbEntity
  8
0
  6
Continuous
 62
   179
370
     0
100
AcDbSpline
210
0.0
220
0.0
230
1.0
 70
     8
 71
     3
 72
    14
 73
    10
 74
     0
 42
0.000000001
 43
0.00000001
 40
17.0
 40
17.0
 40
17.0
 40
17.0
 40
18.0
 40
18.0
 40
18.0
 40
19.0
 40
19.0
 40
19.0
 40
20.0
 40
20.0
 40
20.0
 40
20.0
 10
257.7053577757452
 20
20.25910042553502
 30
0.0
 10
258.2139995287706
 20
20.39587059142628
 30
0.0
 10
258.4104423723632
 20
20.62446660851326
 30
0.0
 10
258.4124688639662
 20
21.16843695483816
 30
0.0
 10
258.4191609275175
 20
22.96470127704905
 30
0.0
 10
258.4149081683119
 20
24.76100595804667
 30
0.0
 10
258.4151320634912
 20
26.55729487989966
 30
0.0
 10
258.4151924094879
 20
27.04153921726713
 30
0.0
 10
258.2057453879524
 20
27.36893835120056
 30
0.0
 10
257.7192638284546
 20
27.51463645747964
 30
0.0
  0
SPLINE
  5
97
330
1F
100
AcDbEntity
  8
0
  6
Continuous
 62
   179
370
     0
100
AcDbSpline
210
0.0
220
0.0
230
1.0
 70
    24
 71
     3
 72
     8
 73
     4
 74
     0
 42
0.000000001
 43
0.00000001
 40
16.0
 40
16.0
 40
16.0
 40
16.0
 40
17.0
 40
17.0
 40
17.0
 40
17.0
 10
260.1134120717832
 20
20.25910042553502
 30
0.0
 10
259.3107272904223
 20
20.25910042553502
 30
0.0
 10
258.5080426051526
 20
20.25910042553502
 30
0.0
 10
257.7053577757452
 20
20.25910042553502
 30
0.0
  0
SPLINE
  5
98
330
1F
100
AcDbEntity
  8
0
  6
Continuous
 62
   179
370
     0
100
AcDbSpline
210
0.0
220
0.0
230
1.0
 70
     8
 71
     3
 72
    14
 73
    10
 74
     0
 42
0.000000001
 43
0.00000001
 40
13.0
 40
13.0
 40
13.0
 40
13.0
 40
14.0
 40
14.0
 40
14.0
 40
15.0
 40
15.0
 40
15.0
 40
16.0
 40
16.0
 40
16.0
 40
16.0
 10
259.4607286043899
 20
23.57138302951071
 30
0.0
 10
259.4539911852495
 20
23.51939476107442
 30
0.0
 10
259.4406539512153
 20
23.46398560492077
 30
0.0
 10
259.4405559370167
 20
23.40855338660286
 30
0.0
 10
259.4392191002215
 20
22.65310606781492
 30
0.0
 10
259.4366701545022
 20
21.89763799307775
 30
0.0
 10
259.4408326829897
 20
21.14221143023692
 30
0.0
 10
259.4435911100346
 20
20.64162793377141
 30
0.0
 10
259.6377614656041
 20
20.40079128856704
 30
0.0
 10
260.1134120717832
 20
20.25910042553502
 30
0.0
  0
SPLINE
  5
99
330
1F
100
AcDbEntity
  8
0
  6
Continuous
 62
   179
370
     0
100
AcDbSpline
210
0.0
220
0.0
230
1.0
 70
     8
 71
     3
 72
    20
 73
    16
 74
     0
 42
0.000000001
 43
0.00000001
 40
8.0
 40
8.0
 40
8.0
 40
8.0
 40
9.0
 40
9.0
 40
9.0
 40
10.0
 40
10.0
 40
10.0
 40
11.0
 40
11.0
 40
11.0
 40
12.0
 40
12.0
 40
12.0
 40
13.0
 40
13.0
 40
13.0
 40
13.0
 10
263.9554858268652
 20
20.24609336482203
 30
0.0
 10
263.8909540472192
 20
20.24131411562171
 30
0.0
 10
263.8264337986554
 20
20.23257048036439
 30
0.0
 10
263.7618904879274
 20
20.2323936704376
 30
0.0
 10
263.3170171088603
 20
20.2311736819415
 30
0.0
 10
262.8718696744063
 20
20.24067529366942
 30
0.0
 10
262.427398730108
 20
20.22724465786873
 30
0.0
 10
262.2549406335689
 20
20.22203337745712
 30
0.0
 10
262.1765046750147
 20
20.28890135435546
 30
0.0
 10
262.1067370153144
 20
20.43629933433309
 30
0.0
 10
261.7451764738302
 20
21.200166649339
 30
0.0
 10
261.378026816807
 20
21.9614848264415
 30
0.0
 10
261.0037355762117
 20
22.71920223094413
 30
0.0
 10
260.6054131759577
 20
23.52556773374193
 30
0.0
 10
260.3725694925604
 20
23.65083910446931
 30
0.0
 10
259.4607286043899
 20
23.57138302951071
 30
0.0
  0
SPLINE
  5
9A
330
1F
100
AcDbEntity
  8
0
  6
Continuous
 62
   179
370
     0
100
AcDbSpline
210
0.0
220
0.0
230
1.0
 70
     8
 71
     3
 72
    14
 73
    10
 74
     0
 42
0.000000001
 43
0.00000001
 40
5.0
 40
5.0
 40
5.0
 40
5.0
 40
6.0
 40
6.0
 40
6.0
 40
7.0
 40
7.0
 40
7.0
 40
8.0
 40
8.0
 40
8.0
 40
8.0
 10
261.0219043336847
 20
23.63056361828031
 30
0.0
 10
261.7521543160346
 20
23.35408286053947
 30
0.0
 10
262.0332083009719
 20
22.73079019980925
 30
0.0
 10
262.3739921385617
 20
22.16106556577572
 30
0.0
 10
262.6276890153665
 20
21.7369354504649
 30
0.0
 10
262.8739775562312
 20
21.30835818112304
 30
0.0
 10
263.1292772534607
 20
20.88520667032095
 30
0.0
 10
263.3178377375432
 20
20.57267359973514
 30
0.0
 10
263.5606000734737
 20
20.32757122285868
 30
0.0
 10
263.9554858268652
 20
20.24609336482203
 30
0.0
  0
SPLINE
  5
9B
330
1F
100
AcDbEntity
  8
0
  6
Continuous
 62
   179
370
     0
100
AcDbSpline
210
0.0
220
0.0
230
1.0
 70
     8
 71
     3
 72
    20
 73
    16
 74
     0
 42
0.000000001
 43
0.00000001
 40
0.0
 40
0.0
 40
0.0
 40
0.0
 40
1.0
 40
1.0
 40
1.0
 40
2.0
 40
2.0
 40
2.0
 40
3.0
 40
3.0
 40
3.0
 40
4.0
 40
4.0
 40
4.0
 40
5.0
 40
5.0
 40
5.0
 40
5.0
 10
257.7192638284546
 20
27.51463645747964
 30
0.0
 10
258.1174764912431
 20
27.51463645747964
 30
0.0
 10
258.5159962651877
 20
27.52468175973202
 30
0.0
 10
258.913837050576
 20
27.51251762112625
 30
0.0
 10
259.7094699986221
 20
27.48819126576296
 30
0.0
 10
260.5093946232761
 20
27.49481913962259
 30
0.0
 10
261.2989762515715
 20
27.40941936834727
 30
0.0
 10
262.3071445332422
 20
27.30037799580671
 30
0.0
 10
262.8488620904764
 20
26.74717259793779
 30
0.0
 10
262.9131259646453
 20
25.88395655371281
 30
0.0
 10
262.9966382899503
 20
24.76217905347502
 30
0.0
 10
262.5617362220245
 20
24.08644572151764
 30
0.0
 10
261.5515161764629
 20
23.77337299628437
 30
0.0
 10
261.3945785321864
 20
23.72473719781129
 30
0.0
 10
261.2341319795987
 20
23.68742184709604
 30
0.0
 10
261.0219043336847
 20
23.63056361828031
 30
0.0
  0
SPLINE
  5
9C
330
1F
100
AcDbEntity
  8
0
  6
Continuous
 62
   179
370
     0
100
AcDbSpline
210
0.0
220
0.0
230
1.0
 70
     8
 71
     3
 72
    20
 73
    16
 74
     0
 42
0.000000001
 43
0.00000001
 40
1.0
 40
1.0
 40
1.0
 40
1.0
 40
2.0
 40
2.0
 40
2.0
 40
3.0
 40
3.0
 40
3.0
 40
4.0
 40
4.0
 40
4.0
 40
5.0
 40
5.0
 40
5.0
 40
6.0
 40
6.0
 40
6.0
 40
6.0
 10
259.4558811296203
 20
23.74052094311722
 30
0.0
 10
259.8313410453957
 20
23.74052094311722
 30
0.0
 10
260.1942113256325
 20
23.70804326575077
 30
0.0
 10
260.5489927438957
 20
23.74778168120397
 30
0.0
 10
261.1506181168165
 20
23.81517009427841
 30
0.0
 10
261.608259863196
 20
24.13857044109258
 30
0.0
 10
261.7413862071132
 20
24.73962656292206
 30
0.0
 10
261.8389787525147
 20
25.18024881635489
 30
0.0
 10
261.8719876284001
 20
25.65810454981779
 30
0.0
 10
261.8164781518313
 20
26.10478869315943
 30
0.0
 10
261.7108519014664
 20
26.95476897687368
 30
0.0
 10
261.3230227860075
 20
27.28690123567825
 30
0.0
 10
260.4792308497364
 20
27.35420547185249
 30
0.0
 10
260.1467440101549
 20
27.38072599997261
 30
0.0
 10
259.8103733099056
 20
27.35855230546976
 30
0.0
 10
259.4558811296203
 20
27.35855230546976
 30
0.0
  0
SPLINE
  5
9D
330
1F
100
AcDbEntity
  8
0
  6
Continuous
 62
   179
370
     0
100
AcDbSpline
210
0.0
220
0.0
230
1.0
 70
    24
 71
     3
 72
     8
 73
     4
 74
     0
 42
0.000000001
 43
0.00000001
 40
0.0
 40
0.0
 40
0.0
 40
0.0
 40
1.0
 40
1.0
 40
1.0
 40
1.0
 10
259.4558811296203
 20
27.35855230546976
 30
0.0
 10
259.4558811296203
 20
26.13864548795524
 30
0.0
 10
259.4558811296203
 20
24.94385548148867
 30
0.0
 10
259.4558811296203
 20
23.74052094311722
 30
0.0
  0
SPLINE
  5
9E
330
1F
100
AcDbEntity
  8
0
  6
Continuous
 62
   179
370
     0
100
AcDbSpline
210
0.0
220
0.0
230
1.0
 70
     8
 71
     3
 72
    14
 73
    10
 74
     0
 42
0.000000001
 43
0.00000001
 40
3.0
 40
3.0
 40
3.0
 40
3.0
 40
4.0
 40
4.0
 40
4.0
 40
5.0
 40
5.0
 40
5.0
 40
6.0
 40
6.0
 40
6.0
 40
6.0
 10
267.2336118279071
 20
20.23490821509466
 30
0.0
 10
266.3034040398354
 20
20.48709452013179
 30
0.0
 10
265.5792320909092
 20
21.34541139190241
 30
0.0
 10
265.4837047623288
 20
22.29272284982232
 30
0.0
 10
265.4259332718035
 20
22.86561853145872
 30
0.0
 10
265.4879189885011
 20
23.41465794151554
 30
0.0
 10
265.7739382574312
 20
23.92202056120339
 30
0.0
 10
266.225828300013
 20
24.723612195973
 30
0.0
 10
266.9062728477854
 20
25.1505801106106
 30
0.0
 10
267.7758432870376
 20
25.16748813643033
 30
0.0
  0
SPLINE
  5
9F
330
1F
100
AcDbEntity
  8
0
  6
Continuous
 62
   179
370
     0
100
AcDbSpline
210
0.0
220
0.0
230
1.0
 70
     8
 71
     3
 72
    14
 73
    10
 74
     0
 42
0.000000001
 43
0.00000001
 40
0.0
 40
0.0
 40
0.0
 40
0.0
 40
1.0
 40
1.0
 40
1.0
 40
2.0
 40
2.0
 40
2.0
 40
3.0
 40
3.0
 40
3.0
 40
3.0
 10
267.7758432870376
 20
25.16748813643033
 30
0.0
 10
268.6216197225536
 20
25.16033694362372
 30
0.0
 10
269.2464106552308
 20
24.83848445240961
 30
0.0
 10
269.7103360726668
 20
24.21398909980579
 30
0.0
 10
270.3729343488989
 20
23.32205720159637
 30
0.0
 10
270.3723808569537
 20
22.03321892002499
 30
0.0
 10
269.7215189161771
 20
21.13111084177937
 30
0.0
 10
269.1482911393735
 20
20.33660467264827
 30
0.0
 10
268.1650050112285
 20
19.98240211471103
 30
0.0
 10
267.2336118279071
 20
20.23490821509466
 30
0.0
  0
SPLINE
  5
A0
330
1F
100
AcDbEntity
  8
0
  6
Continuous
 62
   179
370
     0
100
AcDbSpline
210
0.0
220
0.0
230
1.0
 70
     8
 71
     3
 72
    17
 73
    13
 74
     0
 42
0.000000001
 43
0.00000001
 40
4.0
 40
4.0
 40
4.0
 40
4.0
 40
5.0
 40
5.0
 40
5.0
 40
6.0
 40
6.0
 40
6.0
 40
7.0
 40
7.0
 40
7.0
 40
8.0
 40
8.0
 40
8.0
 40
8.0
 10
266.4699528411193
 20
22.82140374989816
 30
0.0
 10
266.4269741915698
 20
22.16270989809668
 30
0.0
 10
266.5287029361534
 20
21.51524885782822
 30
0.0
 10
266.8746830637486
 20
20.93428603108955
 30
0.0
 10
267.1048165584612
 20
20.54785025472892
 30
0.0
 10
267.4153070900211
 20
20.27237193240103
 30
0.0
 10
267.9076604687568
 20
20.30531315927085
 30
0.0
 10
268.3388937306983
 20
20.33416469565678
 30
0.0
 10
268.6078393105943
 20
20.5966013640246
 30
0.0
 10
268.810867074766
 20
20.94311038392242
 30
0.0
 10
269.1208448575376
 20
21.47214721006824
 30
0.0
 10
269.202432645224
 20
22.05765558940843
 30
0.0
 10
269.218762963826
 20
22.68351122534059
 30
0.0
  0
SPLINE
  5
A1
330
1F
100
AcDbEntity
  8
0
  6
Continuous
 62
   179
370
     0
100
AcDbSpline
210
0.0
220
0.0
230
1.0
 70
     8
 71
     3
 72
    17
 73
    13
 74
     0
 42
0.000000001
 43
0.00000001
 40
0.0
 40
0.0
 40
0.0
 40
0.0
 40
1.0
 40
1.0
 40
1.0
 40
2.0
 40
2.0
 40
2.0
 40
3.0
 40
3.0
 40
3.0
 40
4.0
 40
4.0
 40
4.0
 40
4.0
 10
269.218762963826
 20
22.68351122534059
 30
0.0
 10
269.195680043492
 20
23.34551372899321
 30
0.0
 10
269.0963628325642
 20
24.01168817818241
 30
0.0
 10
268.6683621173312
 20
24.58056604641373
 30
0.0
 10
268.2143234497673
 20
25.18405330473933
 30
0.0
 10
267.4640605055332
 20
25.19142205062979
 30
0.0
 10
267.0072628343699
 20
24.5921328749614
 30
0.0
 10
266.882078331128
 20
24.42789874624283
 30
0.0
 10
266.7597204805011
 20
24.2414496033099
 30
0.0
 10
266.7072125446274
 20
24.04607386528146
 30
0.0
 10
266.5993976948625
 20
23.64490674705059
 30
0.0
 10
266.4968487059656
 20
23.23360918874381
 30
0.0
 10
266.4699528411193
 20
22.82140374989816
 30
0.0
  0
SPLINE
  5
A2
330
1F
100
AcDbEntity
  8
0
  6
Continuous
 62
   179
370
     0
100
AcDbSpline
210
0.0
220
0.0
230
1.0
 70
     8
 71
     3
 72
    17
 73
    13
 74
     0
 42
0.000000001
 43
0.00000001
 40
6.0
 40
6.0
 40
6.0
 40
6.0
 40
7.0
 40
7.0
 40
7.0
 40
8.0
 40
8.0
 40
8.0
 40
9.0
 40
9.0
 40
9.0
 40
10.0
 40
10.0
 40
10.0
 40
10.0
 10
311.6156486607861
 20
20.25320881127337
 30
0.0
 10
312.1185268426077
 20
20.41647125413319
 30
0.0
 10
312.2872188877023
 20
20.63608302071405
 30
0.0
 10
312.2876555313485
 20
21.16871754450475
 30
0.0
 10
312.2890700107628
 20
22.88922803787955
 30
0.0
 10
312.2877662297369
 20
24.60974045310044
 30
0.0
 10
312.2871819882395
 20
26.33025248395311
 30
0.0
 10
312.2871512386867
 20
26.42255802816857
 30
0.0
 10
312.284531376812
 20
26.51487279724974
 30
0.0
 10
312.2823973578678
 20
26.60716642601487
 30
0.0
 10
312.2683694120104
 20
27.21300429544448
 30
0.0
 10
312.2096131670664
 20
27.27631108979181
 30
0.0
 10
311.6691528821608
 20
27.32445797038016
 30
0.0
  0
SPLINE
  5
A3
330
1F
100
AcDbEntity
  8
0
  6
Continuous
 62
   179
370
     0
100
AcDbSpline
210
0.0
220
0.0
230
1.0
 70
    24
 71
     3
 72
     8
 73
     4
 74
     0
 42
0.000000001
 43
0.00000001
 40
5.0
 40
5.0
 40
5.0
 40
5.0
 40
6.0
 40
6.0
 40
6.0
 40
6.0
 10
313.8867245107604
 20
20.25320881127337
 30
0.0
 10
313.0865658051385
 20
20.25320881127337
 30
0.0
 10
312.3511103079174
 20
20.25320881127337
 30
0.0
 10
311.6156486607861
 20
20.25320881127337
 30
0.0
  0
SPLINE
  5
A4
330
1F
100
AcDbEntity
  8
0
  6
Continuous
 62
   179
370
     0
100
AcDbSpline
210
0.0
220
0.0
230
1.0
 70
     8
 71
     3
 72
    17
 73
    13
 74
     0
 42
0.000000001
 43
0.00000001
 40
1.0
 40
1.0
 40
1.0
 40
1.0
 40
2.0
 40
2.0
 40
2.0
 40
3.0
 40
3.0
 40
3.0
 40
4.0
 40
4.0
 40
4.0
 40
5.0
 40
5.0
 40
5.0
 40
5.0
 10
313.1781318226163
 20
27.87703492426926
 30
0.0
 10
313.1781318226163
 20
27.83642744958889
 30
0.0
 10
313.1781318226163
 20
27.75161518695077
 30
0.0
 10
313.1781318226163
 20
27.66680273212924
 30
0.0
 10
313.1781318226163
 20
25.57700952371036
 30
0.0
 10
313.1781256727049
 20
23.48721689184593
 30
0.0
 10
313.1781441224363
 20
21.39742349124222
 30
0.0
 10
313.1781441224363
 20
21.32188875296783
 30
0.0
 10
313.1771847363981
 20
21.24633325874564
 30
0.0
 10
313.1786115156352
 20
21.17082388885261
 30
0.0
 10
313.1888880160859
 20
20.62648762285203
 30
0.0
 10
313.3266152617988
 20
20.43483258067819
 30
0.0
 10
313.8867245107604
 20
20.25320881127337
 30
0.0
  0
SPLINE
  5
A5
330
1F
100
AcDbEntity
  8
0
  6
Continuous
 62
   179
370
     0
100
AcDbSpline
210
0.0
220
0.0
230
1.0
 70
     8
 71
     3
 72
     8
 73
     4
 74
     0
 42
0.000000001
 43
0.00000001
 40
0.0
 40
0.0
 40
0.0
 40
0.0
 40
1.0
 40
1.0
 40
1.0
 40
1.0
 10
311.6691528821608
 20
27.32445797038016
 30
0.0
 10
312.1410908642435
 20
27.49727756634618
 30
0.0
 10
312.6458878181427
 20
27.68213176842718
 30
0.0
 10
313.1781318226163
 20
27.87703492426926
 30
0.0
  0
SPLINE
  5
A6
330
1F
100
AcDbEntity
  8
0
  6
Continuous
 62
   179
370
     0
100
AcDbSpline
210
0.0
220
0.0
230
1.0
 70
     8
 71
     3
 72
    14
 73
    10
 74
     0
 42
0.000000001
 43
0.00000001
 40
6.0
 40
6.0
 40
6.0
 40
6.0
 40
7.0
 40
7.0
 40
7.0
 40
8.0
 40
8.0
 40
8.0
 40
9.0
 40
9.0
 40
9.0
 40
9.0
 10
278.4819664915176
 20
27.88441039662488
 30
0.0
 10
278.4819664915176
 20
27.83987735719565
 30
0.0
 10
278.4819649540404
 20
27.75219577693941
 30
0.0
 10
278.4819649540404
 20
27.66451419668386
 30
0.0
 10
278.4819664915176
 20
25.48269219002111
 30
0.0
 10
278.4816605334703
 20
23.30086999117493
 30
0.0
 10
278.4822124879378
 20
21.11904779232805
 30
0.0
 10
278.4823339486704
 20
20.63637283524633
 30
0.0
 10
278.6550987719953
 20
20.40793364087759
 30
0.0
 10
279.1055120673172
 20
20.2549177176549
 30
0.0
  0
SPLINE
  5
A7
330
1F
100
AcDbEntity
  8
0
  6
Continuous
 62
   179
370
     0
100
AcDbSpline
210
0.0
220
0.0
230
1.0
 70
     8
 71
     3
 72
     8
 73
     4
 74
     0
 42
0.000000001
 43
0.00000001
 40
5.0
 40
5.0
 40
5.0
 40
5.0
 40
6.0
 40
6.0
 40
6.0
 40
6.0
 10
276.9846800684062
 20
27.32963542628539
 30
0.0
 10
277.4478728777531
 20
27.50125751936439
 30
0.0
 10
277.9568994326009
 20
27.68986239811422
 30
0.0
 10
278.4819664915176
 20
27.88441039662488
 30
0.0
  0
SPLINE
  5
A8
330
1F
100
AcDbEntity
  8
0
  6
Continuous
 62
   179
370
     0
100
AcDbSpline
210
0.0
220
0.0
230
1.0
 70
     8
 71
     3
 72
    17
 73
    13
 74
     0
 42
0.000000001
 43
0.00000001
 40
1.0
 40
1.0
 40
1.0
 40
1.0
 40
2.0
 40
2.0
 40
2.0
 40
3.0
 40
3.0
 40
3.0
 40
4.0
 40
4.0
 40
4.0
 40
5.0
 40
5.0
 40
5.0
 40
5.0
 10
276.9460186560294
 20
20.2549177176549
 30
0.0
 10
277.4179566381115
 20
20.41991520401479
 30
0.0
 10
277.5770686601203
 20
20.6342380475635
 30
0.0
 10
277.5771993457187
 20
21.13377529050539
 30
0.0
 10
277.5776652014392
 20
22.92958298186009
 30
0.0
 10
277.5773700057348
 20
24.72538990447762
 30
0.0
 10
277.577359243392
 20
26.52119721146337
 30
0.0
 10
277.577359243392
 20
26.53798031722657
 30
0.0
 10
277.5773838430334
 20
26.55476419172763
 30
0.0
 10
277.5772915943764
 20
26.57154691311976
 30
0.0
 10
277.5738092075535
 20
27.20775573119973
 30
0.0
 10
277.5366914227135
 20
27.25167954511983
 30
0.0
 10
276.9846800684062
 20
27.32963542628539
 30
0.0
  0
SPLINE
  5
A9
330
1F
100
AcDbEntity
  8
0
  6
Continuous
 62
   179
370
     0
100
AcDbSpline
210
0.0
220
0.0
230
1.0
 70
    24
 71
     3
 72
     8
 73
     4
 74
     0
 42
0.000000001
 43
0.00000001
 40
0.0
 40
0.0
 40
0.0
 40
0.0
 40
1.0
 40
1.0
 40
1.0
 40
1.0
 10
279.1055120673172
 20
20.2549177176549
 30
0.0
 10
278.3856819552066
 20
20.2549177176549
 30
0.0
 10
277.6658503056181
 20
20.2549177176549
 30
0.0
 10
276.9460186560295
 20
20.2549177176549
 30
0.0
  0
SPLINE
  5
AA
330
1F
100
AcDbEntity
  8
0
  6
Continuous
 62
   179
370
     0
100
AcDbSpline
210
0.0
220
0.0
230
1.0
 70
     8
 71
     3
 72
    20
 73
    16
 74
     0
 42
0.000000001
 43
0.00000001
 40
5.0
 40
5.0
 40
5.0
 40
5.0
 40
6.0
 40
6.0
 40
6.0
 40
7.0
 40
7.0
 40
7.0
 40
8.0
 40
8.0
 40
8.0
 40
9.0
 40
9.0
 40
9.0
 40
10.0
 40
10.0
 40
10.0
 40
10.0
 10
307.178408284104
 20
20.25443648715803
 30
0.0
 10
307.3179589782803
 20
20.36177625633667
 30
0.0
 10
307.5293898264143
 20
20.45652254628292
 30
0.0
 10
307.6283941606454
 20
20.61954360515536
 30
0.0
 10
307.7285516030971
 20
20.78446498637255
 30
0.0
 10
307.7490584796685
 20
21.01681475508336
 30
0.0
 10
307.7500732149022
 20
21.21990094340409
 30
0.0
 10
307.7587445887104
 20
22.95682170421714
 30
0.0
 10
307.7550484924978
 20
24.69380511724257
 30
0.0
 10
307.7550361926765
 20
26.43077008053731
 30
0.0
 10
307.7550361926765
 20
26.49789904426262
 30
0.0
 10
307.7552944889174
 20
26.56503146731187
 30
0.0
 10
307.7547502218385
 20
26.63215658734291
 30
0.0
 10
307.7501131893193
 20
27.20350460556406
 30
0.0
 10
307.6774858212348
 20
27.28280885460759
 30
0.0
 10
307.1608133901539
 20
27.32540717062984
 30
0.0
  0
SPLINE
  5
AB
330
1F
100
AcDbEntity
  8
0
  6
Continuous
 62
   179
370
     0
100
AcDbSpline
210
0.0
220
0.0
230
1.0
 70
    24
 71
     3
 72
     8
 73
     4
 74
     0
 42
0.000000001
 43
0.00000001
 40
4.0
 40
4.0
 40
4.0
 40
4.0
 40
5.0
 40
5.0
 40
5.0
 40
5.0
 10
309.3620693061907
 20
20.25443648715802
 30
0.0
 10
308.5715044609524
 20
20.25443648715802
 30
0.0
 10
307.8517004859624
 20
20.25443648715802
 30
0.0
 10
307.178408284104
 20
20.25443648715803
 30
0.0
  0
SPLINE
  5
AC
330
1F
100
AcDbEntity
  8
0
  6
Continuous
 62
   179
370
     0
100
AcDbSpline
210
0.0
220
0.0
230
1.0
 70
     8
 71
     3
 72
    14
 73
    10
 74
     0
 42
0.000000001
 43
0.00000001
 40
1.0
 40
1.0
 40
1.0
 40
1.0
 40
2.0
 40
2.0
 40
2.0
 40
3.0
 40
3.0
 40
3.0
 40
4.0
 40
4.0
 40
4.0
 40
4.0
 10
308.6596326784599
 20
27.88697759989075
 30
0.0
 10
308.6596326784599
 20
27.83196991758182
 30
0.0
 10
308.6596326784599
 20
27.74275854708867
 30
0.0
 10
308.6596326784599
 20
27.65354698440997
 30
0.0
 10
308.6596326784599
 20
25.48863300356693
 30
0.0
 10
308.6595035303401
 20
23.32371921490944
 30
0.0
 10
308.6597187772069
 20
21.15880542625192
 30
0.0
 10
308.6597679764911
 20
20.6374237012035
 30
0.0
 10
308.807415027844
 20
20.43200746554105
 30
0.0
 10
309.3620693061908
 20
20.25443648715802
 30
0.0
  0
SPLINE
  5
AD
330
1F
100
AcDbEntity
  8
0
  6
Continuous
 62
   179
370
     0
100
AcDbSpline
210
0.0
220
0.0
230
1.0
 70
     8
 71
     3
 72
     8
 73
     4
 74
     0
 42
0.000000001
 43
0.00000001
 40
0.0
 40
0.0
 40
0.0
 40
0.0
 40
1.0
 40
1.0
 40
1.0
 40
1.0
 10
307.1608133901539
 20
27.32540717062984
 30
0.0
 10
307.6336123597077
 20
27.50255342081908
 30
0.0
 10
308.1420254609839
 20
27.69304267058278
 30
0.0
 10
308.6596326784599
 20
27.88697759989075
 30
0.0
  0
SPLINE
  5
AE
330
1F
100
AcDbEntity
  8
0
  6
Continuous
 62
   179
370
     0
100
AcDbSpline
210
0.0
220
0.0
230
1.0
 70
     8
 71
     3
 72
    14
 73
    10
 74
     0
 42
0.000000001
 43
0.00000001
 40
6.0
 40
6.0
 40
6.0
 40
6.0
 40
7.0
 40
7.0
 40
7.0
 40
8.0
 40
8.0
 40
8.0
 40
9.0
 40
9.0
 40
9.0
 40
9.0
 10
272.426404840594
 20
20.2590796695872
 30
0.0
 10
273.0059923935969
 20
20.37668517687364
 30
0.0
 10
273.0805785081768
 20
20.81042375860576
 30
0.0
 10
273.0783845276048
 20
21.29462927466367
 30
0.0
 10
273.0702866329497
 20
23.08209538116094
 30
0.0
 10
273.0685846452182
 20
24.86961337752774
 30
0.0
 10
273.0527409382852
 20
26.65700799131587
 30
0.0
 10
273.0476395875227
 20
27.23250104921648
 30
0.0
 10
272.9826104338649
 20
27.28380667758701
 30
0.0
 10
272.4594267850394
 20
27.32510813123116
 30
0.0
  0
SPLINE
  5
AF
330
1F
100
AcDbEntity
  8
0
  6
Continuous
 62
   179
370
     0
100
AcDbSpline
210
0.0
220
0.0
230
1.0
 70
    24
 71
     3
 72
     8
 73
     4
 74
     0
 42
0.000000001
 43
0.00000001
 40
5.0
 40
5.0
 40
5.0
 40
5.0
 40
6.0
 40
6.0
 40
6.0
 40
6.0
 10
274.6224502449564
 20
20.2590796695872
 30
0.0
 10
273.8904356226618
 20
20.2590796695872
 30
0.0
 10
273.1584194628893
 20
20.2590796695872
 30
0.0
 10
272.426404840594
 20
20.2590796695872
 30
0.0
  0
SPLINE
  5
B0
330
1F
100
AcDbEntity
  8
0
  6
Continuous
 62
   179
370
     0
100
AcDbSpline
210
0.0
220
0.0
230
1.0
 70
     8
 71
     3
 72
    17
 73
    13
 74
     0
 42
0.000000001
 43
0.00000001
 40
1.0
 40
1.0
 40
1.0
 40
1.0
 40
2.0
 40
2.0
 40
2.0
 40
3.0
 40
3.0
 40
3.0
 40
4.0
 40
4.0
 40
4.0
 40
5.0
 40
5.0
 40
5.0
 40
5.0
 10
273.9540333846496
 20
27.87257450949274
 30
0.0
 10
273.9540333846496
 20
27.80748597076169
 30
0.0
 10
273.9540333846496
 20
27.71082379150879
 30
0.0
 10
273.9540333846496
 20
27.61416161225588
 30
0.0
 10
273.9540349221275
 20
25.51596282147273
 30
0.0
 10
273.9539872603212
 20
23.41776441505853
 30
0.0
 10
273.9542086570993
 20
21.31956562427539
 30
0.0
 10
273.954217881965
 20
21.22727776105204
 30
0.0
 10
273.9506540088286
 20
21.13443409966764
 30
0.0
 10
273.9590578615309
 20
21.04279505200226
 30
0.0
 10
274.0006220316647
 20
20.58964274029083
 30
0.0
 10
274.1836818051716
 20
20.38260600321024
 30
0.0
 10
274.6224502449564
 20
20.2590796695872
 30
0.0
  0
SPLINE
  5
B1
330
1F
100
AcDbEntity
  8
0
  6
Continuous
 62
   179
370
     0
100
AcDbSpline
210
0.0
220
0.0
230
1.0
 70
     8
 71
     3
 72
     8
 73
     4
 74
     0
 42
0.000000001
 43
0.00000001
 40
0.0
 40
0.0
 40
0.0
 40
0.0
 40
1.0
 40
1.0
 40
1.0
 40
1.0
 10
272.4594267850394
 20
27.32510813123116
 30
0.0
 10
272.9327746341049
 20
27.4984925580398
 30
0.0
 10
273.4351023989376
 20
27.68249307566929
 30
0.0
 10
273.9540333846496
 20
27.87257450949274
 30
0.0
  0
SPLINE
  5
B2
330
1F
100
AcDbEntity
  8
0
  6
Continuous
 62
   179
370
     0
100
AcDbSpline
210
0.0
220
0.0
230
1.0
 70
     8
 71
     3
 72
    17
 73
    13
 74
     0
 42
0.000000001
 43
0.00000001
 40
6.0
 40
6.0
 40
6.0
 40
6.0
 40
7.0
 40
7.0
 40
7.0
 40
8.0
 40
8.0
 40
8.0
 40
9.0
 40
9.0
 40
9.0
 40
10.0
 40
10.0
 40
10.0
 40
10.0
 10
304.1706223551654
 20
25.06377258638473
 30
0.0
 10
304.1727133247369
 20
25.01792115989102
 30
0.0
 10
304.1800409430993
 20
24.93136078519359
 30
0.0
 10
304.1800932173391
 20
24.84479541369365
 30
0.0
 10
304.1808527312862
 20
23.6528201443903
 30
0.0
 10
304.1797703470369
 20
22.46084295323946
 30
0.0
 10
304.1818797663412
 20
21.26887114326077
 30
0.0
 10
304.1821011631179
 20
21.14380579453512
 30
0.0
 10
304.1922454404932
 20
21.01764883669525
 30
0.0
 10
304.2107535961514
 20
20.89393877449616
 30
0.0
 10
304.2621822227331
 20
20.55023795748124
 30
0.0
 10
304.457826250606
 20
20.33981031349822
 30
0.0
 10
304.8038079156777
 20
20.25397755008679
 30
0.0
  0
SPLINE
  5
B3
330
1F
100
AcDbEntity
  8
0
  6
Continuous
 62
   179
370
     0
100
AcDbSpline
210
0.0
220
0.0
230
1.0
 70
     8
 71
     3
 72
     8
 73
     4
 74
     0
 42
0.000000001
 43
0.00000001
 40
5.0
 40
5.0
 40
5.0
 40
5.0
 40
6.0
 40
6.0
 40
6.0
 40
6.0
 10
302.7125031745685
 20
24.50968064047993
 30
0.0
 10
303.1898069535647
 20
24.69105879783349
 30
0.0
 10
303.6729961969132
 20
24.874672832025
 30
0.0
 10
304.1706223551654
 20
25.06377258638473
 30
0.0
  0
SPLINE
  5
B4
330
1F
100
AcDbEntity
  8
0
  6
Continuous
 62
   179
370
     0
100
AcDbSpline
210
0.0
220
0.0
230
1.0
 70
     8
 71
     3
 72
    17
 73
    13
 74
     0
 42
0.000000001
 43
0.00000001
 40
1.0
 40
1.0
 40
1.0
 40
1.0
 40
2.0
 40
2.0
 40
2.0
 40
3.0
 40
3.0
 40
3.0
 40
4.0
 40
4.0
 40
4.0
 40
5.0
 40
5.0
 40
5.0
 40
5.0
 10
302.6973344203135
 20
20.25397755008679
 30
0.0
 10
303.1321361678242
 20
20.34946490424869
 30
0.0
 10
303.2897768237453
 20
20.65853557522151
 30
0.0
 10
303.2916556214044
 20
21.04785181591346
 30
0.0
 10
303.296603224403
 20
22.071496731734
 30
0.0
 10
303.2829750227277
 20
23.09531768874206
 30
0.0
 10
303.2668591822546
 20
24.11891186780057
 30
0.0
 10
303.2632153602819
 20
24.35030186610296
 30
0.0
 10
303.1332831261332
 20
24.4918735746181
 30
0.0
 10
302.8846514693661
 20
24.49557889569631
 30
0.0
 10
302.8224697242704
 20
24.49650561033551
 30
0.0
 10
302.7604109773859
 20
24.50557288463289
 30
0.0
 10
302.7125031745685
 20
24.50968064047993
 30
0.0
  0
SPLINE
  5
B5
330
1F
100
AcDbEntity
  8
0
  6
Continuous
 62
   179
370
     0
100
AcDbSpline
210
0.0
220
0.0
230
1.0
 70
    24
 71
     3
 72
     8
 73
     4
 74
     0
 42
0.000000001
 43
0.00000001
 40
0.0
 40
0.0
 40
0.0
 40
0.0
 40
1.0
 40
1.0
 40
1.0
 40
1.0
 10
304.8038079156777
 20
20.25397755008679
 30
0.0
 10
304.1016511088749
 20
20.25397755008679
 30
0.0
 10
303.3994912271164
 20
20.25397755008679
 30
0.0
 10
302.6973344203135
 20
20.25397755008679
 30
0.0
  0
SPLINE
  5
B6
330
1F
100
AcDbEntity
  8
0
  6
Continuous
 62
   179
370
     0
100
AcDbSpline
210
0.0
220
0.0
230
1.0
 70
     8
 71
     3
 72
    11
 73
     7
 74
     0
 42
0.000000001
 43
0.00000001
 40
2.0
 40
2.0
 40
2.0
 40
2.0
 40
3.0
 40
3.0
 40
3.0
 40
4.0
 40
4.0
 40
4.0
 40
4.0
 10
303.0570519104932
 20
26.35430478392947
 30
0.0
 10
303.0511172468594
 20
26.75330175249255
 30
0.0
 10
303.3266947364936
 20
27.05519259513756
 30
0.0
 10
303.6924299141011
 20
27.05034857969325
 30
0.0
 10
304.0507636744179
 20
27.04560238626284
 30
0.0
 10
304.3255386007336
 20
26.75299425696746
 30
0.0
 10
304.3274481479439
 20
26.37412133304796
 30
0.0
  0
SPLINE
  5
B7
330
1F
100
AcDbEntity
  8
0
  6
Continuous
 62
   179
370
     0
100
AcDbSpline
210
0.0
220
0.0
230
1.0
 70
     8
 71
     3
 72
    11
 73
     7
 74
     0
 42
0.000000001
 43
0.00000001
 40
0.0
 40
0.0
 40
0.0
 40
0.0
 40
1.0
 40
1.0
 40
1.0
 40
2.0
 40
2.0
 40
2.0
 40
2.0
 10
304.3274481479439
 20
26.37412133304796
 30
0.0
 10
304.3293945946187
 20
25.98752450590586
 30
0.0
 10
304.0680572227529
 20
25.70828897263022
 30
0.0
 10
303.6993639381942
 20
25.70301926806731
 30
0.0
 10
303.3259905717408
 20
25.69768229885988
 30
0.0
 10
303.0628482011429
 20
25.96449808787493
 30
0.0
 10
303.0570519104932
 20
26.35430478392947
 30
0.0
  0
MTEXT
  5
B9
330
1F
100
AcDbEntity
  8
0
  6
Continuous
 62
     7
370
     0
100
AcDbMText
 10
257.9690483454
 20
40.3166048975
 30
0.0
 40
3.7041666667
 41
0.0
 71
     1
 72
     1
  1
MODC6 - Modo Chandelier - 6 Sided 21 Globes
  7
SLDTEXTSTYLE0
 73
     1
 44
1.0
  0
MTEXT
  5
BA
330
1F
100
AcDbEntity
  8
0
  6
Continuous
 62
     7
370
     0
100
AcDbMText
 10
258.6105142387
 20
44.3546043689
 30
0.0
 40
1.5875
 41
0.0
 71
     1
 72
     1
  1
\LDESCRIPTION
  7
SLDTEXTSTYLE0
 73
     1
 44
1.0
  0
INSERT
  5
C1
330
1F
100
AcDbEntity
  8
0
  6
Continuous
 62
     7
370
     0
100
AcDbBlockReference
  2
SW_NOTE_0
 10
317.1049495712
 20
24.1495665419
 30
0.0
  0
MTEXT
  5
C2
330
1F
100
AcDbEntity
  8
0
  6
Continuous
 62
     7
370
     0
100
AcDbMText
 10
273.8792930731
 20
32.371143085
 30
0.0
 40
1.5875
 41
0.0
 71
     2
 72
     1
  1
\LSCALE
  7
SLDTEXTSTYLE0
 73
     1
 44
1.0
  0
MTEXT
  5
C3
330
1F
100
AcDbEntity
  8
0
  6
Continuous
 62
     7
370
     0
100
AcDbMText
 10
278.3960862508
 20
33.4394651033
 30
0.0
 40
2.6458333333
 41
0.0
 71
     1
 72
     1
  1
1:18
  7
SLDTEXTSTYLE0
 73
     1
 44
1.0
  0
MTEXT
  5
C4
330
1F
100
AcDbEntity
  8
0
  6
Continuous
 62
     7
370
     0
100
AcDbMText
 10
261.5657280329
 20
32.371143085
 30
0.0
 40
1.5875
 41
0.0
 71
     2
 72
     1
  1
\LSIZE
  7
SLDTEXTSTYLE0
 73
     1
 44
1.0
  0
MTEXT
  5
C5
330
1F
100
AcDbEntity
  8
0
  6
Continuous
 62
     7
370
     0
100
AcDbMText
 10
264.7495209372
 20
33.4394651033
 30
0.0
 40
2.6458333333
 41
0.0
 71
     1
 72
     1
  1
B
  7
SLDTEXTSTYLE0
 73
     1
 44
1.0
  0
INSERT
  5
CC
330
1F
100
AcDbEntity
  8
0
  6
Continuous
 62
     7
370
     0
100
AcDbBlockReference
  2
SW_NOTE_1
 10
258.0900415808
 20
15.6806800849
 30
0.0
  0
CIRCLE
  5
CD
330
1F
100
AcDbEntity
  8
0
  6
Continuous
 62
     7
370
    15
100
AcDbCircle
 10
97.155
 20
95.1098811046
 30
0.0
 40
4.583333333333329
  0
ARC
  5
CE
330
1F
100
AcDbEntity
  8
0
  6
Continuous
 62
     7
370
    15
100
AcDbCircle
 10
97.155
 20
86.9567988954
 30
0.0
 40
4.58333333333333
100
AcDbArc
 50
128.4762233208
 51
0.0
  0
ARC
  5
CF
330
1F
100
AcDbEntity
  8
0
  6
Continuous
 62
     7
370
    15
100
AcDbCircle
 10
97.155
 20
86.9567988954
 30
0.0
 40
4.583333333333329
100
AcDbArc
 50
0.0
 51
51.5237766792
  0
ARC
  5
D0
330
1F
100
AcDbEntity
  8
0
  6
Continuous
 62
     7
370
    15
100
AcDbCircle
 10
97.155
 20
103.2621166472
 30
0.0
 40
4.583333333333329
100
AcDbArc
 50
308.4762233208
 51
0.0
  0
ARC
  5
D1
330
1F
100
AcDbEntity
  8
0
  6
Continuous
 62
     7
370
    15
100
AcDbCircle
 10
97.155
 20
103.2621166472
 30
0.0
 40
4.583333333333329
100
AcDbArc
 50
0.0
 51
231.5237766792
  0
ARC
  5
D2
330
1F
100
AcDbEntity
  8
0
  6
Continuous
 62
     7
370
    15
100
AcDbCircle
 10
98.1201686556
 20
89.3694012223
 30
0.0
 40
2.257777777777771
100
AcDbArc
 50
31.3765589782
 51
52.689566217
  0
ARC
  5
D3
330
1F
100
AcDbEntity
  8
0
  6
Continuous
 62
     7
370
    15
100
AcDbCircle
 10
96.1898313444
 20
89.3694012223
 30
0.0
 40
2.257777777777789
100
AcDbArc
 50
127.310433783
 51
148.6234410218
  0
ARC
  5
D4
330
1F
100
AcDbEntity
  8
0
  6
Continuous
 62
     7
370
    15
100
AcDbCircle
 10
96.1898313444
 20
100.8495143203
 30
0.0
 40
2.257777777777775
100
AcDbArc
 50
211.3765589782
 51
232.6696132404
  0
ARC
  5
D5
330
1F
100
AcDbEntity
  8
0
  6
Continuous
 62
     7
370
    15
100
AcDbCircle
 10
98.1201686556
 20
100.8495143203
 30
0.0
 40
2.257777777777781
100
AcDbArc
 50
307.3303867596
 51
328.6234410218
  0
LINE
  5
D6
330
1F
100
AcDbEntity
  8
0
  6
Continuous
 62
     7
370
    15
100
AcDbLine
 10
92.5793099524
 20
95.3744658661
 30
0.0
 11
67.6297365581
 21
95.3744658661
 31
0.0
  0
LINE
  5
D7
330
1F
100
AcDbEntity
  8
0
  6
Continuous
 62
     7
370
    15
100
AcDbLine
 10
67.6298723242
 20
94.8452991412
 30
0.0
 11
92.5793099524
 21
94.8452991412
 31
0.0
  0
LINE
  5
D8
330
1F
100
AcDbEntity
  8
0
  6
Continuous
 62
     7
370
    15
100
AcDbLine
 10
126.6802634419
 20
95.3744658661
 30
0.0
 11
101.7306900476
 21
95.3744658661
 31
0.0
  0
LINE
  5
D9
330
1F
100
AcDbEntity
  8
0
  6
Continuous
 62
     7
370
    15
100
AcDbLine
 10
101.7306900476
 20
94.8452991412
 30
0.0
 11
126.6801872804
 21
94.8452991412
 31
0.0
  0
LINE
  5
DA
330
1F
100
AcDbEntity
  8
0
  6
Continuous
 62
     7
370
    15
100
AcDbLine
 10
96.8904166634
 20
82.381110274
 30
0.0
 11
96.8904166634
 21
74.8903164101
 31
0.0
  0
LINE
  5
DB
330
1F
100
AcDbEntity
  8
0
  6
Continuous
 62
     7
370
    15
100
AcDbLine
 10
97.4195833366
 20
74.8903627693
 30
0.0
 11
97.4195833366
 21
82.381110274
 31
0.0
  0
LINE
  5
DC
330
1F
100
AcDbEntity
  8
0
  6
Continuous
 62
     7
370
    15
100
AcDbLine
 10
97.4195833366
 20
107.8378070228
 30
0.0
 11
97.4195833366
 21
115.328567773
 31
0.0
  0
LINE
  5
DD
330
1F
100
AcDbEntity
  8
0
  6
Continuous
 62
     7
370
    15
100
AcDbLine
 10
96.8904166634
 20
115.3285975753
 30
0.0
 11
96.8904166634
 21
107.8378070228
 31
0.0
  0
ARC
  5
DE
330
1F
100
AcDbEntity
  8
0
  6
Continuous
 62
     7
370
    15
100
AcDbCircle
 10
135.0926010181
 20
95.1098811046
 30
0.0
 40
4.583333333333343
100
AcDbArc
 50
205.3142440354
 51
0.0
  0
ARC
  5
DF
330
1F
100
AcDbEntity
  8
0
  6
Continuous
 62
     7
370
    15
100
AcDbCircle
 10
135.0926010181
 20
95.1098811046
 30
0.0
 40
4.583333333333343
100
AcDbArc
 50
0.0
 51
154.6857559646
  0
ARC
  5
E0
330
1F
100
AcDbEntity
  8
0
  6
Continuous
 62
     7
370
    15
100
AcDbCircle
 10
59.2173989819
 20
95.1098811046
 30
0.0
 40
4.583333333333334
100
AcDbArc
 50
25.3142440354
 51
334.6857559646
  0
SPLINE
  5
E1
330
1F
100
AcDbEntity
  8
0
  6
Continuous
 62
     7
370
    15
100
AcDbSpline
210
0.0
220
0.0
230
1.0
 70
     8
 71
     3
 72
    34
 73
    30
 74
     0
 42
0.000000001
 43
0.00000001
 40
0.0
 40
0.0
 40
0.0
 40
0.0
 40
0.0116370350703565
 40
0.0474176908066851
 40
0.083564607627186
 40
0.1202249123809592
 40
0.1575533866434929
 40
0.1956962814938784
 40
0.2347521274212799
 40
0.2747170742526186
 40
0.3154467695298975
 40
0.3566433067075537
 40
0.3979330579023008
 40
0.439156223144205
 40
0.4803109647776023
 40
0.5215229737151973
 40
0.5629982157861434
 40
0.6049026546861083
 40
0.6474786582179564
 40
0.6909156150812059
 40
0.7352693214199614
 40
0.7753989675211167
 40
0.8027146450348789
 40
0.8355418518773654
 40
0.8738618348847702
 40
0.9114100464005152
 40
0.9483042367075292
 40
0.9846575758899474
 40
1.0
 40
1.0
 40
1.0
 40
1.0
 10
131.307650170856
 20
97.67747675371086
 30
0.0
 10
131.2908776541847
 20
97.66317790326823
 30
0.0
 10
131.2225342999918
 20
97.60491405297648
 30
0.0
 10
131.1127881926238
 20
97.49093032231893
 30
0.0
 10
130.9787056582721
 20
97.33585015368678
 30
0.0
 10
130.8553212948937
 20
97.16862930636994
 30
0.0
 10
130.7418980645779
 20
96.99027124107224
 30
0.0
 10
130.6389849395728
 20
96.80041867157829
 30
0.0
 10
130.5469891591675
 20
96.59922991484845
 30
0.0
 10
130.4666100591998
 20
96.38721488124907
 30
0.0
 10
130.398672934435
 20
96.1656623268012
 30
0.0
 10
130.343968560444
 20
95.93669283911721
 30
0.0
 10
130.3029542903722
 20
95.70270149605571
 30
0.0
 10
130.2757418393325
 20
95.46574076798692
 30
0.0
 10
130.2622240298692
 20
95.22705413500326
 30
0.0
 10
130.2623640793811
 20
94.98725152054153
 30
0.0
 10
130.2763223450575
 20
94.74665781016648
 30
0.0
 10
130.3045465256862
 20
94.50539912500341
 30
0.0
 10
130.3478136039453
 20
94.26366200702007
 30
0.0
 10
130.4072079906308
 20
94.02188850326579
 30
0.0
 10
130.4810694913415
 20
93.79035294788353
 30
0.0
 10
130.5590163797482
 20
93.59370380588572
 30
0.0
 10
130.6387150925737
 20
93.42206754726267
 30
0.0
 10
130.7256626069041
 20
93.25803751390912
 30
0.0
 10
130.83319799846
 20
93.08362940441825
 30
0.0
 10
130.9573774909275
 20
92.91090278637272
 30
0.0
 10
131.0922600209177
 20
92.75106202533001
 30
0.0
 10
131.2076045288831
 20
92.62933528319336
 30
0.0
 10
131.2816051313304
 20
92.56524095600376
 30
0.0
 10
131.3035672526889
 20
92.54621884881043
 30
0.0
  0
SPLINE
  5
E2
330
1F
100
AcDbEntity
  8
0
  6
Continuous
 62
     7
370
    15
100
AcDbSpline
210
0.0
220
0.0
230
1.0
 70
     8
 71
     3
 72
    33
 73
    29
 74
     0
 42
0.000000001
 43
0.00000001
 40
0.0
 40
0.0
 40
0.0
 40
0.0
 40
0.0212480062374861
 40
0.0571191025487422
 40
0.0933961550592595
 40
0.1302318554620718
 40
0.1677809130294049
 40
0.2061798077058906
 40
0.2455028633452124
 40
0.2857090340380165
 40
0.3266089514421872
 40
0.3678550842205712
 40
0.4091320315585861
 40
0.4503258028066667
 40
0.4914765628102749
 40
0.5327388981792568
 40
0.5743103812218853
 40
0.6163828698943866
 40
0.6591900689430794
 40
0.7028926652007241
 40
0.7474892531795226
 40
0.7874420668941051
 40
0.8267089410260068
 40
0.8651774074437633
 40
0.9028728280984499
 40
0.9398901050380538
 40
0.9763438747828994
 40
1.0
 40
1.0
 40
1.0
 40
1.0
 10
63.00542940245727
 20
92.54523206080245
 30
0.0
 10
63.03557639026627
 20
92.57187870713202
 30
0.0
 10
63.11661782394024
 20
92.64351048788676
 30
0.0
 10
63.23718577348455
 20
92.77272480477434
 30
0.0
 10
63.36818739035077
 20
92.93133788056477
 30
0.0
 10
63.48869690917959
 20
93.1017877934216
 30
0.0
 10
63.59910372666738
 20
93.28348282658764
 30
0.0
 10
63.69890135306542
 20
93.47665249012636
 30
0.0
 10
63.78760139643981
 20
93.68107052762878
 30
0.0
 10
63.86445220195846
 20
93.8960293631787
 30
0.0
 10
63.92861580308814
 20
94.11996671163583
 30
0.0
 10
63.97936970748385
 20
94.35062887052098
 30
0.0
 10
64.01636777047187
 20
94.58565190342976
 30
0.0
 10
64.03959236660664
 20
94.82321080732525
 30
0.0
 10
64.0491452656445
 20
95.06226093309066
 30
0.0
 10
64.0450197851447
 20
95.30229922398591
 30
0.0
 10
64.02698100665404
 20
95.54308252509816
 30
0.0
 10
63.99449006687527
 20
95.7844957072002
 30
0.0
 10
63.94666278440872
 20
96.02631719725044
 30
0.0
 10
63.88234978973226
 20
96.26790576658614
 30
0.0
 10
63.80364077590497
 20
96.49818071810752
 30
0.0
 10
63.71269714676697
 20
96.71384249908503
 30
0.0
 10
63.61266651020521
 20
96.91206093720633
 30
0.0
 10
63.50120910315418
 20
97.09895679791583
 30
0.0
 10
63.37915342997091
 20
97.27411238332655
 30
0.0
 10
63.24647608835024
 20
97.43666661064346
 30
0.0
 10
63.1215605315012
 20
97.57145570188156
 30
0.0
 10
63.03647439641012
 20
97.64705802868684
 30
0.0
 10
63.00298892339062
 20
97.67681116851087
 30
0.0
  0
ARC
  5
E3
330
1F
100
AcDbEntity
  8
0
  6
Continuous
 62
     7
370
    15
100
AcDbCircle
 10
128.0425177138
 20
86.9567988954
 30
0.0
 40
4.583333333333371
100
AcDbArc
 50
128.4762233208
 51
0.0
  0
ARC
  5
E4
330
1F
100
AcDbEntity
  8
0
  6
Continuous
 62
     7
370
    15
100
AcDbCircle
 10
128.0425177138
 20
86.9567988954
 30
0.0
 40
4.583333333333371
100
AcDbArc
 50
0.0
 51
51.5237766792
  0
ARC
  5
E5
330
1F
100
AcDbEntity
  8
0
  6
Continuous
 62
     7
370
    15
100
AcDbCircle
 10
128.0425177138
 20
103.2621166472
 30
0.0
 40
4.583333333333343
100
AcDbArc
 50
308.4762233208
 51
0.0
  0
ARC
  5
E6
330
1F
100
AcDbEntity
  8
0
  6
Continuous
 62
     7
370
    15
100
AcDbCircle
 10
128.0425177138
 20
103.2621166472
 30
0.0
 40
4.583333333333343
100
AcDbArc
 50
0.0
 51
231.5237766792
  0
ARC
  5
E7
330
1F
100
AcDbEntity
  8
0
  6
Continuous
 62
     7
370
    15
100
AcDbCircle
 10
66.2674822862
 20
103.2621166472
 30
0.0
 40
4.583333333333329
100
AcDbArc
 50
308.4762233208
 51
0.0
  0
ARC
  5
E8
330
1F
100
AcDbEntity
  8
0
  6
Continuous
 62
     7
370
    15
100
AcDbCircle
 10
66.2674822862
 20
103.2621166472
 30
0.0
 40
4.583333333333329
100
AcDbArc
 50
0.0
 51
231.5237766792
  0
ARC
  5
E9
330
1F
100
AcDbEntity
  8
0
  6
Continuous
 62
     7
370
    15
100
AcDbCircle
 10
66.2674822862
 20
86.9567988954
 30
0.0
 40
4.583333333333329
100
AcDbArc
 50
128.4762233208
 51
0.0
  0
ARC
  5
EA
330
1F
100
AcDbEntity
  8
0
  6
Continuous
 62
     7
370
    15
100
AcDbCircle
 10
66.2674822862
 20
86.9567988954
 30
0.0
 40
4.583333333333329
100
AcDbArc
 50
0.0
 51
51.5237766792
  0
ARC
  5
EB
330
1F
100
AcDbEntity
  8
0
  6
Continuous
 62
     7
370
    15
100
AcDbCircle
 10
129.0076863694
 20
89.3694012223
 30
0.0
 40
2.257777777777794
100
AcDbArc
 50
31.3765589782
 51
67.3414024018
  0
ARC
  5
EC
330
1F
100
AcDbEntity
  8
0
  6
Continuous
 62
     7
370
    15
100
AcDbCircle
 10
127.0773490582
 20
89.3694012223
 30
0.0
 40
2.25777777777777
100
AcDbArc
 50
112.6585975982
 51
148.6234410218
  0
ARC
  5
ED
330
1F
100
AcDbEntity
  8
0
  6
Continuous
 62
     7
370
    15
100
AcDbCircle
 10
127.0773490582
 20
100.8495143203
 30
0.0
 40
2.257777777777768
100
AcDbArc
 50
211.3765589782
 51
247.3414024018
  0
ARC
  5
EE
330
1F
100
AcDbEntity
  8
0
  6
Continuous
 62
     7
370
    15
100
AcDbCircle
 10
129.0076863694
 20
100.8495143203
 30
0.0
 40
2.25777777777777
100
AcDbArc
 50
292.6585975982
 51
328.6234410218
  0
ARC
  5
EF
330
1F
100
AcDbEntity
  8
0
  6
Continuous
 62
     7
370
    15
100
AcDbCircle
 10
65.3023136306
 20
100.8495143203
 30
0.0
 40
2.257777777777775
100
AcDbArc
 50
211.3765589782
 51
247.3414024018
  0
ARC
  5
F0
330
1F
100
AcDbEntity
  8
0
  6
Continuous
 62
     7
370
    15
100
AcDbCircle
 10
67.2326509418
 20
100.8495143203
 30
0.0
 40
2.257777777777782
100
AcDbArc
 50
292.6585975982
 51
328.6234410218
  0
ARC
  5
F1
330
1F
100
AcDbEntity
  8
0
  6
Continuous
 62
     7
370
    15
100
AcDbCircle
 10
67.2326509418
 20
89.3694012223
 30
0.0
 40
2.257777777777787
100
AcDbArc
 50
31.3765589782
 51
67.3414024018
  0
ARC
  5
F2
330
1F
100
AcDbEntity
  8
0
  6
Continuous
 62
     7
370
    15
100
AcDbCircle
 10
65.3023136306
 20
89.3694012223
 30
0.0
 40
2.257777777777782
100
AcDbArc
 50
112.6585975982
 51
148.6234410218
  0
LINE
  5
F3
330
1F
100
AcDbEntity
  8
0
  6
Continuous
 62
     7
370
    15
100
AcDbLine
 10
130.2728605556
 20
95.3744658661
 30
0.0
 11
129.4047718864
 21
95.3744658661
 31
0.0
  0
LINE
  5
F4
330
1F
100
AcDbEntity
  8
0
  6
Continuous
 62
     7
370
    15
100
AcDbLine
 10
129.4048480479
 20
94.8452991412
 30
0.0
 11
130.2729234717
 21
94.8452991412
 31
0.0
  0
LINE
  5
F5
330
1F
100
AcDbEntity
  8
0
  6
Continuous
 62
     7
370
    15
100
AcDbLine
 10
64.0381891484
 20
94.8452991412
 30
0.0
 11
64.9051519521
 21
94.8452991412
 31
0.0
  0
LINE
  5
F6
330
1F
100
AcDbEntity
  8
0
  6
Continuous
 62
     7
370
    15
100
AcDbLine
 10
64.9052281136
 20
95.3744658661
 30
0.0
 11
64.0372752105
 21
95.3744658661
 31
0.0
  0
ARC
  5
F7
330
1F
100
AcDbEntity
  8
0
  6
Continuous
 62
     7
370
    15
100
AcDbCircle
 10
128.2466247142
 20
87.5463255491
 30
0.0
 40
4.233333333333345
100
AcDbArc
 50
67.3414024018
 51
89.181459093
  0
ARC
  5
F8
330
1F
100
AcDbEntity
  8
0
  6
Continuous
 62
     7
370
    15
100
AcDbCircle
 10
127.8384107134
 20
87.5463255491
 30
0.0
 40
4.233333333333345
100
AcDbArc
 50
90.818540907
 51
112.6585975982
  0
ARC
  5
F9
330
1F
100
AcDbEntity
  8
0
  6
Continuous
 62
     7
370
    15
100
AcDbCircle
 10
127.8384107134
 20
102.6725899935
 30
0.0
 40
4.233333333333339
100
AcDbArc
 50
247.3414024018
 51
269.181459093
  0
ARC
  5
FA
330
1F
100
AcDbEntity
  8
0
  6
Continuous
 62
     7
370
    15
100
AcDbCircle
 10
128.2466247142
 20
102.6725899935
 30
0.0
 40
4.233333333333332
100
AcDbArc
 50
270.818540907
 51
292.6585975982
  0
ARC
  5
FB
330
1F
100
AcDbEntity
  8
0
  6
Continuous
 62
     7
370
    15
100
AcDbCircle
 10
66.0633752858
 20
102.6725899935
 30
0.0
 40
4.233333333333339
100
AcDbArc
 50
247.3414024018
 51
269.181459093
  0
ARC
  5
FC
330
1F
100
AcDbEntity
  8
0
  6
Continuous
 62
     7
370
    15
100
AcDbCircle
 10
66.4715892866
 20
102.6725899935
 30
0.0
 40
4.233333333333339
100
AcDbArc
 50
270.8185409071
 51
292.6585975982
  0
ARC
  5
FD
330
1F
100
AcDbEntity
  8
0
  6
Continuous
 62
     7
370
    15
100
AcDbCircle
 10
66.4715892866
 20
87.5463255491
 30
0.0
 40
4.233333333333347
100
AcDbArc
 50
67.3414024018
 51
89.181459093
  0
ARC
  5
FE
330
1F
100
AcDbEntity
  8
0
  6
Continuous
 62
     7
370
    15
100
AcDbCircle
 10
66.0633752858
 20
87.5463255491
 30
0.0
 40
4.233333333333345
100
AcDbArc
 50
90.818540907
 51
112.6585975982
  0
ARC
  5
FF
330
1F
100
AcDbEntity
  8
0
  6
Continuous
 62
     7
370
    15
100
AcDbCircle
 10
128.9244621583
 20
95.1098811046
 30
0.0
 40
2.469444444444431
100
AcDbArc
 50
186.1506398279
 51
215.6853347127
  0
ARC
  5
100
330
1F
100
AcDbEntity
  8
0
  6
Continuous
 62
     7
370
    15
100
AcDbCircle
 10
127.1605732694
 20
95.1098811046
 30
0.0
 40
2.469444444444448
100
AcDbArc
 50
324.3146652873
 51
353.8493601721
  0
ARC
  5
101
330
1F
100
AcDbEntity
  8
0
  6
Continuous
 62
     7
370
    15
100
AcDbCircle
 10
127.1605732694
 20
95.109034438
 30
0.0
 40
2.46944444444446
100
AcDbArc
 50
6.170398197
 51
35.6853347127
  0
ARC
  5
102
330
1F
100
AcDbEntity
  8
0
  6
Continuous
 62
     7
370
    15
100
AcDbCircle
 10
128.9244621583
 20
95.109034438
 30
0.0
 40
2.469444444444437
100
AcDbArc
 50
144.3146652873
 51
173.829601803
  0
ARC
  5
103
330
1F
100
AcDbEntity
  8
0
  6
Continuous
 62
     7
370
    15
100
AcDbCircle
 10
67.1494267306
 20
95.1098811046
 30
0.0
 40
2.469444444444447
100
AcDbArc
 50
186.1506398279
 51
215.6853347127
  0
ARC
  5
104
330
1F
100
AcDbEntity
  8
0
  6
Continuous
 62
     7
370
    15
100
AcDbCircle
 10
65.3855378417
 20
95.1098811046
 30
0.0
 40
2.469444444444448
100
AcDbArc
 50
324.3146652873
 51
353.8493601721
  0
ARC
  5
105
330
1F
100
AcDbEntity
  8
0
  6
Continuous
 62
     7
370
    15
100
AcDbCircle
 10
65.3855378417
 20
95.109034438
 30
0.0
 40
2.469444444444437
100
AcDbArc
 50
6.170398197
 51
35.6853347127
  0
ARC
  5
106
330
1F
100
AcDbEntity
  8
0
  6
Continuous
 62
     7
370
    15
100
AcDbCircle
 10
67.1494267306
 20
95.109034438
 30
0.0
 40
2.469444444444461
100
AcDbArc
 50
144.3146652873
 51
173.829601803
  0
ARC
  5
107
330
1F
100
AcDbEntity
  8
0
  6
Continuous
 62
     7
370
    15
100
AcDbCircle
 10
128.8797994941
 20
96.3437566602
 30
0.0
 40
0.3527777777777743
100
AcDbArc
 50
35.6853347127
 51
90.0
  0
ARC
  5
108
330
1F
100
AcDbEntity
  8
0
  6
Continuous
 62
     7
370
    15
100
AcDbCircle
 10
127.2052359335
 20
96.3437566602
 30
0.0
 40
0.3527777777777955
100
AcDbArc
 50
90.0
 51
144.3146652873
  0
ARC
  5
109
330
1F
100
AcDbEntity
  8
0
  6
Continuous
 62
     7
370
    15
100
AcDbCircle
 10
67.1047640665
 20
96.3437566602
 30
0.0
 40
0.3527777777777743
100
AcDbArc
 50
35.6853347127
 51
90.0
  0
ARC
  5
10A
330
1F
100
AcDbEntity
  8
0
  6
Continuous
 62
     7
370
    15
100
AcDbCircle
 10
65.4302005059
 20
96.3437566602
 30
0.0
 40
0.3527777777777743
100
AcDbArc
 50
90.0
 51
144.3146652873
  0
ARC
  5
10B
330
1F
100
AcDbEntity
  8
0
  6
Continuous
 62
     7
370
    15
100
AcDbCircle
 10
127.2052359335
 20
93.8751588824
 30
0.0
 40
0.3527777777777885
100
AcDbArc
 50
215.6853347127
 51
270.0
  0
ARC
  5
10C
330
1F
100
AcDbEntity
  8
0
  6
Continuous
 62
     7
370
    15
100
AcDbCircle
 10
128.8797994941
 20
93.8751588824
 30
0.0
 40
0.3527777777777955
100
AcDbArc
 50
270.0
 51
324.3146652874
  0
ARC
  5
10D
330
1F
100
AcDbEntity
  8
0
  6
Continuous
 62
     7
370
    15
100
AcDbCircle
 10
65.4302005059
 20
93.8751588824
 30
0.0
 40
0.3527777777777885
100
AcDbArc
 50
215.6853347127
 51
270.0
  0
ARC
  5
10E
330
1F
100
AcDbEntity
  8
0
  6
Continuous
 62
     7
370
    15
100
AcDbCircle
 10
67.1047640665
 20
93.8751588824
 30
0.0
 40
0.3527777777777885
100
AcDbArc
 50
270.0
 51
324.3146652873
  0
LINE
  5
10F
330
1F
100
AcDbEntity
  8
0
  6
Continuous
 62
     7
370
    15
100
AcDbLine
 10
128.3071026823
 20
91.7792262798
 30
0.0
 11
128.3071026823
 21
93.5223839845
 31
0.0
  0
LINE
  5
110
330
1F
100
AcDbEntity
  8
0
  6
Continuous
 62
     7
370
    15
100
AcDbLine
 10
127.7779359574
 20
93.5223839845
 30
0.0
 11
127.7779359574
 21
91.7792262798
 31
0.0
  0
LINE
  5
111
330
1F
100
AcDbEntity
  8
0
  6
Continuous
 62
     7
370
    15
100
AcDbLine
 10
127.7779359574
 20
98.4396877056
 30
0.0
 11
127.7779359574
 21
96.6965333123
 31
0.0
  0
LINE
  5
112
330
1F
100
AcDbEntity
  8
0
  6
Continuous
 62
     7
370
    15
100
AcDbLine
 10
128.3071026823
 20
96.6965333123
 30
0.0
 11
128.3071026823
 21
98.4396877056
 31
0.0
  0
LINE
  5
113
330
1F
100
AcDbEntity
  8
0
  6
Continuous
 62
     7
370
    15
100
AcDbLine
 10
66.0028973177
 20
98.4396877056
 30
0.0
 11
66.0028973177
 21
96.6965333123
 31
0.0
  0
LINE
  5
114
330
1F
100
AcDbEntity
  8
0
  6
Continuous
 62
     7
370
    15
100
AcDbLine
 10
66.5320640426
 20
96.6965333123
 30
0.0
 11
66.5320640426
 21
98.4396877056
 31
0.0
  0
LINE
  5
115
330
1F
100
AcDbEntity
  8
0
  6
Continuous
 62
     7
370
    15
100
AcDbLine
 10
66.5320640426
 20
91.7792262798
 30
0.0
 11
66.5320640426
 21
93.5223839845
 31
0.0
  0
LINE
  5
116
330
1F
100
AcDbEntity
  8
0
  6
Continuous
 62
     7
370
    15
100
AcDbLine
 10
66.0028973177
 20
93.5223839845
 30
0.0
 11
66.0028973177
 21
91.7792262798
 31
0.0
  0
LINE
  5
117
330
1F
100
AcDbEntity
  8
0
  6
Continuous
 62
     7
370
    15
100
AcDbLine
 10
126.657497779
 20
94.1305831571
 30
0.0
 11
98.1427117765
 21
75.1207214759
 31
0.0
  0
LINE
  5
118
330
1F
100
AcDbEntity
  8
0
  6
Continuous
 62
     7
370
    15
100
AcDbLine
 10
98.4183491101
 20
74.668501036
 30
0.0
 11
126.9190098466
 21
93.6689385605
 31
0.0
  0
LINE
  5
119
330
1F
100
AcDbEntity
  8
0
  6
Continuous
 62
     7
370
    15
100
AcDbLine
 10
67.652502221
 20
96.0883341398
 30
0.0
 11
96.1671043391
 21
115.0980699889
 31
0.0
  0
LINE
  5
11A
330
1F
100
AcDbEntity
  8
0
  6
Continuous
 62
     7
370
    15
100
AcDbLine
 10
95.8916410593
 20
115.5504063268
 30
0.0
 11
67.3909901534
 21
96.5499754249
 31
0.0
  0
LINE
  5
11B
330
1F
100
AcDbEntity
  8
0
  6
Continuous
 62
     7
370
    15
100
AcDbLine
 10
126.9190098466
 20
96.5499754249
 30
0.0
 11
98.4183637008
 21
115.5504030154
 31
0.0
  0
LINE
  5
11C
330
1F
100
AcDbEntity
  8
0
  6
Continuous
 62
     7
370
    15
100
AcDbLine
 10
98.1428887278
 20
115.0980766117
 30
0.0
 11
126.657497779
 21
96.0883341398
 31
0.0
  0
LINE
  5
11D
330
1F
100
AcDbEntity
  8
0
  6
Continuous
 62
     7
370
    15
100
AcDbLine
 10
67.3909901534
 20
93.6689385605
 30
0.0
 11
95.8916561674
 21
74.668501036
 31
0.0
  0
LINE
  5
11E
330
1F
100
AcDbEntity
  8
0
  6
Continuous
 62
     7
370
    15
100
AcDbLine
 10
96.1672427957
 20
75.1207545896
 30
0.0
 11
67.652502221
 21
94.1305831571
 31
0.0
  0
ARC
  5
11F
330
1F
100
AcDbEntity
  8
0
  6
Continuous
 62
     7
370
    15
100
AcDbCircle
 10
97.155
 20
108.2955195935
 30
0.0
 40
4.583333333333342
100
AcDbArc
 50
128.4762233208
 51
213.305188484
  0
ARC
  5
120
330
1F
100
AcDbEntity
  8
0
  6
Continuous
 62
     7
370
    15
100
AcDbCircle
 10
97.155
 20
108.2955195935
 30
0.0
 40
4.583333333333343
100
AcDbArc
 50
326.694811516
 51
0.0
  0
ARC
  5
121
330
1F
100
AcDbEntity
  8
0
  6
Continuous
 62
     7
370
    15
100
AcDbCircle
 10
97.155
 20
108.2955195935
 30
0.0
 40
4.583333333333343
100
AcDbArc
 50
0.0
 51
51.5237766792
  0
ARC
  5
122
330
1F
100
AcDbEntity
  8
0
  6
Continuous
 62
     7
370
    15
100
AcDbCircle
 10
97.155
 20
65.6176548639
 30
0.0
 40
4.583333333333329
100
AcDbArc
 50
128.4762233208
 51
0.0
  0
ARC
  5
123
330
1F
100
AcDbEntity
  8
0
  6
Continuous
 62
     7
370
    15
100
AcDbCircle
 10
97.155
 20
65.6176548639
 30
0.0
 40
4.583333333333329
100
AcDbArc
 50
0.0
 51
51.5237766792
  0
ARC
  5
124
330
1F
100
AcDbEntity
  8
0
  6
Continuous
 62
     7
370
    15
100
AcDbCircle
 10
97.155
 20
81.9233959491
 30
0.0
 40
4.583333333333337
100
AcDbArc
 50
308.4762233208
 51
33.305188484
  0
ARC
  5
125
330
1F
100
AcDbEntity
  8
0
  6
Continuous
 62
     7
370
    15
100
AcDbCircle
 10
97.155
 20
81.9233959491
 30
0.0
 40
4.583333333333337
100
AcDbArc
 50
146.694811516
 51
231.5237766792
  0
LINE
  5
126
330
1F
100
AcDbEntity
  8
0
  6
Continuous
 62
     7
370
    15
100
AcDbLine
 10
93.6272221096
 20
149.7856784694
 30
0.0
 11
93.6272221096
 21
149.0801229224
 31
0.0
  0
LINE
  5
127
330
1F
100
AcDbEntity
  8
0
  6
Continuous
 62
     7
370
    15
100
AcDbLine
 10
100.6827778904
 20
149.0801229224
 30
0.0
 11
100.6827778904
 21
149.7856784694
 31
0.0
  0
ARC
  5
128
330
1F
100
AcDbEntity
  8
0
  6
Continuous
 62
     7
370
    15
100
AcDbCircle
 10
98.1201686556
 20
110.7081219203
 30
0.0
 40
2.257777777777787
100
AcDbArc
 50
31.3765589782
 51
67.3414024018
  0
ARC
  5
129
330
1F
100
AcDbEntity
  8
0
  6
Continuous
 62
     7
370
    15
100
AcDbCircle
 10
96.1898313444
 20
110.7081219203
 30
0.0
 40
2.257777777777781
100
AcDbArc
 50
112.6585975982
 51
148.6234410218
  0
ARC
  5
12A
330
1F
100
AcDbEntity
  8
0
  6
Continuous
 62
     7
370
    15
100
AcDbCircle
 10
98.1201686556
 20
68.0302571908
 30
0.0
 40
2.257777777777775
100
AcDbArc
 50
31.3765589782
 51
67.3414024018
  0
ARC
  5
12B
330
1F
100
AcDbEntity
  8
0
  6
Continuous
 62
     7
370
    15
100
AcDbCircle
 10
96.1898313444
 20
68.0302571908
 30
0.0
 40
2.257777777777768
100
AcDbArc
 50
112.6585975982
 51
148.6234410218
  0
ARC
  5
12C
330
1F
100
AcDbEntity
  8
0
  6
Continuous
 62
     7
370
    15
100
AcDbCircle
 10
96.1898313444
 20
79.5107936223
 30
0.0
 40
2.257777777777781
100
AcDbArc
 50
211.3765589782
 51
247.3414024018
  0
ARC
  5
12D
330
1F
100
AcDbEntity
  8
0
  6
Continuous
 62
     7
370
    15
100
AcDbCircle
 10
98.1201686556
 20
79.5107936223
 30
0.0
 40
2.257777777777787
100
AcDbArc
 50
292.6585975982
 51
328.6234410218
  0
ARC
  5
12E
330
1F
100
AcDbEntity
  8
0
  6
Continuous
 62
     7
370
    15
100
AcDbCircle
 10
97.3591070004
 20
108.8850462472
 30
0.0
 40
4.233333333333346
100
AcDbArc
 50
67.3414024018
 51
89.181459093
  0
ARC
  5
12F
330
1F
100
AcDbEntity
  8
0
  6
Continuous
 62
     7
370
    15
100
AcDbCircle
 10
96.9508929996
 20
108.8850462472
 30
0.0
 40
4.233333333333346
100
AcDbArc
 50
90.818540907
 51
112.6585975982
  0
ARC
  5
130
330
1F
100
AcDbEntity
  8
0
  6
Continuous
 62
     7
370
    15
100
AcDbCircle
 10
97.3591070004
 20
66.2071815176
 30
0.0
 40
4.233333333333346
100
AcDbArc
 50
67.3414024018
 51
89.181459093
  0
ARC
  5
131
330
1F
100
AcDbEntity
  8
0
  6
Continuous
 62
     7
370
    15
100
AcDbCircle
 10
96.9508929996
 20
66.2071815176
 30
0.0
 40
4.233333333333346
100
AcDbArc
 50
90.818540907
 51
112.6585975982
  0
ARC
  5
132
330
1F
100
AcDbEntity
  8
0
  6
Continuous
 62
     7
370
    15
100
AcDbCircle
 10
96.9508929996
 20
81.3338692954
 30
0.0
 40
4.233333333333333
100
AcDbArc
 50
247.3414024018
 51
269.181459093
  0
ARC
  5
133
330
1F
100
AcDbEntity
  8
0
  6
Continuous
 62
     7
370
    15
100
AcDbCircle
 10
97.3591070004
 20
81.3338692954
 30
0.0
 40
4.233333333333339
100
AcDbArc
 50
270.8185409071
 51
292.6585975982
  0
ARC
  5
134
330
1F
100
AcDbEntity
  8
0
  6
Continuous
 62
     7
370
    15
100
AcDbCircle
 10
98.0369444444
 20
73.7707370732
 30
0.0
 40
2.469444444444451
100
AcDbArc
 50
180.0098221337
 51
215.6853347127
  0
ARC
  5
135
330
1F
100
AcDbEntity
  8
0
  6
Continuous
 62
     7
370
    15
100
AcDbCircle
 10
96.2730555556
 20
73.7707370732
 30
0.0
 40
2.469444444444451
100
AcDbArc
 50
324.3146652873
 51
359.9901778663
  0
ARC
  5
136
330
1F
100
AcDbEntity
  8
0
  6
Continuous
 62
     7
370
    15
100
AcDbCircle
 10
96.2730555556
 20
116.4481784694
 30
0.0
 40
2.469444444444437
100
AcDbArc
 50
0.0
 51
35.6853347127
  0
ARC
  5
137
330
1F
100
AcDbEntity
  8
0
  6
Continuous
 62
     7
370
    15
100
AcDbCircle
 10
98.0369444444
 20
116.4481784694
 30
0.0
 40
2.469444444444448
100
AcDbArc
 50
144.3146652873
 51
180.0
  0
ARC
  5
138
330
1F
100
AcDbEntity
  8
0
  6
Continuous
 62
     7
370
    15
100
AcDbCircle
 10
98.0369444444
 20
116.4486018027
 30
0.0
 40
2.469444444444451
100
AcDbArc
 50
180.0098221337
 51
203.3637639203
  0
ARC
  5
139
330
1F
100
AcDbEntity
  8
0
  6
Continuous
 62
     7
370
    15
100
AcDbCircle
 10
96.2730555556
 20
116.4486018027
 30
0.0
 40
2.469444444444451
100
AcDbArc
 50
336.6362360797
 51
359.9901778663
  0
ARC
  5
13A
330
1F
100
AcDbEntity
  8
0
  6
Continuous
 62
     7
370
    15
100
AcDbCircle
 10
96.2730555556
 20
73.7703137399
 30
0.0
 40
2.469444444444458
100
AcDbArc
 50
0.0
 51
23.3637639203
  0
ARC
  5
13B
330
1F
100
AcDbEntity
  8
0
  6
Continuous
 62
     7
370
    15
100
AcDbCircle
 10
98.0369444444
 20
73.7703137399
 30
0.0
 40
2.469444444444438
100
AcDbArc
 50
156.6362360796
 51
180.0
  0
ARC
  5
13C
330
1F
100
AcDbEntity
  8
0
  6
Continuous
 62
     7
370
    15
100
AcDbCircle
 10
97.9922817803
 20
75.0050359621
 30
0.0
 40
0.3527777777777885
100
AcDbArc
 50
35.6853347127
 51
90.0
  0
ARC
  5
13D
330
1F
100
AcDbEntity
  8
0
  6
Continuous
 62
     7
370
    15
100
AcDbCircle
 10
96.3177182197
 20
75.0050359621
 30
0.0
 40
0.3527777777777923
100
AcDbArc
 50
90.0
 51
144.3146652873
  0
ARC
  5
13E
330
1F
100
AcDbEntity
  8
0
  6
Continuous
 62
     7
370
    15
100
AcDbCircle
 10
97.9922817803
 20
117.6829006916
 30
0.0
 40
0.352777777777784
100
AcDbArc
 50
35.6853347127
 51
90.0
  0
ARC
  5
13F
330
1F
100
AcDbEntity
  8
0
  6
Continuous
 62
     7
370
    15
100
AcDbCircle
 10
96.3177182197
 20
117.6829006916
 30
0.0
 40
0.3527777777777743
100
AcDbArc
 50
90.0
 51
144.3146652873
  0
ARC
  5
140
330
1F
100
AcDbEntity
  8
0
  6
Continuous
 62
     7
370
    15
100
AcDbCircle
 10
96.3177182197
 20
72.536014851
 30
0.0
 40
0.3527777777777885
100
AcDbArc
 50
215.6853347127
 51
270.0
  0
ARC
  5
141
330
1F
100
AcDbEntity
  8
0
  6
Continuous
 62
     7
370
    15
100
AcDbCircle
 10
97.9922817803
 20
72.536014851
 30
0.0
 40
0.3527777777777885
100
AcDbArc
 50
270.0
 51
324.3146652873
  0
ARC
  5
142
330
1F
100
AcDbEntity
  8
0
  6
Continuous
 62
     7
370
    15
100
AcDbCircle
 10
96.3177182197
 20
115.2138795805
 30
0.0
 40
0.3527777777777743
100
AcDbArc
 50
215.6853347127
 51
270.0
  0
ARC
  5
143
330
1F
100
AcDbEntity
  8
0
  6
Continuous
 62
     7
370
    15
100
AcDbCircle
 10
97.9922817803
 20
115.2138795805
 30
0.0
 40
0.3527777777777743
100
AcDbArc
 50
270.0
 51
324.3146652873
  0
LINE
  5
144
330
1F
100
AcDbEntity
  8
0
  6
Continuous
 62
     7
370
    15
100
AcDbLine
 10
97.5077777735
 20
118.035678284
 30
0.0
 11
97.5077777735
 21
149.0801229224
 31
0.0
  0
LINE
  5
145
330
1F
100
AcDbEntity
  8
0
  6
Continuous
 62
     7
370
    15
100
AcDbLine
 10
96.8022222265
 20
149.0801229224
 30
0.0
 11
96.8022222265
 21
118.035678284
 31
0.0
  0
LINE
  5
146
330
1F
100
AcDbEntity
  8
0
  6
Continuous
 62
     7
370
    15
100
AcDbLine
 10
97.4195833366
 20
70.4400813082
 30
0.0
 11
97.4195833366
 21
72.1832390129
 31
0.0
  0
LINE
  5
147
330
1F
100
AcDbEntity
  8
0
  6
Continuous
 62
     7
370
    15
100
AcDbLine
 10
96.8904166634
 20
72.1832390129
 30
0.0
 11
96.8904166634
 21
70.4400813082
 31
0.0
  0
LINE
  5
148
330
1F
100
AcDbEntity
  8
0
  6
Continuous
 62
     7
370
    15
100
AcDbLine
 10
130.6335911772
 20
93.436023477
 30
0.0
 11
130.7296672418
 21
93.2563684549
 31
0.0
  0
LINE
  5
149
330
1F
100
AcDbEntity
  8
0
  6
Continuous
 62
     7
370
    15
100
AcDbLine
 10
100.0477777376
 20
90.5449399186
 30
0.0
 11
97.565154436
 21
90.5449399186
 31
0.0
  0
LINE
  5
14A
330
1F
100
AcDbEntity
  8
0
  6
Continuous
 62
     7
370
    15
100
AcDbLine
 10
96.744845564
 20
90.5449399186
 30
0.0
 11
94.2622222624
 21
90.5449399186
 31
0.0
  0
LINE
  5
14B
330
1F
100
AcDbEntity
  8
0
  6
Continuous
 62
     7
370
    15
100
AcDbLine
 10
95.5942833172
 20
99.6739773783
 30
0.0
 11
96.735529001
 21
99.6739773783
 31
0.0
  0
LINE
  5
14C
330
1F
100
AcDbEntity
  8
0
  6
Continuous
 62
     7
370
    15
100
AcDbLine
 10
97.574470999
 20
99.6739773783
 30
0.0
 11
100.0477777376
 21
99.6739773783
 31
0.0
  0
LINE
  5
14D
330
1F
100
AcDbEntity
  8
0
  6
Continuous
 62
     7
370
    15
100
AcDbLine
 10
94.2622222624
 20
99.6739773783
 30
0.0
 11
95.5942833172
 21
99.6739773783
 31
0.0
  0
SPLINE
  5
14E
330
1F
100
AcDbEntity
  8
0
  6
Continuous
 62
     7
370
    15
100
AcDbSpline
210
0.0
220
0.0
230
1.0
 70
     8
 71
     3
 72
    13
 73
     9
 74
     0
 42
0.000000001
 43
0.00000001
 40
0.0
 40
0.0
 40
0.0
 40
0.0
 40
0.0710676973573235
 40
0.285399534065794
 40
0.4998773336296108
 40
0.714687560462521
 40
0.9295106565510649
 40
0.9999999999999999
 40
0.9999999999999999
 40
0.9999999999999999
 40
0.9999999999999999
 10
67.62964383973008
 20
95.37114125151021
 30
0.0
 10
67.62478938867065
 20
95.37205973713718
 30
0.0
 10
67.60529448279893
 20
95.37574826764727
 30
0.0
 10
67.57021242349172
 20
95.3515176142476
 30
0.0
 10
67.53110198322761
 20
95.30082297401238
 30
0.0
 10
67.50272097679907
 20
95.2265923432537
 30
0.0
 10
67.4916824355852
 20
95.15896164490964
 30
0.0
 10
67.49095739222507
 20
95.11960444498774
 30
0.0
 10
67.49077826288003
 20
95.10988084798305
 30
0.0
  0
SPLINE
  5
14F
330
1F
100
AcDbEntity
  8
0
  6
Continuous
 62
     7
370
    15
100
AcDbSpline
210
0.0
220
0.0
230
1.0
 70
     8
 71
     3
 72
    12
 73
     8
 74
     0
 42
0.000000001
 43
0.00000001
 40
0.0
 40
0.0
 40
0.0
 40
0.0
 40
0.1806621189549816
 40
0.3950290762390238
 40
0.6096196067415395
 40
0.8244361269134467
 40
1.0
 40
1.0
 40
1.0
 40
1.0
 10
67.49077826288003
 20
95.10988084798305
 30
0.0
 10
67.49192964651478
 20
95.08488800723823
 30
0.0
 10
67.49444721918722
 20
95.03023959035306
 30
0.0
 10
67.51582291445914
 20
94.95293514967028
 30
0.0
 10
67.55013953906825
 20
94.88989469093178
 30
0.0
 10
67.59047891782411
 20
94.85090205316327
 30
0.0
 10
67.61773416425046
 20
94.84857446674117
 30
0.0
 10
67.62999153349125
 20
94.84752769263501
 30
0.0
  0
SPLINE
  5
150
330
1F
100
AcDbEntity
  8
0
  6
Continuous
 62
     7
370
    15
100
AcDbSpline
210
0.0
220
0.0
230
1.0
 70
     8
 71
     3
 72
    13
 73
     9
 74
     0
 42
0.000000001
 43
0.00000001
 40
0.0
 40
0.0
 40
0.0
 40
0.0
 40
0.0710676973573235
 40
0.285399534065794
 40
0.4998773336296108
 40
0.714687560462521
 40
0.9295106565510649
 40
0.9999999999999999
 40
0.9999999999999999
 40
0.9999999999999999
 40
0.9999999999999999
 10
126.6803561602698
 20
95.37114125151021
 30
0.0
 10
126.6852106113292
 20
95.37205973713718
 30
0.0
 10
126.7047055172009
 20
95.37574826764727
 30
0.0
 10
126.7397875765081
 20
95.3515176142476
 30
0.0
 10
126.7788980167722
 20
95.30082297401238
 30
0.0
 10
126.8072790232008
 20
95.2265923432537
 30
0.0
 10
126.8183175644146
 20
95.15896164490964
 30
0.0
 10
126.8190426077748
 20
95.11960444498774
 30
0.0
 10
126.8192217371198
 20
95.10988084798305
 30
0.0
  0
LINE
  5
151
330
1F
100
AcDbEntity
  8
0
  6
Continuous
 62
     7
370
    15
100
AcDbLine
 10
126.8192217371
 20
95.109880848
 30
0.0
 11
126.8192217371
 21
95.1090331375
 31
0.0
  0
SPLINE
  5
152
330
1F
100
AcDbEntity
  8
0
  6
Continuous
 62
     7
370
    15
100
AcDbSpline
210
0.0
220
0.0
230
1.0
 70
     8
 71
     3
 72
    12
 73
     8
 74
     0
 42
0.000000001
 43
0.00000001
 40
0.0
 40
0.0
 40
0.0
 40
0.0
 40
0.2128594587656875
 40
0.4277625633393867
 40
0.6429122982941107
 40
0.8582238760106767
 40
1.0
 40
1.0
 40
1.0
 40
1.0
 10
126.8192217371198
 20
95.10903313747959
 30
0.0
 10
126.8175837538635
 20
95.07962412053628
 30
0.0
 10
126.8142920612109
 20
95.02052373314497
 30
0.0
 10
126.7894258312599
 20
94.94139926852205
 30
0.0
 10
126.7535035744148
 20
94.8821030123729
 30
0.0
 10
126.7146648918024
 20
94.84841762865466
 30
0.0
 10
126.689921752506
 20
94.84859598858489
 30
0.0
 10
126.6800978734757
 20
94.84866680362406
 30
0.0
  0
SPLINE
  5
153
330
1F
100
AcDbEntity
  8
0
  6
Continuous
 62
     7
370
    15
100
AcDbSpline
210
0.0
220
0.0
230
1.0
 70
     8
 71
     3
 72
    10
 73
     6
 74
     0
 42
0.000000001
 43
0.00000001
 40
0.0
 40
0.0
 40
0.0
 40
0.0
 40
0.3458273710831261
 40
0.6916850272547975
 40
1.0
 40
1.0
 40
1.0
 40
1.0
 10
97.00640245149111
 20
74.69885304562168
 30
0.0
 10
96.98358576492733
 20
74.71535125092704
 30
0.0
 10
96.93795039367748
 20
74.74834910633263
 30
0.0
 10
96.8974110113529
 20
74.81729674720026
 30
0.0
 10
96.89363085288397
 20
74.86703845309165
 30
0.0
 10
96.89184924447694
 20
74.89048197857456
 30
0.0
  0
SPLINE
  5
154
330
1F
100
AcDbEntity
  8
0
  6
Continuous
 62
     7
370
    15
100
AcDbSpline
210
0.0
220
0.0
230
1.0
 70
     8
 71
     3
 72
    14
 73
    10
 74
     0
 42
0.000000001
 43
0.00000001
 40
0.0
 40
0.0
 40
0.0
 40
0.0
 40
0.1222260511952882
 40
0.2776393949341835
 40
0.4329887269134524
 40
0.5885045550291106
 40
0.7440988233252221
 40
0.8996683037058528
 40
0.9999999999999999
 40
0.9999999999999999
 40
0.9999999999999999
 40
0.9999999999999999
 10
97.41703645393244
 20
74.89057469691085
 30
0.0
 10
97.41627137865036
 20
74.86979777818243
 30
0.0
 10
97.41453349187155
 20
74.82260251098744
 30
0.0
 10
97.37674000291199
 20
74.75617452134922
 30
0.0
 10
97.31453929322954
 20
74.70002453345553
 30
0.0
 10
97.23336685473339
 20
74.66522484063191
 30
0.0
 10
97.14384735325
 20
74.6556868836873
 30
0.0
 10
97.06503752914726
 20
74.66916692849216
 30
0.0
 10
97.02291680839072
 20
74.69049205843042
 30
0.0
 10
97.00640245149111
 20
74.69885304562168
 30
0.0
  0
SPLINE
  5
155
330
1F
100
AcDbEntity
  8
0
  6
Continuous
 62
     7
370
    15
100
AcDbSpline
210
0.0
220
0.0
230
1.0
 70
     8
 71
     3
 72
    18
 73
    14
 74
     0
 42
0.000000001
 43
0.00000001
 40
0.0
 40
0.0
 40
0.0
 40
0.0
 40
0.0212873496772693
 40
0.1287362303997373
 40
0.2359533981784437
 40
0.3432228023518057
 40
0.4505964160945641
 40
0.5579853440257891
 40
0.6653583585298142
 40
0.7727463643616098
 40
0.8801217760028269
 40
0.9873857675154255
 40
1.0
 40
1.0
 40
1.0
 40
1.0
 10
97.41719594292334
 20
115.3287797006493
 30
0.0
 10
97.41793956174742
 20
115.333986232547
 30
0.0
 10
97.4224366309325
 20
115.3654729746797
 30
0.0
 10
97.40127325240974
 20
115.4223042686776
 30
0.0
 10
97.35430556340668
 20
115.4883420850572
 30
0.0
 10
97.2823486494024
 20
115.5361888896726
 30
0.0
 10
97.19671337000442
 20
115.5608516191627
 30
0.0
 10
97.10610468251575
 20
115.5598094380416
 30
0.0
 10
97.02126956909821
 20
115.5331478220753
 30
0.0
 10
96.95070241827898
 20
115.4835668835968
 30
0.0
 10
96.90613571127372
 20
115.4163369155803
 30
0.0
 10
96.88670931392262
 20
115.3610845788463
 30
0.0
 10
96.89146013862636
 20
115.3318463685305
 30
0.0
 10
96.89196004599324
 20
115.3287697665418
 30
0.0
  0
LWPOLYLINE
  5
156
330
1F
100
AcDbEntity
  8
0
  6
Continuous
 62
     7
370
    15
100
AcDbPolyline
 90
       21
 70
   128
 43
0.0
 10
130.9493765852
 20
97.069635209
 10
130.9361509768
 20
97.0412865777
 10
130.8599861749
 20
96.8614328735
 10
130.7915070608
 20
96.6696151925
 10
130.7311838489
 20
96.4671415255
 10
130.679427149
 20
96.255396025
 10
130.6365879663
 20
96.0358290705
 10
130.6029610125
 20
95.8099340895
 10
130.5787780836
 20
95.5792574915
 10
130.5642014366
 20
95.3453721768
 10
130.5593304125
 20
95.109880848
 10
130.5642014366
 20
94.8743895192
 10
130.5787780836
 20
94.6405075159
 10
130.6029610125
 20
94.4098309178
 10
130.6365879663
 20
94.1839359369
 10
130.679427149
 20
93.964365671
 10
130.7311838489
 20
93.7526234818
 10
130.7915070608
 20
93.5501465035
 10
130.8599861749
 20
93.3583255111
 10
130.9361509768
 20
93.1784718069
 10
130.9493765852
 20
93.1501264869
  0
ARC
  5
157
330
1F
100
AcDbEntity
  8
0
  6
Continuous
 62
     7
370
    15
100
AcDbCircle
 10
59.111432428
 20
95.2052345779
 30
0.0
 40
4.640216994421172
100
AcDbArc
 50
358.8225225511
 51
23.6902335908
  0
ARC
  5
158
330
1F
100
AcDbEntity
  8
0
  6
Continuous
 62
     7
370
    15
100
AcDbCircle
 10
59.1114623246
 20
95.0145211678
 30
0.0
 40
4.640187226459823
100
AcDbArc
 50
336.3096853666
 51
1.1775584915
  0
ARC
  5
159
330
1F
100
AcDbEntity
  8
0
  6
Continuous
 62
     7
370
    15
100
AcDbCircle
 10
133.0130085732
 20
94.070451131
 30
0.0
 40
2.284203158316015
100
AcDbArc
 50
205.7741340641
 51
218.6789769499
  0
LWPOLYLINE
  5
15A
330
1F
100
AcDbEntity
  8
0
  6
Continuous
 62
     7
370
    15
100
AcDbPolyline
 90
       23
 70
   128
 43
0.0
 10
131.2298230616
 20
97.5768409337
 10
131.1521052276
 20
97.4746421475
 10
131.0573106628
 20
97.3289750184
 10
130.9688540586
 20
97.1681484414
 10
130.8873413955
 20
96.9932617909
 10
130.8133256721
 20
96.8055137826
 10
130.7473168394
 20
96.6061792936
 10
130.6897619322
 20
96.396622608
 10
130.6410583146
 20
96.1782775487
 10
130.6015338124
 20
95.9526342318
 10
130.5714632691
 20
95.7212357553
 10
130.5510486783
 20
95.485658331
 10
130.5404324288
 20
95.2475179069
 10
130.5396840594
 20
95.0084337426
 10
130.5488101927
 20
94.7700416544
 10
130.5677479129
 20
94.5339741474
 10
130.5963680765
 20
94.301840547
 10
130.6344753128
 20
94.0752236875
 10
130.6818080235
 20
93.8556799126
 10
130.7380450058
 20
93.6446993383
 10
130.802802141
 20
93.4437257216
 10
130.8756357055
 20
93.2541365921
 10
130.9560489941
 20
93.0772233836
  0
LWPOLYLINE
  5
15B
330
1F
100
AcDbEntity
  8
0
  6
Continuous
 62
     7
370
    15
100
AcDbPolyline
 90
       26
 70
   128
 43
0.0
 10
63.0801769384
 20
92.6429240736
 10
63.1578947724
 20
92.7451195484
 10
63.2526893372
 20
92.8907866775
 10
63.3411459414
 20
93.0516132546
 10
63.4226586045
 20
93.2264999051
 10
63.4966743279
 20
93.4142479134
 10
63.5626831606
 20
93.6135857138
 10
63.6202380678
 20
93.8231357766
 10
63.6689416854
 20
94.0414808359
 10
63.7084661876
 20
94.2671274641
 10
63.7385367309
 20
94.4985259406
 10
63.7589513217
 20
94.734103365
 10
63.7695675712
 20
94.9722471005
 10
63.7703159406
 20
95.2113279534
 10
63.7611898073
 20
95.4497200415
 10
63.7422520871
 20
95.6857875485
 10
63.7136319235
 20
95.9179244604
 10
63.6755246872
 20
96.1445380084
 10
63.6281919765
 20
96.3640850947
 10
63.5719549942
 20
96.575065669
 10
63.507197859
 20
96.7760359743
 10
63.4343642945
 20
96.9656251039
 10
63.3539510059
 20
97.1425383123
 10
63.2665076807
 20
97.3055669499
 10
63.1726336765
 20
97.4535950852
 10
63.0801769384
 20
97.5768409337
  0
LINE
  5
15C
330
1F
100
AcDbEntity
  8
0
  6
Continuous
 62
     7
370
    15
100
AcDbLine
 10
130.9352966436
 20
90.5449399186
 30
0.0
 11
125.1497386848
 21
90.5449399186
 31
0.0
  0
LINE
  5
15D
330
1F
100
AcDbEntity
  8
0
  6
Continuous
 62
     7
370
    15
100
AcDbLine
 10
129.3714826923
 20
99.6739773783
 30
0.0
 11
130.9352966436
 21
99.6739773783
 31
0.0
  0
LINE
  5
15E
330
1F
100
AcDbEntity
  8
0
  6
Continuous
 62
     7
370
    15
100
AcDbLine
 10
125.1497386848
 20
99.6739773783
 30
0.0
 11
129.3714826923
 21
99.6739773783
 31
0.0
  0
LINE
  5
15F
330
1F
100
AcDbEntity
  8
0
  6
Continuous
 62
     7
370
    15
100
AcDbLine
 10
63.3747033564
 20
99.6739773783
 30
0.0
 11
69.1602613152
 21
99.6739773783
 31
0.0
  0
LINE
  5
160
330
1F
100
AcDbEntity
  8
0
  6
Continuous
 62
     7
370
    15
100
AcDbLine
 10
69.1602613152
 20
90.5449399186
 30
0.0
 11
63.3747033564
 21
90.5449399186
 31
0.0
  0
SPLINE
  5
161
330
1F
100
AcDbEntity
  8
0
  6
Continuous
 62
     7
370
    15
100
AcDbSpline
210
0.0
220
0.0
230
1.0
 70
     8
 71
     3
 72
    13
 73
     9
 74
     0
 42
0.000000001
 43
0.00000001
 40
0.0
 40
0.0
 40
0.0
 40
0.0
 40
0.0710676973573235
 40
0.285399534065794
 40
0.4998773336296108
 40
0.714687560462521
 40
0.9295106565510649
 40
0.9999999999999999
 40
0.9999999999999999
 40
0.9999999999999999
 40
0.9999999999999999
 10
129.4046791680653
 20
95.37114125151021
 30
0.0
 10
129.3998247170059
 20
95.37205973713718
 30
0.0
 10
129.3803298111342
 20
95.37574826764727
 30
0.0
 10
129.3452477518269
 20
95.3515176142476
 30
0.0
 10
129.3061373115629
 20
95.30082297401238
 30
0.0
 10
129.2777563051343
 20
95.2265923432537
 30
0.0
 10
129.2667177639204
 20
95.15896164490964
 30
0.0
 10
129.2659927205603
 20
95.11960444498774
 30
0.0
 10
129.2658135912152
 20
95.10988084798305
 30
0.0
  0
SPLINE
  5
162
330
1F
100
AcDbEntity
  8
0
  6
Continuous
 62
     7
370
    15
100
AcDbSpline
210
0.0
220
0.0
230
1.0
 70
     8
 71
     3
 72
    12
 73
     8
 74
     0
 42
0.000000001
 43
0.00000001
 40
0.0
 40
0.0
 40
0.0
 40
0.0
 40
0.2128594587656875
 40
0.4277625633393867
 40
0.6429122982941107
 40
0.8582238760106767
 40
1.0
 40
1.0
 40
1.0
 40
1.0
 10
129.2658135912152
 20
95.10903313747959
 30
0.0
 10
129.2674515744716
 20
95.07962412053628
 30
0.0
 10
129.2707432671242
 20
95.02052373314497
 30
0.0
 10
129.2956094970751
 20
94.94139926852205
 30
0.0
 10
129.3315317539203
 20
94.8821030123729
 30
0.0
 10
129.3703704365326
 20
94.84841762865466
 30
0.0
 10
129.395113575829
 20
94.84859598858489
 30
0.0
 10
129.4049374548593
 20
94.84866680362406
 30
0.0
  0
LINE
  5
163
330
1F
100
AcDbEntity
  8
0
  6
Continuous
 62
     7
370
    15
100
AcDbLine
 10
129.2658135912
 20
95.109880848
 30
0.0
 11
129.2658135912
 21
95.1090331375
 31
0.0
  0
SPLINE
  5
164
330
1F
100
AcDbEntity
  8
0
  6
Continuous
 62
     7
370
    15
100
AcDbSpline
210
0.0
220
0.0
230
1.0
 70
     8
 71
     3
 72
    12
 73
     8
 74
     0
 42
0.000000001
 43
0.00000001
 40
0.0
 40
0.0
 40
0.0
 40
0.0
 40
0.2124270689812534
 40
0.4268830793692043
 40
0.6415881985729713
 40
0.8564514282488391
 40
1.0
 40
1.0
 40
1.0
 40
1.0
 10
65.04418640878457
 20
95.10988084798305
 30
0.0
 10
65.04261087966343
 20
95.13930031822197
 30
0.0
 10
65.0394447731682
 20
95.19842025104992
 30
0.0
 10
65.01473658075038
 20
95.27768542650837
 30
0.0
 10
64.97892294805649
 20
95.33721240714021
 30
0.0
 10
64.94000063187492
 20
95.37120231859525
 30
0.0
 10
64.91510364844113
 20
95.37115871522508
 30
0.0
 10
64.90513208389274
 20
95.37114125151021
 30
0.0
  0
LINE
  5
165
330
1F
100
AcDbEntity
  8
0
  6
Continuous
 62
     7
370
    15
100
AcDbLine
 10
65.0441864088
 20
95.1090331375
 30
0.0
 11
65.0441864088
 21
95.109880848
 31
0.0
  0
SPLINE
  5
166
330
1F
100
AcDbEntity
  8
0
  6
Continuous
 62
     7
370
    15
100
AcDbSpline
210
0.0
220
0.0
230
1.0
 70
     8
 71
     3
 72
    13
 73
     9
 74
     0
 42
0.000000001
 43
0.00000001
 40
0.0
 40
0.0
 40
0.0
 40
0.0
 40
0.0732688502039069
 40
0.2880368135305078
 40
0.502951099758969
 40
0.7182107574051358
 40
0.9334703192740941
 40
0.9999999999999999
 40
0.9999999999999999
 40
0.9999999999999999
 40
0.9999999999999999
 10
64.90524135907482
 20
94.84866680362406
 30
0.0
 10
64.91023807673535
 20
94.84774806920481
 30
0.0
 10
64.92988133071087
 20
94.84413631149528
 30
0.0
 10
64.96508590259026
 20
94.86860037153284
 30
0.0
 10
65.00413445483174
 20
94.91955558505143
 30
0.0
 10
65.0324160382511
 20
94.9939494291098
 30
0.0
 10
65.04325452359396
 20
95.06109018620153
 30
0.0
 10
65.04400841666283
 20
95.09987592830134
 30
0.0
 10
65.04418640878457
 20
95.10903313747959
 30
0.0
  0
LINE
  5
167
330
1F
100
AcDbEntity
  8
0
  6
Continuous
 62
     7
370
    15
100
AcDbLine
 10
127.7779359574
 20
91.7792262798
 30
0.0
 11
128.3071026823
 21
91.7792262798
 31
0.0
  0
LINE
  5
168
330
1F
100
AcDbEntity
  8
0
  6
Continuous
 62
     7
370
    15
100
AcDbLine
 10
128.0425176642
 20
98.4396877056
 30
0.0
 11
127.7779359574
 21
98.4396877056
 31
0.0
  0
LINE
  5
169
330
1F
100
AcDbEntity
  8
0
  6
Continuous
 62
     7
370
    15
100
AcDbLine
 10
128.3071026823
 20
98.4396877056
 30
0.0
 11
128.0425176642
 21
98.4396877056
 31
0.0
  0
LINE
  5
16A
330
1F
100
AcDbEntity
  8
0
  6
Continuous
 62
     7
370
    15
100
AcDbLine
 10
66.2674823358
 20
98.4396877056
 30
0.0
 11
66.0028973177
 21
98.4396877056
 31
0.0
  0
LINE
  5
16B
330
1F
100
AcDbEntity
  8
0
  6
Continuous
 62
     7
370
    15
100
AcDbLine
 10
66.5320640426
 20
98.4396877056
 30
0.0
 11
66.2674823358
 21
98.4396877056
 31
0.0
  0
LINE
  5
16C
330
1F
100
AcDbEntity
  8
0
  6
Continuous
 62
     7
370
    15
100
AcDbLine
 10
66.0028973177
 20
91.7792262798
 30
0.0
 11
66.5320640426
 21
91.7792262798
 31
0.0
  0
LINE
  5
16D
330
1F
100
AcDbEntity
  8
0
  6
Continuous
 62
     7
370
    15
100
AcDbLine
 10
129.2658135912
 20
95.109880848
 30
0.0
 11
126.8192217371
 21
95.109880848
 31
0.0
  0
LINE
  5
16E
330
1F
100
AcDbEntity
  8
0
  6
Continuous
 62
     7
370
    15
100
AcDbLine
 10
67.4907782629
 20
95.109880848
 30
0.0
 11
65.0441864088
 21
95.109880848
 31
0.0
  0
LINE
  5
16F
330
1F
100
AcDbEntity
  8
0
  6
Continuous
 62
     7
370
    15
100
AcDbLine
 10
127.6238778188
 20
96.6965333123
 30
0.0
 11
128.8798006662
 21
96.6965333123
 31
0.0
  0
LINE
  5
170
330
1F
100
AcDbEntity
  8
0
  6
Continuous
 62
     7
370
    15
100
AcDbLine
 10
127.2052346622
 20
96.6965333123
 30
0.0
 11
127.6238778188
 21
96.6965333123
 31
0.0
  0
LINE
  5
171
330
1F
100
AcDbEntity
  8
0
  6
Continuous
 62
     7
370
    15
100
AcDbLine
 10
65.4301993338
 20
96.6965333123
 30
0.0
 11
67.1047653378
 21
96.6965333123
 31
0.0
  0
LINE
  5
172
330
1F
100
AcDbEntity
  8
0
  6
Continuous
 62
     7
370
    15
100
AcDbLine
 10
128.8798006662
 20
93.5223839845
 30
0.0
 11
127.2052346622
 21
93.5223839845
 31
0.0
  0
LINE
  5
173
330
1F
100
AcDbEntity
  8
0
  6
Continuous
 62
     7
370
    15
100
AcDbLine
 10
66.6861221812
 20
93.5223839845
 30
0.0
 11
65.4301993338
 21
93.5223839845
 31
0.0
  0
LINE
  5
174
330
1F
100
AcDbEntity
  8
0
  6
Continuous
 62
     7
370
    15
100
AcDbLine
 10
67.1047653378
 20
93.5223839845
 30
0.0
 11
66.6861221812
 21
93.5223839845
 31
0.0
  0
SPLINE
  5
175
330
1F
100
AcDbEntity
  8
0
  6
Continuous
 62
     7
370
    15
100
AcDbSpline
210
0.0
220
0.0
230
1.0
 70
     8
 71
     3
 72
    11
 73
     7
 74
     0
 42
0.000000001
 43
0.00000001
 40
0.0
 40
0.0
 40
0.0
 40
0.0
 40
0.3070101252159823
 40
0.6140055684667948
 40
0.9213566887188144
 40
1.0
 40
1.0
 40
1.0
 40
1.0
 10
98.12451870040753
 20
74.93444371546555
 30
0.0
 10
98.11767856305713
 20
74.96038827973808
 30
0.0
 10
98.1039986154682
 20
75.01227616755146
 30
0.0
 10
98.10988738491936
 20
75.07405897509295
 30
0.0
 10
98.12452297073172
 20
75.11123629405915
 30
0.0
 10
98.14088390104645
 20
75.11708587881897
 30
0.0
 10
98.14421731114379
 20
75.11827768542948
 30
0.0
  0
SPLINE
  5
176
330
1F
100
AcDbEntity
  8
0
  6
Continuous
 62
     7
370
    15
100
AcDbSpline
210
0.0
220
0.0
230
1.0
 70
     8
 71
     3
 72
    14
 73
    10
 74
     0
 42
0.000000001
 43
0.00000001
 40
0.0
 40
0.0
 40
0.0
 40
0.0
 40
0.0684237711172079
 40
0.2337060541805863
 40
0.3989635702433673
 40
0.5642517945352752
 40
0.7295013644236834
 40
0.8945903479196418
 40
1.0
 40
1.0
 40
1.0
 40
1.0
 10
98.41629068020309
 20
74.67150775914637
 30
0.0
 10
98.41240236028246
 20
74.66785561178821
 30
0.0
 10
98.39912153855623
 20
74.65538145354718
 30
0.0
 10
98.35935361114687
 20
74.66064585947085
 30
0.0
 10
98.30348159533305
 20
74.68713553968539
 30
0.0
 10
98.24299640252941
 20
74.73788719715103
 30
0.0
 10
98.187080362924
 20
74.80563624119957
 30
0.0
 10
98.14661751947321
 20
74.8746596187704
 30
0.0
 10
98.13071550134433
 20
74.91767946461103
 30
0.0
 10
98.12451870040753
 20
74.93444371546555
 30
0.0
  0
SPLINE
  5
177
330
1F
100
AcDbEntity
  8
0
  6
Continuous
 62
     7
370
    15
100
AcDbSpline
210
0.0
220
0.0
230
1.0
 70
     8
 71
     3
 72
    18
 73
    14
 74
     0
 42
0.000000001
 43
0.00000001
 40
0.0
 40
0.0
 40
0.0
 40
0.0
 40
0.0057669447521225
 40
0.1123084047185913
 40
0.2194996438551085
 40
0.3273019300137031
 40
0.4350641819004289
 40
0.542420751302686
 40
0.6495553209702567
 40
0.7567474355578114
 40
0.8640426178491935
 40
0.9713500264374041
 40
1.0
 40
1.0
 40
1.0
 40
1.0
 10
96.16672673950583
 20
115.0987256400312
 30
0.0
 10
96.16745026264184
 20
115.0989087247669
 30
0.0
 10
96.18154051886476
 20
115.1024742096955
 30
0.0
 10
96.19667766486559
 20
115.1343086777396
 30
0.0
 10
96.20607018325785
 20
115.1913211798654
 30
0.0
 10
96.19390116987307
 20
115.2663844968953
 30
0.0
 10
96.16261128517847
 20
115.3467406492881
 30
0.0
 10
96.11530485765654
 20
115.4241333388463
 30
0.0
 10
96.05814625943633
 20
115.489714134207
 30
0.0
 10
95.99775624429309
 20
115.5374232806572
 30
0.0
 10
95.94325277642946
 20
115.5599631092152
 30
0.0
 10
95.9067221026688
 20
115.5629200990768
 30
0.0
 10
95.89567890252867
 20
115.550615136315
 30
0.0
 10
95.89335179540838
 20
115.5480221409789
 30
0.0
  0
SPLINE
  5
178
330
1F
100
AcDbEntity
  8
0
  6
Continuous
 62
     7
370
    15
100
AcDbSpline
210
0.0
220
0.0
230
1.0
 70
     8
 71
     3
 72
    18
 73
    14
 74
     0
 42
0.000000001
 43
0.00000001
 40
0.0
 40
0.0
 40
0.0
 40
0.0
 40
0.0220328774773199
 40
0.1293393587473901
 40
0.2366270638219748
 40
0.3439284135805508
 40
0.4512264444932807
 40
0.5584255950329039
 40
0.6655508197912182
 40
0.7728617659160565
 40
0.8805793019740366
 40
0.9884089550799894
 40
1.0
 40
1.0
 40
1.0
 40
1.0
 10
98.41692046122411
 20
115.5484294393849
 30
0.0
 10
98.41518630286811
 20
115.5504951763232
 30
0.0
 10
98.40500629211094
 20
115.5626216491919
 30
0.0
 10
98.36976565090188
 20
115.5604868739658
 30
0.0
 10
98.31588198480817
 20
115.539641317116
 30
0.0
 10
98.25547154560887
 20
115.4931559601436
 30
0.0
 10
98.1979117592288
 20
115.4284739989481
 30
0.0
 10
98.14992337199901
 20
115.3517103843005
 30
0.0
 10
98.11759190480765
 20
115.2715369392729
 30
0.0
 10
98.10419188497478
 20
115.1962127812879
 30
0.0
 10
98.11179760696534
 20
115.1366177134688
 30
0.0
 10
98.12801799686288
 20
115.1054041224852
 30
0.0
 10
98.1419903586782
 20
115.0993949860345
 30
0.0
 10
98.14334652453653
 20
115.0988117356292
 30
0.0
  0
SPLINE
  5
179
330
1F
100
AcDbEntity
  8
0
  6
Continuous
 62
     7
370
    15
100
AcDbSpline
210
0.0
220
0.0
230
1.0
 70
     8
 71
     3
 72
    17
 73
    13
 74
     0
 42
0.000000001
 43
0.00000001
 40
0.0
 40
0.0
 40
0.0
 40
0.0
 40
0.0810731293784489
 40
0.1880078408931217
 40
0.2956578590386749
 40
0.4034690965482167
 40
0.5109199433592233
 40
0.6180584133622374
 40
0.7251890359711671
 40
0.8324334424228153
 40
0.9397180359551706
 40
1.0
 40
1.0
 40
1.0
 40
1.0
 10
96.16567475891767
 20
75.11858233139166
 30
0.0
 10
96.17410338537492
 20
75.11225718728514
 30
0.0
 10
96.19364929255862
 20
75.09758923631391
 30
0.0
 10
96.20514502827791
 20
75.04591353132857
 30
0.0
 10
96.19964131569225
 20
74.97573103790974
 30
0.0
 10
96.17365197985723
 20
74.89583472628875
 30
0.0
 10
96.13053833111499
 20
74.81666708185952
 30
0.0
 10
96.0755635279751
 20
74.74682458724799
 30
0.0
 10
96.01536355641831
 20
74.69327540429573
 30
0.0
 10
95.95833933507542
 20
74.66295292098589
 30
0.0
 10
95.91513517379728
 20
74.65490882591644
 30
0.0
 10
95.89935543924523
 20
74.66717949075937
 30
0.0
 10
95.89367868963207
 20
74.6715938547444
 30
0.0
  0
LINE
  5
17A
330
1F
100
AcDbEntity
  8
0
  6
Continuous
 62
     7
370
    15
100
AcDbLine
 10
97.155
 20
149.0801229224
 30
0.0
 11
93.6272221096
 21
149.0801229224
 31
0.0
  0
LINE
  5
17B
330
1F
100
AcDbEntity
  8
0
  6
Continuous
 62
     7
370
    15
100
AcDbLine
 10
100.6827778904
 20
149.0801229224
 30
0.0
 11
97.155
 21
149.0801229224
 31
0.0
  0
LINE
  5
17C
330
1F
100
AcDbEntity
  8
0
  6
Continuous
 62
     7
370
    15
100
AcDbLine
 10
97.155
 20
149.7856784694
 30
0.0
 11
93.6272221096
 21
149.7856784694
 31
0.0
  0
LINE
  5
17D
330
1F
100
AcDbEntity
  8
0
  6
Continuous
 62
     7
370
    15
100
AcDbLine
 10
100.6827778904
 20
149.7856784694
 30
0.0
 11
97.155
 21
149.7856784694
 31
0.0
  0
LINE
  5
17E
330
1F
100
AcDbEntity
  8
0
  6
Continuous
 62
     7
370
    15
100
AcDbLine
 10
100.0477777376
 20
111.8836577236
 30
0.0
 11
97.4195833366
 21
111.8836577236
 31
0.0
  0
LINE
  5
17F
330
1F
100
AcDbEntity
  8
0
  6
Continuous
 62
     7
370
    15
100
AcDbLine
 10
96.8904166634
 20
111.8836577236
 30
0.0
 11
94.2622222624
 21
111.8836577236
 31
0.0
  0
LINE
  5
180
330
1F
100
AcDbEntity
  8
0
  6
Continuous
 62
     7
370
    15
100
AcDbLine
 10
100.0477777376
 20
69.2057949469
 30
0.0
 11
94.2622222624
 21
69.2057949469
 31
0.0
  0
LINE
  5
181
330
1F
100
AcDbEntity
  8
0
  6
Continuous
 62
     7
370
    15
100
AcDbLine
 10
95.0967321997
 20
78.3352595732
 30
0.0
 11
96.8904166634
 21
78.3352595732
 31
0.0
  0
LINE
  5
182
330
1F
100
AcDbEntity
  8
0
  6
Continuous
 62
     7
370
    15
100
AcDbLine
 10
97.4195833366
 20
78.3352595732
 30
0.0
 11
100.0477777376
 21
78.3352595732
 31
0.0
  0
LINE
  5
183
330
1F
100
AcDbEntity
  8
0
  6
Continuous
 62
     7
370
    15
100
AcDbLine
 10
94.2622222624
 20
78.3352595732
 30
0.0
 11
95.0967321997
 21
78.3352595732
 31
0.0
  0
LINE
  5
184
330
1F
100
AcDbEntity
  8
0
  6
Continuous
 62
     7
370
    15
100
AcDbLine
 10
96.8904166634
 20
70.4400813082
 30
0.0
 11
97.4195833366
 21
70.4400813082
 31
0.0
  0
LINE
  5
185
330
1F
100
AcDbEntity
  8
0
  6
Continuous
 62
     7
370
    15
100
AcDbLine
 10
97.9795616013
 20
75.3578155073
 30
0.0
 11
97.9922817602
 21
75.3578155073
 31
0.0
  0
LINE
  5
186
330
1F
100
AcDbEntity
  8
0
  6
Continuous
 62
     7
370
    15
100
AcDbLine
 10
96.3177182398
 20
75.3578155073
 30
0.0
 11
96.8904166634
 21
75.3578155073
 31
0.0
  0
LINE
  5
187
330
1F
100
AcDbEntity
  8
0
  6
Continuous
 62
     7
370
    15
100
AcDbLine
 10
97.4195833366
 20
75.3578155073
 30
0.0
 11
97.9795616013
 21
75.3578155073
 31
0.0
  0
LINE
  5
188
330
1F
100
AcDbEntity
  8
0
  6
Continuous
 62
     7
370
    15
100
AcDbLine
 10
97.9795616013
 20
118.035678284
 30
0.0
 11
97.9922817602
 21
118.035678284
 31
0.0
  0
LINE
  5
189
330
1F
100
AcDbEntity
  8
0
  6
Continuous
 62
     7
370
    15
100
AcDbLine
 10
96.3177182398
 20
118.035678284
 30
0.0
 11
97.9795616013
 21
118.035678284
 31
0.0
  0
LINE
  5
18A
330
1F
100
AcDbEntity
  8
0
  6
Continuous
 62
     7
370
    15
100
AcDbLine
 10
96.3304383987
 20
72.1832390129
 30
0.0
 11
96.3177182398
 21
72.1832390129
 31
0.0
  0
LINE
  5
18B
330
1F
100
AcDbEntity
  8
0
  6
Continuous
 62
     7
370
    15
100
AcDbLine
 10
97.9922817602
 20
72.1832390129
 30
0.0
 11
96.3304383987
 21
72.1832390129
 31
0.0
  0
LINE
  5
18C
330
1F
100
AcDbEntity
  8
0
  6
Continuous
 62
     7
370
    15
100
AcDbLine
 10
96.3304383987
 20
114.8611017895
 30
0.0
 11
96.3177182398
 21
114.8611017895
 31
0.0
  0
LINE
  5
18D
330
1F
100
AcDbEntity
  8
0
  6
Continuous
 62
     7
370
    15
100
AcDbLine
 10
97.9922817602
 20
114.8611017895
 30
0.0
 11
97.4195833366
 21
114.8611017895
 31
0.0
  0
LINE
  5
18E
330
1F
100
AcDbEntity
  8
0
  6
Continuous
 62
     7
370
    15
100
AcDbLine
 10
96.8904166634
 20
114.8611017895
 30
0.0
 11
96.3304383987
 21
114.8611017895
 31
0.0
  0
LINE
  5
18F
330
1F
100
AcDbEntity
  8
0
  6
Continuous
 62
     8
370
    15
100
AcDbLine
 10
129.8774698332
 20
91.4529173406
 30
0.0
 11
126.2075654952
 21
91.4529173406
 31
0.0
  0
LINE
  5
190
330
1F
100
AcDbEntity
  8
0
  6
Continuous
 62
     8
370
    15
100
AcDbLine
 10
128.8855094666
 20
98.7659999562
 30
0.0
 11
129.8774698332
 21
98.7659999562
 31
0.0
  0
LINE
  5
191
330
1F
100
AcDbEntity
  8
0
  6
Continuous
 62
     8
370
    15
100
AcDbLine
 10
126.2075654952
 20
98.7659999562
 30
0.0
 11
128.8855094666
 21
98.7659999562
 31
0.0
  0
LINE
  5
192
330
1F
100
AcDbEntity
  8
0
  6
Continuous
 62
     8
370
    15
100
AcDbLine
 10
64.4325301668
 20
98.7659999562
 30
0.0
 11
68.1024345048
 21
98.7659999562
 31
0.0
  0
LINE
  5
193
330
1F
100
AcDbEntity
  8
0
  6
Continuous
 62
     8
370
    15
100
AcDbLine
 10
68.1024345048
 20
91.4529173406
 30
0.0
 11
64.4325301668
 21
91.4529173406
 31
0.0
  0
LINE
  5
194
330
1F
100
AcDbEntity
  8
0
  6
Continuous
 62
     8
370
    15
100
AcDbLine
 10
126.9186985779
 20
93.6693690385
 30
0.0
 11
129.1663367505
 21
93.6693690385
 31
0.0
  0
LINE
  5
195
330
1F
100
AcDbEntity
  8
0
  6
Continuous
 62
     8
370
    15
100
AcDbLine
 10
127.480608121
 20
96.5495449469
 30
0.0
 11
126.9186985779
 21
96.5495449469
 31
0.0
  0
LINE
  5
196
330
1F
100
AcDbEntity
  8
0
  6
Continuous
 62
     8
370
    15
100
AcDbLine
 10
129.1663367505
 20
96.5495449469
 30
0.0
 11
127.480608121
 21
96.5495449469
 31
0.0
  0
LINE
  5
197
330
1F
100
AcDbEntity
  8
0
  6
Continuous
 62
     8
370
    15
100
AcDbLine
 10
66.829391879
 20
93.6693690385
 30
0.0
 11
67.3913014221
 21
93.6693690385
 31
0.0
  0
LINE
  5
198
330
1F
100
AcDbEntity
  8
0
  6
Continuous
 62
     8
370
    15
100
AcDbLine
 10
65.1436632495
 20
93.6693690385
 30
0.0
 11
66.829391879
 21
93.6693690385
 31
0.0
  0
LINE
  5
199
330
1F
100
AcDbEntity
  8
0
  6
Continuous
 62
     8
370
    15
100
AcDbLine
 10
67.3913014221
 20
96.5495449469
 30
0.0
 11
65.1436632495
 21
96.5495449469
 31
0.0
  0
LINE
  5
19A
330
1F
100
AcDbEntity
  8
0
  6
Continuous
 62
     8
370
    15
100
AcDbLine
 10
98.9899534108
 20
112.791638457
 30
0.0
 11
97.4195833366
 21
112.791638457
 31
0.0
  0
LINE
  5
19B
330
1F
100
AcDbEntity
  8
0
  6
Continuous
 62
     8
370
    15
100
AcDbLine
 10
96.8904166634
 20
112.791638457
 30
0.0
 11
95.3200465892
 21
112.791638457
 31
0.0
  0
LINE
  5
19C
330
1F
100
AcDbEntity
  8
0
  6
Continuous
 62
     8
370
    15
100
AcDbLine
 10
98.9899534108
 20
70.113772369
 30
0.0
 11
95.3200465892
 21
70.113772369
 31
0.0
  0
LINE
  5
19D
330
1F
100
AcDbEntity
  8
0
  6
Continuous
 62
     8
370
    15
100
AcDbLine
 10
95.8493949221
 20
77.4272755284
 30
0.0
 11
96.8904166634
 21
77.4272755284
 31
0.0
  0
LINE
  5
19E
330
1F
100
AcDbEntity
  8
0
  6
Continuous
 62
     8
370
    15
100
AcDbLine
 10
97.4195833366
 20
77.4272755284
 30
0.0
 11
98.9899534108
 21
77.4272755284
 31
0.0
  0
LINE
  5
19F
330
1F
100
AcDbEntity
  8
0
  6
Continuous
 62
     8
370
    15
100
AcDbLine
 10
95.3200465892
 20
77.4272755284
 30
0.0
 11
95.8493949221
 21
77.4272755284
 31
0.0
  0
LINE
  5
1A0
330
1F
100
AcDbEntity
  8
0
  6
Continuous
 62
     8
370
    15
100
AcDbLine
 10
98.7424999679
 20
73.7703120211
 30
0.0
 11
95.5675000321
 21
73.7703120211
 31
0.0
  0
LINE
  5
1A1
330
1F
100
AcDbEntity
  8
0
  6
Continuous
 62
     8
370
    15
100
AcDbLine
 10
96.0482538157
 20
72.3302306896
 30
0.0
 11
98.2788195002
 21
72.3302306896
 31
0.0
  0
LINE
  5
1A2
330
1F
100
AcDbEntity
  8
0
  6
Continuous
 62
     8
370
    15
100
AcDbLine
 10
96.0311804998
 20
72.3302306896
 30
0.0
 11
96.0482538157
 21
72.3302306896
 31
0.0
  0
LINE
  5
1A3
330
1F
100
AcDbEntity
  8
0
  6
Continuous
 62
     8
370
    15
100
AcDbLine
 10
98.7424999679
 20
116.4481781091
 30
0.0
 11
95.5675000321
 21
116.4481781091
 31
0.0
  0
LINE
  5
1A4
330
1F
100
AcDbEntity
  8
0
  6
Continuous
 62
     8
370
    15
100
AcDbLine
 10
98.2617461843
 20
117.8886866072
 30
0.0
 11
96.0311804998
 21
117.8886866072
 31
0.0
  0
LINE
  5
1A5
330
1F
100
AcDbEntity
  8
0
  6
Continuous
 62
     8
370
    15
100
AcDbLine
 10
98.2788195002
 20
117.8886866072
 30
0.0
 11
98.2617461843
 21
117.8886866072
 31
0.0
  0
LINE
  5
1A6
330
1F
100
AcDbEntity
  8
0
  6
Continuous
 62
     8
370
    15
100
AcDbLine
 10
96.0482538157
 20
115.0080934663
 30
0.0
 11
96.8904166634
 21
115.0080934663
 31
0.0
  0
LINE
  5
1A7
330
1F
100
AcDbEntity
  8
0
  6
Continuous
 62
     8
370
    15
100
AcDbLine
 10
97.4195833366
 20
115.0080934663
 30
0.0
 11
98.277862825
 21
115.0080934663
 31
0.0
  0
LINE
  5
1A8
330
1F
100
AcDbEntity
  8
0
  6
Continuous
 62
     8
370
    15
100
AcDbLine
 10
96.032137175
 20
115.0080934663
 30
0.0
 11
96.0482538157
 21
115.0080934663
 31
0.0
  0
LINE
  5
1A9
330
1F
100
AcDbEntity
  8
0
  6
Continuous
 62
     8
370
    15
100
AcDbLine
 10
98.2617461843
 20
75.2108238306
 30
0.0
 11
97.4195833366
 21
75.2108238306
 31
0.0
  0
LINE
  5
1AA
330
1F
100
AcDbEntity
  8
0
  6
Continuous
 62
     8
370
    15
100
AcDbLine
 10
96.8904166634
 20
75.2108238306
 30
0.0
 11
96.032137175
 21
75.2108238306
 31
0.0
  0
LINE
  5
1AB
330
1F
100
AcDbEntity
  8
0
  6
Continuous
 62
     8
370
    15
100
AcDbLine
 10
98.277862825
 20
75.2108238306
 30
0.0
 11
98.2617461843
 21
75.2108238306
 31
0.0
  0
INSERT
  5
1B7
330
1F
100
AcDbEntity
  8
0
  6
Continuous
 62
     7
370
     0
100
AcDbBlockReference
  2
SW_CENTERMARKSYMBOL_0
 10
97.155
 20
95.1098811046
 30
0.0
  0
LINE
  5
1B8
330
1F
100
AcDbEntity
  8
0
  6
Continuous
 62
     7
370
    15
100
AcDbLine
 10
123.9475626702
 20
232.9442069827
 30
0.0
 11
100.0692488622
 21
219.1580568402
 31
0.0
  0
LINE
  5
1B9
330
1F
100
AcDbEntity
  8
0
  6
Continuous
 62
     7
370
    15
100
AcDbLine
 10
100.3338322247
 20
218.6997850801
 30
0.0
 11
124.2121460327
 21
232.4859350157
 31
0.0
  0
LINE
  5
1BA
330
1F
100
AcDbEntity
  8
0
  6
Continuous
 62
     7
370
    15
100
AcDbLine
 10
70.0978539673
 20
232.4859350157
 30
0.0
 11
93.9761677753
 21
218.6997850801
 31
0.0
  0
LINE
  5
1BB
330
1F
100
AcDbEntity
  8
0
  6
Continuous
 62
     7
370
    15
100
AcDbLine
 10
94.2407511378
 20
219.1580568402
 30
0.0
 11
70.3624373298
 21
232.9442069827
 31
0.0
  0
LINE
  5
1BC
330
1F
100
AcDbEntity
  8
0
  6
Continuous
 62
     7
370
    15
100
AcDbLine
 10
96.8904166634
 20
248.2601436541
 30
0.0
 11
96.8904166634
 21
220.6878417133
 31
0.0
  0
LINE
  5
1BD
330
1F
100
AcDbEntity
  8
0
  6
Continuous
 62
     7
370
    15
100
AcDbLine
 10
97.4195833366
 20
220.6878417133
 30
0.0
 11
97.4195833366
 21
248.2601436541
 31
0.0
  0
LINE
  5
1BE
330
1F
100
AcDbEntity
  8
0
  6
Continuous
 62
     7
370
    15
100
AcDbLine
 10
124.2121460327
 20
201.8540649843
 30
0.0
 11
100.3338322247
 21
215.6402149199
 31
0.0
  0
LINE
  5
1BF
330
1F
100
AcDbEntity
  8
0
  6
Continuous
 62
     7
370
    15
100
AcDbLine
 10
100.0692488622
 20
215.1819431598
 30
0.0
 11
123.9475626702
 21
201.3957930173
 31
0.0
  0
LINE
  5
1C0
330
1F
100
AcDbEntity
  8
0
  6
Continuous
 62
     7
370
    15
100
AcDbLine
 10
70.3624373298
 20
201.3957930173
 30
0.0
 11
94.2407511378
 21
215.1819431598
 31
0.0
  0
LINE
  5
1C1
330
1F
100
AcDbEntity
  8
0
  6
Continuous
 62
     7
370
    15
100
AcDbLine
 10
93.9761677753
 20
215.6402149199
 30
0.0
 11
70.0978539673
 21
201.8540649843
 31
0.0
  0
LINE
  5
1C2
330
1F
100
AcDbEntity
  8
0
  6
Continuous
 62
     7
370
    15
100
AcDbLine
 10
97.4195833366
 20
186.0798563459
 30
0.0
 11
97.4195833366
 21
213.6521582867
 31
0.0
  0
LINE
  5
1C3
330
1F
100
AcDbEntity
  8
0
  6
Continuous
 62
     7
370
    15
100
AcDbLine
 10
96.8904166634
 20
213.6521582867
 30
0.0
 11
96.8904166634
 21
186.0798563459
 31
0.0
  0
ARC
  5
1C4
330
1F
100
AcDbEntity
  8
0
  6
Continuous
 62
     7
370
    15
100
AcDbCircle
 10
97.155
 20
217.17
 30
0.0
 40
4.583333333333349
100
AcDbArc
 50
273.309368873
 51
326.690631127
  0
ARC
  5
1C5
330
1F
100
AcDbEntity
  8
0
  6
Continuous
 62
     7
370
    15
100
AcDbCircle
 10
97.155
 20
217.17
 30
0.0
 40
4.583333333333336
100
AcDbArc
 50
333.309368873
 51
26.690631127
  0
ARC
  5
1C6
330
1F
100
AcDbEntity
  8
0
  6
Continuous
 62
     7
370
    15
100
AcDbCircle
 10
97.155
 20
217.17
 30
0.0
 40
4.583333333333335
100
AcDbArc
 50
33.309368873
 51
86.690631127
  0
ARC
  5
1C7
330
1F
100
AcDbEntity
  8
0
  6
Continuous
 62
     7
370
    15
100
AcDbCircle
 10
97.155
 20
217.17
 30
0.0
 40
4.583333333333325
100
AcDbArc
 50
93.309368873
 51
146.690631127
  0
ARC
  5
1C8
330
1F
100
AcDbEntity
  8
0
  6
Continuous
 62
     7
370
    15
100
AcDbCircle
 10
97.155
 20
217.17
 30
0.0
 40
4.583333333333336
100
AcDbArc
 50
153.309368873
 51
206.690631127
  0
ARC
  5
1C9
330
1F
100
AcDbEntity
  8
0
  6
Continuous
 62
     7
370
    15
100
AcDbCircle
 10
97.155
 20
217.17
 30
0.0
 40
4.58333333333334
100
AcDbArc
 50
213.309368873
 51
266.690631127
  0
CIRCLE
  5
1CA
330
1F
100
AcDbEntity
  8
0
  6
Continuous
 62
     7
370
    15
100
AcDbCircle
 10
97.155
 20
252.8358333333
 30
0.0
 40
4.583333333333286
  0
CIRCLE
  5
1CB
330
1F
100
AcDbEntity
  8
0
  6
Continuous
 62
     7
370
    15
100
AcDbCircle
 10
66.2674822862
 20
235.0029166667
 30
0.0
 40
4.583333333333343
  0
CIRCLE
  5
1CC
330
1F
100
AcDbEntity
  8
0
  6
Continuous
 62
     7
370
    15
100
AcDbCircle
 10
128.0425177138
 20
235.0029166667
 30
0.0
 40
4.583333333333343
  0
CIRCLE
  5
1CD
330
1F
100
AcDbEntity
  8
0
  6
Continuous
 62
     7
370
    15
100
AcDbCircle
 10
66.2674822862
 20
199.3370833333
 30
0.0
 40
4.583333333333343
  0
CIRCLE
  5
1CE
330
1F
100
AcDbEntity
  8
0
  6
Continuous
 62
     7
370
    15
100
AcDbCircle
 10
128.0425177138
 20
199.3370833333
 30
0.0
 40
4.583333333333314
  0
CIRCLE
  5
1CF
330
1F
100
AcDbEntity
  8
0
  6
Continuous
 62
     7
370
    15
100
AcDbCircle
 10
97.155
 20
181.5041666667
 30
0.0
 40
4.583333333333314
  0
ARC
  5
1D0
330
1F
100
AcDbEntity
  8
0
  6
Continuous
 62
     7
370
    15
100
AcDbCircle
 10
97.155
 20
260.9765683204
 30
0.0
 40
4.583333333333377
100
AcDbArc
 50
308.4762233208
 51
231.5237766792
  0
ARC
  5
1D1
330
1F
100
AcDbEntity
  8
0
  6
Continuous
 62
     7
370
    15
100
AcDbCircle
 10
59.2173989819
 20
239.0732841602
 30
0.0
 40
4.583333333333343
100
AcDbArc
 50
8.4762233208
 51
270.0
  0
ARC
  5
1D2
330
1F
100
AcDbEntity
  8
0
  6
Continuous
 62
     7
370
    15
100
AcDbCircle
 10
59.2173989819
 20
239.0732841602
 30
0.0
 40
4.583333333333364
100
AcDbArc
 50
270.0
 51
291.5237766792
  0
ARC
  5
1D3
330
1F
100
AcDbEntity
  8
0
  6
Continuous
 62
     7
370
    15
100
AcDbCircle
 10
135.0926010181
 20
239.0732841602
 30
0.0
 40
4.583333333333371
100
AcDbArc
 50
248.4762233208
 51
270.0
  0
ARC
  5
1D4
330
1F
100
AcDbEntity
  8
0
  6
Continuous
 62
     7
370
    15
100
AcDbCircle
 10
135.0926010181
 20
239.0732841602
 30
0.0
 40
4.583333333333371
100
AcDbArc
 50
270.0
 51
171.5237766792
  0
ARC
  5
1D5
330
1F
100
AcDbEntity
  8
0
  6
Continuous
 62
     7
370
    15
100
AcDbCircle
 10
59.2173989819
 20
195.2667158398
 30
0.0
 40
4.583333333333371
100
AcDbArc
 50
68.4762233208
 51
270.0
  0
ARC
  5
1D6
330
1F
100
AcDbEntity
  8
0
  6
Continuous
 62
     7
370
    15
100
AcDbCircle
 10
59.2173989819
 20
195.2667158398
 30
0.0
 40
4.583333333333371
100
AcDbArc
 50
270.0
 51
351.5237766792
  0
ARC
  5
1D7
330
1F
100
AcDbEntity
  8
0
  6
Continuous
 62
     7
370
    15
100
AcDbCircle
 10
135.0926010181
 20
195.2667158398
 30
0.0
 40
4.583333333333371
100
AcDbArc
 50
188.4762233208
 51
270.0
  0
ARC
  5
1D8
330
1F
100
AcDbEntity
  8
0
  6
Continuous
 62
     7
370
    15
100
AcDbCircle
 10
135.0926010181
 20
195.2667158398
 30
0.0
 40
4.583333333333371
100
AcDbArc
 50
270.0
 51
111.5237766792
  0
ARC
  5
1D9
330
1F
100
AcDbEntity
  8
0
  6
Continuous
 62
     7
370
    15
100
AcDbCircle
 10
97.155
 20
173.3634316796
 30
0.0
 40
4.583333333333343
100
AcDbArc
 50
128.4762233208
 51
270.0
  0
ARC
  5
1DA
330
1F
100
AcDbEntity
  8
0
  6
Continuous
 62
     7
370
    15
100
AcDbCircle
 10
97.155
 20
173.3634316796
 30
0.0
 40
4.583333333333343
100
AcDbArc
 50
270.0
 51
51.5237766792
  0
ARC
  5
1DB
330
1F
100
AcDbEntity
  8
0
  6
Continuous
 62
     7
370
    15
100
AcDbCircle
 10
96.1898313444
 20
258.5639659935
 30
0.0
 40
2.257777777777775
100
AcDbArc
 50
211.3765589782
 51
232.3991723105
  0
ARC
  5
1DC
330
1F
100
AcDbEntity
  8
0
  6
Continuous
 62
     7
370
    15
100
AcDbCircle
 10
98.1201686556
 20
258.5639659935
 30
0.0
 40
2.257777777777785
100
AcDbArc
 50
307.6008276895
 51
328.6234410218
  0
ARC
  5
1DD
330
1F
100
AcDbEntity
  8
0
  6
Continuous
 62
     7
370
    15
100
AcDbCircle
 10
132.520641786
 20
238.7028435714
 30
0.0
 40
2.257777777777804
100
AcDbArc
 50
151.3765589782
 51
172.3991723105
  0
ARC
  5
1DE
330
1F
100
AcDbEntity
  8
0
  6
Continuous
 62
     7
370
    15
100
AcDbCircle
 10
133.4858104415
 20
237.0311224221
 30
0.0
 40
2.257777777777786
100
AcDbArc
 50
247.6008276895
 51
268.6234410218
  0
ARC
  5
1DF
330
1F
100
AcDbEntity
  8
0
  6
Continuous
 62
     7
370
    15
100
AcDbCircle
 10
60.8241895585
 20
237.0311224221
 30
0.0
 40
2.257777777777783
100
AcDbArc
 50
271.3765589782
 51
292.3991723105
  0
ARC
  5
1E0
330
1F
100
AcDbEntity
  8
0
  6
Continuous
 62
     7
370
    15
100
AcDbCircle
 10
61.789358214
 20
238.7028435714
 30
0.0
 40
2.25777777777778
100
AcDbArc
 50
7.6008276895
 51
28.6234410218
  0
ARC
  5
1E1
330
1F
100
AcDbEntity
  8
0
  6
Continuous
 62
     7
370
    15
100
AcDbCircle
 10
133.4858104415
 20
197.3088775779
 30
0.0
 40
2.257777777777793
100
AcDbArc
 50
91.3765589782
 51
112.3991723105
  0
ARC
  5
1E2
330
1F
100
AcDbEntity
  8
0
  6
Continuous
 62
     7
370
    15
100
AcDbCircle
 10
132.520641786
 20
195.6371564286
 30
0.0
 40
2.257777777777746
100
AcDbArc
 50
187.6008276895
 51
208.6234410218
  0
ARC
  5
1E3
330
1F
100
AcDbEntity
  8
0
  6
Continuous
 62
     7
370
    15
100
AcDbCircle
 10
61.789358214
 20
195.6371564286
 30
0.0
 40
2.257777777777788
100
AcDbArc
 50
331.3765589782
 51
352.3991723105
  0
ARC
  5
1E4
330
1F
100
AcDbEntity
  8
0
  6
Continuous
 62
     7
370
    15
100
AcDbCircle
 10
60.8241895585
 20
197.3088775779
 30
0.0
 40
2.25777777777778
100
AcDbArc
 50
67.6008276895
 51
88.6234410218
  0
ARC
  5
1E5
330
1F
100
AcDbEntity
  8
0
  6
Continuous
 62
     7
370
    15
100
AcDbCircle
 10
98.1201686556
 20
175.7760340065
 30
0.0
 40
2.257777777777799
100
AcDbArc
 50
31.3765589782
 51
52.3991723105
  0
ARC
  5
1E6
330
1F
100
AcDbEntity
  8
0
  6
Continuous
 62
     7
370
    15
100
AcDbCircle
 10
96.1898313444
 20
175.7760340065
 30
0.0
 40
2.257777777777785
100
AcDbArc
 50
127.6008276895
 51
148.6234410218
  0
LINE
  5
1E7
330
1F
100
AcDbEntity
  8
0
  6
Continuous
 62
     7
370
    15
100
AcDbLine
 10
70.3624373298
 20
237.0616263051
 30
0.0
 11
93.3246279546
 21
250.3188516596
 31
0.0
  0
LINE
  5
1E8
330
1F
100
AcDbEntity
  8
0
  6
Continuous
 62
     7
370
    15
100
AcDbLine
 10
93.0600445921
 20
250.7771252823
 30
0.0
 11
70.0978539673
 21
237.5198982721
 31
0.0
  0
LINE
  5
1E9
330
1F
100
AcDbEntity
  8
0
  6
Continuous
 62
     7
370
    15
100
AcDbLine
 10
100.9853720454
 20
250.3188516596
 30
0.0
 11
123.9475626702
 21
237.0616263051
 31
0.0
  0
LINE
  5
1EA
330
1F
100
AcDbEntity
  8
0
  6
Continuous
 62
     7
370
    15
100
AcDbLine
 10
124.2121460327
 20
237.5198982721
 30
0.0
 11
101.2499554079
 21
250.7771252823
 31
0.0
  0
LINE
  5
1EB
330
1F
100
AcDbEntity
  8
0
  6
Continuous
 62
     7
370
    15
100
AcDbLine
 10
123.9475626702
 20
197.2783736949
 30
0.0
 11
100.9853720454
 21
184.0211483404
 31
0.0
  0
LINE
  5
1EC
330
1F
100
AcDbEntity
  8
0
  6
Continuous
 62
     7
370
    15
100
AcDbLine
 10
101.2499554079
 20
183.5628747177
 30
0.0
 11
124.2121460327
 21
196.8201017279
 31
0.0
  0
LINE
  5
1ED
330
1F
100
AcDbEntity
  8
0
  6
Continuous
 62
     7
370
    15
100
AcDbLine
 10
93.3246279546
 20
184.0211483404
 30
0.0
 11
70.3624373298
 21
197.2783736949
 31
0.0
  0
LINE
  5
1EE
330
1F
100
AcDbEntity
  8
0
  6
Continuous
 62
     7
370
    15
100
AcDbLine
 10
70.0978539673
 20
196.8201017279
 30
0.0
 11
93.0600445921
 21
183.5628747177
 31
0.0
  0
LINE
  5
1EF
330
1F
100
AcDbEntity
  8
0
  6
Continuous
 62
     7
370
    15
100
AcDbLine
 10
127.7779359574
 20
230.4272261824
 30
0.0
 11
127.7779359574
 21
203.9127738176
 31
0.0
  0
LINE
  5
1F0
330
1F
100
AcDbEntity
  8
0
  6
Continuous
 62
     7
370
    15
100
AcDbLine
 10
128.3071026823
 20
203.9127738176
 30
0.0
 11
128.3071026823
 21
230.4272261824
 31
0.0
  0
LINE
  5
1F1
330
1F
100
AcDbEntity
  8
0
  6
Continuous
 62
     7
370
    15
100
AcDbLine
 10
66.5320640426
 20
203.9127738176
 30
0.0
 11
66.5320640426
 21
230.4272261824
 31
0.0
  0
LINE
  5
1F2
330
1F
100
AcDbEntity
  8
0
  6
Continuous
 62
     7
370
    15
100
AcDbLine
 10
66.0028973177
 20
230.4272261824
 30
0.0
 11
66.0028973177
 21
203.9127738176
 31
0.0
  0
CIRCLE
  5
1F3
330
1F
100
AcDbEntity
  8
0
  6
Continuous
 62
     7
370
    15
100
AcDbCircle
 10
97.155
 20
217.17
 30
0.0
 40
3.527777777777771
  0
LINE
  5
1F4
330
1F
100
AcDbEntity
  8
0
  6
Continuous
 62
     7
370
    15
100
AcDbLine
 10
94.2622222624
 20
257.388429433
 30
0.0
 11
96.6250915284
 21
257.388429433
 31
0.0
  0
LINE
  5
1F5
330
1F
100
AcDbEntity
  8
0
  6
Continuous
 62
     7
370
    15
100
AcDbLine
 10
97.6849084716
 20
257.388429433
 30
0.0
 11
100.0477777376
 21
257.388429433
 31
0.0
  0
LWPOLYLINE
  5
1F6
330
1F
100
AcDbEntity
  8
0
  6
Continuous
 62
     7
370
    15
100
AcDbPolyline
 90
       19
 70
   128
 43
0.0
 10
130.5387933011
 20
239.7844343615
 10
130.5396840594
 20
239.7828929191
 10
130.5488101927
 20
239.7670860985
 10
130.5677479129
 20
239.7342853313
 10
130.5963680765
 20
239.6847141351
 10
130.6344753128
 20
239.6187102694
 10
130.6818080235
 20
239.5367257362
 10
130.7380450058
 20
239.4393185012
 10
130.802802141
 20
239.3271574608
 10
130.8756357055
 20
239.2010058859
 10
130.9560489941
 20
239.0617280436
 10
131.0434923193
 20
238.9102726412
 10
131.1373663235
 20
238.7476744816
 10
131.2370352236
 20
238.5750461849
 10
131.3418102551
 20
238.3935665984
 10
131.4509827847
 20
238.2044741742
 10
131.5638044431
 20
238.009062002
 10
131.6795069928
 20
237.8086629078
 10
131.7202268993
 20
237.7381290891
  0
LWPOLYLINE
  5
1F7
330
1F
100
AcDbEntity
  8
0
  6
Continuous
 62
     7
370
    15
100
AcDbPolyline
 90
       19
 70
   128
 43
0.0
 10
132.2501353709
 20
236.8203003438
 10
132.273136141
 20
236.7804645729
 10
132.3892029413
 20
236.5794296959
 10
132.502511371
 20
236.3831764359
 10
132.6122832584
 20
236.1930425861
 10
132.7177735456
 20
236.0103295146
 10
132.8182603539
 20
235.8362822962
 10
132.9130549187
 20
235.6720930237
 10
133.0015115229
 20
235.5188825957
 10
133.083024186
 20
235.3776957491
 10
133.1570399094
 20
235.2494994036
 10
133.2230487421
 20
235.1351677608
 10
133.2806036494
 20
235.0354806481
 10
133.3293072669
 20
234.9511218633
 10
133.3688317691
 20
234.8826659287
 10
133.3989023124
 20
234.8305814033
 10
133.4193169032
 20
234.7952242592
 10
133.4299331527
 20
234.7768329149
 10
133.4315722805
 20
234.7739967272
  0
LWPOLYLINE
  5
1F8
330
1F
100
AcDbEntity
  8
0
  6
Continuous
 62
     7
370
    15
100
AcDbPolyline
 90
       19
 70
   128
 43
0.0
 10
60.8784277195
 20
234.7739967272
 10
60.8793184778
 20
234.7755365139
 10
60.8884446112
 20
234.7913433345
 10
60.9073823314
 20
234.8241441017
 10
60.936002495
 20
234.8737169536
 10
60.9741097313
 20
234.9397208193
 10
61.0214424419
 20
235.0217053525
 10
61.0776794243
 20
235.1191109318
 10
61.1424365595
 20
235.2312736278
 10
61.215270124
 20
235.3574235471
 10
61.2956834126
 20
235.4967030451
 10
61.3831267378
 20
235.6481584475
 10
61.477000742
 20
235.8107549514
 10
61.5766696421
 20
235.9833832481
 10
61.6814446735
 20
236.1648644903
 10
61.7906172032
 20
236.3539552588
 10
61.9034388616
 20
236.5493690867
 10
62.0191414113
 20
236.7497665252
 10
62.0598646291
 20
236.8203003438
  0
LWPOLYLINE
  5
1F9
330
1F
100
AcDbEntity
  8
0
  6
Continuous
 62
     7
370
    15
100
AcDbPolyline
 90
       19
 70
   128
 43
0.0
 10
62.5897731007
 20
237.7381290891
 10
62.6127705595
 20
237.7779648601
 10
62.7288373597
 20
237.9789997371
 10
62.8421457895
 20
238.1752546528
 10
62.9519209883
 20
238.3653885025
 10
63.0574079641
 20
238.548101574
 10
63.1578947724
 20
238.7221471368
 10
63.2526893372
 20
238.8863380649
 10
63.3411459414
 20
239.039548493
 10
63.4226586045
 20
239.1807353396
 10
63.4966743279
 20
239.308931685
 10
63.5626831606
 20
239.4232633278
 10
63.6202380678
 20
239.5229487848
 10
63.6689416854
 20
239.6073092254
 10
63.7084661876
 20
239.6757635042
 10
63.7385367309
 20
239.7278496854
 10
63.7589513217
 20
239.7632068295
 10
63.7695675712
 20
239.7815965181
 10
63.7712066989
 20
239.7844343615
  0
LWPOLYLINE
  5
1FA
330
1F
100
AcDbEntity
  8
0
  6
Continuous
 62
     7
370
    15
100
AcDbPolyline
 90
       19
 70
   128
 43
0.0
 10
133.4315722805
 20
199.5660032728
 10
133.4306815222
 20
199.5644634861
 10
133.4215553888
 20
199.5486566655
 10
133.4026176686
 20
199.5158558983
 10
133.373997505
 20
199.4662830464
 10
133.3358902687
 20
199.4002791807
 10
133.2885575581
 20
199.3182946475
 10
133.2323205757
 20
199.2208890682
 10
133.1675634405
 20
199.1087263722
 10
133.094729876
 20
198.9825764529
 10
133.0143165874
 20
198.8432969549
 10
132.9268732622
 20
198.6918415525
 10
132.832999258
 20
198.5292450486
 10
132.7333303579
 20
198.3566167519
 10
132.6285553265
 20
198.1751355097
 10
132.5193827968
 20
197.9860447412
 10
132.4065611384
 20
197.7906309133
 10
132.2908585887
 20
197.5902334748
 10
132.2501353709
 20
197.5196996562
  0
LWPOLYLINE
  5
1FB
330
1F
100
AcDbEntity
  8
0
  6
Continuous
 62
     7
370
    15
100
AcDbPolyline
 90
       19
 70
   128
 43
0.0
 10
131.7202268993
 20
196.6018709109
 10
131.6972294405
 20
196.5620351399
 10
131.5811626403
 20
196.3610002629
 10
131.4678542105
 20
196.1647453472
 10
131.3580790117
 20
195.9746114975
 10
131.2525920359
 20
195.7918984259
 10
131.1521052276
 20
195.6178528632
 10
131.0573106628
 20
195.4536619351
 10
130.9688540586
 20
195.300451507
 10
130.8873413955
 20
195.1592646604
 10
130.8133256721
 20
195.031068315
 10
130.7473168394
 20
194.9167366722
 10
130.6897619322
 20
194.8170512152
 10
130.6410583146
 20
194.7326907746
 10
130.6015338124
 20
194.6642364958
 10
130.5714632691
 20
194.6121503146
 10
130.5510486783
 20
194.5767931705
 10
130.5404324288
 20
194.5584034819
 10
130.5387933011
 20
194.5555656385
  0
LWPOLYLINE
  5
1FC
330
1F
100
AcDbEntity
  8
0
  6
Continuous
 62
     7
370
    15
100
AcDbPolyline
 90
       19
 70
   128
 43
0.0
 10
63.7712066989
 20
194.5555656385
 10
63.7703159406
 20
194.5571070809
 10
63.7611898073
 20
194.5729139015
 10
63.7422520871
 20
194.6057146687
 10
63.7136319235
 20
194.6552858649
 10
63.6755246872
 20
194.7212897306
 10
63.6281919765
 20
194.8032742638
 10
63.5719549942
 20
194.9006814988
 10
63.507197859
 20
195.0128425392
 10
63.4343642945
 20
195.1389941141
 10
63.3539510059
 20
195.2782719564
 10
63.2665076807
 20
195.4297273588
 10
63.1726336765
 20
195.5923255184
 10
63.0729647764
 20
195.7649538151
 10
62.9681897449
 20
195.9464334016
 10
62.8590172153
 20
196.1355258258
 10
62.7461955569
 20
196.330937998
 10
62.6304930072
 20
196.5313370922
 10
62.5897731007
 20
196.6018709109
  0
LWPOLYLINE
  5
1FD
330
1F
100
AcDbEntity
  8
0
  6
Continuous
 62
     7
370
    15
100
AcDbPolyline
 90
       19
 70
   128
 43
0.0
 10
62.0598646291
 20
197.5196996562
 10
62.036863859
 20
197.5595354271
 10
61.9207970587
 20
197.7605703041
 10
61.807488629
 20
197.9568235641
 10
61.6977167416
 20
198.1469574139
 10
61.5922264544
 20
198.3296704854
 10
61.4917396461
 20
198.5037177038
 10
61.3969450813
 20
198.6679069763
 10
61.3084884771
 20
198.8211174043
 10
61.226975814
 20
198.9623042509
 10
61.1529600906
 20
199.0905005964
 10
61.0869512579
 20
199.2048322392
 10
61.0293963506
 20
199.3045193519
 10
60.9806927331
 20
199.3888781367
 10
60.9411682309
 20
199.4573340713
 10
60.9110976876
 20
199.5094185967
 10
60.8906830968
 20
199.5447757408
 10
60.8800668473
 20
199.5631670851
 10
60.8784277195
 20
199.5660032728
  0
LINE
  5
1FE
330
1F
100
AcDbEntity
  8
0
  6
Continuous
 62
     7
370
    15
100
AcDbLine
 10
100.0477777376
 20
176.951570567
 30
0.0
 11
97.6849084716
 21
176.951570567
 31
0.0
  0
LINE
  5
1FF
330
1F
100
AcDbEntity
  8
0
  6
Continuous
 62
     7
370
    15
100
AcDbLine
 10
96.6250915284
 20
176.951570567
 30
0.0
 11
94.2622222624
 21
176.951570567
 31
0.0
  0
INSERT
  5
20B
330
1F
100
AcDbEntity
  8
0
  6
Continuous
 62
     7
370
     0
100
AcDbBlockReference
  2
SW_CENTERMARKSYMBOL_1
 10
97.155
 20
217.17
 30
0.0
  0
INSERT
  5
217
330
1F
100
AcDbEntity
  8
0
  6
Continuous
 62
     7
370
     0
100
AcDbBlockReference
  2
SW_CENTERMARKSYMBOL_2
 10
128.0425177138
 20
199.3370833333
 30
0.0
  0
INSERT
  5
223
330
1F
100
AcDbEntity
  8
0
  6
Continuous
 62
     7
370
     0
100
AcDbBlockReference
  2
SW_CENTERMARKSYMBOL_3
 10
128.0425177138
 20
235.0029166667
 30
0.0
  0
INSERT
  5
22F
330
1F
100
AcDbEntity
  8
0
  6
Continuous
 62
     7
370
     0
100
AcDbBlockReference
  2
SW_CENTERMARKSYMBOL_4
 10
97.155
 20
252.8358333333
 30
0.0
  0
INSERT
  5
23B
330
1F
100
AcDbEntity
  8
0
  6
Continuous
 62
     7
370
     0
100
AcDbBlockReference
  2
SW_CENTERMARKSYMBOL_5
 10
66.2674822862
 20
235.0029166667
 30
0.0
  0
INSERT
  5
247
330
1F
100
AcDbEntity
  8
0
  6
Continuous
 62
     7
370
     0
100
AcDbBlockReference
  2
SW_CENTERMARKSYMBOL_6
 10
66.2674822862
 20
199.3370833333
 30
0.0
  0
INSERT
  5
253
330
1F
100
AcDbEntity
  8
0
  6
Continuous
 62
     7
370
     0
100
AcDbBlockReference
  2
SW_CENTERMARKSYMBOL_7
 10
97.155
 20
181.5041666667
 30
0.0
  0
CIRCLE
  5
254
330
1F
100
AcDbEntity
  8
0
  6
Continuous
 62
     7
370
    15
100
AcDbCircle
 10
270.1882841602
 20
95.1098811046
 30
0.0
 40
4.583333333333314
  0
CIRCLE
  5
255
330
1F
100
AcDbEntity
  8
0
  6
Continuous
 62
     7
370
    15
100
AcDbCircle
 10
226.3817158398
 20
95.1098811046
 30
0.0
 40
4.583333333333314
  0
ARC
  5
256
330
1F
100
AcDbEntity
  8
0
  6
Continuous
 62
     7
370
    15
100
AcDbCircle
 10
266.1179166667
 20
86.9567988954
 30
0.0
 40
4.583333333333371
100
AcDbArc
 50
128.4762233208
 51
0.0
  0
ARC
  5
257
330
1F
100
AcDbEntity
  8
0
  6
Continuous
 62
     7
370
    15
100
AcDbCircle
 10
266.1179166667
 20
86.9567988954
 30
0.0
 40
4.583333333333371
100
AcDbArc
 50
0.0
 51
51.5237766792
  0
ARC
  5
258
330
1F
100
AcDbEntity
  8
0
  6
Continuous
 62
     7
370
    15
100
AcDbCircle
 10
266.1179166667
 20
103.2621166472
 30
0.0
 40
4.583333333333319
100
AcDbArc
 50
308.4762233208
 51
0.0
  0
ARC
  5
259
330
1F
100
AcDbEntity
  8
0
  6
Continuous
 62
     7
370
    15
100
AcDbCircle
 10
266.1179166667
 20
103.2621166472
 30
0.0
 40
4.583333333333344
100
AcDbArc
 50
0.0
 51
231.5237766792
  0
ARC
  5
25A
330
1F
100
AcDbEntity
  8
0
  6
Continuous
 62
     7
370
    15
100
AcDbCircle
 10
230.4520833333
 20
103.2621166472
 30
0.0
 40
4.583333333333371
100
AcDbArc
 50
308.4762233208
 51
0.0
  0
ARC
  5
25B
330
1F
100
AcDbEntity
  8
0
  6
Continuous
 62
     7
370
    15
100
AcDbCircle
 10
230.4520833333
 20
103.2621166472
 30
0.0
 40
4.583333333333371
100
AcDbArc
 50
0.0
 51
231.5237766792
  0
ARC
  5
25C
330
1F
100
AcDbEntity
  8
0
  6
Continuous
 62
     7
370
    15
100
AcDbCircle
 10
230.4520833333
 20
86.9567988954
 30
0.0
 40
4.583333333333343
100
AcDbArc
 50
128.4762233208
 51
0.0
  0
ARC
  5
25D
330
1F
100
AcDbEntity
  8
0
  6
Continuous
 62
     7
370
    15
100
AcDbCircle
 10
230.4520833333
 20
86.9567988954
 30
0.0
 40
4.583333333333343
100
AcDbArc
 50
0.0
 51
51.5237766792
  0
LWPOLYLINE
  5
25E
330
1F
100
AcDbEntity
  8
0
  6
Continuous
 62
     7
370
    15
100
AcDbPolyline
 90
        3
 70
   128
 43
0.0
 10
269.0106939676
 20
90.5449399186
 10
268.9126228031
 20
90.6924084325
 10
268.8984584215
 20
90.711779942
  0
ARC
  5
25F
330
1F
100
AcDbEntity
  8
0
  6
Continuous
 62
     7
370
    15
100
AcDbCircle
 10
265.1527480111
 20
89.3694012223
 30
0.0
 40
2.257777777777794
100
AcDbArc
 50
112.6585975982
 51
148.6234410218
  0
ARC
  5
260
330
1F
100
AcDbEntity
  8
0
  6
Continuous
 62
     7
370
    15
100
AcDbCircle
 10
265.1527480111
 20
100.8495143203
 30
0.0
 40
2.257777777777787
100
AcDbArc
 50
211.3765589782
 51
247.3414024018
  0
LWPOLYLINE
  5
261
330
1F
100
AcDbEntity
  8
0
  6
Continuous
 62
     7
370
    15
100
AcDbPolyline
 90
        3
 70
   128
 43
0.0
 10
268.8992581171
 20
99.5082168611
 10
268.9126228031
 20
99.526505553
 10
269.0106939676
 20
99.6739773783
  0
LWPOLYLINE
  5
262
330
1F
100
AcDbEntity
  8
0
  6
Continuous
 62
     7
370
    15
100
AcDbPolyline
 90
        3
 70
   128
 43
0.0
 10
227.5593060324
 20
99.6739773783
 10
227.6573771969
 20
99.526505553
 10
227.6707418829
 20
99.5082168611
  0
ARC
  5
263
330
1F
100
AcDbEntity
  8
0
  6
Continuous
 62
     7
370
    15
100
AcDbCircle
 10
231.4172519889
 20
100.8495143203
 30
0.0
 40
2.25777777777777
100
AcDbArc
 50
292.6585975982
 51
328.6234410218
  0
ARC
  5
264
330
1F
100
AcDbEntity
  8
0
  6
Continuous
 62
     7
370
    15
100
AcDbCircle
 10
231.4172519889
 20
89.3694012223
 30
0.0
 40
2.257777777777781
100
AcDbArc
 50
31.3765589782
 51
67.3414024018
  0
LWPOLYLINE
  5
265
330
1F
100
AcDbEntity
  8
0
  6
Continuous
 62
     7
370
    15
100
AcDbPolyline
 90
        3
 70
   128
 43
0.0
 10
227.6715415785
 20
90.711779942
 10
227.6573771969
 20
90.6924084325
 10
227.5593060324
 20
90.5449399186
  0
ARC
  5
266
330
1F
100
AcDbEntity
  8
0
  6
Continuous
 62
     7
370
    15
100
AcDbCircle
 10
266.3220236671
 20
87.5463255491
 30
0.0
 40
4.233333333333354
100
AcDbArc
 50
79.109088077
 51
89.181459093
  0
ARC
  5
267
330
1F
100
AcDbEntity
  8
0
  6
Continuous
 62
     7
370
    15
100
AcDbCircle
 10
265.9138096663
 20
87.5463255491
 30
0.0
 40
4.233333333333352
100
AcDbArc
 50
90.818540907
 51
112.6585975982
  0
ARC
  5
268
330
1F
100
AcDbEntity
  8
0
  6
Continuous
 62
     7
370
    15
100
AcDbCircle
 10
265.9138096663
 20
102.6725899935
 30
0.0
 40
4.233333333333348
100
AcDbArc
 50
247.3414024018
 51
269.1814590929
  0
ARC
  5
269
330
1F
100
AcDbEntity
  8
0
  6
Continuous
 62
     7
370
    15
100
AcDbCircle
 10
266.3220236671
 20
102.6725899935
 30
0.0
 40
4.233333333333349
100
AcDbArc
 50
270.8185409071
 51
280.8744357512
  0
ARC
  5
26A
330
1F
100
AcDbEntity
  8
0
  6
Continuous
 62
     7
370
    15
100
AcDbCircle
 10
230.2479763329
 20
102.6725899935
 30
0.0
 40
4.23333333333334
100
AcDbArc
 50
259.1255642488
 51
269.181459093
  0
ARC
  5
26B
330
1F
100
AcDbEntity
  8
0
  6
Continuous
 62
     7
370
    15
100
AcDbCircle
 10
230.6561903337
 20
102.6725899935
 30
0.0
 40
4.233333333333332
100
AcDbArc
 50
270.818540907
 51
292.6585975982
  0
ARC
  5
26C
330
1F
100
AcDbEntity
  8
0
  6
Continuous
 62
     7
370
    15
100
AcDbCircle
 10
230.6561903337
 20
87.5463255491
 30
0.0
 40
4.233333333333345
100
AcDbArc
 50
67.3414024018
 51
89.181459093
  0
ARC
  5
26D
330
1F
100
AcDbEntity
  8
0
  6
Continuous
 62
     7
370
    15
100
AcDbCircle
 10
230.2479763329
 20
87.5463255491
 30
0.0
 40
4.233333333333346
100
AcDbArc
 50
90.818540907
 51
100.890911923
  0
ARC
  5
26E
330
1F
100
AcDbEntity
  8
0
  6
Continuous
 62
     7
370
    15
100
AcDbCircle
 10
266.9998611111
 20
95.109034438
 30
0.0
 40
2.469444444444413
100
AcDbArc
 50
144.3146652873
 51
173.9041890585
  0
ARC
  5
26F
330
1F
100
AcDbEntity
  8
0
  6
Continuous
 62
     7
370
    15
100
AcDbCircle
 10
266.9998611111
 20
95.1098811046
 30
0.0
 40
2.469444444444468
100
AcDbArc
 50
186.0719158653
 51
215.6853347127
  0
ARC
  5
270
330
1F
100
AcDbEntity
  8
0
  6
Continuous
 62
     7
370
    15
100
AcDbCircle
 10
229.5701388889
 20
95.1098811046
 30
0.0
 40
2.469444444444437
100
AcDbArc
 50
324.3146652873
 51
353.9250060181
  0
ARC
  5
271
330
1F
100
AcDbEntity
  8
0
  6
Continuous
 62
     7
370
    15
100
AcDbCircle
 10
229.5701388889
 20
95.109034438
 30
0.0
 40
2.469444444444437
100
AcDbArc
 50
6.0927378997
 51
35.6853347127
  0
ARC
  5
272
330
1F
100
AcDbEntity
  8
0
  6
Continuous
 62
     7
370
    15
100
AcDbCircle
 10
265.2806348864
 20
96.3437566602
 30
0.0
 40
0.3527777777777955
100
AcDbArc
 50
90.0
 51
144.3146652873
  0
ARC
  5
273
330
1F
100
AcDbEntity
  8
0
  6
Continuous
 62
     7
370
    15
100
AcDbCircle
 10
231.2893651136
 20
96.3437566602
 30
0.0
 40
0.3527777777777743
100
AcDbArc
 50
35.6853347127
 51
90.0
  0
ARC
  5
274
330
1F
100
AcDbEntity
  8
0
  6
Continuous
 62
     7
370
    15
100
AcDbCircle
 10
265.2806348864
 20
93.8751588824
 30
0.0
 40
0.3527777777777955
100
AcDbArc
 50
215.6853347127
 51
270.0
  0
ARC
  5
275
330
1F
100
AcDbEntity
  8
0
  6
Continuous
 62
     7
370
    15
100
AcDbCircle
 10
231.2893651136
 20
93.8751588824
 30
0.0
 40
0.3527777777777885
100
AcDbArc
 50
270.0
 51
324.3146652873
  0
LINE
  5
276
330
1F
100
AcDbEntity
  8
0
  6
Continuous
 62
     7
370
    15
100
AcDbLine
 10
266.3825000064
 20
91.7792262798
 30
0.0
 11
266.3825000064
 21
92.5558748013
 31
0.0
  0
LINE
  5
277
330
1F
100
AcDbEntity
  8
0
  6
Continuous
 62
     7
370
    15
100
AcDbLine
 10
265.8533332814
 20
93.5223839845
 30
0.0
 11
265.8533332814
 21
91.7792262798
 31
0.0
  0
LINE
  5
278
330
1F
100
AcDbEntity
  8
0
  6
Continuous
 62
     7
370
    15
100
AcDbLine
 10
265.8533332814
 20
98.4396877056
 30
0.0
 11
265.8533332814
 21
96.6965333123
 31
0.0
  0
LINE
  5
279
330
1F
100
AcDbEntity
  8
0
  6
Continuous
 62
     7
370
    15
100
AcDbLine
 10
266.3825000064
 20
97.6638868947
 30
0.0
 11
266.3825000064
 21
98.4396877056
 31
0.0
  0
LINE
  5
27A
330
1F
100
AcDbEntity
  8
0
  6
Continuous
 62
     7
370
    15
100
AcDbLine
 10
264.5449202659
 20
95.3744658661
 30
0.0
 11
232.0250797341
 21
95.3744658661
 31
0.0
  0
LINE
  5
27B
330
1F
100
AcDbEntity
  8
0
  6
Continuous
 62
     7
370
    15
100
AcDbLine
 10
232.0251674853
 20
94.8452991412
 30
0.0
 11
264.5448325147
 21
94.8452991412
 31
0.0
  0
LINE
  5
27C
330
1F
100
AcDbEntity
  8
0
  6
Continuous
 62
     7
370
    15
100
AcDbLine
 10
230.1874999936
 20
98.4396877056
 30
0.0
 11
230.1874999936
 21
97.6638868947
 31
0.0
  0
LINE
  5
27D
330
1F
100
AcDbEntity
  8
0
  6
Continuous
 62
     7
370
    15
100
AcDbLine
 10
230.7166667186
 20
96.6965333123
 30
0.0
 11
230.7166667186
 21
98.4396877056
 31
0.0
  0
LINE
  5
27E
330
1F
100
AcDbEntity
  8
0
  6
Continuous
 62
     7
370
    15
100
AcDbLine
 10
230.7166667186
 20
91.7792262798
 30
0.0
 11
230.7166667186
 21
93.5223839845
 31
0.0
  0
LINE
  5
27F
330
1F
100
AcDbEntity
  8
0
  6
Continuous
 62
     7
370
    15
100
AcDbLine
 10
230.1874999936
 20
92.5558748013
 30
0.0
 11
230.1874999936
 21
91.7792262798
 31
0.0
  0
LINE
  5
280
330
1F
100
AcDbEntity
  8
0
  6
Continuous
 62
     7
370
    15
100
AcDbLine
 10
231.6419708798
 20
96.4527867402
 30
0.0
 11
247.832615906
 21
115.1481312678
 31
0.0
  0
LINE
  5
281
330
1F
100
AcDbEntity
  8
0
  6
Continuous
 62
     7
370
    15
100
AcDbLine
 10
247.4405561105
 20
115.5037358899
 30
0.0
 11
231.1530422571
 21
96.6965333123
 31
0.0
  0
LINE
  5
282
330
1F
100
AcDbEntity
  8
0
  6
Continuous
 62
     7
370
    15
100
AcDbLine
 10
265.4169577429
 20
96.6965333123
 30
0.0
 11
249.1294292471
 21
115.5037524468
 31
0.0
  0
LINE
  5
283
330
1F
100
AcDbEntity
  8
0
  6
Continuous
 62
     7
370
    15
100
AcDbLine
 10
248.7373707968
 20
115.1481478247
 30
0.0
 11
264.9280291202
 21
96.4527867402
 31
0.0
  0
LINE
  5
284
330
1F
100
AcDbEntity
  8
0
  6
Continuous
 62
     7
370
    15
100
AcDbLine
 10
231.1530422571
 20
93.5223839845
 30
0.0
 11
247.4405425545
 21
74.7151979638
 31
0.0
  0
LINE
  5
285
330
1F
100
AcDbEntity
  8
0
  6
Continuous
 62
     7
370
    15
100
AcDbLine
 10
247.8325865694
 20
75.0708191427
 30
0.0
 11
231.6419708798
 21
93.7661272452
 31
0.0
  0
LINE
  5
286
330
1F
100
AcDbEntity
  8
0
  6
Continuous
 62
     7
370
    15
100
AcDbLine
 10
264.9280291202
 20
93.7661272452
 30
0.0
 11
248.7373716763
 21
75.0707727835
 31
0.0
  0
LINE
  5
287
330
1F
100
AcDbEntity
  8
0
  6
Continuous
 62
     7
370
    15
100
AcDbLine
 10
249.1294236074
 20
74.7151582273
 30
0.0
 11
265.4169577429
 21
93.5223839845
 31
0.0
  0
LINE
  5
288
330
1F
100
AcDbEntity
  8
0
  6
Continuous
 62
     7
370
    15
100
AcDbLine
 10
283.1643367545
 20
95.3744658661
 30
0.0
 11
274.7639743556
 21
95.3744658661
 31
0.0
  0
LINE
  5
289
330
1F
100
AcDbEntity
  8
0
  6
Continuous
 62
     7
370
    15
100
AcDbLine
 10
274.7639743556
 20
94.8452991412
 30
0.0
 11
283.1642903953
 21
94.8452991412
 31
0.0
  0
LINE
  5
28A
330
1F
100
AcDbEntity
  8
0
  6
Continuous
 62
     7
370
    15
100
AcDbLine
 10
221.8060256444
 20
95.3744658661
 30
0.0
 11
213.4056632455
 21
95.3744658661
 31
0.0
  0
LINE
  5
28B
330
1F
100
AcDbEntity
  8
0
  6
Continuous
 62
     7
370
    15
100
AcDbLine
 10
213.4057096047
 20
94.8452991412
 30
0.0
 11
221.8060256444
 21
94.8452991412
 31
0.0
  0
ARC
  5
28C
330
1F
100
AcDbEntity
  8
0
  6
Continuous
 62
     7
370
    15
100
AcDbCircle
 10
292.0915683204
 20
95.1098811046
 30
0.0
 40
4.583333333333371
100
AcDbArc
 50
218.4762233208
 51
0.0
  0
ARC
  5
28D
330
1F
100
AcDbEntity
  8
0
  6
Continuous
 62
     7
370
    15
100
AcDbCircle
 10
292.0915683204
 20
95.1098811046
 30
0.0
 40
4.583333333333371
100
AcDbArc
 50
0.0
 51
141.5237766792
  0
ARC
  5
28E
330
1F
100
AcDbEntity
  8
0
  6
Continuous
 62
     7
370
    15
100
AcDbCircle
 10
283.9508333333
 20
86.9567988954
 30
0.0
 40
4.583333333333319
100
AcDbArc
 50
128.4762233208
 51
0.0
  0
ARC
  5
28F
330
1F
100
AcDbEntity
  8
0
  6
Continuous
 62
     7
370
    15
100
AcDbCircle
 10
283.9508333333
 20
86.9567988954
 30
0.0
 40
4.583333333333319
100
AcDbArc
 50
0.0
 51
51.5237766792
  0
ARC
  5
290
330
1F
100
AcDbEntity
  8
0
  6
Continuous
 62
     7
370
    15
100
AcDbCircle
 10
283.9508333333
 20
103.2621166472
 30
0.0
 40
4.583333333333319
100
AcDbArc
 50
308.4762233208
 51
0.0
  0
ARC
  5
291
330
1F
100
AcDbEntity
  8
0
  6
Continuous
 62
     7
370
    15
100
AcDbCircle
 10
283.9508333333
 20
103.2621166472
 30
0.0
 40
4.583333333333319
100
AcDbArc
 50
0.0
 51
231.5237766792
  0
ARC
  5
292
330
1F
100
AcDbEntity
  8
0
  6
Continuous
 62
     7
370
    15
100
AcDbCircle
 10
248.285
 20
108.2955195935
 30
0.0
 40
4.583333333333342
100
AcDbArc
 50
128.4762233208
 51
0.0
  0
ARC
  5
293
330
1F
100
AcDbEntity
  8
0
  6
Continuous
 62
     7
370
    15
100
AcDbCircle
 10
248.285
 20
108.2955195935
 30
0.0
 40
4.583333333333359
100
AcDbArc
 50
0.0
 51
51.5237766792
  0
ARC
  5
294
330
1F
100
AcDbEntity
  8
0
  6
Continuous
 62
     7
370
    15
100
AcDbCircle
 10
248.285
 20
65.6176548639
 30
0.0
 40
4.583333333333319
100
AcDbArc
 50
128.4762233208
 51
0.0
  0
ARC
  5
295
330
1F
100
AcDbEntity
  8
0
  6
Continuous
 62
     7
370
    15
100
AcDbCircle
 10
248.285
 20
65.6176548639
 30
0.0
 40
4.583333333333337
100
AcDbArc
 50
0.0
 51
51.5237766792
  0
ARC
  5
296
330
1F
100
AcDbEntity
  8
0
  6
Continuous
 62
     7
370
    15
100
AcDbCircle
 10
248.285
 20
81.9233959491
 30
0.0
 40
4.583333333333348
100
AcDbArc
 50
308.4762233208
 51
0.0
  0
ARC
  5
297
330
1F
100
AcDbEntity
  8
0
  6
Continuous
 62
     7
370
    15
100
AcDbCircle
 10
248.285
 20
81.9233959491
 30
0.0
 40
4.58333333333333
100
AcDbArc
 50
0.0
 51
231.5237766792
  0
ARC
  5
298
330
1F
100
AcDbEntity
  8
0
  6
Continuous
 62
     7
370
    15
100
AcDbCircle
 10
212.6191666667
 20
103.2621166472
 30
0.0
 40
4.583333333333319
100
AcDbArc
 50
308.4762233208
 51
0.0
  0
ARC
  5
299
330
1F
100
AcDbEntity
  8
0
  6
Continuous
 62
     7
370
    15
100
AcDbCircle
 10
212.6191666667
 20
103.2621166472
 30
0.0
 40
4.583333333333337
100
AcDbArc
 50
0.0
 51
231.5237766792
  0
ARC
  5
29A
330
1F
100
AcDbEntity
  8
0
  6
Continuous
 62
     7
370
    15
100
AcDbCircle
 10
212.6191666667
 20
86.9567988954
 30
0.0
 40
4.583333333333337
100
AcDbArc
 50
128.4762233208
 51
0.0
  0
ARC
  5
29B
330
1F
100
AcDbEntity
  8
0
  6
Continuous
 62
     7
370
    15
100
AcDbCircle
 10
212.6191666667
 20
86.9567988954
 30
0.0
 40
4.583333333333314
100
AcDbArc
 50
0.0
 51
51.5237766792
  0
ARC
  5
29C
330
1F
100
AcDbEntity
  8
0
  6
Continuous
 62
     7
370
    15
100
AcDbCircle
 10
204.4784316796
 20
95.1098811046
 30
0.0
 40
4.583333333333373
100
AcDbArc
 50
38.4762233208
 51
321.5237766792
  0
LINE
  5
29D
330
1F
100
AcDbEntity
  8
0
  6
Continuous
 62
     7
370
    15
100
AcDbLine
 10
244.7572221096
 20
149.7856784694
 30
0.0
 11
244.7572221096
 21
149.0801229224
 31
0.0
  0
LINE
  5
29E
330
1F
100
AcDbEntity
  8
0
  6
Continuous
 62
     7
370
    15
100
AcDbLine
 10
251.8127778904
 20
149.0801229224
 30
0.0
 11
251.8127778904
 21
149.7856784694
 31
0.0
  0
ARC
  5
29F
330
1F
100
AcDbEntity
  8
0
  6
Continuous
 62
     7
370
    15
100
AcDbCircle
 10
289.6789659935
 20
96.0750497602
 30
0.0
 40
2.257777777777813
100
AcDbArc
 50
121.3765589782
 51
157.3414024018
  0
ARC
  5
2A0
330
1F
100
AcDbEntity
  8
0
  6
Continuous
 62
     7
370
    15
100
AcDbCircle
 10
289.6789659935
 20
94.1447124491
 30
0.0
 40
2.257777777777807
100
AcDbArc
 50
202.6585975982
 51
238.6234410218
  0
ARC
  5
2A1
330
1F
100
AcDbEntity
  8
0
  6
Continuous
 62
     7
370
    15
100
AcDbCircle
 10
284.9160019889
 20
89.3694012223
 30
0.0
 40
2.25777777777777
100
AcDbArc
 50
31.3765589782
 51
67.3414024018
  0
ARC
  5
2A2
330
1F
100
AcDbEntity
  8
0
  6
Continuous
 62
     7
370
    15
100
AcDbCircle
 10
282.9856646778
 20
89.3694012223
 30
0.0
 40
2.257777777777794
100
AcDbArc
 50
112.6585975982
 51
148.6234410218
  0
ARC
  5
2A3
330
1F
100
AcDbEntity
  8
0
  6
Continuous
 62
     7
370
    15
100
AcDbCircle
 10
282.9856646778
 20
100.8495143203
 30
0.0
 40
2.257777777777794
100
AcDbArc
 50
211.3765589782
 51
247.3414024018
  0
ARC
  5
2A4
330
1F
100
AcDbEntity
  8
0
  6
Continuous
 62
     7
370
    15
100
AcDbCircle
 10
284.9160019889
 20
100.8495143203
 30
0.0
 40
2.257777777777757
100
AcDbArc
 50
292.6585975982
 51
328.6234410218
  0
ARC
  5
2A5
330
1F
100
AcDbEntity
  8
0
  6
Continuous
 62
     7
370
    15
100
AcDbCircle
 10
249.2501686556
 20
110.7081219203
 30
0.0
 40
2.257777777777781
100
AcDbArc
 50
31.3765589782
 51
67.3414024018
  0
ARC
  5
2A6
330
1F
100
AcDbEntity
  8
0
  6
Continuous
 62
     7
370
    15
100
AcDbCircle
 10
247.3198313444
 20
110.7081219203
 30
0.0
 40
2.257777777777781
100
AcDbArc
 50
112.6585975982
 51
148.6234410218
  0
ARC
  5
2A7
330
1F
100
AcDbEntity
  8
0
  6
Continuous
 62
     7
370
    15
100
AcDbCircle
 10
247.3198313444
 20
79.5107936223
 30
0.0
 40
2.257777777777781
100
AcDbArc
 50
211.3765589782
 51
247.3414024018
  0
ARC
  5
2A8
330
1F
100
AcDbEntity
  8
0
  6
Continuous
 62
     7
370
    15
100
AcDbCircle
 10
249.2501686556
 20
79.5107936223
 30
0.0
 40
2.257777777777781
100
AcDbArc
 50
292.6585975982
 51
328.6234410218
  0
ARC
  5
2A9
330
1F
100
AcDbEntity
  8
0
  6
Continuous
 62
     7
370
    15
100
AcDbCircle
 10
249.2501686556
 20
68.0302571908
 30
0.0
 40
2.257777777777768
100
AcDbArc
 50
31.3765589782
 51
67.3414024018
  0
ARC
  5
2AA
330
1F
100
AcDbEntity
  8
0
  6
Continuous
 62
     7
370
    15
100
AcDbCircle
 10
247.3198313444
 20
68.0302571908
 30
0.0
 40
2.257777777777768
100
AcDbArc
 50
112.6585975982
 51
148.6234410218
  0
ARC
  5
2AB
330
1F
100
AcDbEntity
  8
0
  6
Continuous
 62
     7
370
    15
100
AcDbCircle
 10
211.6539980111
 20
100.8495143203
 30
0.0
 40
2.257777777777794
100
AcDbArc
 50
211.3765589782
 51
247.3414024018
  0
ARC
  5
2AC
330
1F
100
AcDbEntity
  8
0
  6
Continuous
 62
     7
370
    15
100
AcDbCircle
 10
213.5843353222
 20
100.8495143203
 30
0.0
 40
2.257777777777794
100
AcDbArc
 50
292.6585975982
 51
328.6234410218
  0
ARC
  5
2AD
330
1F
100
AcDbEntity
  8
0
  6
Continuous
 62
     7
370
    15
100
AcDbCircle
 10
213.5843353222
 20
89.3694012223
 30
0.0
 40
2.257777777777794
100
AcDbArc
 50
31.3765589782
 51
67.3414024018
  0
ARC
  5
2AE
330
1F
100
AcDbEntity
  8
0
  6
Continuous
 62
     7
370
    15
100
AcDbCircle
 10
211.6539980111
 20
89.3694012223
 30
0.0
 40
2.257777777777794
100
AcDbArc
 50
112.6585975982
 51
148.6234410218
  0
ARC
  5
2AF
330
1F
100
AcDbEntity
  8
0
  6
Continuous
 62
     7
370
    15
100
AcDbCircle
 10
206.8910340065
 20
94.1447124491
 30
0.0
 40
2.257777777777781
100
AcDbArc
 50
301.3765589782
 51
337.3414024018
  0
ARC
  5
2B0
330
1F
100
AcDbEntity
  8
0
  6
Continuous
 62
     7
370
    15
100
AcDbCircle
 10
206.8910340065
 20
96.0750497602
 30
0.0
 40
2.257777777777787
100
AcDbArc
 50
22.6585975982
 51
58.6234410218
  0
ARC
  5
2B1
330
1F
100
AcDbEntity
  8
0
  6
Continuous
 62
     7
370
    15
100
AcDbCircle
 10
291.5020416667
 20
95.313988105
 30
0.0
 40
4.233333333333412
100
AcDbArc
 50
157.3414024018
 51
179.181459093
  0
ARC
  5
2B2
330
1F
100
AcDbEntity
  8
0
  6
Continuous
 62
     7
370
    15
100
AcDbCircle
 10
291.5020416667
 20
94.9057741042
 30
0.0
 40
4.233333333333407
100
AcDbArc
 50
180.8185409071
 51
202.6585975982
  0
ARC
  5
2B3
330
1F
100
AcDbEntity
  8
0
  6
Continuous
 62
     7
370
    15
100
AcDbCircle
 10
284.1549403337
 20
87.5463255491
 30
0.0
 40
4.233333333333344
100
AcDbArc
 50
67.3414024018
 51
89.181459093
  0
ARC
  5
2B4
330
1F
100
AcDbEntity
  8
0
  6
Continuous
 62
     7
370
    15
100
AcDbCircle
 10
283.7467263329
 20
87.5463255491
 30
0.0
 40
4.233333333333352
100
AcDbArc
 50
90.818540907
 51
112.6585975982
  0
ARC
  5
2B5
330
1F
100
AcDbEntity
  8
0
  6
Continuous
 62
     7
370
    15
100
AcDbCircle
 10
283.7467263329
 20
102.6725899935
 30
0.0
 40
4.233333333333339
100
AcDbArc
 50
247.3414024018
 51
269.181459093
  0
ARC
  5
2B6
330
1F
100
AcDbEntity
  8
0
  6
Continuous
 62
     7
370
    15
100
AcDbCircle
 10
284.1549403337
 20
102.6725899935
 30
0.0
 40
4.233333333333339
100
AcDbArc
 50
270.8185409071
 51
292.6585975982
  0
ARC
  5
2B7
330
1F
100
AcDbEntity
  8
0
  6
Continuous
 62
     7
370
    15
100
AcDbCircle
 10
248.4891070004
 20
108.8850462472
 30
0.0
 40
4.233333333333346
100
AcDbArc
 50
67.3414024018
 51
89.181459093
  0
ARC
  5
2B8
330
1F
100
AcDbEntity
  8
0
  6
Continuous
 62
     7
370
    15
100
AcDbCircle
 10
248.0808929996
 20
108.8850462472
 30
0.0
 40
4.233333333333346
100
AcDbArc
 50
90.818540907
 51
112.6585975982
  0
ARC
  5
2B9
330
1F
100
AcDbEntity
  8
0
  6
Continuous
 62
     7
370
    15
100
AcDbCircle
 10
248.0808929996
 20
81.3338692954
 30
0.0
 40
4.233333333333332
100
AcDbArc
 50
247.3414024018
 51
269.181459093
  0
ARC
  5
2BA
330
1F
100
AcDbEntity
  8
0
  6
Continuous
 62
     7
370
    15
100
AcDbCircle
 10
248.4891070004
 20
81.3338692954
 30
0.0
 40
4.233333333333332
100
AcDbArc
 50
270.818540907
 51
292.6585975982
  0
ARC
  5
2BB
330
1F
100
AcDbEntity
  8
0
  6
Continuous
 62
     7
370
    15
100
AcDbCircle
 10
248.4891070004
 20
66.2071815176
 30
0.0
 40
4.233333333333346
100
AcDbArc
 50
67.3414024018
 51
89.181459093
  0
ARC
  5
2BC
330
1F
100
AcDbEntity
  8
0
  6
Continuous
 62
     7
370
    15
100
AcDbCircle
 10
248.0808929996
 20
66.2071815176
 30
0.0
 40
4.233333333333346
100
AcDbArc
 50
90.818540907
 51
112.6585975982
  0
ARC
  5
2BD
330
1F
100
AcDbEntity
  8
0
  6
Continuous
 62
     7
370
    15
100
AcDbCircle
 10
212.4150596663
 20
102.6725899935
 30
0.0
 40
4.233333333333339
100
AcDbArc
 50
247.3414024018
 51
269.181459093
  0
ARC
  5
2BE
330
1F
100
AcDbEntity
  8
0
  6
Continuous
 62
     7
370
    15
100
AcDbCircle
 10
212.8232736671
 20
102.6725899935
 30
0.0
 40
4.233333333333339
100
AcDbArc
 50
270.818540907
 51
292.6585975982
  0
ARC
  5
2BF
330
1F
100
AcDbEntity
  8
0
  6
Continuous
 62
     7
370
    15
100
AcDbCircle
 10
212.8232736671
 20
87.5463255491
 30
0.0
 40
4.233333333333345
100
AcDbArc
 50
67.3414024018
 51
89.181459093
  0
ARC
  5
2C0
330
1F
100
AcDbEntity
  8
0
  6
Continuous
 62
     7
370
    15
100
AcDbCircle
 10
212.4150596663
 20
87.5463255491
 30
0.0
 40
4.233333333333352
100
AcDbArc
 50
90.818540907
 51
112.6585975982
  0
ARC
  5
2C1
330
1F
100
AcDbEntity
  8
0
  6
Continuous
 62
     7
370
    15
100
AcDbCircle
 10
205.0679583333
 20
94.9057741042
 30
0.0
 40
4.233333333333346
100
AcDbArc
 50
337.3414024018
 51
359.181459093
  0
ARC
  5
2C2
330
1F
100
AcDbEntity
  8
0
  6
Continuous
 62
     7
370
    15
100
AcDbCircle
 10
205.0679583333
 20
95.313988105
 30
0.0
 40
4.233333333333346
100
AcDbArc
 50
0.818540907
 51
22.6585975982
  0
ARC
  5
2C3
330
1F
100
AcDbEntity
  8
0
  6
Continuous
 62
     7
370
    15
100
AcDbCircle
 10
284.8327777778
 20
95.1098811046
 30
0.0
 40
2.469444444444467
100
AcDbArc
 50
213.3583445432
 51
215.6853347127
  0
ARC
  5
2C4
330
1F
100
AcDbEntity
  8
0
  6
Continuous
 62
     7
370
    15
100
AcDbCircle
 10
284.8327777778
 20
95.1098811046
 30
0.0
 40
2.469444444444482
100
AcDbArc
 50
186.1506398279
 51
201.1354901112
  0
ARC
  5
2C5
330
1F
100
AcDbEntity
  8
0
  6
Continuous
 62
     7
370
    15
100
AcDbCircle
 10
283.0688888889
 20
95.1098811046
 30
0.0
 40
2.469444444444461
100
AcDbArc
 50
324.3146652873
 51
353.9250060181
  0
ARC
  5
2C6
330
1F
100
AcDbEntity
  8
0
  6
Continuous
 62
     7
370
    15
100
AcDbCircle
 10
283.0688888889
 20
95.109034438
 30
0.0
 40
2.46944444444446
100
AcDbArc
 50
6.0927378997
 51
35.6853347127
  0
ARC
  5
2C7
330
1F
100
AcDbEntity
  8
0
  6
Continuous
 62
     7
370
    15
100
AcDbCircle
 10
284.8327777778
 20
95.109034438
 30
0.0
 40
2.469444444444438
100
AcDbArc
 50
158.8727165903
 51
173.829601803
  0
ARC
  5
2C8
330
1F
100
AcDbEntity
  8
0
  6
Continuous
 62
     7
370
    15
100
AcDbCircle
 10
284.8327777778
 20
95.109034438
 30
0.0
 40
2.469444444444461
100
AcDbArc
 50
144.3146652873
 51
146.6587638054
  0
ARC
  5
2C9
330
1F
100
AcDbEntity
  8
0
  6
Continuous
 62
     7
370
    15
100
AcDbCircle
 10
213.5011111111
 20
95.1098811046
 30
0.0
 40
2.469444444444468
100
AcDbArc
 50
186.0719158653
 51
215.6853347127
  0
ARC
  5
2CA
330
1F
100
AcDbEntity
  8
0
  6
Continuous
 62
     7
370
    15
100
AcDbCircle
 10
211.7372222222
 20
95.1098811046
 30
0.0
 40
2.469444444444464
100
AcDbArc
 50
338.8473578791
 51
353.8493601721
  0
ARC
  5
2CB
330
1F
100
AcDbEntity
  8
0
  6
Continuous
 62
     7
370
    15
100
AcDbCircle
 10
211.7372222222
 20
95.1098811046
 30
0.0
 40
2.46944444444446
100
AcDbArc
 50
324.3146652873
 51
326.6623255378
  0
ARC
  5
2CC
330
1F
100
AcDbEntity
  8
0
  6
Continuous
 62
     7
370
    15
100
AcDbCircle
 10
211.7372222222
 20
95.109034438
 30
0.0
 40
2.469444444444461
100
AcDbArc
 50
33.3373542072
 51
35.6853347127
  0
ARC
  5
2CD
330
1F
100
AcDbEntity
  8
0
  6
Continuous
 62
     7
370
    15
100
AcDbCircle
 10
211.7372222222
 20
95.109034438
 30
0.0
 40
2.469444444444477
100
AcDbArc
 50
6.170398197
 51
21.1602326287
  0
ARC
  5
2CE
330
1F
100
AcDbEntity
  8
0
  6
Continuous
 62
     7
370
    15
100
AcDbCircle
 10
213.5011111111
 20
95.109034438
 30
0.0
 40
2.46944444444446
100
AcDbArc
 50
144.3146652873
 51
173.9041890585
  0
ARC
  5
2CF
330
1F
100
AcDbEntity
  8
0
  6
Continuous
 62
     7
370
    15
100
AcDbCircle
 10
247.4030555556
 20
73.7703137399
 30
0.0
 40
2.469444444444459
100
AcDbArc
 50
0.0
 51
21.1710762091
  0
ARC
  5
2D0
330
1F
100
AcDbEntity
  8
0
  6
Continuous
 62
     7
370
    15
100
AcDbCircle
 10
249.1669444444
 20
73.7703137399
 30
0.0
 40
2.469444444444445
100
AcDbArc
 50
158.8559876095
 51
180.0
  0
ARC
  5
2D1
330
1F
100
AcDbEntity
  8
0
  6
Continuous
 62
     7
370
    15
100
AcDbCircle
 10
249.1669444444
 20
116.4486018027
 30
0.0
 40
2.469444444444469
100
AcDbArc
 50
180.0098221337
 51
201.194465055
  0
ARC
  5
2D2
330
1F
100
AcDbEntity
  8
0
  6
Continuous
 62
     7
370
    15
100
AcDbCircle
 10
247.4030555556
 20
116.4486018027
 30
0.0
 40
2.469444444444443
100
AcDbArc
 50
338.8167190953
 51
359.9901778663
  0
ARC
  5
2D3
330
1F
100
AcDbEntity
  8
0
  6
Continuous
 62
     7
370
    15
100
AcDbCircle
 10
249.1669444444
 20
73.7707370732
 30
0.0
 40
2.469444444444465
100
AcDbArc
 50
180.0098221337
 51
215.6853347127
  0
ARC
  5
2D4
330
1F
100
AcDbEntity
  8
0
  6
Continuous
 62
     7
370
    15
100
AcDbCircle
 10
247.4030555556
 20
73.7707370732
 30
0.0
 40
2.469444444444437
100
AcDbArc
 50
324.3146652873
 51
359.9901778663
  0
ARC
  5
2D5
330
1F
100
AcDbEntity
  8
0
  6
Continuous
 62
     7
370
    15
100
AcDbCircle
 10
247.4030555556
 20
116.4481784694
 30
0.0
 40
2.469444444444437
100
AcDbArc
 50
0.0
 51
35.6853347127
  0
ARC
  5
2D6
330
1F
100
AcDbEntity
  8
0
  6
Continuous
 62
     7
370
    15
100
AcDbCircle
 10
249.1669444444
 20
116.4481784694
 30
0.0
 40
2.469444444444437
100
AcDbArc
 50
144.3146652873
 51
180.0
  0
ARC
  5
2D7
330
1F
100
AcDbEntity
  8
0
  6
Continuous
 62
     7
370
    15
100
AcDbCircle
 10
284.7881151136
 20
96.3437566602
 30
0.0
 40
0.3527777777777955
100
AcDbArc
 50
35.6853347127
 51
90.0
  0
ARC
  5
2D8
330
1F
100
AcDbEntity
  8
0
  6
Continuous
 62
     7
370
    15
100
AcDbCircle
 10
283.1135515531
 20
96.3437566602
 30
0.0
 40
0.3527777777777955
100
AcDbArc
 50
90.0
 51
144.3146652873
  0
ARC
  5
2D9
330
1F
100
AcDbEntity
  8
0
  6
Continuous
 62
     7
370
    15
100
AcDbCircle
 10
283.1135515531
 20
93.8751588824
 30
0.0
 40
0.3527777777777885
100
AcDbArc
 50
215.6853347127
 51
270.0
  0
ARC
  5
2DA
330
1F
100
AcDbEntity
  8
0
  6
Continuous
 62
     7
370
    15
100
AcDbCircle
 10
284.7881151136
 20
93.8751588824
 30
0.0
 40
0.3527777777777955
100
AcDbArc
 50
270.0
 51
324.3146652874
  0
ARC
  5
2DB
330
1F
100
AcDbEntity
  8
0
  6
Continuous
 62
     7
370
    15
100
AcDbCircle
 10
211.7818848864
 20
93.8751588824
 30
0.0
 40
0.3527777777777955
100
AcDbArc
 50
215.6853347127
 51
270.0
  0
ARC
  5
2DC
330
1F
100
AcDbEntity
  8
0
  6
Continuous
 62
     7
370
    15
100
AcDbCircle
 10
213.4564484469
 20
93.8751588824
 30
0.0
 40
0.3527777777777955
100
AcDbArc
 50
270.0
 51
324.3146652874
  0
ARC
  5
2DD
330
1F
100
AcDbEntity
  8
0
  6
Continuous
 62
     7
370
    15
100
AcDbCircle
 10
249.1222817803
 20
117.6829006916
 30
0.0
 40
0.3527777777777955
100
AcDbArc
 50
35.6853347127
 51
90.0
  0
ARC
  5
2DE
330
1F
100
AcDbEntity
  8
0
  6
Continuous
 62
     7
370
    15
100
AcDbCircle
 10
247.4477182197
 20
117.6829006916
 30
0.0
 40
0.3527777777777743
100
AcDbArc
 50
90.0
 51
144.3146652873
  0
ARC
  5
2DF
330
1F
100
AcDbEntity
  8
0
  6
Continuous
 62
     7
370
    15
100
AcDbCircle
 10
247.4477182197
 20
72.536014851
 30
0.0
 40
0.3527777777777885
100
AcDbArc
 50
215.6853347127
 51
270.0
  0
ARC
  5
2E0
330
1F
100
AcDbEntity
  8
0
  6
Continuous
 62
     7
370
    15
100
AcDbCircle
 10
249.1222817803
 20
72.536014851
 30
0.0
 40
0.3527777777778038
100
AcDbArc
 50
270.0
 51
324.3146652873
  0
ARC
  5
2E1
330
1F
100
AcDbEntity
  8
0
  6
Continuous
 62
     7
370
    15
100
AcDbCircle
 10
213.4564484469
 20
96.3437566602
 30
0.0
 40
0.3527777777777955
100
AcDbArc
 50
35.6853347127
 51
90.0
  0
ARC
  5
2E2
330
1F
100
AcDbEntity
  8
0
  6
Continuous
 62
     7
370
    15
100
AcDbCircle
 10
211.7818848864
 20
96.3437566602
 30
0.0
 40
0.3527777777777955
100
AcDbArc
 50
90.0
 51
144.3146652873
  0
LINE
  5
2E3
330
1F
100
AcDbEntity
  8
0
  6
Continuous
 62
     7
370
    15
100
AcDbLine
 10
248.6377777735
 20
118.035678284
 30
0.0
 11
248.6377777735
 21
149.0801229224
 31
0.0
  0
LINE
  5
2E4
330
1F
100
AcDbEntity
  8
0
  6
Continuous
 62
     7
370
    15
100
AcDbLine
 10
247.9322222265
 20
149.0801229224
 30
0.0
 11
247.9322222265
 21
118.035678284
 31
0.0
  0
LINE
  5
2E5
330
1F
100
AcDbEntity
  8
0
  6
Continuous
 62
     7
370
    15
100
AcDbLine
 10
282.7721117009
 20
96.469029006
 30
0.0
 11
270.6977918482
 21
103.4401399062
 31
0.0
  0
LINE
  5
2E6
330
1F
100
AcDbEntity
  8
0
  6
Continuous
 62
     7
370
    15
100
AcDbLine
 10
263.9821530782
 20
107.3174154261
 30
0.0
 11
249.7067545589
 21
115.5593205325
 31
0.0
  0
LINE
  5
2E7
330
1F
100
AcDbEntity
  8
0
  6
Continuous
 62
     7
370
    15
100
AcDbLine
 10
249.514188405
 20
115.0594693587
 30
0.0
 11
263.4691508018
 21
107.0025704469
 31
0.0
  0
LINE
  5
2E8
330
1F
100
AcDbEntity
  8
0
  6
Continuous
 62
     7
370
    15
100
AcDbLine
 10
270.681625744
 20
102.8384442627
 30
0.0
 11
282.5290373368
 21
95.9983377489
 31
0.0
  0
LINE
  5
2E9
330
1F
100
AcDbEntity
  8
0
  6
Continuous
 62
     7
370
    15
100
AcDbLine
 10
214.0409394836
 20
95.9983278148
 30
0.0
 11
225.888374256
 21
102.8384442627
 31
0.0
  0
LINE
  5
2EA
330
1F
100
AcDbEntity
  8
0
  6
Continuous
 62
     7
370
    15
100
AcDbLine
 10
233.1008491982
 20
107.0025704469
 30
0.0
 11
247.055811595
 21
115.0594693587
 31
0.0
  0
LINE
  5
2EB
330
1F
100
AcDbEntity
  8
0
  6
Continuous
 62
     7
370
    15
100
AcDbLine
 10
246.8632518569
 20
115.5593238439
 30
0.0
 11
232.5878469218
 21
107.3174154261
 31
0.0
  0
LINE
  5
2EC
330
1F
100
AcDbEntity
  8
0
  6
Continuous
 62
     7
370
    15
100
AcDbLine
 10
225.8722081518
 20
103.4401399062
 30
0.0
 11
213.7978684309
 21
96.4690190718
 31
0.0
  0
LINE
  5
2ED
330
1F
100
AcDbEntity
  8
0
  6
Continuous
 62
     7
370
    15
100
AcDbLine
 10
213.7978717422
 20
93.7498949136
 30
0.0
 11
225.8722081518
 21
86.7787740793
 31
0.0
  0
LINE
  5
2EE
330
1F
100
AcDbEntity
  8
0
  6
Continuous
 62
     7
370
    15
100
AcDbLine
 10
232.5878469218
 20
82.9014985594
 30
0.0
 11
246.8632164666
 21
74.6596133211
 31
0.0
  0
LINE
  5
2EF
330
1F
100
AcDbEntity
  8
0
  6
Continuous
 62
     7
370
    15
100
AcDbLine
 10
247.055811595
 20
75.1594446268
 30
0.0
 11
233.1008491982
 21
83.2163435385
 31
0.0
  0
LINE
  5
2F0
330
1F
100
AcDbEntity
  8
0
  6
Continuous
 62
     7
370
    15
100
AcDbLine
 10
225.888374256
 20
87.3804697228
 30
0.0
 11
214.040942795
 21
94.2205861707
 31
0.0
  0
LINE
  5
2F1
330
1F
100
AcDbEntity
  8
0
  6
Continuous
 62
     7
370
    15
100
AcDbLine
 10
282.5290406481
 20
94.2205795479
 30
0.0
 11
270.681625744
 21
87.3804697228
 31
0.0
  0
LINE
  5
2F2
330
1F
100
AcDbEntity
  8
0
  6
Continuous
 62
     7
370
    15
100
AcDbLine
 10
263.4691508018
 20
83.2163435385
 30
0.0
 11
249.514188405
 21
75.1594446268
 31
0.0
  0
LINE
  5
2F3
330
1F
100
AcDbEntity
  8
0
  6
Continuous
 62
     7
370
    15
100
AcDbLine
 10
249.7067663556
 20
74.6596000757
 30
0.0
 11
263.9821530782
 21
82.9014985594
 31
0.0
  0
LINE
  5
2F4
330
1F
100
AcDbEntity
  8
0
  6
Continuous
 62
     7
370
    15
100
AcDbLine
 10
270.6977918482
 20
86.7787740793
 30
0.0
 11
282.7720256053
 21
93.749835309
 31
0.0
  0
LINE
  5
2F5
330
1F
100
AcDbEntity
  8
0
  6
Continuous
 62
     7
370
    15
100
AcDbLine
 10
287.2691397603
 20
95.3744658661
 30
0.0
 11
285.5238296657
 21
95.3744658661
 31
0.0
  0
LINE
  5
2F6
330
1F
100
AcDbEntity
  8
0
  6
Continuous
 62
     7
370
    15
100
AcDbLine
 10
285.5239157613
 20
94.8452991412
 30
0.0
 11
287.2691397603
 21
94.8452991412
 31
0.0
  0
LINE
  5
2F7
330
1F
100
AcDbEntity
  8
0
  6
Continuous
 62
     7
370
    15
100
AcDbLine
 10
284.2154183059
 20
91.7792262798
 30
0.0
 11
284.2154183059
 21
93.5223839845
 31
0.0
  0
LINE
  5
2F8
330
1F
100
AcDbEntity
  8
0
  6
Continuous
 62
     7
370
    15
100
AcDbLine
 10
283.686251581
 20
93.5223839845
 30
0.0
 11
283.686251581
 21
91.7792262798
 31
0.0
  0
LINE
  5
2F9
330
1F
100
AcDbEntity
  8
0
  6
Continuous
 62
     7
370
    15
100
AcDbLine
 10
283.686251581
 20
98.4396877056
 30
0.0
 11
283.686251581
 21
96.6965333123
 31
0.0
  0
LINE
  5
2FA
330
1F
100
AcDbEntity
  8
0
  6
Continuous
 62
     7
370
    15
100
AcDbLine
 10
284.2154183059
 20
96.6965333123
 30
0.0
 11
284.2154183059
 21
98.4396877056
 31
0.0
  0
LINE
  5
2FB
330
1F
100
AcDbEntity
  8
0
  6
Continuous
 62
     7
370
    15
100
AcDbLine
 10
248.5495833366
 20
113.1179473962
 30
0.0
 11
248.5495833366
 21
114.8611017895
 31
0.0
  0
LINE
  5
2FC
330
1F
100
AcDbEntity
  8
0
  6
Continuous
 62
     7
370
    15
100
AcDbLine
 10
248.0204166634
 20
114.8611017895
 30
0.0
 11
248.0204166634
 21
113.1179473962
 31
0.0
  0
LINE
  5
2FD
330
1F
100
AcDbEntity
  8
0
  6
Continuous
 62
     7
370
    15
100
AcDbLine
 10
248.0204166634
 20
77.1009665892
 30
0.0
 11
248.0204166634
 21
75.3578155073
 31
0.0
  0
LINE
  5
2FE
330
1F
100
AcDbEntity
  8
0
  6
Continuous
 62
     7
370
    15
100
AcDbLine
 10
248.5495833366
 20
75.3578155073
 30
0.0
 11
248.5495833366
 21
77.1009665892
 31
0.0
  0
LINE
  5
2FF
330
1F
100
AcDbEntity
  8
0
  6
Continuous
 62
     7
370
    15
100
AcDbLine
 10
248.5495833366
 20
70.4400813082
 30
0.0
 11
248.5495833366
 21
72.1832390129
 31
0.0
  0
LINE
  5
300
330
1F
100
AcDbEntity
  8
0
  6
Continuous
 62
     7
370
    15
100
AcDbLine
 10
248.0204166634
 20
72.1832390129
 30
0.0
 11
248.0204166634
 21
70.4400813082
 31
0.0
  0
LINE
  5
301
330
1F
100
AcDbEntity
  8
0
  6
Continuous
 62
     7
370
    15
100
AcDbLine
 10
212.3545816941
 20
98.4396877056
 30
0.0
 11
212.3545816941
 21
96.6965333123
 31
0.0
  0
LINE
  5
302
330
1F
100
AcDbEntity
  8
0
  6
Continuous
 62
     7
370
    15
100
AcDbLine
 10
212.883748419
 20
96.6965333123
 30
0.0
 11
212.883748419
 21
98.4396877056
 31
0.0
  0
LINE
  5
303
330
1F
100
AcDbEntity
  8
0
  6
Continuous
 62
     7
370
    15
100
AcDbLine
 10
212.883748419
 20
91.7792262798
 30
0.0
 11
212.883748419
 21
93.5223839845
 31
0.0
  0
LINE
  5
304
330
1F
100
AcDbEntity
  8
0
  6
Continuous
 62
     7
370
    15
100
AcDbLine
 10
212.3545816941
 20
93.5223839845
 30
0.0
 11
212.3545816941
 21
91.7792262798
 31
0.0
  0
LINE
  5
305
330
1F
100
AcDbEntity
  8
0
  6
Continuous
 62
     7
370
    15
100
AcDbLine
 10
209.3008602397
 20
94.8452991412
 30
0.0
 11
211.0460842387
 21
94.8452991412
 31
0.0
  0
LINE
  5
306
330
1F
100
AcDbEntity
  8
0
  6
Continuous
 62
     7
370
    15
100
AcDbLine
 10
211.0461703343
 20
95.3744658661
 30
0.0
 11
209.3008602397
 21
95.3744658661
 31
0.0
  0
LINE
  5
307
330
1F
100
AcDbEntity
  8
0
  6
Continuous
 62
     7
370
    15
100
AcDbLine
 10
269.0106939676
 20
90.5449399186
 30
0.0
 11
263.2251393202
 21
90.5449399186
 31
0.0
  0
LINE
  5
308
330
1F
100
AcDbEntity
  8
0
  6
Continuous
 62
     7
370
    15
100
AcDbLine
 10
265.9841141505
 20
99.6739773783
 30
0.0
 11
269.0106939676
 21
99.6739773783
 31
0.0
  0
LINE
  5
309
330
1F
100
AcDbEntity
  8
0
  6
Continuous
 62
     7
370
    15
100
AcDbLine
 10
263.2251393202
 20
99.6739773783
 30
0.0
 11
265.9841141505
 21
99.6739773783
 31
0.0
  0
LINE
  5
30A
330
1F
100
AcDbEntity
  8
0
  6
Continuous
 62
     7
370
    15
100
AcDbLine
 10
227.8826446735
 20
99.6739773783
 30
0.0
 11
233.3448606798
 21
99.6739773783
 31
0.0
  0
LINE
  5
30B
330
1F
100
AcDbEntity
  8
0
  6
Continuous
 62
     7
370
    15
100
AcDbLine
 10
227.5593060324
 20
99.6739773783
 30
0.0
 11
227.8826446735
 21
99.6739773783
 31
0.0
  0
LINE
  5
30C
330
1F
100
AcDbEntity
  8
0
  6
Continuous
 62
     7
370
    15
100
AcDbLine
 10
233.3448606798
 20
90.5449399186
 30
0.0
 11
227.5593060324
 21
90.5449399186
 31
0.0
  0
LINE
  5
30D
330
1F
100
AcDbEntity
  8
0
  6
Continuous
 62
     7
370
    15
100
AcDbLine
 10
265.8533332814
 20
91.7792262798
 30
0.0
 11
266.3825000064
 21
91.7792262798
 31
0.0
  0
LINE
  5
30E
330
1F
100
AcDbEntity
  8
0
  6
Continuous
 62
     7
370
    15
100
AcDbLine
 10
266.3825000064
 20
98.4396877056
 30
0.0
 11
265.8533332814
 21
98.4396877056
 31
0.0
  0
LINE
  5
30F
330
1F
100
AcDbEntity
  8
0
  6
Continuous
 62
     7
370
    15
100
AcDbLine
 10
230.7166667186
 20
98.4396877056
 30
0.0
 11
230.1874999936
 21
98.4396877056
 31
0.0
  0
LINE
  5
310
330
1F
100
AcDbEntity
  8
0
  6
Continuous
 62
     7
370
    15
100
AcDbLine
 10
230.1874999936
 20
91.7792262798
 30
0.0
 11
230.7166667186
 21
91.7792262798
 31
0.0
  0
SPLINE
  5
311
330
1F
100
AcDbEntity
  8
0
  6
Continuous
 62
     7
370
    15
100
AcDbSpline
210
0.0
220
0.0
230
1.0
 70
     8
 71
     3
 72
    13
 73
     9
 74
     0
 42
0.000000001
 43
0.00000001
 40
0.0
 40
0.0
 40
0.0
 40
0.0
 40
0.0715632411249842
 40
0.2857814171071915
 40
0.5001436647701797
 40
0.7148413956777774
 40
0.9295482704497352
 40
1.0
 40
1.0
 40
1.0
 40
1.0
 10
264.5449219216241
 20
95.37113131740274
 30
0.0
 10
264.5448668459348
 20
95.37205768606006
 30
0.0
 10
264.5446469060851
 20
95.37575705662366
 30
0.0
 10
264.5461008223341
 20
95.3515243287217
 30
0.0
 10
264.548679269643
 20
95.300820513055
 30
0.0
 10
264.5513537255961
 20
95.22659383643449
 30
0.0
 10
264.5525386501176
 20
95.15896131425659
 30
0.0
 10
264.5526045689083
 20
95.11960442293783
 30
0.0
 10
264.5526208549076
 20
95.10988084798305
 30
0.0
  0
LINE
  5
312
330
1F
100
AcDbEntity
  8
0
  6
Continuous
 62
     7
370
    15
100
AcDbLine
 10
264.5526208549
 20
95.109880848
 30
0.0
 11
264.5526208549
 21
95.1090331375
 31
0.0
  0
SPLINE
  5
313
330
1F
100
AcDbEntity
  8
0
  6
Continuous
 62
     7
370
    15
100
AcDbSpline
210
0.0
220
0.0
230
1.0
 70
     8
 71
     3
 72
    12
 73
     8
 74
     0
 42
0.000000001
 43
0.00000001
 40
0.0
 40
0.0
 40
0.0
 40
0.0
 40
0.2129969593604577
 40
0.4280399494324403
 40
0.6433268311806329
 40
0.8587773146032971
 40
0.9999999999999999
 40
0.9999999999999999
 40
0.9999999999999999
 40
0.9999999999999999
 10
264.5526208549076
 20
95.10903313747959
 30
0.0
 10
264.552438677617
 20
95.07962415200181
 30
0.0
 10
264.5520725730565
 20
95.0205236808281
 30
0.0
 10
264.5495435172335
 20
94.9413988569304
 30
0.0
 10
264.5467965735064
 20
94.88210661134804
 30
0.0
 10
264.5448241633288
 20
94.8484430672103
 30
0.0
 10
264.5448313319623
 20
94.84861283179275
 30
0.0
 10
264.5448341703415
 20
94.84868004910068
 30
0.0
  0
LINE
  5
314
330
1F
100
AcDbEntity
  8
0
  6
Continuous
 62
     7
370
    15
100
AcDbLine
 10
232.0173791451
 20
95.1090331375
 30
0.0
 11
232.0173791451
 21
95.109880848
 31
0.0
  0
SPLINE
  5
315
330
1F
100
AcDbEntity
  8
0
  6
Continuous
 62
     7
370
    15
100
AcDbSpline
210
0.0
220
0.0
230
1.0
 70
     8
 71
     3
 72
    13
 73
     9
 74
     0
 42
0.000000001
 43
0.00000001
 40
0.0
 40
0.0
 40
0.0
 40
0.0
 40
0.0737448865781804
 40
0.288405195412017
 40
0.5032068162187106
 40
0.7183556544255715
 40
0.9335045720135728
 40
1.0
 40
1.0
 40
1.0
 40
1.0
 10
232.0251658296585
 20
94.84867673773152
 30
0.0
 10
232.0252215981331
 20
94.84775018323216
 30
0.0
 10
232.0254397002766
 20
94.84412656749625
 30
0.0
 10
232.0239623529365
 20
94.86859408358937
 30
0.0
 10
232.0213598889151
 20
94.91955751748887
 30
0.0
 10
232.018664528708
 20
94.9939490070611
 30
0.0
 10
232.0174807805522
 20
95.06109018486023
 30
0.0
 10
232.0173985576787
 20
95.09987593282942
 30
0.0
 10
232.0173791450924
 20
95.10903313747959
 30
0.0
  0
SPLINE
  5
316
330
1F
100
AcDbEntity
  8
0
  6
Continuous
 62
     7
370
    15
100
AcDbSpline
210
0.0
220
0.0
230
1.0
 70
     8
 71
     3
 72
    12
 73
     8
 74
     0
 42
0.000000001
 43
0.00000001
 40
0.0
 40
0.0
 40
0.0
 40
0.0
 40
0.2125726497890122
 40
0.4271727048918766
 40
0.6420190659488425
 40
0.8570322813166825
 40
1.0
 40
1.0
 40
1.0
 40
1.0
 10
232.0173791450924
 20
95.10988084798305
 30
0.0
 10
232.0175461652696
 20
95.13930016703739
 30
0.0
 10
232.0178817985737
 20
95.19841939102506
 30
0.0
 10
232.0203695661114
 20
95.27768583855757
 30
0.0
 10
232.0230998455573
 20
95.33720981562738
 30
0.0
 10
232.025078322217
 20
95.37117428854135
 30
0.0
 10
232.0250781479667
 20
95.37114121478166
 30
0.0
 10
232.0250780783759
 20
95.37112800603359
 30
0.0
  0
LINE
  5
317
330
1F
100
AcDbEntity
  8
0
  6
Continuous
 62
     7
370
    15
100
AcDbLine
 10
265.3928095833
 20
96.6965333123
 30
0.0
 11
265.8883443875
 21
96.6965333123
 31
0.0
  0
LINE
  5
318
330
1F
100
AcDbEntity
  8
0
  6
Continuous
 62
     7
370
    15
100
AcDbLine
 10
265.2806352976
 20
96.6965333123
 30
0.0
 11
265.3928095833
 21
96.6965333123
 31
0.0
  0
LINE
  5
319
330
1F
100
AcDbEntity
  8
0
  6
Continuous
 62
     7
370
    15
100
AcDbLine
 10
230.6816556125
 20
96.6965333123
 30
0.0
 11
231.2893647024
 21
96.6965333123
 31
0.0
  0
LINE
  5
31A
330
1F
100
AcDbEntity
  8
0
  6
Continuous
 62
     7
370
    15
100
AcDbLine
 10
265.8886573119
 20
93.5223839845
 30
0.0
 11
265.2806352976
 21
93.5223839845
 31
0.0
  0
LINE
  5
31B
330
1F
100
AcDbEntity
  8
0
  6
Continuous
 62
     7
370
    15
100
AcDbLine
 10
231.1771904167
 20
93.5223839845
 30
0.0
 11
230.6813426881
 21
93.5223839845
 31
0.0
  0
LINE
  5
31C
330
1F
100
AcDbEntity
  8
0
  6
Continuous
 62
     7
370
    15
100
AcDbLine
 10
231.2893647024
 20
93.5223839845
 30
0.0
 11
231.1771904167
 21
93.5223839845
 31
0.0
  0
SPLINE
  5
31D
330
1F
100
AcDbEntity
  8
0
  6
Continuous
 62
     7
370
    15
100
AcDbSpline
210
0.0
220
0.0
230
1.0
 70
     8
 71
     3
 72
    17
 73
    13
 74
     0
 42
0.000000001
 43
0.00000001
 40
0.0
 40
0.0
 40
0.0
 40
0.0
 40
0.0610847210285887
 40
0.1688095710540381
 40
0.2766192353567639
 40
0.3840490182630379
 40
0.4911979473717024
 40
0.5983602320018733
 40
0.7056367905841618
 40
0.8129426903773813
 40
0.9202298140768606
 40
1.0
 40
1.0
 40
1.0
 40
1.0
 10
247.8298193512857
 20
115.1504690944345
 30
0.0
 10
247.8389895121737
 20
115.1603198765406
 30
0.0
 10
247.8643315436989
 20
115.1875428264676
 30
0.0
 10
247.8791345550405
 20
115.2517731526132
 30
0.0
 10
247.8721655645662
 20
115.331137476777
 30
0.0
 10
247.8368528031507
 20
115.4099606255757
 30
0.0
 10
247.7788459180489
 20
115.4784329276104
 30
0.0
 10
247.7047982624715
 20
115.5296799356794
 30
0.0
 10
247.6232244450094
 20
115.5586033811746
 30
0.0
 10
247.5444766681739
 20
115.5613721199743
 30
0.0
 10
247.4800753376612
 20
115.5426389822566
 30
0.0
 10
247.4538056889756
 20
115.5139595024583
 30
0.0
 10
247.4426030539969
 20
115.5017292002034
 30
0.0
  0
SPLINE
  5
31E
330
1F
100
AcDbEntity
  8
0
  6
Continuous
 62
     7
370
    15
100
AcDbSpline
210
0.0
220
0.0
230
1.0
 70
     8
 71
     3
 72
    17
 73
    13
 74
     0
 42
0.000000001
 43
0.00000001
 40
0.0
 40
0.0
 40
0.0
 40
0.0
 40
0.0987817167760788
 40
0.2060956632261352
 40
0.3134049642513469
 40
0.4207049578794387
 40
0.5280245153439912
 40
0.6353041536394313
 40
0.7424634182167733
 40
0.8496395488888858
 40
0.9571314132070826
 40
0.9999999999999999
 40
0.9999999999999999
 40
0.9999999999999999
 40
0.9999999999999999
 10
249.1286866725484
 20
115.5029544067904
 30
0.0
 10
249.113744515797
 20
115.5171082849295
 30
0.0
 10
249.0825695797238
 20
115.5466385765412
 30
0.0
 10
249.0121533365235
 20
115.5628305133382
 30
0.0
 10
248.9321640093351
 20
115.5552639623495
 30
0.0
 10
248.851214855641
 20
115.522090355891
 30
0.0
 10
248.7793449318661
 20
115.4672521534919
 30
0.0
 10
248.7250511965408
 20
115.3964325759855
 30
0.0
 10
248.6944046975541
 20
115.3168444169373
 30
0.0
 10
248.6926366973125
 20
115.2387766415611
 30
0.0
 10
248.7092754080711
 20
115.1798883578821
 30
0.0
 10
248.7332171903664
 20
115.1570860539037
 30
0.0
 10
248.7400431234141
 20
115.1505849923549
 30
0.0
  0
SPLINE
  5
31F
330
1F
100
AcDbEntity
  8
0
  6
Continuous
 62
     7
370
    15
100
AcDbSpline
210
0.0
220
0.0
230
1.0
 70
     8
 71
     3
 72
    17
 73
    13
 74
     0
 42
0.000000001
 43
0.00000001
 40
0.0
 40
0.0
 40
0.0
 40
0.0
 40
0.0835279884161126
 40
0.1913292385054033
 40
0.29908305887298
 40
0.4064337898644157
 40
0.5135616447619032
 40
0.6207512048583743
 40
0.7280434362409057
 40
0.8353468000041113
 40
0.9426340847150121
 40
1.0
 40
1.0
 40
1.0
 40
1.0
 10
247.8305328478581
 20
75.06927604468581
 30
0.0
 10
247.8420667743725
 20
75.0548505471797
 30
0.0
 10
247.8684863903457
 20
75.02180749771516
 30
0.0
 10
247.8800641721121
 20
74.95100957762564
 30
0.0
 10
247.8669599225229
 20
74.87093634226241
 30
0.0
 10
247.8264817974687
 20
74.793615154771
 30
0.0
 10
247.7644721135298
 20
74.7281839932865
 30
0.0
 10
247.6881678359443
 20
74.68127163086325
 30
0.0
 10
247.6061678725213
 20
74.65742499547746
 30
0.0
 10
247.5293085543809
 20
74.6603276196611
 30
0.0
 10
247.4717160568856
 20
74.68124636419532
 30
0.0
 10
247.4506765957581
 20
74.70825745845366
 30
0.0
 10
247.4433463528918
 20
74.71766824515578
 30
0.0
  0
SPLINE
  5
320
330
1F
100
AcDbEntity
  8
0
  6
Continuous
 62
     7
370
    15
100
AcDbSpline
210
0.0
220
0.0
230
1.0
 70
     8
 71
     3
 72
    17
 73
    13
 74
     0
 42
0.000000001
 43
0.00000001
 40
0.0
 40
0.0
 40
0.0
 40
0.0
 40
0.1066008209852732
 40
0.213925107940749
 40
0.3212414127092885
 40
0.4285519318638887
 40
0.5358822510568075
 40
0.6431631713791104
 40
0.7503284668368404
 40
0.8575202981588421
 40
0.9650562504834451
 40
1.0
 40
1.0
 40
1.0
 40
1.0
 10
249.1293608983523
 20
74.71522445471999
 30
0.0
 10
249.1127662050212
 20
74.70041077732776
 30
0.0
 10
249.0794641954374
 20
74.67068288681206
 30
0.0
 10
249.0065253764242
 20
74.65573430407362
 30
0.0
 10
248.9261229071843
 20
74.66525828987386
 30
0.0
 10
248.8455315153993
 20
74.7001585962919
 30
0.0
 10
248.7746678819909
 20
74.7564025000296
 30
0.0
 10
248.7219544468741
 20
74.82810515592978
 30
0.0
 10
248.6932131561801
 20
74.90802029347736
 30
0.0
 10
248.6936392463009
 20
74.98556356829103
 30
0.0
 10
248.7109006456398
 20
75.04229978858648
 30
0.0
 10
248.7340877940985
 20
75.06333547138532
 30
0.0
 10
248.7397745403316
 20
75.0684945615654
 30
0.0
  0
SPLINE
  5
321
330
1F
100
AcDbEntity
  8
0
  6
Continuous
 62
     7
370
    15
100
AcDbSpline
210
0.0
220
0.0
230
1.0
 70
     8
 71
     3
 72
    13
 73
     9
 74
     0
 42
0.000000001
 43
0.00000001
 40
0.0
 40
0.0
 40
0.0
 40
0.0
 40
0.0710632447774668
 40
0.2853982250771624
 40
0.4998789593719115
 40
0.71468656583161
 40
0.9295102965855948
 40
0.9999999999999999
 40
0.9999999999999999
 40
0.9999999999999999
 40
0.9999999999999999
 10
283.1644990115695
 20
95.37114125151021
 30
0.0
 10
283.1729596701558
 20
95.37205969716874
 30
0.0
 10
283.2069386553691
 20
95.37574828135308
 30
0.0
 10
283.2662568684406
 20
95.35151735482575
 30
0.0
 10
283.3314198123222
 20
95.30082410660684
 30
0.0
 10
283.3778945636468
 20
95.22659148521261
 30
0.0
 10
283.3958315787872
 20
95.1589615969012
 30
0.0
 10
283.3970262264518
 20
95.11960444811234
 30
0.0
 10
283.3973213768005
 20
95.10988084798305
 30
0.0
  0
LINE
  5
322
330
1F
100
AcDbEntity
  8
0
  6
Continuous
 62
     7
370
    15
100
AcDbLine
 10
283.3973213768
 20
95.109880848
 30
0.0
 11
283.3973213768
 21
95.1090331375
 31
0.0
  0
SPLINE
  5
323
330
1F
100
AcDbEntity
  8
0
  6
Continuous
 62
     7
370
    15
100
AcDbSpline
210
0.0
220
0.0
230
1.0
 70
     8
 71
     3
 72
    12
 73
     8
 74
     0
 42
0.000000001
 43
0.00000001
 40
0.0
 40
0.0
 40
0.0
 40
0.0
 40
0.2128588162205332
 40
0.4277623129609023
 40
0.6429093672106946
 40
0.8582247948864419
 40
1.0
 40
1.0
 40
1.0
 40
1.0
 10
283.3973213768005
 20
95.10903313747959
 30
0.0
 10
283.3946670828834
 20
95.0796240607387
 30
0.0
 10
283.3893329984163
 20
95.02052340936756
 30
0.0
 10
283.3487899109211
 20
94.94139999849243
 30
0.0
 10
283.2893140367861
 20
94.88210200146844
 30
0.0
 10
283.224020980423
 20
94.84841789294686
 30
0.0
 10
283.1811541285007
 20
94.84859606444003
 30
0.0
 10
283.1641347609626
 20
94.84866680362406
 30
0.0
  0
SPLINE
  5
324
330
1F
100
AcDbEntity
  8
0
  6
Continuous
 62
     7
370
    15
100
AcDbSpline
210
0.0
220
0.0
230
1.0
 70
     8
 71
     3
 72
    13
 73
     9
 74
     0
 42
0.000000001
 43
0.00000001
 40
0.0
 40
0.0
 40
0.0
 40
0.0
 40
0.0732687675917152
 40
0.2880362843718677
 40
0.5029512566975706
 40
0.7182091111209827
 40
0.9334698218105296
 40
1.0
 40
1.0
 40
1.0
 40
1.0
 10
213.4055506589677
 20
94.84866680362406
 30
0.0
 10
213.3968416118512
 20
94.84774806609073
 30
0.0
 10
213.3626043555913
 20
94.84413629870186
 30
0.0
 10
213.3031012821259
 20
94.86860060285422
 30
0.0
 10
213.2380683018466
 20
94.91955503006879
 30
0.0
 10
213.1917868845564
 20
94.99395015608282
 30
0.0
 10
213.174197443879
 20
95.06109024055048
 30
0.0
 10
213.1729687216747
 20
95.09987592656938
 30
0.0
 10
213.1726786231994
 20
95.10903313747959
 30
0.0
  0
LINE
  5
325
330
1F
100
AcDbEntity
  8
0
  6
Continuous
 62
     7
370
    15
100
AcDbLine
 10
213.1726786232
 20
95.1090331375
 30
0.0
 11
213.1726786232
 21
95.109880848
 31
0.0
  0
SPLINE
  5
326
330
1F
100
AcDbEntity
  8
0
  6
Continuous
 62
     7
370
    15
100
AcDbSpline
210
0.0
220
0.0
230
1.0
 70
     8
 71
     3
 72
    12
 73
     8
 74
     0
 42
0.000000001
 43
0.00000001
 40
0.0
 40
0.0
 40
0.0
 40
0.0
 40
0.2124273919713196
 40
0.426883944602433
 40
0.6415849848021488
 40
0.8564538746258872
 40
1.0
 40
1.0
 40
1.0
 40
1.0
 10
213.1726786231994
 20
95.10988084798305
 30
0.0
 10
213.1752425992046
 20
95.13930036483792
 30
0.0
 10
213.1803950429679
 20
95.19842042128056
 30
0.0
 10
213.220699817348
 20
95.277684366322
 30
0.0
 10
213.2799976036233
 20
95.33721391143945
 30
0.0
 10
213.3454366205863
 20
95.37120186470534
 30
0.0
 10
213.3885584225791
 20
95.37115858510161
 30
0.0
 10
213.4058288139767
 20
95.37114125151021
 30
0.0
  0
LINE
  5
327
330
1F
100
AcDbEntity
  8
0
  6
Continuous
 62
     7
370
    15
100
AcDbLine
 10
251.8127778904
 20
149.0801229224
 30
0.0
 11
244.7572221096
 21
149.0801229224
 31
0.0
  0
LINE
  5
328
330
1F
100
AcDbEntity
  8
0
  6
Continuous
 62
     7
370
    15
100
AcDbLine
 10
251.8127778904
 20
149.7856784694
 30
0.0
 11
244.7572221096
 21
149.7856784694
 31
0.0
  0
LINE
  5
329
330
1F
100
AcDbEntity
  8
0
  6
Continuous
 62
     7
370
    15
100
AcDbLine
 10
288.503429433
 20
93.0772233836
 30
0.0
 11
288.503429433
 21
92.2171018686
 31
0.0
  0
LINE
  5
32A
330
1F
100
AcDbEntity
  8
0
  6
Continuous
 62
     7
370
    15
100
AcDbLine
 10
288.503429433
 20
98.0026598274
 30
0.0
 11
288.503429433
 21
93.0772233836
 31
0.0
  0
LINE
  5
32B
330
1F
100
AcDbEntity
  8
0
  6
Continuous
 62
     7
370
    15
100
AcDbLine
 10
281.183283667
 20
90.5449399186
 30
0.0
 11
281.0580543084
 21
90.5449399186
 31
0.0
  0
LINE
  5
32C
330
1F
100
AcDbEntity
  8
0
  6
Continuous
 62
     7
370
    15
100
AcDbLine
 10
286.8436122672
 20
90.5449399186
 30
0.0
 11
281.183283667
 21
90.5449399186
 31
0.0
  0
LINE
  5
32D
330
1F
100
AcDbEntity
  8
0
  6
Continuous
 62
     7
370
    15
100
AcDbLine
 10
286.3864711327
 20
99.6739773783
 30
0.0
 11
286.8436122672
 21
99.6739773783
 31
0.0
  0
LINE
  5
32E
330
1F
100
AcDbEntity
  8
0
  6
Continuous
 62
     7
370
    15
100
AcDbLine
 10
281.0580543084
 20
99.6739773783
 30
0.0
 11
286.3864711327
 21
99.6739773783
 31
0.0
  0
LINE
  5
32F
330
1F
100
AcDbEntity
  8
0
  6
Continuous
 62
     7
370
    15
100
AcDbLine
 10
251.1777777376
 20
111.8836577236
 30
0.0
 11
245.3922222624
 21
111.8836577236
 31
0.0
  0
LINE
  5
330
330
1F
100
AcDbEntity
  8
0
  6
Continuous
 62
     7
370
    15
100
AcDbLine
 10
245.3922222624
 20
78.3352595732
 30
0.0
 11
251.1777777376
 21
78.3352595732
 31
0.0
  0
LINE
  5
331
330
1F
100
AcDbEntity
  8
0
  6
Continuous
 62
     7
370
    15
100
AcDbLine
 10
251.1777777376
 20
69.2057949469
 30
0.0
 11
245.3922222624
 21
69.2057949469
 31
0.0
  0
LINE
  5
332
330
1F
100
AcDbEntity
  8
0
  6
Continuous
 62
     7
370
    15
100
AcDbLine
 10
209.7263877328
 20
99.6739773783
 30
0.0
 11
215.5119456916
 21
99.6739773783
 31
0.0
  0
LINE
  5
333
330
1F
100
AcDbEntity
  8
0
  6
Continuous
 62
     7
370
    15
100
AcDbLine
 10
215.5119456916
 20
90.5449399186
 30
0.0
 11
209.7263877328
 21
90.5449399186
 31
0.0
  0
LINE
  5
334
330
1F
100
AcDbEntity
  8
0
  6
Continuous
 62
     7
370
    15
100
AcDbLine
 10
208.066570567
 20
92.2171018686
 30
0.0
 11
208.066570567
 21
98.0026598274
 31
0.0
  0
LINE
  5
335
330
1F
100
AcDbEntity
  8
0
  6
Continuous
 62
     7
370
    15
100
AcDbLine
 10
287.2691397603
 20
94.8452991412
 30
0.0
 11
287.2691397603
 21
95.3744658661
 31
0.0
  0
LINE
  5
336
330
1F
100
AcDbEntity
  8
0
  6
Continuous
 62
     7
370
    15
100
AcDbLine
 10
283.9508332878
 20
91.7792262798
 30
0.0
 11
284.2154183059
 21
91.7792262798
 31
0.0
  0
LINE
  5
337
330
1F
100
AcDbEntity
  8
0
  6
Continuous
 62
     7
370
    15
100
AcDbLine
 10
283.686251581
 20
91.7792262798
 30
0.0
 11
283.9508332878
 21
91.7792262798
 31
0.0
  0
LINE
  5
338
330
1F
100
AcDbEntity
  8
0
  6
Continuous
 62
     7
370
    15
100
AcDbLine
 10
284.2154183059
 20
98.4396877056
 30
0.0
 11
283.686251581
 21
98.4396877056
 31
0.0
  0
LINE
  5
339
330
1F
100
AcDbEntity
  8
0
  6
Continuous
 62
     7
370
    15
100
AcDbLine
 10
248.285
 20
113.1179473962
 30
0.0
 11
248.5495833366
 21
113.1179473962
 31
0.0
  0
LINE
  5
33A
330
1F
100
AcDbEntity
  8
0
  6
Continuous
 62
     7
370
    15
100
AcDbLine
 10
248.0204166634
 20
113.1179473962
 30
0.0
 11
248.285
 21
113.1179473962
 31
0.0
  0
LINE
  5
33B
330
1F
100
AcDbEntity
  8
0
  6
Continuous
 62
     7
370
    15
100
AcDbLine
 10
248.5495833366
 20
77.1009665892
 30
0.0
 11
248.0204166634
 21
77.1009665892
 31
0.0
  0
LINE
  5
33C
330
1F
100
AcDbEntity
  8
0
  6
Continuous
 62
     7
370
    15
100
AcDbLine
 10
248.285
 20
70.4400813082
 30
0.0
 11
248.5495833366
 21
70.4400813082
 31
0.0
  0
LINE
  5
33D
330
1F
100
AcDbEntity
  8
0
  6
Continuous
 62
     7
370
    15
100
AcDbLine
 10
248.0204166634
 20
70.4400813082
 30
0.0
 11
248.285
 21
70.4400813082
 31
0.0
  0
LINE
  5
33E
330
1F
100
AcDbEntity
  8
0
  6
Continuous
 62
     7
370
    15
100
AcDbLine
 10
212.883748419
 20
98.4396877056
 30
0.0
 11
212.3545816941
 21
98.4396877056
 31
0.0
  0
LINE
  5
33F
330
1F
100
AcDbEntity
  8
0
  6
Continuous
 62
     7
370
    15
100
AcDbLine
 10
212.6191667122
 20
91.7792262798
 30
0.0
 11
212.883748419
 21
91.7792262798
 31
0.0
  0
LINE
  5
340
330
1F
100
AcDbEntity
  8
0
  6
Continuous
 62
     7
370
    15
100
AcDbLine
 10
212.3545816941
 20
91.7792262798
 30
0.0
 11
212.6191667122
 21
91.7792262798
 31
0.0
  0
LINE
  5
341
330
1F
100
AcDbEntity
  8
0
  6
Continuous
 62
     7
370
    15
100
AcDbLine
 10
209.3008602397
 20
95.109880848
 30
0.0
 11
209.3008602397
 21
94.8452991412
 31
0.0
  0
LINE
  5
342
330
1F
100
AcDbEntity
  8
0
  6
Continuous
 62
     7
370
    15
100
AcDbLine
 10
209.3008602397
 20
95.3744658661
 30
0.0
 11
209.3008602397
 21
95.109880848
 31
0.0
  0
LINE
  5
343
330
1F
100
AcDbEntity
  8
0
  6
Continuous
 62
     7
370
    15
100
AcDbLine
 10
285.5161307324
 20
95.109880848
 30
0.0
 11
283.3973213768
 21
95.109880848
 31
0.0
  0
LINE
  5
344
330
1F
100
AcDbEntity
  8
0
  6
Continuous
 62
     7
370
    15
100
AcDbLine
 10
285.5161307324
 20
95.109880848
 30
0.0
 11
285.5161307324
 21
95.1090331375
 31
0.0
  0
SPLINE
  5
345
330
1F
100
AcDbEntity
  8
0
  6
Continuous
 62
     7
370
    15
100
AcDbSpline
210
0.0
220
0.0
230
1.0
 70
     8
 71
     3
 72
    12
 73
     8
 74
     0
 42
0.000000001
 43
0.00000001
 40
0.0
 40
0.0
 40
0.0
 40
0.0
 40
0.2129693941945496
 40
0.4279837744296445
 40
0.6432441303389329
 40
0.8586678806842684
 40
0.9999999999999999
 40
0.9999999999999999
 40
0.9999999999999999
 40
0.9999999999999999
 10
285.5161307324303
 20
95.10903313747959
 30
0.0
 10
285.5163122096235
 20
95.07962417170609
 30
0.0
 10
285.5166769065996
 20
95.02052384782426
 30
0.0
 10
285.5192065451
 20
94.94139863859714
 30
0.0
 10
285.5219533465623
 20
94.88210583778186
 30
0.0
 10
285.5239261335615
 20
94.84843835456265
 30
0.0
 10
285.5239187044304
 20
94.8486090966737
 30
0.0
 10
285.5239157613118
 20
94.84867673773152
 30
0.0
  0
SPLINE
  5
346
330
1F
100
AcDbEntity
  8
0
  6
Continuous
 62
     7
370
    15
100
AcDbSpline
210
0.0
220
0.0
230
1.0
 70
     8
 71
     3
 72
    18
 73
    14
 74
     0
 42
0.000000001
 43
0.00000001
 40
0.0
 40
0.0
 40
0.0
 40
0.0
 40
0.0268379975499912
 40
0.1332750308757472
 40
0.2399162826122209
 40
0.3473024378638511
 40
0.4550911520598632
 40
0.562642955092591
 40
0.6698056440026191
 40
0.7768681705810744
 40
0.8840251905160719
 40
0.9912585121891647
 40
0.9999999999999999
 40
0.9999999999999999
 40
0.9999999999999999
 40
0.9999999999999999
 10
282.7706282075246
 20
93.75226585393398
 30
0.0
 10
282.770958640691
 20
93.75147865045516
 30
0.0
 10
282.7725995414467
 20
93.74756947028067
 30
0.0
 10
282.7640341858619
 20
93.76804805549021
 30
0.0
 10
282.7448515283884
 20
93.81227142178882
 30
0.0
 10
282.7145339695329
 20
93.87842088509015
 30
0.0
 10
282.6765619883129
 20
93.95595303784019
 30
0.0
 10
282.6345084721194
 20
94.03646667040728
 30
0.0
 10
282.5936791159663
 20
94.11036891082925
 30
0.0
 10
282.5587696973781
 20
94.17079105404812
 30
0.0
 10
282.536565048082
 20
94.20809018691129
 30
0.0
 10
282.5268924795905
 20
94.22410797149665
 30
0.0
 10
282.5294104778723
 20
94.21992771117364
 30
0.0
 10
282.5296002695296
 20
94.2196126281412
 30
0.0
  0
SPLINE
  5
347
330
1F
100
AcDbEntity
  8
0
  6
Continuous
 62
     7
370
    15
100
AcDbSpline
210
0.0
220
0.0
230
1.0
 70
     8
 71
     3
 72
    17
 73
    13
 74
     0
 42
0.000000001
 43
0.00000001
 40
0.0
 40
0.0
 40
0.0
 40
0.0
 40
0.0421001087260693
 40
0.1485813658377071
 40
0.2553868649482322
 40
0.3629422033089019
 40
0.4707988776801475
 40
0.5783585868989556
 40
0.6855618802297707
 40
0.7926973715263492
 40
0.8999446359040203
 40
1.0
 40
1.0
 40
1.0
 40
1.0
 10
282.7703301843007
 20
96.46594280989882
 30
0.0
 10
282.7706842914661
 20
96.46678522340288
 30
0.0
 10
282.7719340204544
 20
96.46975830240014
 30
0.0
 10
282.7619728205102
 20
96.44600078143677
 30
0.0
 10
282.7410850310313
 20
96.39819086073192
 30
0.0
 10
282.7095012011176
 20
96.32989859504227
 30
0.0
 10
282.6706505396147
 20
96.251343455076
 30
0.0
 10
282.6284798289741
 20
96.17128436620904
 30
0.0
 10
282.5880742691099
 20
96.09869745057738
 30
0.0
 10
282.5551161491094
 20
96.04191051602116
 30
0.0
 10
282.5329839538275
 20
96.00489026470682
 30
0.0
 10
282.5306414705813
 20
96.00102023132922
 30
0.0
 10
282.5295108625624
 20
95.99915234570949
 30
0.0
  0
SPLINE
  5
348
330
1F
100
AcDbEntity
  8
0
  6
Continuous
 62
     7
370
    15
100
AcDbSpline
210
0.0
220
0.0
230
1.0
 70
     8
 71
     3
 72
    13
 73
     9
 74
     0
 42
0.000000001
 43
0.00000001
 40
0.0
 40
0.0
 40
0.0
 40
0.0
 40
0.0716932351245562
 40
0.2858834924173124
 40
0.5002168563729349
 40
0.7148804072928344
 40
0.9295582947608442
 40
1.0
 40
1.0
 40
1.0
 40
1.0
 10
285.5238296657138
 20
95.37112800603359
 30
0.0
 10
285.5238848505604
 20
95.37205671241581
 30
0.0
 10
285.5241049053068
 20
95.37576001613088
 30
0.0
 10
285.5226477376317
 20
95.35152566080667
 30
0.0
 10
285.5200739094878
 20
95.30082126213895
 30
0.0
 10
285.517394654726
 20
95.22659254468105
 30
0.0
 10
285.5162131563936
 20
95.15896161315128
 30
0.0
 10
285.5161470617793
 20
95.11960443942246
 30
0.0
 10
285.5161307324303
 20
95.10988084798305
 30
0.0
  0
LINE
  5
349
330
1F
100
AcDbEntity
  8
0
  6
Continuous
 62
     7
370
    15
100
AcDbLine
 10
211.0538692676
 20
95.1090331375
 30
0.0
 11
213.1726786232
 21
95.1090331375
 31
0.0
  0
SPLINE
  5
34A
330
1F
100
AcDbEntity
  8
0
  6
Continuous
 62
     7
370
    15
100
AcDbSpline
210
0.0
220
0.0
230
1.0
 70
     8
 71
     3
 72
    13
 73
     9
 74
     0
 42
0.000000001
 43
0.00000001
 40
0.0
 40
0.0
 40
0.0
 40
0.0
 40
0.0738663871761996
 40
0.2884961025167194
 40
0.5032714296388383
 40
0.7183923984206536
 40
0.9335129652414125
 40
1.0
 40
1.0
 40
1.0
 40
1.0
 10
211.0460842386881
 20
94.84868004910068
 30
0.0
 10
211.0460290605429
 20
94.84775118452227
 30
0.0
 10
211.0458135541342
 20
94.8441233665001
 30
0.0
 10
211.0472871470427
 20
94.86859343880025
 30
0.0
 10
211.0498878097936
 20
94.91955754461723
 30
0.0
 10
211.0525856246676
 20
94.99394878877888
 30
0.0
 10
211.0537708581946
 20
95.06109038976166
 30
0.0
 10
211.0538504711078
 20
95.09987594055325
 30
0.0
 10
211.0538692675696
 20
95.10903313747959
 30
0.0
  0
SPLINE
  5
34B
330
1F
100
AcDbEntity
  8
0
  6
Continuous
 62
     7
370
    15
100
AcDbSpline
210
0.0
220
0.0
230
1.0
 70
     8
 71
     3
 72
    17
 73
    13
 74
     0
 42
0.000000001
 43
0.00000001
 40
0.0
 40
0.0
 40
0.0
 40
0.0
 40
0.089817303119677
 40
0.1971261950317994
 40
0.3044532229542762
 40
0.4117363780914914
 40
0.5189042855411102
 40
0.6260942584444069
 40
0.7336122594103934
 40
0.8414728578446026
 40
0.9491387020212316
 40
1.0
 40
1.0
 40
1.0
 40
1.0
 10
214.0399228933122
 20
94.2188178995442
 30
0.0
 10
214.0392771228438
 20
94.21775315180187
 30
0.0
 10
214.0378598204879
 20
94.21541630061813
 30
0.0
 10
214.0174421526266
 20
94.18132450540699
 30
0.0
 10
213.9854334217244
 20
94.12636149258392
 30
0.0
 10
213.9454700023697
 20
94.05488935999261
 30
0.0
 10
213.9033831653117
 20
93.9754401760308
 30
0.0
 10
213.864145053467
 20
93.89660866671552
 30
0.0
 10
213.8316500416417
 20
93.82682260788631
 30
0.0
 10
213.8094881496093
 20
93.77635014351533
 30
0.0
 10
213.7984850938707
 20
93.75015589659915
 30
0.0
 10
213.7994271684169
 20
93.7524001490198
 30
0.0
 10
213.799729420344
 20
93.75312018717575
 30
0.0
  0
SPLINE
  5
34C
330
1F
100
AcDbEntity
  8
0
  6
Continuous
 62
     7
370
    15
100
AcDbSpline
210
0.0
220
0.0
230
1.0
 70
     8
 71
     3
 72
    17
 73
    13
 74
     0
 42
0.000000001
 43
0.00000001
 40
0.0
 40
0.0
 40
0.0
 40
0.0
 40
0.0539363857899944
 40
0.1604309130295568
 40
0.2673373865541868
 40
0.3749841886709711
 40
0.4828543578867782
 40
0.590387296992675
 40
0.6975903872563969
 40
0.8047571290798153
 40
0.9120370488537527
 40
1.0
 40
1.0
 40
1.0
 40
1.0
 10
213.7997327317132
 20
96.46579048691771
 30
0.0
 10
213.7994579169272
 20
96.46644431268638
 30
0.0
 10
213.7986404949517
 20
96.46838908268714
 30
0.0
 10
213.8098236542811
 20
96.44178428326673
 30
0.0
 10
213.8320123549365
 20
96.39129554872814
 30
0.0
 10
213.8645647686714
 20
96.32142058347674
 30
0.0
 10
213.9040283033529
 20
96.2422107827639
 30
0.0
 10
213.9462527160122
 20
96.16259126847689
 30
0.0
 10
213.9861365279897
 20
96.09133417350641
 30
0.0
 10
214.0179144719415
 20
96.03679086476981
 30
0.0
 10
214.0380066779321
 20
96.0032502387896
 30
0.0
 10
214.0392660846652
 20
96.00117848615864
 30
0.0
 10
214.0398334863451
 20
96.00024509753037
 30
0.0
  0
LINE
  5
34D
330
1F
100
AcDbEntity
  8
0
  6
Continuous
 62
     7
370
    15
100
AcDbLine
 10
211.0538692676
 20
95.1090331375
 30
0.0
 11
211.0538692676
 21
95.109880848
 31
0.0
  0
SPLINE
  5
34E
330
1F
100
AcDbEntity
  8
0
  6
Continuous
 62
     7
370
    15
100
AcDbSpline
210
0.0
220
0.0
230
1.0
 70
     8
 71
     3
 72
    12
 73
     8
 74
     0
 42
0.000000001
 43
0.00000001
 40
0.0
 40
0.0
 40
0.0
 40
0.0
 40
0.2125430587200745
 40
0.4271157631943866
 40
0.6419342296048354
 40
0.8569174248186248
 40
1.0
 40
1.0
 40
1.0
 40
1.0
 10
211.0538692675696
 20
95.10988084798305
 30
0.0
 10
211.0537037592188
 20
95.13930026835847
 30
0.0
 10
211.0533711620218
 20
95.19842004513241
 30
0.0
 10
211.0508805017411
 20
95.27768545726055
 30
0.0
 10
211.048147328605
 20
95.33721041260208
 30
0.0
 10
211.0461724693746
 20
95.3711795450595
 30
0.0
 10
211.046170943874
 20
95.37114508685322
 30
0.0
 10
211.0461703342861
 20
95.37113131740274
 30
0.0
  0
SPLINE
  5
34F
330
1F
100
AcDbEntity
  8
0
  6
Continuous
 62
     7
370
    15
100
AcDbSpline
210
0.0
220
0.0
230
1.0
 70
     8
 71
     3
 72
    16
 73
    12
 74
     0
 42
0.000000001
 43
0.00000001
 40
0.0
 40
0.0
 40
0.0
 40
0.0
 40
0.0426259997957786
 40
0.1636815072686054
 40
0.2855810889027591
 40
0.407780262313015
 40
0.5296212317661098
 40
0.6510584449907018
 40
0.7724456405687027
 40
0.8939629332563171
 40
1.0
 40
1.0
 40
1.0
 40
1.0
 10
247.0976477433575
 20
75.11113837353305
 30
0.0
 10
247.0965125096467
 20
75.10845325249454
 30
0.0
 10
247.0921532743026
 20
75.09814253460206
 30
0.0
 10
247.0730325446131
 20
75.05448010409087
 30
0.0
 10
247.0416712588938
 20
74.98704982596985
 30
0.0
 10
247.0022901601175
 20
74.90766601027188
 30
0.0
 10
246.960136276486
 20
74.8279486069618
 30
0.0
 10
246.9199858754795
 20
74.75602779846292
 30
0.0
 10
246.8876498125224
 20
74.7004365520776
 30
0.0
 10
246.8666155624882
 20
74.66528692644167
 30
0.0
 10
246.8648663500203
 20
74.66240159919606
 30
0.0
 10
246.8640512421065
 20
74.66105707809577
 30
0.0
  0
SPLINE
  5
350
330
1F
100
AcDbEntity
  8
0
  6
Continuous
 62
     7
370
    15
100
AcDbSpline
210
0.0
220
0.0
230
1.0
 70
     8
 71
     3
 72
    16
 73
    12
 74
     0
 42
0.000000001
 43
0.00000001
 40
0.0
 40
0.0
 40
0.0
 40
0.0
 40
0.0287935644522825
 40
0.1512742323003277
 40
0.2737641910642015
 40
0.3962557263987187
 40
0.518657018088905
 40
0.640949903546271
 40
0.763399292522695
 40
0.886305686813403
 40
0.9999999999999999
 40
0.9999999999999999
 40
0.9999999999999999
 40
0.9999999999999999
 10
249.7054182144668
 20
74.66193790229079
 30
0.0
 10
249.7058446282402
 20
74.66122905578138
 30
0.0
 10
249.70808490024
 20
74.65750495237259
 30
0.0
 10
249.696760428113
 20
74.6762702980379
 30
0.0
 10
249.6722828168803
 20
74.71755206059404
 30
0.0
 10
249.636103826469
 20
74.78053863965108
 30
0.0
 10
249.5948041276516
 20
74.85589680098784
 30
0.0
 10
249.5531781749788
 20
74.9363623524343
 30
0.0
 10
249.5164139868595
 20
75.01213623732959
 30
0.0
 10
249.487576338729
 20
75.07563359630247
 30
0.0
 10
249.4772907701748
 20
75.09961021021805
 30
0.0
 10
249.4723482209113
 20
75.11113175079474
 30
0.0
  0
SPLINE
  5
351
330
1F
100
AcDbEntity
  8
0
  6
Continuous
 62
     7
370
    15
100
AcDbSpline
210
0.0
220
0.0
230
1.0
 70
     8
 71
     3
 72
    16
 73
    12
 74
     0
 42
0.000000001
 43
0.00000001
 40
0.0
 40
0.0
 40
0.0
 40
0.0
 40
0.0905267183321477
 40
0.2121951457446763
 40
0.3345621102448501
 40
0.4569083931424316
 40
0.5787953225537429
 40
0.700419403445553
 40
0.8221027398056869
 40
0.9439042885133447
 40
0.9999999999999999
 40
0.9999999999999999
 40
0.9999999999999999
 40
0.9999999999999999
 10
247.0976337735189
 20
115.107762366453
 30
0.0
 10
247.0942464430773
 20
115.1157108027745
 30
0.0
 10
247.0863065211407
 20
115.1343419829915
 30
0.0
 10
247.0610865321861
 20
115.1906519514787
 30
0.0
 10
247.0259920566373
 20
115.2641114525908
 30
0.0
 10
246.9848488806689
 20
115.3448145895746
 30
0.0
 10
246.9429470611612
 20
115.4221931942414
 30
0.0
 10
246.9051692416682
 20
115.4885948132788
 30
0.0
 10
246.8776537734902
 20
115.5352879672361
 30
0.0
 10
246.8633638559681
 20
115.5590033334491
 30
0.0
 10
246.8646971755304
 20
115.556789901307
 30
0.0
 10
246.8651176064544
 20
115.5560919476077
 30
0.0
  0
SPLINE
  5
352
330
1F
100
AcDbEntity
  8
0
  6
Continuous
 62
     7
370
    15
100
AcDbSpline
210
0.0
220
0.0
230
1.0
 70
     8
 71
     3
 72
    16
 73
    12
 74
     0
 42
0.000000001
 43
0.00000001
 40
0.0
 40
0.0
 40
0.0
 40
0.0
 40
0.0800009217414466
 40
0.2014226798583052
 40
0.3228669028741374
 40
0.4442755417916208
 40
0.565562417819013
 40
0.6868187316949513
 40
0.8083923512285189
 40
0.9304013193646151
 40
1.0
 40
1.0
 40
1.0
 40
1.0
 10
249.7050674162971
 20
115.556399904939
 30
0.0
 10
249.7050951978213
 20
115.5564484538022
 30
0.0
 10
249.7051651448786
 20
115.5565706879204
 30
0.0
 10
249.6877981364477
 20
115.5276622988825
 30
0.0
 10
249.6577978760248
 20
115.4764447572897
 30
0.0
 10
249.618753615423
 20
115.4072012982032
 30
0.0
 10
249.576725603908
 20
115.3286962433264
 30
0.0
 10
249.5364918495173
 20
115.2487678811714
 30
0.0
 10
249.5030700452322
 20
115.1779136552514
 30
0.0
 10
249.4806949945939
 20
115.1274059858315
 30
0.0
 10
249.4745850553096
 20
115.1129964279505
 30
0.0
 10
249.4723657090796
 20
115.107762366453
 30
0.0
  0
LINE
  5
353
330
1F
100
AcDbEntity
  8
0
  6
Continuous
 62
     7
370
    15
100
AcDbLine
 10
283.9508332878
 20
96.6965333123
 30
0.0
 11
284.7881162898
 21
96.6965333123
 31
0.0
  0
LINE
  5
354
330
1F
100
AcDbEntity
  8
0
  6
Continuous
 62
     7
370
    15
100
AcDbLine
 10
283.1135502858
 20
96.6965333123
 30
0.0
 11
283.9508332878
 21
96.6965333123
 31
0.0
  0
LINE
  5
355
330
1F
100
AcDbEntity
  8
0
  6
Continuous
 62
     7
370
    15
100
AcDbLine
 10
284.7881162898
 20
93.5223839845
 30
0.0
 11
283.1135502858
 21
93.5223839845
 31
0.0
  0
LINE
  5
356
330
1F
100
AcDbEntity
  8
0
  6
Continuous
 62
     7
370
    15
100
AcDbLine
 10
212.6191667122
 20
93.5223839845
 30
0.0
 11
211.7818837102
 21
93.5223839845
 31
0.0
  0
LINE
  5
357
330
1F
100
AcDbEntity
  8
0
  6
Continuous
 62
     7
370
    15
100
AcDbLine
 10
213.4564497142
 20
93.5223839845
 30
0.0
 11
212.6191667122
 21
93.5223839845
 31
0.0
  0
LINE
  5
358
330
1F
100
AcDbEntity
  8
0
  6
Continuous
 62
     7
370
    15
100
AcDbLine
 10
248.1396075464
 20
118.035678284
 30
0.0
 11
249.1222817602
 21
118.035678284
 31
0.0
  0
LINE
  5
359
330
1F
100
AcDbEntity
  8
0
  6
Continuous
 62
     7
370
    15
100
AcDbLine
 10
247.4477182398
 20
118.035678284
 30
0.0
 11
248.1396075464
 21
118.035678284
 31
0.0
  0
LINE
  5
35A
330
1F
100
AcDbEntity
  8
0
  6
Continuous
 62
     7
370
    15
100
AcDbLine
 10
249.1222817602
 20
72.1832390129
 30
0.0
 11
247.4477182398
 21
72.1832390129
 31
0.0
  0
LINE
  5
35B
330
1F
100
AcDbEntity
  8
0
  6
Continuous
 62
     7
370
    15
100
AcDbLine
 10
248.9859591079
 20
114.8611017895
 30
0.0
 11
247.5840408921
 21
114.8611017895
 31
0.0
  0
LINE
  5
35C
330
1F
100
AcDbEntity
  8
0
  6
Continuous
 62
     7
370
    15
100
AcDbLine
 10
211.7818837102
 20
96.6965333123
 30
0.0
 11
213.4564497142
 21
96.6965333123
 31
0.0
  0
LINE
  5
35D
330
1F
100
AcDbEntity
  8
0
  6
Continuous
 62
     7
370
    15
100
AcDbLine
 10
248.1396075464
 20
75.3578155073
 30
0.0
 11
248.9859591079
 21
75.3578155073
 31
0.0
  0
LINE
  5
35E
330
1F
100
AcDbEntity
  8
0
  6
Continuous
 62
     7
370
    15
100
AcDbLine
 10
247.5840408921
 20
75.3578155073
 30
0.0
 11
248.1396075464
 21
75.3578155073
 31
0.0
  0
LINE
  5
35F
330
1F
100
AcDbEntity
  8
0
  6
Continuous
 62
     8
370
    15
100
AcDbLine
 10
267.4253958533
 20
91.4529173406
 30
0.0
 11
264.2829628192
 21
91.4529173406
 31
0.0
  0
LINE
  5
360
330
1F
100
AcDbEntity
  8
0
  6
Continuous
 62
     8
370
    15
100
AcDbLine
 10
266.0330429411
 20
98.7659999562
 30
0.0
 11
267.4242749548
 21
98.7659999562
 31
0.0
  0
LINE
  5
361
330
1F
100
AcDbEntity
  8
0
  6
Continuous
 62
     8
370
    15
100
AcDbLine
 10
264.2829628192
 20
98.7659999562
 30
0.0
 11
266.0330429411
 21
98.7659999562
 31
0.0
  0
LINE
  5
362
330
1F
100
AcDbEntity
  8
0
  6
Continuous
 62
     8
370
    15
100
AcDbLine
 10
229.1457250452
 20
98.7659999562
 30
0.0
 11
232.2870371808
 21
98.7659999562
 31
0.0
  0
LINE
  5
363
330
1F
100
AcDbEntity
  8
0
  6
Continuous
 62
     8
370
    15
100
AcDbLine
 10
232.2870371808
 20
91.4529173406
 30
0.0
 11
229.1446041467
 21
91.4529173406
 31
0.0
  0
LINE
  5
364
330
1F
100
AcDbEntity
  8
0
  6
Continuous
 62
     8
370
    15
100
AcDbLine
 10
265.144660546
 20
96.5495449469
 30
0.0
 11
264.9940975576
 21
96.5495449469
 31
0.0
  0
LINE
  5
365
330
1F
100
AcDbEntity
  8
0
  6
Continuous
 62
     8
370
    15
100
AcDbLine
 10
265.8369254473
 20
96.5495449469
 30
0.0
 11
265.144660546
 21
96.5495449469
 31
0.0
  0
LINE
  5
366
330
1F
100
AcDbEntity
  8
0
  6
Continuous
 62
     8
370
    15
100
AcDbLine
 10
265.6049507925
 20
95.109880848
 30
0.0
 11
264.5526208549
 21
95.109880848
 31
0.0
  0
LINE
  5
367
330
1F
100
AcDbEntity
  8
0
  6
Continuous
 62
     8
370
    15
100
AcDbLine
 10
264.9940975576
 20
93.6693690385
 30
0.0
 11
265.8372069136
 21
93.6693690385
 31
0.0
  0
LINE
  5
368
330
1F
100
AcDbEntity
  8
0
  6
Continuous
 62
     8
370
    15
100
AcDbLine
 10
232.0173791451
 20
95.109880848
 30
0.0
 11
230.9650492075
 21
95.109880848
 31
0.0
  0
LINE
  5
369
330
1F
100
AcDbEntity
  8
0
  6
Continuous
 62
     8
370
    15
100
AcDbLine
 10
231.425339454
 20
93.6693690385
 30
0.0
 11
231.5759024424
 21
93.6693690385
 31
0.0
  0
LINE
  5
36A
330
1F
100
AcDbEntity
  8
0
  6
Continuous
 62
     8
370
    15
100
AcDbLine
 10
230.7327930864
 20
93.6693690385
 30
0.0
 11
231.425339454
 21
93.6693690385
 31
0.0
  0
LINE
  5
36B
330
1F
100
AcDbEntity
  8
0
  6
Continuous
 62
     8
370
    15
100
AcDbLine
 10
231.5759024424
 20
96.5495449469
 30
0.0
 11
230.7330745527
 21
96.5495449469
 31
0.0
  0
LINE
  5
36C
330
1F
100
AcDbEntity
  8
0
  6
Continuous
 62
     8
370
    15
100
AcDbLine
 10
287.5954520109
 20
93.8205197949
 30
0.0
 11
287.5954520109
 21
93.2749253676
 31
0.0
  0
LINE
  5
36D
330
1F
100
AcDbEntity
  8
0
  6
Continuous
 62
     8
370
    15
100
AcDbLine
 10
287.5954520109
 20
96.944833017
 30
0.0
 11
287.5954520109
 21
93.8205197949
 31
0.0
  0
LINE
  5
36E
330
1F
100
AcDbEntity
  8
0
  6
Continuous
 62
     8
370
    15
100
AcDbLine
 10
282.1953175534
 20
91.4529173406
 30
0.0
 11
282.1158811188
 21
91.4529173406
 31
0.0
  0
LINE
  5
36F
330
1F
100
AcDbEntity
  8
0
  6
Continuous
 62
     8
370
    15
100
AcDbLine
 10
285.7857854568
 20
91.4529173406
 30
0.0
 11
282.1953175534
 21
91.4529173406
 31
0.0
  0
LINE
  5
370
330
1F
100
AcDbEntity
  8
0
  6
Continuous
 62
     8
370
    15
100
AcDbLine
 10
285.4958121713
 20
98.7659999562
 30
0.0
 11
285.7857854568
 21
98.7659999562
 31
0.0
  0
LINE
  5
371
330
1F
100
AcDbEntity
  8
0
  6
Continuous
 62
     8
370
    15
100
AcDbLine
 10
282.1158811188
 20
98.7659999562
 30
0.0
 11
285.4958121713
 21
98.7659999562
 31
0.0
  0
LINE
  5
372
330
1F
100
AcDbEntity
  8
0
  6
Continuous
 62
     8
370
    15
100
AcDbLine
 10
250.1199534108
 20
112.791638457
 30
0.0
 11
246.4500465892
 21
112.791638457
 31
0.0
  0
LINE
  5
373
330
1F
100
AcDbEntity
  8
0
  6
Continuous
 62
     8
370
    15
100
AcDbLine
 10
246.4500465892
 20
77.4272755284
 30
0.0
 11
250.1199534108
 21
77.4272755284
 31
0.0
  0
LINE
  5
374
330
1F
100
AcDbEntity
  8
0
  6
Continuous
 62
     8
370
    15
100
AcDbLine
 10
250.1199534108
 20
70.113772369
 30
0.0
 11
246.4500465892
 21
70.113772369
 31
0.0
  0
LINE
  5
375
330
1F
100
AcDbEntity
  8
0
  6
Continuous
 62
     8
370
    15
100
AcDbLine
 10
210.7842145432
 20
98.7659999562
 30
0.0
 11
214.4541188812
 21
98.7659999562
 31
0.0
  0
LINE
  5
376
330
1F
100
AcDbEntity
  8
0
  6
Continuous
 62
     8
370
    15
100
AcDbLine
 10
214.4541188812
 20
91.4529173406
 30
0.0
 11
210.7842145432
 21
91.4529173406
 31
0.0
  0
LINE
  5
377
330
1F
100
AcDbEntity
  8
0
  6
Continuous
 62
     8
370
    15
100
AcDbLine
 10
208.9745479891
 20
93.2749253676
 30
0.0
 11
208.9745479891
 21
96.944833017
 31
0.0
  0
LINE
  5
378
330
1F
100
AcDbEntity
  8
0
  6
Continuous
 62
     8
370
    15
100
AcDbLine
 10
282.8270142015
 20
93.6693690385
 30
0.0
 11
285.0746523741
 21
93.6693690385
 31
0.0
  0
LINE
  5
379
330
1F
100
AcDbEntity
  8
0
  6
Continuous
 62
     8
370
    15
100
AcDbLine
 10
283.9508332878
 20
96.5495449469
 30
0.0
 11
282.8270142015
 21
96.5495449469
 31
0.0
  0
LINE
  5
37A
330
1F
100
AcDbEntity
  8
0
  6
Continuous
 62
     8
370
    15
100
AcDbLine
 10
285.0746523741
 20
96.5495449469
 30
0.0
 11
283.9508332878
 21
96.5495449469
 31
0.0
  0
LINE
  5
37B
330
1F
100
AcDbEntity
  8
0
  6
Continuous
 62
     8
370
    15
100
AcDbLine
 10
212.6191667122
 20
93.6693690385
 30
0.0
 11
213.7429857985
 21
93.6693690385
 31
0.0
  0
LINE
  5
37C
330
1F
100
AcDbEntity
  8
0
  6
Continuous
 62
     8
370
    15
100
AcDbLine
 10
211.4953476259
 20
93.6693690385
 30
0.0
 11
212.6191667122
 21
93.6693690385
 31
0.0
  0
LINE
  5
37D
330
1F
100
AcDbEntity
  8
0
  6
Continuous
 62
     8
370
    15
100
AcDbLine
 10
213.7429857985
 20
96.5495449469
 30
0.0
 11
211.4953476259
 21
96.5495449469
 31
0.0
  0
LINE
  5
37E
330
1F
100
AcDbEntity
  8
0
  6
Continuous
 62
     8
370
    15
100
AcDbLine
 10
249.8724999679
 20
73.7703120211
 30
0.0
 11
246.6975000321
 21
73.7703120211
 31
0.0
  0
LINE
  5
37F
330
1F
100
AcDbEntity
  8
0
  6
Continuous
 62
     8
370
    15
100
AcDbLine
 10
248.0898507971
 20
75.2108238306
 30
0.0
 11
247.7113386147
 21
75.2108238306
 31
0.0
  0
LINE
  5
380
330
1F
100
AcDbEntity
  8
0
  6
Continuous
 62
     8
370
    15
100
AcDbLine
 10
248.8586613853
 20
75.2108238306
 30
0.0
 11
248.0898507971
 21
75.2108238306
 31
0.0
  0
LINE
  5
381
330
1F
100
AcDbEntity
  8
0
  6
Continuous
 62
     8
370
    15
100
AcDbLine
 10
249.8724999679
 20
116.4481781091
 30
0.0
 11
246.6975000321
 21
116.4481781091
 31
0.0
  0
LINE
  5
382
330
1F
100
AcDbEntity
  8
0
  6
Continuous
 62
     8
370
    15
100
AcDbLine
 10
247.7113386147
 20
115.0080934663
 30
0.0
 11
248.8586613853
 21
115.0080934663
 31
0.0
  0
LINE
  5
383
330
1F
100
AcDbEntity
  8
0
  6
Continuous
 62
     8
370
    15
100
AcDbLine
 10
247.1611804998
 20
72.3302306896
 30
0.0
 11
249.4088195002
 21
72.3302306896
 31
0.0
  0
LINE
  5
384
330
1F
100
AcDbEntity
  8
0
  6
Continuous
 62
     8
370
    15
100
AcDbLine
 10
248.0898507971
 20
117.8886866072
 30
0.0
 11
247.1611804998
 21
117.8886866072
 31
0.0
  0
LINE
  5
385
330
1F
100
AcDbEntity
  8
0
  6
Continuous
 62
     8
370
    15
100
AcDbLine
 10
249.4088195002
 20
117.8886866072
 30
0.0
 11
248.0898507971
 21
117.8886866072
 31
0.0
  0
ENDSEC
  0
SECTION
  2
OBJECTS
  0
DICTIONARY
  5
C
330
0
100
AcDbDictionary
281
     1
  3
ACAD_GROUP
350
D
  3
ACAD_LAYOUT
350
1A
  3
ACAD_MLINESTYLE
350
17
  3
ACAD_PLOTSETTINGS
350
19
  3
ACAD_PLOTSTYLENAME
350
E
  3
ACAD_SCALELIST
350
47
  0
DICTIONARY
  5
D
102
{ACAD_REACTORS
330
C
102
}
330
C
100
AcDbDictionary
281
     1
  0
DICTIONARY
  5
1A
102
{ACAD_REACTORS
330
C
102
}
330
C
100
AcDbDictionary
281
     1
  3
Layout1
350
1E
  3
Layout2
350
26
  3
Model
350
22
  0
DICTIONARY
  5
17
102
{ACAD_REACTORS
330
C
102
}
330
C
100
AcDbDictionary
281
     1
  3
Standard
350
18
  0
DICTIONARY
  5
19
102
{ACAD_REACTORS
330
C
102
}
330
C
100
AcDbDictionary
281
     1
  0
ACDBDICTIONARYWDFLT
  5
E
102
{ACAD_REACTORS
330
C
102
}
330
C
100
AcDbDictionary
281
     1
  3
Normal
350
F
100
AcDbDictionaryWithDefault
340
F
  0
DICTIONARY
  5
47
102
{ACAD_REACTORS
330
C
102
}
330
C
100
AcDbDictionary
281
     1
  3
A0
350
48
  3
A1
350
49
  3
A2
350
4A
  3
A3
350
4B
  3
A4
350
4C
  3
A5
350
4D
  3
A6
350
4E
  3
A7
350
4F
  3
A8
350
50
  3
A9
350
51
  3
B0
350
52
  3
B1
350
53
  3
B2
350
54
  3
B3
350
55
  3
B4
350
56
  3
B5
350
57
  3
B6
350
58
  3
B7
350
59
  3
B8
350
5A
  3
B9
350
5B
  3
C0
350
5C
  3
C1
350
5D
  3
C2
350
5E
  3
C3
350
5F
  3
C4
350
60
  3
C5
350
61
  3
C6
350
62
  3
C7
350
63
  3
C8
350
64
  3
C9
350
65
  3
D0
350
66
  3
D1
350
67
  3
D2
350
68
  0
LAYOUT
  5
1E
102
{ACAD_REACTORS
330
1A
102
}
330
1A
100
AcDbPlotSettings
  1

  2
none_device
  4

  6

 40
0.0
 41
0.0
 42
0.0
 43
0.0
 44
0.0
 45
0.0
 46
0.0
 47
0.0
 48
0.0
 49
0.0
140
0.0
141
0.0
142
1.0
143
1.0
 70
   688
 72
     1
 73
     0
 74
     5
  7

 75
    16
147
1.0
148
0.0
149
0.0
100
AcDbLayout
  1
Layout1
 70
     1
 71
     1
 10
0.0
 20
0.0
 11
420.0
 21
297.0
 12
0.0
 22
0.0
 32
0.0
 14
1.0000000000E+20
 24
1.0000000000E+20
 34
1.0000000000E+20
 15
-1.0000000000E+20
 25
-1.0000000000E+20
 35
-1.0000000000E+20
146
0.0
 13
0.0
 23
0.0
 33
0.0
 16
1.0
 26
0.0
 36
0.0
 17
0.0
 27
1.0
 37
0.0
 76
     0
330
1B
  0
LAYOUT
  5
26
102
{ACAD_REACTORS
330
1A
102
}
330
1A
100
AcDbPlotSettings
  1

  2
none_device
  4

  6

 40
0.0
 41
0.0
 42
0.0
 43
0.0
 44
0.0
 45
0.0
 46
0.0
 47
0.0
 48
0.0
 49
0.0
140
0.0
141
0.0
142
1.0
143
1.0
 70
   688
 72
     1
 73
     0
 74
     5
  7

 75
    16
147
1.0
148
0.0
149
0.0
100
AcDbLayout
  1
Layout2
 70
     1
 71
     2
 10
0.0
 20
0.0
 11
0.0
 21
0.0
 12
0.0
 22
0.0
 32
0.0
 14
0.0
 24
0.0
 34
0.0
 15
0.0
 25
0.0
 35
0.0
146
0.0
 13
0.0
 23
0.0
 33
0.0
 16
1.0
 26
0.0
 36
0.0
 17
0.0
 27
1.0
 37
0.0
 76
     0
330
23
  0
LAYOUT
  5
22
102
{ACAD_REACTORS
330
1A
102
}
330
1A
100
AcDbPlotSettings
  1

  2
none_device
  4
Letter_(8.50_x_11.00_Inches)
  6

 40
6.35
 41
6.35
 42
6.35000508
 43
6.35000508
 44
215.9
 45
279.4
 46
0.0
 47
0.0
 48
0.0
 49
0.0
140
0.0
141
0.0
142
1.0
143
1.0
 70
  1712
 72
     1
 73
     0
 74
     0
  7

 75
     0
147
1.0
148
0.0
149
0.0
100
AcDbLayout
  1
Model
 70
     1
 71
     0
 10
0.0
 20
0.0
 11
431.8
 21
279.4
 12
0.0
 22
0.0
 32
0.0
 14
0.0
 24
0.0
 34
0.0
 15
431.8
 25
279.4
 35
0.0
146
0.0
 13
0.0
 23
0.0
 33
0.0
 16
1.0
 26
0.0
 36
0.0
 17
0.0
 27
1.0
 37
0.0
 76
     0
330
1F
331
29
  0
MLINESTYLE
  5
18
102
{ACAD_REACTORS
330
17
102
}
330
17
100
AcDbMlineStyle
  2
Standard
 70
     0
  3

 62
   256
 51
90.0
 52
90.0
 71
     2
 49
0.5
 62
   256
  6
BYLAYER
 49
-0.5
 62
   256
  6
BYLAYER
  0
ACDBPLACEHOLDER
  5
F
102
{ACAD_REACTORS
330
E
102
}
330
E
  0
SCALE
  5
48
102
{ACAD_REACTORS
330
47
102
}
330
47
100
AcDbScale
 70
     0
300
1:1
140
1.0
141
1.0
290
     1
  0
SCALE
  5
49
102
{ACAD_REACTORS
330
47
102
}
330
47
100
AcDbScale
 70
     0
300
1:2
140
1.0
141
2.0
290
     0
  0
SCALE
  5
4A
102
{ACAD_REACTORS
330
47
102
}
330
47
100
AcDbScale
 70
     0
300
1:4
140
1.0
141
4.0
290
     0
  0
SCALE
  5
4B
102
{ACAD_REACTORS
330
47
102
}
330
47
100
AcDbScale
 70
     0
300
1:5
140
1.0
141
5.0
290
     0
  0
SCALE
  5
4C
102
{ACAD_REACTORS
330
47
102
}
330
47
100
AcDbScale
 70
     0
300
1:8
140
1.0
141
8.0
290
     0
  0
SCALE
  5
4D
102
{ACAD_REACTORS
330
47
102
}
330
47
100
AcDbScale
 70
     0
300
1:10
140
1.0
141
10.0
290
     0
  0
SCALE
  5
4E
102
{ACAD_REACTORS
330
47
102
}
330
47
100
AcDbScale
 70
     0
300
1:16
140
1.0
141
16.0
290
     0
  0
SCALE
  5
4F
102
{ACAD_REACTORS
330
47
102
}
330
47
100
AcDbScale
 70
     0
300
1:20
140
1.0
141
20.0
290
     0
  0
SCALE
  5
50
102
{ACAD_REACTORS
330
47
102
}
330
47
100
AcDbScale
 70
     0
300
1:30
140
1.0
141
30.0
290
     0
  0
SCALE
  5
51
102
{ACAD_REACTORS
330
47
102
}
330
47
100
AcDbScale
 70
     0
300
1:40
140
1.0
141
40.0
290
     0
  0
SCALE
  5
52
102
{ACAD_REACTORS
330
47
102
}
330
47
100
AcDbScale
 70
     0
300
1:50
140
1.0
141
50.0
290
     0
  0
SCALE
  5
53
102
{ACAD_REACTORS
330
47
102
}
330
47
100
AcDbScale
 70
     0
300
1:100
140
1.0
141
100.0
290
     0
  0
SCALE
  5
54
102
{ACAD_REACTORS
330
47
102
}
330
47
100
AcDbScale
 70
     0
300
2:1
140
2.0
141
1.0
290
     0
  0
SCALE
  5
55
102
{ACAD_REACTORS
330
47
102
}
330
47
100
AcDbScale
 70
     0
300
4:1
140
4.0
141
1.0
290
     0
  0
SCALE
  5
56
102
{ACAD_REACTORS
330
47
102
}
330
47
100
AcDbScale
 70
     0
300
8:1
140
8.0
141
1.0
290
     0
  0
SCALE
  5
57
102
{ACAD_REACTORS
330
47
102
}
330
47
100
AcDbScale
 70
     0
300
10:1
140
10.0
141
1.0
290
     0
  0
SCALE
  5
58
102
{ACAD_REACTORS
330
47
102
}
330
47
100
AcDbScale
 70
     0
300
100:1
140
100.0
141
1.0
290
     0
  0
SCALE
  5
59
102
{ACAD_REACTORS
330
47
102
}
330
47
100
AcDbScale
 70
     0
300
1/128" = 1'-0"
140
0.0078125
141
12.0
290
     0
  0
SCALE
  5
5A
102
{ACAD_REACTORS
330
47
102
}
330
47
100
AcDbScale
 70
     0
300
1/64" = 1'-0"
140
0.015625
141
12.0
290
     0
  0
SCALE
  5
5B
102
{ACAD_REACTORS
330
47
102
}
330
47
100
AcDbScale
 70
     0
300
1/32" = 1'-0"
140
0.03125
141
12.0
290
     0
  0
SCALE
  5
5C
102
{ACAD_REACTORS
330
47
102
}
330
47
100
AcDbScale
 70
     0
300
1/16" = 1'-0"
140
0.0625
141
12.0
290
     0
  0
SCALE
  5
5D
102
{ACAD_REACTORS
330
47
102
}
330
47
100
AcDbScale
 70
     0
300
3/32" = 1'-0"
140
0.09375
141
12.0
290
     0
  0
SCALE
  5
5E
102
{ACAD_REACTORS
330
47
102
}
330
47
100
AcDbScale
 70
     0
300
1/8" = 1'-0"
140
0.125
141
12.0
290
     0
  0
SCALE
  5
5F
102
{ACAD_REACTORS
330
47
102
}
330
47
100
AcDbScale
 70
     0
300
3/16" = 1'-0"
140
0.1875
141
12.0
290
     0
  0
SCALE
  5
60
102
{ACAD_REACTORS
330
47
102
}
330
47
100
AcDbScale
 70
     0
300
1/4" = 1'-0"
140
0.25
141
12.0
290
     0
  0
SCALE
  5
61
102
{ACAD_REACTORS
330
47
102
}
330
47
100
AcDbScale
 70
     0
300
3/8" = 1'-0"
140
0.375
141
12.0
290
     0
  0
SCALE
  5
62
102
{ACAD_REACTORS
330
47
102
}
330
47
100
AcDbScale
 70
     0
300
1/2" = 1'-0"
140
0.5
141
12.0
290
     0
  0
SCALE
  5
63
102
{ACAD_REACTORS
330
47
102
}
330
47
100
AcDbScale
 70
     0
300
3/4" = 1'-0"
140
0.75
141
12.0
290
     0
  0
SCALE
  5
64
102
{ACAD_REACTORS
330
47
102
}
330
47
100
AcDbScale
 70
     0
300
1" = 1'-0"
140
1.0
141
12.0
290
     0
  0
SCALE
  5
65
102
{ACAD_REACTORS
330
47
102
}
330
47
100
AcDbScale
 70
     0
300
1-1/2" = 1'-0"
140
1.5
141
12.0
290
     0
  0
SCALE
  5
66
102
{ACAD_REACTORS
330
47
102
}
330
47
100
AcDbScale
 70
     0
300
3" = 1'-0"
140
3.0
141
12.0
290
     0
  0
SCALE
  5
67
102
{ACAD_REACTORS
330
47
102
}
330
47
100
AcDbScale
 70
     0
300
6" = 1'-0"
140
6.0
141
12.0
290
     0
  0
SCALE
  5
68
102
{ACAD_REACTORS
330
47
102
}
330
47
100
AcDbScale
 70
     0
300
1'-0" = 1'-0"
140
12.0
141
12.0
290
     0
  0
ENDSEC
  0
EOF
