  0
SECTION
  2
HEADER
  9
$ACADVER
  1
AC1015
  9
$ACADMAINTVER
 70
     6
  9
$DWGCODEPAGE
  3
ANSI_1252
  9
$INSBASE
 10
0.0
 20
0.0
 30
0.0
  9
$EXTMIN
 10
0.0
 20
0.0
 30
0.0
  9
$EXTMAX
 10
431.8
 20
279.4
 30
0.0
  9
$LIMMIN
 10
0.0
 20
0.0
  9
$LIMMAX
 10
431.8
 20
279.4
  9
$ORTHOMODE
 70
     0
  9
$REGENMODE
 70
     1
  9
$FILLMODE
 70
     1
  9
$QTEXTMODE
 70
     0
  9
$MIRRTEXT
 70
     1
  9
$LTSCALE
 40
1.0
  9
$ATTMODE
 70
     1
  9
$TEXTSIZE
 40
3.175
  9
$TRACEWID
 40
1.0
  9
$TEXTSTYLE
  7
Standard
  9
$CLAYER
  8
0
  9
$CELTYPE
  6
ByLayer
  9
$CECOLOR
 62
   256
  9
$CELTSCALE
 40
1.0
  9
$DISPSILH
 70
     0
  9
$DIMSCALE
 40
1.0
  9
$DIMASZ
 40
3.302
  9
$DIMEXO
 40
1.27
  9
$DIMDLI
 40
3.75
  9
$DIMRND
 40
0.0
  9
$DIMDLE
 40
0.0
  9
$DIMEXE
 40
3.175
  9
$DIMTP
 40
0.0
  9
$DIMTM
 40
0.0
  9
$DIMTXT
 40
3.175
  9
$DIMCEN
 40
2.5
  9
$DIMTSZ
 40
0.0
  9
$DIMTOL
 70
     0
  9
$DIMLIM
 70
     0
  9
$DIMTIH
 70
     1
  9
$DIMTOH
 70
     1
  9
$DIMSE1
 70
     0
  9
$DIMSE2
 70
     0
  9
$DIMTAD
 70
     0
  9
$DIMZIN
 70
     0
  9
$DIMBLK
  1

  9
$DIMASO
 70
     1
  9
$DIMSHO
 70
     1
  9
$DIMPOST
  1

  9
$DIMAPOST
  1

  9
$DIMALT
 70
     0
  9
$DIMALTD
 70
     3
  9
$DIMALTF
 40
0.0393700787
  9
$DIMLFAC
 40
10.0
  9
$DIMTOFL
 70
     1
  9
$DIMTVP
 40
0.0
  9
$DIMTIX
 70
     0
  9
$DIMSOXD
 70
     0
  9
$DIMSAH
 70
     0
  9
$DIMBLK1
  1

  9
$DIMBLK2
  1

  9
$DIMSTYLE
  2
ISO-25
  9
$DIMCLRD
 70
     0
  9
$DIMCLRE
 70
     0
  9
$DIMCLRT
 70
     0
  9
$DIMTFAC
 40
1.0
  9
$DIMGAP
 40
1.524
  9
$DIMJUST
 70
     0
  9
$DIMSD1
 70
     0
  9
$DIMSD2
 70
     0
  9
$DIMTOLJ
 70
     0
  9
$DIMTZIN
 70
     0
  9
$DIMALTZ
 70
     0
  9
$DIMALTTZ
 70
     0
  9
$DIMUPT
 70
     0
  9
$DIMDEC
 70
     0
  9
$DIMTDEC
 70
     0
  9
$DIMALTU
 70
     2
  9
$DIMALTTD
 70
     3
  9
$DIMTXSTY
  7
Standard
  9
$DIMAUNIT
 70
     0
  9
$DIMADEC
 70
     0
  9
$DIMALTRND
 40
0.0
  9
$DIMAZIN
 70
     0
  9
$DIMDSEP
 70
    44
  9
$DIMATFIT
 70
     3
  9
$DIMFRAC
 70
     0
  9
$DIMLDRBLK
  1

  9
$DIMLUNIT
 70
     2
  9
$DIMLWD
 70
    -2
  9
$DIMLWE
 70
    -2
  9
$DIMTMOVE
 70
     0
  9
$LUNITS
 70
     2
  9
$LUPREC
 70
     2
  9
$SKETCHINC
 40
1.0
  9
$FILLETRAD
 40
10.0
  9
$AUNITS
 70
     0
  9
$AUPREC
 70
     2
  9
$MENU
  1
.
  9
$ELEVATION
 40
0.0
  9
$PELEVATION
 40
0.0
  9
$THICKNESS
 40
0.0
  9
$LIMCHECK
 70
     0
  9
$CHAMFERA
 40
0.0
  9
$CHAMFERB
 40
0.0
  9
$CHAMFERC
 40
0.0
  9
$CHAMFERD
 40
0.0
  9
$SKPOLY
 70
     0
  9
$TDCREATE
 40
2458684.457275104
  9
$TDUCREATE
 40
2458684.623941771
  9
$TDUPDATE
 40
2458684.457276574
  9
$TDUUPDATE
 40
2458684.623943241
  9
$TDINDWG
 40
0.0000000116
  9
$TDUSRTIMER
 40
0.0000000116
  9
$USRTIMER
 70
     1
  9
$ANGBASE
 50
0.0
  9
$ANGDIR
 70
     0
  9
$PDMODE
 70
     0
  9
$PDSIZE
 40
-1.0
  9
$PLINEWID
 40
0.0
  9
$SPLFRAME
 70
     0
  9
$SPLINETYPE
 70
     6
  9
$SPLINESEGS
 70
     8
  9
$HANDSEED
  5
182
  9
$SURFTAB1
 70
     6
  9
$SURFTAB2
 70
     6
  9
$SURFTYPE
 70
     6
  9
$SURFU
 70
     6
  9
$SURFV
 70
     6
  9
$UCSBASE
  2

  9
$UCSNAME
  2

  9
$UCSORG
 10
0.0
 20
0.0
 30
0.0
  9
$UCSXDIR
 10
1.0
 20
0.0
 30
0.0
  9
$UCSYDIR
 10
0.0
 20
1.0
 30
0.0
  9
$UCSORTHOREF
  2

  9
$UCSORTHOVIEW
 70
     0
  9
$UCSORGTOP
 10
0.0
 20
0.0
 30
0.0
  9
$UCSORGBOTTOM
 10
0.0
 20
0.0
 30
0.0
  9
$UCSORGLEFT
 10
0.0
 20
0.0
 30
0.0
  9
$UCSORGRIGHT
 10
0.0
 20
0.0
 30
0.0
  9
$UCSORGFRONT
 10
0.0
 20
0.0
 30
0.0
  9
$UCSORGBACK
 10
0.0
 20
0.0
 30
0.0
  9
$PUCSBASE
  2

  9
$PUCSNAME
  2

  9
$PUCSORG
 10
0.0
 20
0.0
 30
0.0
  9
$PUCSXDIR
 10
1.0
 20
0.0
 30
0.0
  9
$PUCSYDIR
 10
0.0
 20
1.0
 30
0.0
  9
$PUCSORTHOREF
  2

  9
$PUCSORTHOVIEW
 70
     0
  9
$PUCSORGTOP
 10
0.0
 20
0.0
 30
0.0
  9
$PUCSORGBOTTOM
 10
0.0
 20
0.0
 30
0.0
  9
$PUCSORGLEFT
 10
0.0
 20
0.0
 30
0.0
  9
$PUCSORGRIGHT
 10
0.0
 20
0.0
 30
0.0
  9
$PUCSORGFRONT
 10
0.0
 20
0.0
 30
0.0
  9
$PUCSORGBACK
 10
0.0
 20
0.0
 30
0.0
  9
$USERI1
 70
     0
  9
$USERI2
 70
     0
  9
$USERI3
 70
     0
  9
$USERI4
 70
     0
  9
$USERI5
 70
     0
  9
$USERR1
 40
0.0
  9
$USERR2
 40
0.0
  9
$USERR3
 40
0.0
  9
$USERR4
 40
0.0
  9
$USERR5
 40
0.0
  9
$WORLDVIEW
 70
     1
  9
$SHADEDGE
 70
     3
  9
$SHADEDIF
 70
    70
  9
$TILEMODE
 70
     1
  9
$MAXACTVP
 70
    64
  9
$PINSBASE
 10
0.0
 20
0.0
 30
0.0
  9
$PLIMCHECK
 70
     0
  9
$PEXTMIN
 10
1.0000000000E+20
 20
1.0000000000E+20
 30
1.0000000000E+20
  9
$PEXTMAX
 10
-1.0000000000E+20
 20
-1.0000000000E+20
 30
-1.0000000000E+20
  9
$PLIMMIN
 10
0.0
 20
0.0
  9
$PLIMMAX
 10
420.0
 20
297.0
  9
$UNITMODE
 70
     0
  9
$VISRETAIN
 70
     1
  9
$PLINEGEN
 70
     0
  9
$PSLTSCALE
 70
     1
  9
$TREEDEPTH
 70
  3020
  9
$CMLSTYLE
  2
Standard
  9
$CMLJUST
 70
     0
  9
$CMLSCALE
 40
20.0
  9
$PROXYGRAPHICS
 70
     1
  9
$MEASUREMENT
 70
     1
  9
$CELWEIGHT
370
    -1
  9
$ENDCAPS
280
     0
  9
$JOINSTYLE
280
     0
  9
$LWDISPLAY
290
     1
  9
$INSUNITS
 70
     4
  9
$HYPERLINKBASE
  1

  9
$STYLESHEET
  1

  9
$XEDIT
290
     1
  9
$CEPSNTYPE
380
     0
  9
$PSTYLEMODE
290
     1
  9
$FINGERPRINTGUID
  2
{ADC3591B-CC34-4DCD-8E3A-4DEFDA62513B}
  9
$VERSIONGUID
  2
{FAEB1C32-E019-11D5-929B-00C0DF256EC4}
  9
$EXTNAMES
290
     1
  9
$PSVPSCALE
 40
0.0
  9
$OLESTARTUP
290
     0
  0
ENDSEC
  0
SECTION
  2
CLASSES
  0
CLASS
  1
ACDBDICTIONARYWDFLT
  2
AcDbDictionaryWithDefault
  3
ObjectDBX Classes
 90
        0
280
     0
281
     0
  0
CLASS
  1
VISUALSTYLE
  2
AcDbVisualStyle
  3
ObjectDBX Classes
 90
     4095
280
     0
281
     0
  0
CLASS
  1
MATERIAL
  2
AcDbMaterial
  3
ObjectDBX Classes
 90
     1153
280
     0
281
     0
  0
CLASS
  1
SCALE
  2
AcDbScale
  3
ObjectDBX Classes
 90
     1153
280
     0
281
     0
  0
CLASS
  1
TABLESTYLE
  2
AcDbTableStyle
  3
ObjectDBX Classes
 90
     4095
280
     0
281
     0
  0
CLASS
  1
MLEADERSTYLE
  2
AcDbMLeaderStyle
  3
ACDB_MLEADERSTYLE_CLASS
 90
     4095
280
     0
281
     0
  0
CLASS
  1
SUN
  2
AcDbSun
  3
SCENEOE
 90
     1153
280
     0
281
     0
  0
CLASS
  1
ACDBPLACEHOLDER
  2
AcDbPlaceHolder
  3
ObjectDBX Classes
 90
        0
280
     0
281
     0
  0
CLASS
  1
LAYOUT
  2
AcDbLayout
  3
ObjectDBX Classes
 90
        0
280
     0
281
     0
  0
ENDSEC
  0
SECTION
  2
TABLES
  0
TABLE
  2
VPORT
  5
8
330
0
100
AcDbSymbolTable
 70
     1
  0
VPORT
  5
29
330
8
100
AcDbSymbolTableRecord
100
AcDbViewportTableRecord
  2
*Active
 70
     0
 10
0.0
 20
0.0
 11
1.0
 21
1.0
 12
215.9
 22
139.7
 13
0.0
 23
0.0
 14
10.0
 24
10.0
 15
10.0
 25
10.0
 16
0.0
 26
0.0
 36
1.0
 17
0.0
 27
0.0
 37
0.0
 40
279.4
 41
1.5454545455
 42
50.0
 43
0.0
 44
0.0
 50
0.0
 51
0.0
 71
     0
 72
  2000
 73
     1
 74
     3
 75
     0
 76
     0
 77
     0
 78
     0
281
     0
 65
     1
110
0.0
120
0.0
130
0.0
111
1.0
121
0.0
131
0.0
112
0.0
122
1.0
132
0.0
 79
     0
146
0.0
  0
ENDTAB
  0
TABLE
  2
LTYPE
  5
5
330
0
100
AcDbSymbolTable
 70
     6
  0
LTYPE
  5
14
330
5
100
AcDbSymbolTableRecord
100
AcDbLinetypeTableRecord
  2
ByBlock
 70
     0
  3

 72
    65
 73
     0
 40
0.0
  0
LTYPE
  5
15
330
5
100
AcDbSymbolTableRecord
100
AcDbLinetypeTableRecord
  2
ByLayer
 70
     0
  3

 72
    65
 73
     0
 40
0.0
  0
LTYPE
  5
16
330
5
100
AcDbSymbolTableRecord
100
AcDbLinetypeTableRecord
  2
Continuous
 70
     0
  3
Solid line
 72
    65
 73
     0
 40
0.0
  0
LTYPE
  5
6E
330
5
100
AcDbSymbolTableRecord
100
AcDbLinetypeTableRecord
  2
HIDDEN
 70
     0
  3
Hidden __ __ __ __ __ __ __ __ __ __ __ __ __ __
 72
    65
 73
     2
 40
1.905
 49
1.27
 74
     0
 49
-0.635
 74
     0
  0
LTYPE
  5
6F
330
5
100
AcDbSymbolTableRecord
100
AcDbLinetypeTableRecord
  2
PHANTOM
 70
     0
  3
Phantom ______  __  __  ______  __  __  ______
 72
    65
 73
     6
 40
12.7
 49
6.35
 74
     0
 49
-1.27
 74
     0
 49
1.27
 74
     0
 49
-1.27
 74
     0
 49
1.27
 74
     0
 49
-1.27
 74
     0
  0
LTYPE
  5
70
330
5
100
AcDbSymbolTableRecord
100
AcDbLinetypeTableRecord
  2
CENTER
 70
     0
  3
Center ____ _ ____ _ ____ _ ____ _ ____ _ ____
 72
    65
 73
     4
 40
10.16
 49
6.35
 74
     0
 49
-1.27
 74
     0
 49
1.27
 74
     0
 49
-1.27
 74
     0
  0
LTYPE
  5
71
330
5
100
AcDbSymbolTableRecord
100
AcDbLinetypeTableRecord
  2
CENTERX2
 70
     0
  3
Center (2x) ________  __  ________  __  _____
 72
    65
 73
     4
 40
20.32
 49
12.7
 74
     0
 49
-2.54
 74
     0
 49
2.54
 74
     0
 49
-2.54
 74
     0
  0
LTYPE
  5
72
330
5
100
AcDbSymbolTableRecord
100
AcDbLinetypeTableRecord
  2
DOT2
 70
     0
  3
Dot (.5x) ........................................
 72
    65
 73
     2
 40
0.635
 49
0.0
 74
     0
 49
-0.635
 74
     0
  0
ENDTAB
  0
TABLE
  2
LAYER
  5
2
330
0
100
AcDbSymbolTable
 70
     2
  0
LAYER
  5
10
330
2
100
AcDbSymbolTableRecord
100
AcDbLayerTableRecord
  2
0
 70
     0
 62
     7
  6
Continuous
370
    -3
390
F
  0
LAYER
  5
73
330
2
100
AcDbSymbolTableRecord
100
AcDbLayerTableRecord
  2
FORMAT
 70
     0
 62
     7
  6
Continuous
370
    -3
390
F
  0
ENDTAB
  0
TABLE
  2
STYLE
  5
3
330
0
100
AcDbSymbolTable
 70
     2
  0
STYLE
  5
11
330
3
100
AcDbSymbolTableRecord
100
AcDbTextStyleTableRecord
  2
Standard
 70
     0
 40
0.0
 41
1.0
 50
0.0
 71
     0
 42
3.175
  3
txt
  4

  0
STYLE
  5
B8
330
3
100
AcDbSymbolTableRecord
100
AcDbTextStyleTableRecord
  2
SLDTEXTSTYLE0
 70
     0
 40
0.0
 41
0.7
 50
0.0
 71
     0
 42
3.175
  3
TXT
  4

  0
ENDTAB
  0
TABLE
  2
VIEW
  5
6
330
0
100
AcDbSymbolTable
 70
     0
  0
ENDTAB
  0
TABLE
  2
UCS
  5
7
330
0
100
AcDbSymbolTable
 70
     0
  0
ENDTAB
  0
TABLE
  2
APPID
  5
9
330
0
100
AcDbSymbolTable
 70
     1
  0
APPID
  5
12
330
9
100
AcDbSymbolTableRecord
100
AcDbRegAppTableRecord
  2
ACAD
 70
     0
  0
ENDTAB
  0
TABLE
  2
DIMSTYLE
  5
A
330
0
100
AcDbSymbolTable
 70
     1
100
AcDbDimStyleTable
  0
DIMSTYLE
105
27
330
A
100
AcDbSymbolTableRecord
100
AcDbDimStyleTableRecord
  2
ISO-25
 70
     0
 41
2.5
 42
0.625
 43
3.75
 44
1.25
 73
     0
 74
     0
 77
     1
 78
     8
140
2.5
141
2.5
143
0.0393700787
147
0.625
171
     3
172
     1
178
     0
271
     2
272
     2
274
     3
278
    44
283
     0
284
     8
340
11
  0
ENDTAB
  0
TABLE
  2
BLOCK_RECORD
  5
1
330
0
100
AcDbSymbolTable
 70
     4
  0
BLOCK_RECORD
  5
1F
330
1
100
AcDbSymbolTableRecord
100
AcDbBlockTableRecord
  2
*Model_Space
340
22
  0
BLOCK_RECORD
  5
1B
330
1
100
AcDbSymbolTableRecord
100
AcDbBlockTableRecord
  2
*Paper_Space
340
1E
  0
BLOCK_RECORD
  5
23
330
1
100
AcDbSymbolTableRecord
100
AcDbBlockTableRecord
  2
*Paper_Space0
340
26
  0
BLOCK_RECORD
  5
BB
330
1
100
AcDbSymbolTableRecord
100
AcDbBlockTableRecord
  2
SW_NOTE_0
340
0
102
{BLKREFS
331
C1
102
}
  0
BLOCK_RECORD
  5
C6
330
1
100
AcDbSymbolTableRecord
100
AcDbBlockTableRecord
  2
SW_NOTE_1
340
0
102
{BLKREFS
331
CC
102
}
  0
BLOCK_RECORD
  5
104
330
1
100
AcDbSymbolTableRecord
100
AcDbBlockTableRecord
  2
SW_CENTERMARKSYMBOL_0
340
0
102
{BLKREFS
331
10F
102
}
  0
ENDTAB
  0
ENDSEC
  0
SECTION
  2
BLOCKS
  0
BLOCK
  5
20
330
1F
100
AcDbEntity
  8
0
100
AcDbBlockBegin
  2
*Model_Space
 70
     0
 10
0.0
 20
0.0
 30
0.0
  3
*Model_Space
  1

  0
ENDBLK
  5
21
330
1F
100
AcDbEntity
  8
0
100
AcDbBlockEnd
  0
BLOCK
  5
1C
330
1B
100
AcDbEntity
 67
     1
  8
0
100
AcDbBlockBegin
  2
*Paper_Space
 70
     0
 10
0.0
 20
0.0
 30
0.0
  3
*Paper_Space
  1

  0
ENDBLK
  5
1D
330
1B
100
AcDbEntity
 67
     1
  8
0
100
AcDbBlockEnd
  0
BLOCK
  5
24
330
23
100
AcDbEntity
  8
0
100
AcDbBlockBegin
  2
*Paper_Space0
 70
     0
 10
0.0
 20
0.0
 30
0.0
  3
*Paper_Space0
  1

  0
ENDBLK
  5
25
330
23
100
AcDbEntity
  8
0
100
AcDbBlockEnd
  0
BLOCK
  5
BC
330
BB
100
AcDbEntity
  8
0
100
AcDbBlockBegin
  2
SW_NOTE_0
 70
     0
 10
0.0
 20
0.0
 30
0.0
  3
SW_NOTE_0
  1

  0
MTEXT
  5
BE
330
BB
100
AcDbEntity
  8
0
  6
Continuous
 62
     0
370
     0
100
AcDbMText
 10
0.0
 20
2.0463950369
 30
0.0
 40
1.5875
 41
0.0
 71
     1
 72
     1
  1
87 34th Street, Unit 11, Brooklyn, NY 11232
  7
SLDTEXTSTYLE0
 73
     1
 44
1.0
  0
MTEXT
  5
BF
330
BB
100
AcDbEntity
  8
0
  6
Continuous
 62
     0
370
     0
100
AcDbMText
 10
0.0
 20
-0.0702716042
 30
0.0
 40
1.5875
 41
0.0
 71
     1
 72
     1
  1
T +1 718-387-6132
  7
SLDTEXTSTYLE0
 73
     1
 44
1.0
  0
MTEXT
  5
C0
330
BB
100
AcDbEntity
  8
0
  6
Continuous
 62
     0
370
     0
100
AcDbMText
 10
0.0
 20
-2.1869382453
 30
0.0
 40
1.5875
 41
0.0
 71
     1
 72
     1
  1
www.rollandhill.com
  7
SLDTEXTSTYLE0
 73
     1
 44
1.0
  0
ENDBLK
  5
BD
330
BB
100
AcDbEntity
  8
0
100
AcDbBlockEnd
  0
BLOCK
  5
C7
330
C6
100
AcDbEntity
  8
0
100
AcDbBlockBegin
  2
SW_NOTE_1
 70
     0
 10
0.0
 20
0.0
 30
0.0
  3
SW_NOTE_1
  1

  0
MTEXT
  5
C9
330
C6
100
AcDbEntity
  8
0
  6
Continuous
 62
     0
370
     0
100
AcDbMText
 10
0.0
 20
2.0463950369
 30
0.0
 40
1.5875
 41
0.0
 71
     1
 72
     1
  1
\LPROPRIETARY AND CONFIDENTIAL
  7
SLDTEXTSTYLE0
 73
     1
 44
1.0
  0
MTEXT
  5
CA
330
C6
100
AcDbEntity
  8
0
  6
Continuous
 62
     0
370
     0
100
AcDbMText
 10
37.3117625713
 20
2.0463950369
 30
0.0
 40
1.5875
 41
0.0
 71
     1
 72
     1
  1
THE INFORMATION CONTAINED IN THIS DRAWING IS THE SOLE PROPERTY OF ROLL & HILL LLC. ANY REPRODUCTION IN
  7
SLDTEXTSTYLE0
 73
     1
 44
1.0
  0
MTEXT
  5
CB
330
C6
100
AcDbEntity
  8
0
  6
Continuous
 62
     0
370
     0
100
AcDbMText
 10
0.0
 20
-0.0702716042
 30
0.0
 40
1.5875
 41
0.0
 71
     1
 72
     1
  1
PART OR AS A WHOLE WITHOUT THE WRITTEN PERMISSION OF ROLL & HILL LLC. IS PROHIBITED.
  7
SLDTEXTSTYLE0
 73
     1
 44
1.0
  0
ENDBLK
  5
C8
330
C6
100
AcDbEntity
  8
0
100
AcDbBlockEnd
  0
BLOCK
  5
105
330
104
100
AcDbEntity
  8
0
100
AcDbBlockBegin
  2
SW_CENTERMARKSYMBOL_0
 70
     0
 10
0.0
 20
0.0
 30
0.0
  3
SW_CENTERMARKSYMBOL_0
  1

  0
LINE
  5
107
330
104
100
AcDbEntity
  8
0
  6
Continuous
 62
     0
370
     0
100
AcDbLine
 10
0.0
 20
0.0
 30
0.0
 11
0.0
 21
0.254
 31
0.0
  0
LINE
  5
108
330
104
100
AcDbEntity
  8
0
  6
Continuous
 62
     0
370
     0
100
AcDbLine
 10
0.0
 20
0.0
 30
0.0
 11
-0.254
 21
0.0
 31
0.0
  0
LINE
  5
109
330
104
100
AcDbEntity
  8
0
  6
Continuous
 62
     0
370
     0
100
AcDbLine
 10
0.0
 20
0.0
 30
0.0
 11
0.0
 21
-0.254
 31
0.0
  0
LINE
  5
10A
330
104
100
AcDbEntity
  8
0
  6
Continuous
 62
     0
370
     0
100
AcDbLine
 10
0.0
 20
0.0
 30
0.0
 11
0.254
 21
0.0
 31
0.0
  0
LINE
  5
10B
330
104
100
AcDbEntity
  8
0
  6
Continuous
 62
     0
370
     0
100
AcDbLine
 10
0.0
 20
0.508
 30
0.0
 11
0.0
 21
18.669
 31
0.0
  0
LINE
  5
10C
330
104
100
AcDbEntity
  8
0
  6
Continuous
 62
     0
370
     0
100
AcDbLine
 10
-0.508
 20
0.0
 30
0.0
 11
-18.669
 21
0.0
 31
0.0
  0
LINE
  5
10D
330
104
100
AcDbEntity
  8
0
  6
Continuous
 62
     0
370
     0
100
AcDbLine
 10
0.0
 20
-0.508
 30
0.0
 11
0.0
 21
-18.669
 31
0.0
  0
LINE
  5
10E
330
104
100
AcDbEntity
  8
0
  6
Continuous
 62
     0
370
     0
100
AcDbLine
 10
0.508
 20
0.0
 30
0.0
 11
18.669
 21
0.0
 31
0.0
  0
ENDBLK
  5
106
330
104
100
AcDbEntity
  8
0
100
AcDbBlockEnd
  0
ENDSEC
  0
SECTION
  2
ENTITIES
  0
HATCH
  5
74
330
1F
100
AcDbEntity
  8
0
  6
Continuous
 62
     7
100
AcDbHatch
 10
0.0
 20
0.0
 30
0.0
210
0.0
220
0.0
230
1.0
  2
SOLID
 70
     1
 71
     0
 91
        2
 92
        0
 93
        6
 72
     4
 94
        3
 73
     1
 74
     0
 95
       20
 96
       16
 40
0.0
 40
0.0
 40
0.0
 40
0.0
 40
1.0
 40
1.0
 40
1.0
 40
2.0
 40
2.0
 40
2.0
 40
3.0
 40
3.0
 40
3.0
 40
4.0
 40
4.0
 40
4.0
 40
5.0
 40
5.0
 40
5.0
 40
5.0
 10
261.0219043336847
 20
23.63056361828031
 42
1.0
 10
261.2341319795987
 20
23.68742184709604
 42
1.0
 10
261.3945785321864
 20
23.72473719781129
 42
1.0
 10
261.5515161764629
 20
23.77337299628437
 42
1.0
 10
262.5617362220245
 20
24.08644572151765
 42
1.0
 10
262.9966382899503
 20
24.76217905347502
 42
1.0
 10
262.9131259646454
 20
25.88395655371281
 42
1.0
 10
262.8488620904764
 20
26.74717259793779
 42
1.0
 10
262.3071445332423
 20
27.30037799580671
 42
1.0
 10
261.2989762515715
 20
27.40941936834727
 42
1.0
 10
260.5093946232761
 20
27.49481913962259
 42
1.0
 10
259.7094699986221
 20
27.48819126576296
 42
1.0
 10
258.913837050576
 20
27.51251762112626
 42
1.0
 10
258.5159962651877
 20
27.52468175973202
 42
1.0
 10
258.1174764912431
 20
27.51463645747964
 42
1.0
 10
257.7192638284546
 20
27.51463645747964
 42
1.0
 72
     4
 94
        3
 73
     1
 74
     0
 95
       14
 96
       10
 40
17.0
 40
17.0
 40
17.0
 40
17.0
 40
18.0
 40
18.0
 40
18.0
 40
19.0
 40
19.0
 40
19.0
 40
20.0
 40
20.0
 40
20.0
 40
20.0
 10
257.7192638284546
 20
27.51463645747964
 42
1.0
 10
258.2057453879524
 20
27.36893835120056
 42
1.0
 10
258.4151924094879
 20
27.04153921726714
 42
1.0
 10
258.4151320634913
 20
26.55729487989966
 42
1.0
 10
258.4149081683119
 20
24.76100595804667
 42
1.0
 10
258.4191609275175
 20
22.96470127704905
 42
1.0
 10
258.4124688639662
 20
21.16843695483816
 42
1.0
 10
258.4104423723632
 20
20.62446660851326
 42
1.0
 10
258.2139995287706
 20
20.39587059142628
 42
1.0
 10
257.7053577757453
 20
20.25910042553502
 42
1.0
 72
     1
 10
257.7053577757453
 20
20.25910042553502
 11
260.1134120717832
 21
20.25910042553502
 72
     4
 94
        3
 73
     1
 74
     0
 95
       14
 96
       10
 40
13.0
 40
13.0
 40
13.0
 40
13.0
 40
14.0
 40
14.0
 40
14.0
 40
15.0
 40
15.0
 40
15.0
 40
16.0
 40
16.0
 40
16.0
 40
16.0
 10
260.1134120717832
 20
20.25910042553502
 42
1.0
 10
259.6377614656041
 20
20.40079128856704
 42
1.0
 10
259.4435911100346
 20
20.64162793377141
 42
1.0
 10
259.4408326829897
 20
21.14221143023692
 42
1.0
 10
259.4366701545022
 20
21.89763799307775
 42
1.0
 10
259.4392191002215
 20
22.65310606781492
 42
1.0
 10
259.4405559370167
 20
23.40855338660287
 42
1.0
 10
259.4406539512153
 20
23.46398560492077
 42
1.0
 10
259.4539911852495
 20
23.51939476107442
 42
1.0
 10
259.4607286043899
 20
23.57138302951071
 42
1.0
 72
     4
 94
        3
 73
     1
 74
     0
 95
       20
 96
       16
 40
8.0
 40
8.0
 40
8.0
 40
8.0
 40
9.0
 40
9.0
 40
9.0
 40
10.0
 40
10.0
 40
10.0
 40
11.0
 40
11.0
 40
11.0
 40
12.0
 40
12.0
 40
12.0
 40
13.0
 40
13.0
 40
13.0
 40
13.0
 10
259.4607286043899
 20
23.57138302951071
 42
1.0
 10
260.3725694925604
 20
23.65083910446931
 42
1.0
 10
260.6054131759577
 20
23.52556773374194
 42
1.0
 10
261.0037355762117
 20
22.71920223094413
 42
1.0
 10
261.378026816807
 20
21.9614848264415
 42
1.0
 10
261.7451764738302
 20
21.200166649339
 42
1.0
 10
262.1067370153144
 20
20.43629933433309
 42
1.0
 10
262.1765046750147
 20
20.28890135435546
 42
1.0
 10
262.2549406335689
 20
20.22203337745712
 42
1.0
 10
262.427398730108
 20
20.22724465786873
 42
1.0
 10
262.8718696744063
 20
20.24067529366942
 42
1.0
 10
263.3170171088603
 20
20.2311736819415
 42
1.0
 10
263.7618904879274
 20
20.2323936704376
 42
1.0
 10
263.8264337986554
 20
20.23257048036439
 42
1.0
 10
263.8909540472192
 20
20.24131411562171
 42
1.0
 10
263.9554858268652
 20
20.24609336482204
 42
1.0
 72
     4
 94
        3
 73
     1
 74
     0
 95
       14
 96
       10
 40
5.0
 40
5.0
 40
5.0
 40
5.0
 40
6.0
 40
6.0
 40
6.0
 40
7.0
 40
7.0
 40
7.0
 40
8.0
 40
8.0
 40
8.0
 40
8.0
 10
263.9554858268652
 20
20.24609336482204
 42
1.0
 10
263.5606000734738
 20
20.32757122285868
 42
1.0
 10
263.3178377375433
 20
20.57267359973515
 42
1.0
 10
263.1292772534607
 20
20.88520667032095
 42
1.0
 10
262.8739775562312
 20
21.30835818112304
 42
1.0
 10
262.6276890153665
 20
21.7369354504649
 42
1.0
 10
262.3739921385617
 20
22.16106556577572
 42
1.0
 10
262.033208300972
 20
22.73079019980925
 42
1.0
 10
261.7521543160346
 20
23.35408286053947
 42
1.0
 10
261.0219043336847
 20
23.63056361828031
 42
1.0
 97
        0
 92
        0
 93
        2
 72
     1
 10
259.4558811296203
 20
23.74052094311722
 11
259.4558811296203
 21
27.35855230546976
 72
     4
 94
        3
 73
     1
 74
     0
 95
       20
 96
       16
 40
1.0
 40
1.0
 40
1.0
 40
1.0
 40
2.0
 40
2.0
 40
2.0
 40
3.0
 40
3.0
 40
3.0
 40
4.0
 40
4.0
 40
4.0
 40
5.0
 40
5.0
 40
5.0
 40
6.0
 40
6.0
 40
6.0
 40
6.0
 10
259.4558811296203
 20
27.35855230546976
 42
1.0
 10
259.8103733099057
 20
27.35855230546976
 42
1.0
 10
260.1467440101549
 20
27.38072599997261
 42
1.0
 10
260.4792308497364
 20
27.35420547185249
 42
1.0
 10
261.3230227860075
 20
27.28690123567825
 42
1.0
 10
261.7108519014664
 20
26.95476897687368
 42
1.0
 10
261.8164781518313
 20
26.10478869315943
 42
1.0
 10
261.8719876284001
 20
25.65810454981779
 42
1.0
 10
261.8389787525148
 20
25.18024881635489
 42
1.0
 10
261.7413862071132
 20
24.73962656292206
 42
1.0
 10
261.608259863196
 20
24.13857044109259
 42
1.0
 10
261.1506181168165
 20
23.81517009427841
 42
1.0
 10
260.5489927438957
 20
23.74778168120397
 42
1.0
 10
260.1942113256325
 20
23.70804326575078
 42
1.0
 10
259.8313410453958
 20
23.74052094311722
 42
1.0
 10
259.4558811296203
 20
23.74052094311722
 42
1.0
 97
        0
 75
     0
 76
     1
 98
        1
 10
0.0
 20
0.0
  0
HATCH
  5
75
330
1F
100
AcDbEntity
  8
0
  6
Continuous
 62
     7
100
AcDbHatch
 10
0.0
 20
0.0
 30
0.0
210
0.0
220
0.0
230
1.0
  2
SOLID
 70
     1
 71
     0
 91
        2
 92
        0
 93
        2
 72
     4
 94
        3
 73
     1
 74
     0
 95
       14
 96
       10
 40
0.0
 40
0.0
 40
0.0
 40
0.0
 40
1.0
 40
1.0
 40
1.0
 40
2.0
 40
2.0
 40
2.0
 40
3.0
 40
3.0
 40
3.0
 40
3.0
 10
267.2336118279071
 20
20.23490821509466
 42
1.0
 10
268.1650050112285
 20
19.98240211471103
 42
1.0
 10
269.1482911393735
 20
20.33660467264827
 42
1.0
 10
269.7215189161771
 20
21.13111084177937
 42
1.0
 10
270.3723808569537
 20
22.03321892002499
 42
1.0
 10
270.372934348899
 20
23.32205720159637
 42
1.0
 10
269.7103360726668
 20
24.21398909980579
 42
1.0
 10
269.2464106552308
 20
24.83848445240961
 42
1.0
 10
268.6216197225536
 20
25.16033694362372
 42
1.0
 10
267.7758432870376
 20
25.16748813643033
 42
1.0
 72
     4
 94
        3
 73
     1
 74
     0
 95
       14
 96
       10
 40
3.0
 40
3.0
 40
3.0
 40
3.0
 40
4.0
 40
4.0
 40
4.0
 40
5.0
 40
5.0
 40
5.0
 40
6.0
 40
6.0
 40
6.0
 40
6.0
 10
267.7758432870376
 20
25.16748813643033
 42
1.0
 10
266.9062728477855
 20
25.1505801106106
 42
1.0
 10
266.225828300013
 20
24.723612195973
 42
1.0
 10
265.7739382574312
 20
23.92202056120339
 42
1.0
 10
265.4879189885011
 20
23.41465794151554
 42
1.0
 10
265.4259332718035
 20
22.86561853145873
 42
1.0
 10
265.4837047623288
 20
22.29272284982232
 42
1.0
 10
265.5792320909092
 20
21.34541139190241
 42
1.0
 10
266.3034040398354
 20
20.48709452013179
 42
1.0
 10
267.2336118279071
 20
20.23490821509466
 42
1.0
 97
        0
 92
        0
 93
        2
 72
     4
 94
        3
 73
     1
 74
     0
 95
       17
 96
       13
 40
0.0
 40
0.0
 40
0.0
 40
0.0
 40
1.0
 40
1.0
 40
1.0
 40
2.0
 40
2.0
 40
2.0
 40
3.0
 40
3.0
 40
3.0
 40
4.0
 40
4.0
 40
4.0
 40
4.0
 10
266.4699528411193
 20
22.82140374989816
 42
1.0
 10
266.4968487059656
 20
23.23360918874381
 42
1.0
 10
266.5993976948625
 20
23.64490674705059
 42
1.0
 10
266.7072125446274
 20
24.04607386528146
 42
1.0
 10
266.7597204805012
 20
24.2414496033099
 42
1.0
 10
266.882078331128
 20
24.42789874624283
 42
1.0
 10
267.0072628343699
 20
24.59213287496141
 42
1.0
 10
267.4640605055332
 20
25.19142205062979
 42
1.0
 10
268.2143234497673
 20
25.18405330473933
 42
1.0
 10
268.6683621173312
 20
24.58056604641373
 42
1.0
 10
269.0963628325642
 20
24.01168817818241
 42
1.0
 10
269.195680043492
 20
23.34551372899321
 42
1.0
 10
269.218762963826
 20
22.68351122534059
 42
1.0
 72
     4
 94
        3
 73
     1
 74
     0
 95
       17
 96
       13
 40
4.0
 40
4.0
 40
4.0
 40
4.0
 40
5.0
 40
5.0
 40
5.0
 40
6.0
 40
6.0
 40
6.0
 40
7.0
 40
7.0
 40
7.0
 40
8.0
 40
8.0
 40
8.0
 40
8.0
 10
269.218762963826
 20
22.68351122534059
 42
1.0
 10
269.202432645224
 20
22.05765558940843
 42
1.0
 10
269.1208448575376
 20
21.47214721006825
 42
1.0
 10
268.810867074766
 20
20.94311038392242
 42
1.0
 10
268.6078393105943
 20
20.5966013640246
 42
1.0
 10
268.3388937306983
 20
20.33416469565678
 42
1.0
 10
267.9076604687568
 20
20.30531315927085
 42
1.0
 10
267.4153070900211
 20
20.27237193240103
 42
1.0
 10
267.1048165584612
 20
20.54785025472892
 42
1.0
 10
266.8746830637486
 20
20.93428603108956
 42
1.0
 10
266.5287029361534
 20
21.51524885782822
 42
1.0
 10
266.4269741915698
 20
22.16270989809668
 42
1.0
 10
266.4699528411193
 20
22.82140374989816
 42
1.0
 97
        0
 75
     0
 76
     1
 98
        1
 10
0.0
 20
0.0
  0
HATCH
  5
76
330
1F
100
AcDbEntity
  8
0
  6
Continuous
 62
     7
100
AcDbHatch
 10
0.0
 20
0.0
 30
0.0
210
0.0
220
0.0
230
1.0
  2
SOLID
 70
     1
 71
     0
 91
        1
 92
        0
 93
        4
 72
     1
 10
273.9540333846496
 20
27.87257450949275
 11
272.4594267850394
 21
27.32510813123116
 72
     4
 94
        3
 73
     1
 74
     0
 95
       14
 96
       10
 40
6.0
 40
6.0
 40
6.0
 40
6.0
 40
7.0
 40
7.0
 40
7.0
 40
8.0
 40
8.0
 40
8.0
 40
9.0
 40
9.0
 40
9.0
 40
9.0
 10
272.4594267850394
 20
27.32510813123116
 42
1.0
 10
272.9826104338649
 20
27.28380667758701
 42
1.0
 10
273.0476395875227
 20
27.23250104921648
 42
1.0
 10
273.0527409382852
 20
26.65700799131587
 42
1.0
 10
273.0685846452182
 20
24.86961337752774
 42
1.0
 10
273.0702866329497
 20
23.08209538116094
 42
1.0
 10
273.0783845276048
 20
21.29462927466367
 42
1.0
 10
273.0805785081768
 20
20.81042375860576
 42
1.0
 10
273.0059923935969
 20
20.37668517687364
 42
1.0
 10
272.426404840594
 20
20.2590796695872
 42
1.0
 72
     1
 10
272.426404840594
 20
20.2590796695872
 11
274.6224502449564
 21
20.2590796695872
 72
     4
 94
        3
 73
     1
 74
     0
 95
       17
 96
       13
 40
1.0
 40
1.0
 40
1.0
 40
1.0
 40
2.0
 40
2.0
 40
2.0
 40
3.0
 40
3.0
 40
3.0
 40
4.0
 40
4.0
 40
4.0
 40
5.0
 40
5.0
 40
5.0
 40
5.0
 10
274.6224502449564
 20
20.2590796695872
 42
1.0
 10
274.1836818051716
 20
20.38260600321025
 42
1.0
 10
274.0006220316647
 20
20.58964274029083
 42
1.0
 10
273.9590578615309
 20
21.04279505200226
 42
1.0
 10
273.9506540088286
 20
21.13443409966764
 42
1.0
 10
273.954217881965
 20
21.22727776105204
 42
1.0
 10
273.9542086570993
 20
21.31956562427539
 42
1.0
 10
273.9539872603212
 20
23.41776441505853
 42
1.0
 10
273.9540349221275
 20
25.51596282147274
 42
1.0
 10
273.9540333846496
 20
27.61416161225588
 42
1.0
 10
273.9540333846496
 20
27.71082379150879
 42
1.0
 10
273.9540333846496
 20
27.8074859707617
 42
1.0
 10
273.9540333846496
 20
27.87257450949275
 42
1.0
 97
        0
 75
     0
 76
     1
 98
        1
 10
0.0
 20
0.0
  0
HATCH
  5
77
330
1F
100
AcDbEntity
  8
0
  6
Continuous
 62
     7
100
AcDbHatch
 10
0.0
 20
0.0
 30
0.0
210
0.0
220
0.0
230
1.0
  2
SOLID
 70
     1
 71
     0
 91
        1
 92
        0
 93
        4
 72
     1
 10
276.9460186560295
 20
20.2549177176549
 11
279.1055120673172
 21
20.2549177176549
 72
     4
 94
        3
 73
     1
 74
     0
 95
       14
 96
       10
 40
6.0
 40
6.0
 40
6.0
 40
6.0
 40
7.0
 40
7.0
 40
7.0
 40
8.0
 40
8.0
 40
8.0
 40
9.0
 40
9.0
 40
9.0
 40
9.0
 10
279.1055120673172
 20
20.2549177176549
 42
1.0
 10
278.6550987719953
 20
20.40793364087759
 42
1.0
 10
278.4823339486704
 20
20.63637283524633
 42
1.0
 10
278.4822124879378
 20
21.11904779232805
 42
1.0
 10
278.4816605334703
 20
23.30086999117493
 42
1.0
 10
278.4819664915176
 20
25.48269219002111
 42
1.0
 10
278.4819649540404
 20
27.66451419668386
 42
1.0
 10
278.4819649540404
 20
27.75219577693941
 42
1.0
 10
278.4819664915176
 20
27.83987735719566
 42
1.0
 10
278.4819664915176
 20
27.88441039662488
 42
1.0
 72
     1
 10
278.4819664915176
 20
27.88441039662488
 11
276.9846800684063
 21
27.3296354262854
 72
     4
 94
        3
 73
     1
 74
     0
 95
       17
 96
       13
 40
1.0
 40
1.0
 40
1.0
 40
1.0
 40
2.0
 40
2.0
 40
2.0
 40
3.0
 40
3.0
 40
3.0
 40
4.0
 40
4.0
 40
4.0
 40
5.0
 40
5.0
 40
5.0
 40
5.0
 10
276.9846800684063
 20
27.3296354262854
 42
1.0
 10
277.5366914227135
 20
27.25167954511983
 42
1.0
 10
277.5738092075535
 20
27.20775573119973
 42
1.0
 10
277.5772915943764
 20
26.57154691311976
 42
1.0
 10
277.5773838430334
 20
26.55476419172763
 42
1.0
 10
277.577359243392
 20
26.53798031722657
 42
1.0
 10
277.577359243392
 20
26.52119721146337
 42
1.0
 10
277.5773700057348
 20
24.72538990447762
 42
1.0
 10
277.5776652014392
 20
22.92958298186009
 42
1.0
 10
277.5771993457187
 20
21.13377529050539
 42
1.0
 10
277.5770686601204
 20
20.6342380475635
 42
1.0
 10
277.4179566381115
 20
20.4199152040148
 42
1.0
 10
276.9460186560295
 20
20.2549177176549
 42
1.0
 97
        0
 75
     0
 76
     1
 98
        1
 10
0.0
 20
0.0
  0
HATCH
  5
78
330
1F
100
AcDbEntity
  8
0
  6
Continuous
 62
     7
100
AcDbHatch
 10
0.0
 20
0.0
 30
0.0
210
0.0
220
0.0
230
1.0
  2
SOLID
 70
     1
 71
     0
 91
        3
 92
        0
 93
        9
 72
     4
 94
        3
 73
     1
 74
     0
 95
       14
 96
       10
 40
0.0
 40
0.0
 40
0.0
 40
0.0
 40
1.0
 40
1.0
 40
1.0
 40
2.0
 40
2.0
 40
2.0
 40
3.0
 40
3.0
 40
3.0
 40
3.0
 10
287.0539854214827
 20
21.61211917311517
 42
1.0
 10
287.2972697310664
 20
21.3082559388604
 42
1.0
 10
287.5152010346028
 20
21.01001756649998
 42
1.0
 10
287.7601488949774
 20
20.73592220529573
 42
1.0
 10
288.1784811821614
 20
20.26780485511384
 42
1.0
 10
288.7048673968812
 20
20.09831485913089
 42
1.0
 10
289.3271645408483
 20
20.20870037148624
 42
1.0
 10
289.9739444785289
 20
20.32342848939635
 42
1.0
 10
290.7160910783766
 20
21.04182259740494
 42
1.0
 10
290.8103661314317
 20
21.70506046432864
 42
1.0
 72
     4
 94
        3
 73
     1
 74
     0
 95
       14
 96
       10
 40
24.0
 40
24.0
 40
24.0
 40
24.0
 40
25.0
 40
25.0
 40
25.0
 40
26.0
 40
26.0
 40
26.0
 40
27.0
 40
27.0
 40
27.0
 40
27.0
 10
290.8103661314317
 20
21.70506046432864
 42
1.0
 10
290.6825002672103
 20
21.49939669476813
 42
1.0
 10
290.5884281612034
 20
21.32571784099438
 42
1.0
 10
290.4735170834558
 20
21.16713932372221
 42
1.0
 10
289.9836367374808
 20
20.49110656799653
 42
1.0
 10
289.3841588364346
 20
20.43289382139212
 42
1.0
 10
288.8166481701822
 20
21.05011190802389
 42
1.0
 10
288.4270667146001
 20
21.47381844824843
 42
1.0
 10
288.0996055050067
 20
21.95463920731319
 42
1.0
 10
287.7314564875268
 20
22.4264857094768
 42
1.0
 72
     4
 94
        3
 73
     1
 74
     0
 95
       11
 96
        7
 40
22.0
 40
22.0
 40
22.0
 40
22.0
 40
23.0
 40
23.0
 40
23.0
 40
24.0
 40
24.0
 40
24.0
 40
24.0
 10
287.7314564875268
 20
22.4264857094768
 42
1.0
 10
288.1508588591387
 20
23.00030157147278
 42
1.0
 10
288.5466855488353
 20
23.55949371503118
 42
1.0
 10
288.9612633156569
 20
24.10441845059237
 42
1.0
 10
289.4290162836425
 20
24.71923384406366
 42
1.0
 10
289.9536528488242
 20
25.26443186627322
 42
1.0
 10
290.7742138825406
 20
25.39867403457779
 42
1.0
 72
     1
 10
290.7742138825406
 20
25.39867403457779
 11
287.7715077796773
 21
25.39867403457779
 72
     4
 94
        3
 73
     1
 74
     0
 95
       17
 96
       13
 40
16.0
 40
16.0
 40
16.0
 40
16.0
 40
17.0
 40
17.0
 40
17.0
 40
18.0
 40
18.0
 40
18.0
 40
19.0
 40
19.0
 40
19.0
 40
20.0
 40
20.0
 40
20.0
 40
20.0
 10
287.7715077796773
 20
25.39867403457779
 42
1.0
 10
287.9710693005408
 20
25.34310267453518
 42
1.0
 10
288.1718392788191
 20
25.32949945687163
 42
1.0
 10
288.3670435880915
 20
25.28904726743022
 42
1.0
 10
288.7601181928394
 20
25.20759054971102
 42
1.0
 10
288.9174636530569
 20
24.97387165717582
 42
1.0
 10
288.8543009972361
 20
24.57697987985169
 42
1.0
 10
288.8373887433532
 20
24.47070865762303
 42
1.0
 10
288.8131334963293
 20
24.35736772890119
 42
1.0
 10
288.7595985254019
 20
24.26650702928458
 42
1.0
 10
288.4211781752921
 20
23.692108847638
 42
1.0
 10
288.0735790837579
 20
23.12311989664797
 42
1.0
 10
287.7233847299918
 20
22.54303496963325
 42
1.0
 72
     1
 10
287.7233847299918
 20
22.54303496963325
 11
285.8065406500284
 21
24.86455968857224
 72
     4
 94
        3
 73
     1
 74
     0
 95
       20
 96
       16
 40
10.0
 40
10.0
 40
10.0
 40
10.0
 40
11.0
 40
11.0
 40
11.0
 40
12.0
 40
12.0
 40
12.0
 40
13.0
 40
13.0
 40
13.0
 40
14.0
 40
14.0
 40
14.0
 40
15.0
 40
15.0
 40
15.0
 40
15.0
 10
285.8065406500283
 20
24.86455968857225
 42
1.0
 10
285.9002991106001
 20
24.9215528310502
 42
1.0
 10
286.0025259979348
 20
24.975621306713
 42
1.0
 10
286.0959738880259
 20
25.04203380586477
 42
1.0
 10
286.361711520857
 20
25.23088333574105
 42
1.0
 10
286.6551698752792
 20
25.39378370261948
 42
1.0
 10
286.8815726805328
 20
25.62247811827483
 42
1.0
 10
287.5614237619422
 20
26.30921056516709
 42
1.0
 10
287.361321048954
 20
27.32558686332681
 42
1.0
 10
286.4793408590448
 20
27.71426216803416
 42
1.0
 10
285.840402057257
 20
27.99583274545401
 42
1.0
 10
285.1912113546599
 20
27.99239110178883
 42
1.0
 10
284.558084218296
 20
27.68711127408746
 42
1.0
 10
283.9109291360762
 20
27.37506654483262
 42
1.0
 10
283.6309452355653
 20
26.8393466878164
 42
1.0
 10
283.7149530130354
 20
26.1296866058298
 42
1.0
 72
     4
 94
        3
 73
     1
 74
     0
 95
       11
 96
        7
 40
8.0
 40
8.0
 40
8.0
 40
8.0
 40
9.0
 40
9.0
 40
9.0
 40
10.0
 40
10.0
 40
10.0
 40
10.0
 10
283.7149530130354
 20
26.1296866058298
 42
1.0
 10
283.7707819005811
 20
25.65802498535045
 42
1.0
 10
284.0198409761273
 20
25.28515591156022
 42
1.0
 10
284.3077767109179
 20
24.93075271279267
 42
1.0
 10
284.4323277733789
 20
24.77744812814591
 42
1.0
 10
284.5641388051866
 20
24.6300390014551
 42
1.0
 10
284.7027239634148
 20
24.46818604120849
 42
1.0
 72
     4
 94
        3
 73
     1
 74
     0
 95
       20
 96
       16
 40
3.0
 40
3.0
 40
3.0
 40
3.0
 40
4.0
 40
4.0
 40
4.0
 40
5.0
 40
5.0
 40
5.0
 40
6.0
 40
6.0
 40
6.0
 40
7.0
 40
7.0
 40
7.0
 40
8.0
 40
8.0
 40
8.0
 40
8.0
 10
284.7027239634148
 20
24.46818604120849
 42
1.0
 10
284.5513685160267
 20
24.38851087568819
 42
1.0
 10
284.4255536469583
 20
24.32317807019961
 42
1.0
 10
284.3005597909425
 20
24.25632085564481
 42
1.0
 10
283.8607304915963
 20
24.02105948868024
 42
1.0
 10
283.460866385652
 20
23.73663343094009
 42
1.0
 10
283.1417229300147
 20
23.34576433784628
 42
1.0
 10
282.3522343191156
 20
22.37884389028816
 42
1.0
 10
282.6109241545095
 20
20.5355588898502
 42
1.0
 10
284.198169930981
 20
20.23446388406056
 42
1.0
 10
285.1515567317372
 20
20.05360962220845
 42
1.0
 10
285.9488126796034
 20
20.36759637788916
 42
1.0
 10
286.5896302790503
 20
21.09003174583673
 42
1.0
 10
286.7443651022574
 20
21.26447318851251
 42
1.0
 10
286.8995550188436
 20
21.43851181205056
 42
1.0
 10
287.0539854214827
 20
21.61211917311517
 42
1.0
 97
        0
 92
        0
 93
        2
 72
     4
 94
        3
 73
     1
 74
     0
 95
       14
 96
       10
 40
0.0
 40
0.0
 40
0.0
 40
0.0
 40
1.0
 40
1.0
 40
1.0
 40
2.0
 40
2.0
 40
2.0
 40
3.0
 40
3.0
 40
3.0
 40
3.0
 10
284.688382372121
 20
27.15085253116304
 42
1.0
 10
284.8337724063213
 20
27.5710895609412
 42
1.0
 10
285.1818973152029
 20
27.79269159230804
 42
1.0
 10
285.6158934244382
 20
27.76810636414938
 42
1.0
 10
285.9916529561654
 20
27.74682017860581
 42
1.0
 10
286.2400293916459
 20
27.5110460628537
 42
1.0
 10
286.3549927436335
 20
27.06650131962916
 42
1.0
 10
286.5713650448558
 20
26.2298440482801
 42
1.0
 10
286.3259713159692
 20
25.4295804098103
 42
1.0
 10
285.6520579731507
 20
24.9254318870995
 42
1.0
 72
     4
 94
        3
 73
     1
 74
     0
 95
       11
 96
        7
 40
3.0
 40
3.0
 40
3.0
 40
3.0
 40
4.0
 40
4.0
 40
4.0
 40
5.0
 40
5.0
 40
5.0
 40
5.0
 10
285.6520579731507
 20
24.9254318870995
 42
1.0
 10
285.3510444536752
 20
25.31853032275095
 42
1.0
 10
285.0380140090768
 20
25.68714980838475
 42
1.0
 10
284.7721626029031
 20
26.08712768767229
 42
1.0
 10
284.5571094574822
 20
26.41068293535724
 42
1.0
 10
284.5630810205802
 20
26.788679112661
 42
1.0
 10
284.688382372121
 20
27.15085253116304
 42
1.0
 97
        0
 92
        0
 93
        2
 72
     1
 10
284.845288113738
 20
24.3712657578988
 11
287.0009947176327
 21
21.77781006188367
 72
     4
 94
        3
 73
     1
 74
     0
 95
       14
 96
       10
 40
1.0
 40
1.0
 40
1.0
 40
1.0
 40
2.0
 40
2.0
 40
2.0
 40
3.0
 40
3.0
 40
3.0
 40
4.0
 40
4.0
 40
4.0
 40
4.0
 10
287.0009947176327
 20
21.77781006188367
 42
1.0
 10
286.5509442670314
 20
21.22618922689351
 42
1.0
 10
286.0339581905155
 20
20.90925282038733
 42
1.0
 10
285.3603677179978
 20
20.87638462370451
 42
1.0
 10
284.4974276510072
 20
20.83427541775252
 42
1.0
 10
283.8665083325146
 20
21.39392726712143
 42
1.0
 10
283.7780264951535
 20
22.28619625730053
 42
1.0
 10
283.6988925217564
 20
23.08417174469389
 42
1.0
 10
284.1054815548355
 20
23.90423117633508
 42
1.0
 10
284.845288113738
 20
24.3712657578988
 42
1.0
 97
        0
 75
     0
 76
     1
 98
        1
 10
0.0
 20
0.0
  0
HATCH
  5
79
330
1F
100
AcDbEntity
  8
0
  6
Continuous
 62
     7
100
AcDbHatch
 10
0.0
 20
0.0
 30
0.0
210
0.0
220
0.0
230
1.0
  2
SOLID
 70
     1
 71
     0
 91
        1
 92
        0
 93
        2
 72
     4
 94
        3
 73
     1
 74
     0
 95
       11
 96
        7
 40
0.0
 40
0.0
 40
0.0
 40
0.0
 40
1.0
 40
1.0
 40
1.0
 40
2.0
 40
2.0
 40
2.0
 40
2.0
 10
303.0570519104932
 20
26.35430478392947
 42
1.0
 10
303.0628482011429
 20
25.96449808787493
 42
1.0
 10
303.3259905717408
 20
25.69768229885988
 42
1.0
 10
303.6993639381942
 20
25.70301926806731
 42
1.0
 10
304.0680572227529
 20
25.70828897263022
 42
1.0
 10
304.3293945946187
 20
25.98752450590587
 42
1.0
 10
304.327448147944
 20
26.37412133304796
 42
1.0
 72
     4
 94
        3
 73
     1
 74
     0
 95
       11
 96
        7
 40
2.0
 40
2.0
 40
2.0
 40
2.0
 40
3.0
 40
3.0
 40
3.0
 40
4.0
 40
4.0
 40
4.0
 40
4.0
 10
304.327448147944
 20
26.37412133304796
 42
1.0
 10
304.3255386007336
 20
26.75299425696746
 42
1.0
 10
304.0507636744179
 20
27.04560238626284
 42
1.0
 10
303.6924299141011
 20
27.05034857969325
 42
1.0
 10
303.3266947364936
 20
27.05519259513757
 42
1.0
 10
303.0511172468595
 20
26.75330175249256
 42
1.0
 10
303.0570519104932
 20
26.35430478392947
 42
1.0
 97
        0
 75
     0
 76
     1
 98
        1
 10
0.0
 20
0.0
  0
HATCH
  5
7A
330
1F
100
AcDbEntity
  8
0
  6
Continuous
 62
     7
100
AcDbHatch
 10
0.0
 20
0.0
 30
0.0
210
0.0
220
0.0
230
1.0
  2
SOLID
 70
     1
 71
     0
 91
        1
 92
        0
 93
        4
 72
     1
 10
302.6973344203136
 20
20.2539775500868
 11
304.8038079156778
 21
20.2539775500868
 72
     4
 94
        3
 73
     1
 74
     0
 95
       17
 96
       13
 40
6.0
 40
6.0
 40
6.0
 40
6.0
 40
7.0
 40
7.0
 40
7.0
 40
8.0
 40
8.0
 40
8.0
 40
9.0
 40
9.0
 40
9.0
 40
10.0
 40
10.0
 40
10.0
 40
10.0
 10
304.8038079156778
 20
20.2539775500868
 42
1.0
 10
304.4578262506061
 20
20.33981031349822
 42
1.0
 10
304.2621822227331
 20
20.55023795748124
 42
1.0
 10
304.2107535961514
 20
20.89393877449616
 42
1.0
 10
304.1922454404932
 20
21.01764883669525
 42
1.0
 10
304.1821011631179
 20
21.14380579453512
 42
1.0
 10
304.1818797663412
 20
21.26887114326077
 42
1.0
 10
304.1797703470369
 20
22.46084295323946
 42
1.0
 10
304.1808527312862
 20
23.65282014439031
 42
1.0
 10
304.1800932173391
 20
24.84479541369365
 42
1.0
 10
304.1800409430993
 20
24.93136078519359
 42
1.0
 10
304.1727133247369
 20
25.01792115989102
 42
1.0
 10
304.1706223551654
 20
25.06377258638473
 42
1.0
 72
     1
 10
304.1706223551654
 20
25.06377258638473
 11
302.7125031745686
 21
24.50968064047992
 72
     4
 94
        3
 73
     1
 74
     0
 95
       17
 96
       13
 40
1.0
 40
1.0
 40
1.0
 40
1.0
 40
2.0
 40
2.0
 40
2.0
 40
3.0
 40
3.0
 40
3.0
 40
4.0
 40
4.0
 40
4.0
 40
5.0
 40
5.0
 40
5.0
 40
5.0
 10
302.7125031745686
 20
24.50968064047994
 42
1.0
 10
302.7604109773859
 20
24.50557288463289
 42
1.0
 10
302.8224697242704
 20
24.49650561033552
 42
1.0
 10
302.8846514693661
 20
24.49557889569631
 42
1.0
 10
303.1332831261333
 20
24.4918735746181
 42
1.0
 10
303.2632153602819
 20
24.35030186610297
 42
1.0
 10
303.2668591822546
 20
24.11891186780057
 42
1.0
 10
303.2829750227277
 20
23.09531768874206
 42
1.0
 10
303.296603224403
 20
22.071496731734
 42
1.0
 10
303.2916556214044
 20
21.04785181591346
 42
1.0
 10
303.2897768237453
 20
20.65853557522151
 42
1.0
 10
303.1321361678242
 20
20.3494649042487
 42
1.0
 10
302.6973344203136
 20
20.2539775500868
 42
1.0
 97
        0
 75
     0
 76
     1
 98
        1
 10
0.0
 20
0.0
  0
HATCH
  5
7B
330
1F
100
AcDbEntity
  8
0
  6
Continuous
 62
     7
100
AcDbHatch
 10
0.0
 20
0.0
 30
0.0
210
0.0
220
0.0
230
1.0
  2
SOLID
 70
     1
 71
     0
 91
        1
 92
        0
 93
        4
 72
     1
 10
308.65963267846
 20
27.88697759989075
 11
307.1608133901539
 21
27.32540717062984
 72
     4
 94
        3
 73
     1
 74
     0
 95
       20
 96
       16
 40
5.0
 40
5.0
 40
5.0
 40
5.0
 40
6.0
 40
6.0
 40
6.0
 40
7.0
 40
7.0
 40
7.0
 40
8.0
 40
8.0
 40
8.0
 40
9.0
 40
9.0
 40
9.0
 40
10.0
 40
10.0
 40
10.0
 40
10.0
 10
307.1608133901539
 20
27.32540717062984
 42
1.0
 10
307.6774858212348
 20
27.28280885460759
 42
1.0
 10
307.7501131893193
 20
27.20350460556406
 42
1.0
 10
307.7547502218385
 20
26.63215658734291
 42
1.0
 10
307.7552944889174
 20
26.56503146731187
 42
1.0
 10
307.7550361926765
 20
26.49789904426262
 42
1.0
 10
307.7550361926765
 20
26.43077008053731
 42
1.0
 10
307.7550484924979
 20
24.69380511724257
 42
1.0
 10
307.7587445887104
 20
22.95682170421714
 42
1.0
 10
307.7500732149022
 20
21.21990094340409
 42
1.0
 10
307.7490584796685
 20
21.01681475508336
 42
1.0
 10
307.7285516030971
 20
20.78446498637255
 42
1.0
 10
307.6283941606454
 20
20.61954360515536
 42
1.0
 10
307.5293898264143
 20
20.45652254628292
 42
1.0
 10
307.3179589782804
 20
20.36177625633667
 42
1.0
 10
307.178408284104
 20
20.25443648715803
 42
1.0
 72
     1
 10
307.178408284104
 20
20.25443648715803
 11
309.3620693061908
 21
20.25443648715802
 72
     4
 94
        3
 73
     1
 74
     0
 95
       14
 96
       10
 40
1.0
 40
1.0
 40
1.0
 40
1.0
 40
2.0
 40
2.0
 40
2.0
 40
3.0
 40
3.0
 40
3.0
 40
4.0
 40
4.0
 40
4.0
 40
4.0
 10
309.3620693061908
 20
20.25443648715802
 42
1.0
 10
308.807415027844
 20
20.43200746554105
 42
1.0
 10
308.6597679764911
 20
20.6374237012035
 42
1.0
 10
308.6597187772069
 20
21.15880542625192
 42
1.0
 10
308.6595035303402
 20
23.32371921490944
 42
1.0
 10
308.65963267846
 20
25.48863300356693
 42
1.0
 10
308.65963267846
 20
27.65354698440997
 42
1.0
 10
308.65963267846
 20
27.74275854708867
 42
1.0
 10
308.65963267846
 20
27.83196991758182
 42
1.0
 10
308.65963267846
 20
27.88697759989075
 42
1.0
 97
        0
 75
     0
 76
     1
 98
        1
 10
0.0
 20
0.0
  0
HATCH
  5
7C
330
1F
100
AcDbEntity
  8
0
  6
Continuous
 62
     7
100
AcDbHatch
 10
0.0
 20
0.0
 30
0.0
210
0.0
220
0.0
230
1.0
  2
SOLID
 70
     1
 71
     0
 91
        1
 92
        0
 93
        4
 72
     1
 10
313.1781318226163
 20
27.87703492426926
 11
311.6691528821608
 21
27.32445797038016
 72
     4
 94
        3
 73
     1
 74
     0
 95
       17
 96
       13
 40
6.0
 40
6.0
 40
6.0
 40
6.0
 40
7.0
 40
7.0
 40
7.0
 40
8.0
 40
8.0
 40
8.0
 40
9.0
 40
9.0
 40
9.0
 40
10.0
 40
10.0
 40
10.0
 40
10.0
 10
311.6691528821608
 20
27.32445797038016
 42
1.0
 10
312.2096131670664
 20
27.27631108979181
 42
1.0
 10
312.2683694120104
 20
27.21300429544448
 42
1.0
 10
312.2823973578678
 20
26.60716642601487
 42
1.0
 10
312.2845313768121
 20
26.51487279724974
 42
1.0
 10
312.2871512386867
 20
26.42255802816857
 42
1.0
 10
312.2871819882395
 20
26.33025248395311
 42
1.0
 10
312.2877662297369
 20
24.60974045310045
 42
1.0
 10
312.2890700107628
 20
22.88922803787955
 42
1.0
 10
312.2876555313485
 20
21.16871754450475
 42
1.0
 10
312.2872188877024
 20
20.63608302071405
 42
1.0
 10
312.1185268426077
 20
20.41647125413319
 42
1.0
 10
311.6156486607861
 20
20.25320881127337
 42
1.0
 72
     1
 10
311.6156486607861
 20
20.25320881127337
 11
313.8867245107604
 21
20.25320881127337
 72
     4
 94
        3
 73
     1
 74
     0
 95
       17
 96
       13
 40
1.0
 40
1.0
 40
1.0
 40
1.0
 40
2.0
 40
2.0
 40
2.0
 40
3.0
 40
3.0
 40
3.0
 40
4.0
 40
4.0
 40
4.0
 40
5.0
 40
5.0
 40
5.0
 40
5.0
 10
313.8867245107604
 20
20.25320881127337
 42
1.0
 10
313.3266152617988
 20
20.4348325806782
 42
1.0
 10
313.1888880160859
 20
20.62648762285203
 42
1.0
 10
313.1786115156352
 20
21.17082388885262
 42
1.0
 10
313.1771847363981
 20
21.24633325874564
 42
1.0
 10
313.1781441224363
 20
21.32188875296783
 42
1.0
 10
313.1781441224363
 20
21.39742349124222
 42
1.0
 10
313.1781256727049
 20
23.48721689184593
 42
1.0
 10
313.1781318226163
 20
25.57700952371036
 42
1.0
 10
313.1781318226163
 20
27.66680273212925
 42
1.0
 10
313.1781318226163
 20
27.75161518695077
 42
1.0
 10
313.1781318226163
 20
27.83642744958889
 42
1.0
 10
313.1781318226163
 20
27.87703492426926
 42
1.0
 97
        0
 75
     0
 76
     1
 98
        1
 10
0.0
 20
0.0
  0
HATCH
  5
7D
330
1F
100
AcDbEntity
  8
0
  6
Continuous
 62
     7
100
AcDbHatch
 10
0.0
 20
0.0
 30
0.0
210
0.0
220
0.0
230
1.0
  2
SOLID
 70
     1
 71
     0
 91
        1
 92
        0
 93
       12
 72
     1
 10
296.2715297073844
 20
27.50458020069891
 11
293.841527870193
 21
27.50458020069891
 72
     4
 94
        3
 73
     1
 74
     0
 95
       17
 96
       13
 40
21.0
 40
21.0
 40
21.0
 40
21.0
 40
22.0
 40
22.0
 40
22.0
 40
23.0
 40
23.0
 40
23.0
 40
24.0
 40
24.0
 40
24.0
 40
25.0
 40
25.0
 40
25.0
 40
25.0
 10
293.841527870193
 20
27.50458020069891
 42
1.0
 10
294.4654639653083
 20
27.35271373418588
 42
1.0
 10
294.541848928711
 20
26.88863860486635
 42
1.0
 10
294.5396718603926
 20
26.35648992400541
 42
1.0
 10
294.5326947869268
 20
24.65236702027423
 42
1.0
 10
294.54232862173
 20
22.9481603240125
 42
1.0
 10
294.5304592944584
 20
21.24409084762873
 42
1.0
 10
294.52894334152
 20
21.02641399663968
 42
1.0
 10
294.4888489999954
 20
20.77588586122133
 42
1.0
 10
294.3739502220706
 20
20.60171040217499
 42
1.0
 10
294.2655211499942
 20
20.43733713173098
 42
1.0
 10
294.0348564567621
 20
20.35359533789035
 42
1.0
 10
293.8906841048422
 20
20.25643828302682
 42
1.0
 72
     1
 10
293.8906841048422
 20
20.25643828302682
 11
296.2880237673525
 21
20.25643828302682
 72
     4
 94
        3
 73
     1
 74
     0
 95
       14
 96
       10
 40
17.0
 40
17.0
 40
17.0
 40
17.0
 40
18.0
 40
18.0
 40
18.0
 40
19.0
 40
19.0
 40
19.0
 40
20.0
 40
20.0
 40
20.0
 40
20.0
 10
296.2880237673525
 20
20.25643828302682
 42
1.0
 10
295.7413366980624
 20
20.4024294709773
 42
1.0
 10
295.5628078711177
 20
20.63015527572819
 42
1.0
 10
295.5619960829322
 20
21.2138824872384
 42
1.0
 10
295.560827599936
 20
22.05336910178782
 42
1.0
 10
295.561359567195
 20
22.89285956003151
 42
1.0
 10
295.5621928800676
 20
23.73234771205876
 42
1.0
 10
295.5622759038603
 20
23.81306182808445
 42
1.0
 10
295.5696219719554
 20
23.89376787235267
 42
1.0
 10
295.5733857171835
 20
23.97022240661697
 42
1.0
 72
     1
 10
295.5733857171835
 20
23.97022240661697
 11
298.4851131190222
 21
23.97022240661697
 72
     4
 94
        3
 73
     1
 74
     0
 95
       11
 96
        7
 40
14.0
 40
14.0
 40
14.0
 40
14.0
 40
15.0
 40
15.0
 40
15.0
 40
16.0
 40
16.0
 40
16.0
 40
16.0
 10
298.4851131190222
 20
23.97022240661697
 42
1.0
 10
298.4851131190222
 20
23.04419117651474
 42
1.0
 10
298.4852207424561
 20
22.13796342697173
 42
1.0
 10
298.485073144605
 20
21.23173567742801
 42
1.0
 10
298.4849747460367
 20
20.62384393007452
 42
1.0
 10
298.3307257657572
 20
20.41986831094703
 42
1.0
 10
297.7632396991476
 20
20.25412130424438
 42
1.0
 72
     1
 10
297.7632396991476
 20
20.25412130424438
 11
300.2193725060648
 21
20.25412130424438
 72
     4
 94
        3
 73
     1
 74
     0
 95
       17
 96
       13
 40
9.0
 40
9.0
 40
9.0
 40
9.0
 40
10.0
 40
10.0
 40
10.0
 40
11.0
 40
11.0
 40
11.0
 40
12.0
 40
12.0
 40
12.0
 40
13.0
 40
13.0
 40
13.0
 40
13.0
 10
300.2193725060648
 20
20.25412130424438
 42
1.0
 10
299.739442715284
 20
20.41422423058344
 42
1.0
 10
299.5427163031618
 20
20.62720562490344
 42
1.0
 10
299.542119761843
 20
21.03839632851544
 42
1.0
 10
299.5393769017586
 20
22.92724217217554
 42
1.0
 10
299.5395583241182
 20
24.8160968563317
 42
1.0
 10
299.5421628112159
 20
26.70494346873036
 42
1.0
 10
299.5426363543262
 20
27.0468754177367
 42
1.0
 10
299.7248336028849
 20
27.28837413924314
 42
1.0
 10
300.049118383702
 20
27.40930924651266
 42
1.0
 10
300.1052670665942
 20
27.43024796211264
 42
1.0
 10
300.1600043450263
 20
27.45496618208605
 42
1.0
 10
300.2549312885929
 20
27.49433829349534
 42
1.0
 72
     1
 10
300.2549312885929
 20
27.49433829349534
 11
297.7186989723292
 21
27.49433829349534
 72
     4
 94
        3
 73
     1
 74
     0
 95
       14
 96
       10
 40
5.0
 40
5.0
 40
5.0
 40
5.0
 40
6.0
 40
6.0
 40
6.0
 40
7.0
 40
7.0
 40
7.0
 40
8.0
 40
8.0
 40
8.0
 40
8.0
 10
297.7186989723292
 20
27.49433829349534
 42
1.0
 10
298.3648823686909
 20
27.26685790861022
 42
1.0
 10
298.4850762195593
 20
27.0944786077999
 42
1.0
 10
298.4851069691121
 20
26.45733654080182
 42
1.0
 10
298.4851377186649
 20
25.7773505457302
 42
1.0
 10
298.4851131190222
 20
25.09736416629037
 42
1.0
 10
298.4851131190222
 20
24.41737817121947
 42
1.0
 10
298.4851131190222
 20
24.32893553953832
 42
1.0
 10
298.4851131190222
 20
24.24049329222682
 42
1.0
 10
298.4851131190222
 20
24.16049564077468
 42
1.0
 72
     1
 10
298.4851131190222
 20
24.16049564077468
 11
295.5632814142282
 21
24.16049564077468
 72
     4
 94
        3
 73
     1
 74
     0
 95
       14
 96
       10
 40
1.0
 40
1.0
 40
1.0
 40
1.0
 40
2.0
 40
2.0
 40
2.0
 40
3.0
 40
3.0
 40
3.0
 40
4.0
 40
4.0
 40
4.0
 40
4.0
 10
295.5632814142282
 20
24.16049564077468
 42
1.0
 10
295.5632814142282
 20
25.01272602299438
 42
1.0
 10
295.5627432970579
 20
25.84365465270932
 42
1.0
 10
295.5644406723573
 20
26.67457866999212
 42
1.0
 10
295.5645605956114
 20
26.73240397223375
 42
1.0
 10
295.5792681065788
 20
26.79059327230427
 42
1.0
 10
295.5906023916358
 20
26.8479388815276
 42
1.0
 10
295.6648994604227
 20
27.22384581892186
 42
1.0
 10
295.9411319155254
 20
27.38780204855992
 42
1.0
 10
296.2715297073844
 20
27.50458020069891
 42
1.0
 97
        0
 75
     0
 76
     1
 98
        1
 10
0.0
 20
0.0
  0
SPLINE
  5
7E
330
1F
100
AcDbEntity
  8
0
  6
Continuous
 62
   179
370
     0
100
AcDbSpline
210
0.0
220
0.0
230
1.0
 70
     8
 71
     3
 72
    14
 73
    10
 74
     0
 42
0.000000001
 43
0.00000001
 40
24.0
 40
24.0
 40
24.0
 40
24.0
 40
25.0
 40
25.0
 40
25.0
 40
26.0
 40
26.0
 40
26.0
 40
27.0
 40
27.0
 40
27.0
 40
27.0
 10
287.7314564875268
 20
22.42648570947681
 30
0.0
 10
288.0996055050067
 20
21.95463920731319
 30
0.0
 10
288.4270667146001
 20
21.47381844824843
 30
0.0
 10
288.8166481701822
 20
21.05011190802389
 30
0.0
 10
289.3841588364346
 20
20.43289382139212
 30
0.0
 10
289.9836367374808
 20
20.49110656799654
 30
0.0
 10
290.4735170834558
 20
21.16713932372222
 30
0.0
 10
290.5884281612034
 20
21.32571784099438
 30
0.0
 10
290.6825002672103
 20
21.49939669476814
 30
0.0
 10
290.8103661314317
 20
21.70506046432864
 30
0.0
  0
SPLINE
  5
7F
330
1F
100
AcDbEntity
  8
0
  6
Continuous
 62
   179
370
     0
100
AcDbSpline
210
0.0
220
0.0
230
1.0
 70
     8
 71
     3
 72
    11
 73
     7
 74
     0
 42
0.000000001
 43
0.00000001
 40
22.0
 40
22.0
 40
22.0
 40
22.0
 40
23.0
 40
23.0
 40
23.0
 40
24.0
 40
24.0
 40
24.0
 40
24.0
 10
290.7742138825406
 20
25.39867403457779
 30
0.0
 10
289.9536528488242
 20
25.26443186627322
 30
0.0
 10
289.4290162836425
 20
24.71923384406366
 30
0.0
 10
288.9612633156569
 20
24.10441845059237
 30
0.0
 10
288.5466855488353
 20
23.55949371503119
 30
0.0
 10
288.1508588591388
 20
23.00030157147279
 30
0.0
 10
287.7314564875268
 20
22.42648570947681
 30
0.0
  0
SPLINE
  5
80
330
1F
100
AcDbEntity
  8
0
  6
Continuous
 62
   179
370
     0
100
AcDbSpline
210
0.0
220
0.0
230
1.0
 70
     8
 71
     3
 72
    11
 73
     7
 74
     0
 42
0.000000001
 43
0.00000001
 40
20.0
 40
20.0
 40
20.0
 40
20.0
 40
21.0
 40
21.0
 40
21.0
 40
22.0
 40
22.0
 40
22.0
 40
22.0
 10
287.7715077796773
 20
25.39867403457779
 30
0.0
 10
288.2706160663608
 20
25.39867403457779
 30
0.0
 10
288.76972127809
 20
25.39867441894744
 30
0.0
 10
289.2688295647749
 20
25.39867441894744
 30
0.0
 10
289.7706253623487
 20
25.39867441894744
 30
0.0
 10
290.2724180849667
 20
25.39867403457779
 30
0.0
 10
290.7742138825406
 20
25.39867403457779
 30
0.0
  0
SPLINE
  5
81
330
1F
100
AcDbEntity
  8
0
  6
Continuous
 62
   179
370
     0
100
AcDbSpline
210
0.0
220
0.0
230
1.0
 70
     8
 71
     3
 72
    17
 73
    13
 74
     0
 42
0.000000001
 43
0.00000001
 40
16.0
 40
16.0
 40
16.0
 40
16.0
 40
17.0
 40
17.0
 40
17.0
 40
18.0
 40
18.0
 40
18.0
 40
19.0
 40
19.0
 40
19.0
 40
20.0
 40
20.0
 40
20.0
 40
20.0
 10
287.7233847299918
 20
22.54303496963325
 30
0.0
 10
288.0735790837579
 20
23.12311989664797
 30
0.0
 10
288.4211781752921
 20
23.692108847638
 30
0.0
 10
288.7595985254019
 20
24.26650702928458
 30
0.0
 10
288.8131334963293
 20
24.3573677289012
 30
0.0
 10
288.8373887433532
 20
24.47070865762303
 30
0.0
 10
288.8543009972361
 20
24.57697987985169
 30
0.0
 10
288.9174636530569
 20
24.97387165717582
 30
0.0
 10
288.7601181928394
 20
25.20759054971102
 30
0.0
 10
288.3670435880915
 20
25.28904726743022
 30
0.0
 10
288.1718392788191
 20
25.32949945687163
 30
0.0
 10
287.9710693005408
 20
25.34310267453518
 30
0.0
 10
287.7715077796773
 20
25.39867403457779
 30
0.0
  0
SPLINE
  5
82
330
1F
100
AcDbEntity
  8
0
  6
Continuous
 62
   179
370
     0
100
AcDbSpline
210
0.0
220
0.0
230
1.0
 70
     8
 71
     3
 72
     8
 73
     4
 74
     0
 42
0.000000001
 43
0.00000001
 40
15.0
 40
15.0
 40
15.0
 40
15.0
 40
16.0
 40
16.0
 40
16.0
 40
16.0
 10
285.8065406500283
 20
24.86455968857225
 30
0.0
 10
286.4380688096612
 20
24.09970377545334
 30
0.0
 10
287.0596648638312
 20
23.34687900912474
 30
0.0
 10
287.7233847299918
 20
22.54303496963325
 30
0.0
  0
SPLINE
  5
83
330
1F
100
AcDbEntity
  8
0
  6
Continuous
 62
   179
370
     0
100
AcDbSpline
210
0.0
220
0.0
230
1.0
 70
     8
 71
     3
 72
    26
 73
    22
 74
     0
 42
0.000000001
 43
0.00000001
 40
8.0
 40
8.0
 40
8.0
 40
8.0
 40
9.0
 40
9.0
 40
9.0
 40
10.0
 40
10.0
 40
10.0
 40
11.0
 40
11.0
 40
11.0
 40
12.0
 40
12.0
 40
12.0
 40
13.0
 40
13.0
 40
13.0
 40
14.0
 40
14.0
 40
14.0
 40
15.0
 40
15.0
 40
15.0
 40
15.0
 10
284.7027239634148
 20
24.4681860412085
 30
0.0
 10
284.5641388051866
 20
24.63003900145511
 30
0.0
 10
284.4323277733789
 20
24.77744812814592
 30
0.0
 10
284.3077767109179
 20
24.93075271279267
 30
0.0
 10
284.0198409761273
 20
25.28515591156022
 30
0.0
 10
283.7707819005811
 20
25.65802498535045
 30
0.0
 10
283.7149530130354
 20
26.1296866058298
 30
0.0
 10
283.6309452355654
 20
26.8393466878164
 30
0.0
 10
283.9109291360762
 20
27.37506654483262
 30
0.0
 10
284.558084218296
 20
27.68711127408746
 30
0.0
 10
285.1912113546599
 20
27.99239110178883
 30
0.0
 10
285.840402057257
 20
27.99583274545402
 30
0.0
 10
286.4793408590448
 20
27.71426216803416
 30
0.0
 10
287.361321048954
 20
27.32558686332681
 30
0.0
 10
287.5614237619422
 20
26.30921056516709
 30
0.0
 10
286.8815726805328
 20
25.62247811827483
 30
0.0
 10
286.6551698752792
 20
25.39378370261948
 30
0.0
 10
286.361711520857
 20
25.23088333574105
 30
0.0
 10
286.0959738880259
 20
25.04203380586477
 30
0.0
 10
286.0025259979348
 20
24.97562130671301
 30
0.0
 10
285.9002991106001
 20
24.9215528310502
 30
0.0
 10
285.8065406500283
 20
24.86455968857225
 30
0.0
  0
SPLINE
  5
84
330
1F
100
AcDbEntity
  8
0
  6
Continuous
 62
   179
370
     0
100
AcDbSpline
210
0.0
220
0.0
230
1.0
 70
     8
 71
     3
 72
    20
 73
    16
 74
     0
 42
0.000000001
 43
0.00000001
 40
3.0
 40
3.0
 40
3.0
 40
3.0
 40
4.0
 40
4.0
 40
4.0
 40
5.0
 40
5.0
 40
5.0
 40
6.0
 40
6.0
 40
6.0
 40
7.0
 40
7.0
 40
7.0
 40
8.0
 40
8.0
 40
8.0
 40
8.0
 10
287.0539854214827
 20
21.61211917311518
 30
0.0
 10
286.8995550188436
 20
21.43851181205056
 30
0.0
 10
286.7443651022574
 20
21.26447318851252
 30
0.0
 10
286.5896302790503
 20
21.09003174583674
 30
0.0
 10
285.9488126796034
 20
20.36759637788917
 30
0.0
 10
285.1515567317372
 20
20.05360962220845
 30
0.0
 10
284.198169930981
 20
20.23446388406056
 30
0.0
 10
282.6109241545095
 20
20.5355588898502
 30
0.0
 10
282.3522343191156
 20
22.37884389028816
 30
0.0
 10
283.1417229300147
 20
23.34576433784628
 30
0.0
 10
283.460866385652
 20
23.7366334309401
 30
0.0
 10
283.8607304915963
 20
24.02105948868025
 30
0.0
 10
284.3005597909425
 20
24.25632085564482
 30
0.0
 10
284.4255536469583
 20
24.32317807019961
 30
0.0
 10
284.5513685160267
 20
24.38851087568819
 30
0.0
 10
284.7027239634148
 20
24.4681860412085
 30
0.0
  0
SPLINE
  5
85
330
1F
100
AcDbEntity
  8
0
  6
Continuous
 62
   179
370
     0
100
AcDbSpline
210
0.0
220
0.0
230
1.0
 70
     8
 71
     3
 72
    14
 73
    10
 74
     0
 42
0.000000001
 43
0.00000001
 40
0.0
 40
0.0
 40
0.0
 40
0.0
 40
1.0
 40
1.0
 40
1.0
 40
2.0
 40
2.0
 40
2.0
 40
3.0
 40
3.0
 40
3.0
 40
3.0
 10
290.8103661314317
 20
21.70506046432864
 30
0.0
 10
290.7160910783766
 20
21.04182259740494
 30
0.0
 10
289.9739444785289
 20
20.32342848939635
 30
0.0
 10
289.3271645408483
 20
20.20870037148624
 30
0.0
 10
288.7048673968812
 20
20.0983148591309
 30
0.0
 10
288.1784811821614
 20
20.26780485511384
 30
0.0
 10
287.7601488949774
 20
20.73592220529573
 30
0.0
 10
287.5152010346028
 20
21.01001756649998
 30
0.0
 10
287.2972697310665
 20
21.30825593886041
 30
0.0
 10
287.0539854214827
 20
21.61211917311518
 30
0.0
  0
SPLINE
  5
86
330
1F
100
AcDbEntity
  8
0
  6
Continuous
 62
   179
370
     0
100
AcDbSpline
210
0.0
220
0.0
230
1.0
 70
     8
 71
     3
 72
    14
 73
    10
 74
     0
 42
0.000000001
 43
0.00000001
 40
1.0
 40
1.0
 40
1.0
 40
1.0
 40
2.0
 40
2.0
 40
2.0
 40
3.0
 40
3.0
 40
3.0
 40
4.0
 40
4.0
 40
4.0
 40
4.0
 10
284.845288113738
 20
24.3712657578988
 30
0.0
 10
284.1054815548355
 20
23.90423117633508
 30
0.0
 10
283.6988925217564
 20
23.08417174469389
 30
0.0
 10
283.7780264951535
 20
22.28619625730053
 30
0.0
 10
283.8665083325146
 20
21.39392726712143
 30
0.0
 10
284.4974276510072
 20
20.83427541775253
 30
0.0
 10
285.3603677179978
 20
20.87638462370452
 30
0.0
 10
286.0339581905155
 20
20.90925282038733
 30
0.0
 10
286.5509442670314
 20
21.22618922689351
 30
0.0
 10
287.0009947176327
 20
21.77781006188367
 30
0.0
  0
SPLINE
  5
87
330
1F
100
AcDbEntity
  8
0
  6
Continuous
 62
   179
370
     0
100
AcDbSpline
210
0.0
220
0.0
230
1.0
 70
     8
 71
     3
 72
     8
 73
     4
 74
     0
 42
0.000000001
 43
0.00000001
 40
0.0
 40
0.0
 40
0.0
 40
0.0
 40
1.0
 40
1.0
 40
1.0
 40
1.0
 10
287.0009947176327
 20
21.77781006188367
 30
0.0
 10
286.2819902310068
 20
22.64282111123716
 30
0.0
 10
285.5612360948443
 20
23.50993158628786
 30
0.0
 10
284.845288113738
 20
24.3712657578988
 30
0.0
  0
SPLINE
  5
88
330
1F
100
AcDbEntity
  8
0
  6
Continuous
 62
   179
370
     0
100
AcDbSpline
210
0.0
220
0.0
230
1.0
 70
     8
 71
     3
 72
    11
 73
     7
 74
     0
 42
0.000000001
 43
0.00000001
 40
3.0
 40
3.0
 40
3.0
 40
3.0
 40
4.0
 40
4.0
 40
4.0
 40
5.0
 40
5.0
 40
5.0
 40
5.0
 10
284.6883823721211
 20
27.15085253116305
 30
0.0
 10
284.5630810205802
 20
26.788679112661
 30
0.0
 10
284.5571094574822
 20
26.41068293535724
 30
0.0
 10
284.7721626029031
 20
26.08712768767229
 30
0.0
 10
285.0380140090768
 20
25.68714980838475
 30
0.0
 10
285.3510444536753
 20
25.31853032275096
 30
0.0
 10
285.6520579731507
 20
24.9254318870995
 30
0.0
  0
SPLINE
  5
89
330
1F
100
AcDbEntity
  8
0
  6
Continuous
 62
   179
370
     0
100
AcDbSpline
210
0.0
220
0.0
230
1.0
 70
     8
 71
     3
 72
    14
 73
    10
 74
     0
 42
0.000000001
 43
0.00000001
 40
0.0
 40
0.0
 40
0.0
 40
0.0
 40
1.0
 40
1.0
 40
1.0
 40
2.0
 40
2.0
 40
2.0
 40
3.0
 40
3.0
 40
3.0
 40
3.0
 10
285.6520579731507
 20
24.9254318870995
 30
0.0
 10
286.3259713159692
 20
25.4295804098103
 30
0.0
 10
286.5713650448558
 20
26.2298440482801
 30
0.0
 10
286.3549927436335
 20
27.06650131962916
 30
0.0
 10
286.2400293916459
 20
27.5110460628537
 30
0.0
 10
285.9916529561654
 20
27.74682017860582
 30
0.0
 10
285.6158934244382
 20
27.76810636414938
 30
0.0
 10
285.1818973152029
 20
27.79269159230804
 30
0.0
 10
284.8337724063213
 20
27.5710895609412
 30
0.0
 10
284.6883823721211
 20
27.15085253116305
 30
0.0
  0
SPLINE
  5
8A
330
1F
100
AcDbEntity
  8
0
  6
Continuous
 62
   179
370
     0
100
AcDbSpline
210
0.0
220
0.0
230
1.0
 70
     8
 71
     3
 72
    17
 73
    13
 74
     0
 42
0.000000001
 43
0.00000001
 40
21.0
 40
21.0
 40
21.0
 40
21.0
 40
22.0
 40
22.0
 40
22.0
 40
23.0
 40
23.0
 40
23.0
 40
24.0
 40
24.0
 40
24.0
 40
25.0
 40
25.0
 40
25.0
 40
25.0
 10
293.8906841048423
 20
20.25643828302682
 30
0.0
 10
294.0348564567621
 20
20.35359533789035
 30
0.0
 10
294.2655211499942
 20
20.43733713173099
 30
0.0
 10
294.3739502220706
 20
20.601710402175
 30
0.0
 10
294.4888489999955
 20
20.77588586122134
 30
0.0
 10
294.5289433415201
 20
21.02641399663968
 30
0.0
 10
294.5304592944584
 20
21.24409084762874
 30
0.0
 10
294.5423286217301
 20
22.94816032401251
 30
0.0
 10
294.5326947869268
 20
24.65236702027423
 30
0.0
 10
294.5396718603926
 20
26.35648992400541
 30
0.0
 10
294.541848928711
 20
26.88863860486636
 30
0.0
 10
294.4654639653083
 20
27.35271373418588
 30
0.0
 10
293.841527870193
 20
27.50458020069892
 30
0.0
  0
SPLINE
  5
8B
330
1F
100
AcDbEntity
  8
0
  6
Continuous
 62
   179
370
     0
100
AcDbSpline
210
0.0
220
0.0
230
1.0
 70
    24
 71
     3
 72
     8
 73
     4
 74
     0
 42
0.000000001
 43
0.00000001
 40
20.0
 40
20.0
 40
20.0
 40
20.0
 40
21.0
 40
21.0
 40
21.0
 40
21.0
 10
296.2880237673526
 20
20.25643828302682
 30
0.0
 10
295.4693261565182
 20
20.25643828302682
 30
0.0
 10
294.6506254707311
 20
20.25643828302682
 30
0.0
 10
293.8906841048423
 20
20.25643828302682
 30
0.0
  0
SPLINE
  5
8C
330
1F
100
AcDbEntity
  8
0
  6
Continuous
 62
   179
370
     0
100
AcDbSpline
210
0.0
220
0.0
230
1.0
 70
     8
 71
     3
 72
    14
 73
    10
 74
     0
 42
0.000000001
 43
0.00000001
 40
17.0
 40
17.0
 40
17.0
 40
17.0
 40
18.0
 40
18.0
 40
18.0
 40
19.0
 40
19.0
 40
19.0
 40
20.0
 40
20.0
 40
20.0
 40
20.0
 10
295.5733857171836
 20
23.97022240661698
 30
0.0
 10
295.5696219719554
 20
23.89376787235267
 30
0.0
 10
295.5622759038603
 20
23.81306182808446
 30
0.0
 10
295.5621928800676
 20
23.73234771205876
 30
0.0
 10
295.561359567195
 20
22.89285956003151
 30
0.0
 10
295.560827599936
 20
22.05336910178782
 30
0.0
 10
295.5619960829322
 20
21.2138824872384
 30
0.0
 10
295.5628078711177
 20
20.63015527572819
 30
0.0
 10
295.7413366980624
 20
20.4024294709773
 30
0.0
 10
296.2880237673526
 20
20.25643828302682
 30
0.0
  0
SPLINE
  5
8D
330
1F
100
AcDbEntity
  8
0
  6
Continuous
 62
   179
370
     0
100
AcDbSpline
210
0.0
220
0.0
230
1.0
 70
    24
 71
     3
 72
     8
 73
     4
 74
     0
 42
0.000000001
 43
0.00000001
 40
16.0
 40
16.0
 40
16.0
 40
16.0
 40
17.0
 40
17.0
 40
17.0
 40
17.0
 10
298.4851131190222
 20
23.97022240661698
 30
0.0
 10
297.5154382802974
 20
23.97022240661698
 30
0.0
 10
296.5557754958725
 20
23.97022240661698
 30
0.0
 10
295.5733857171836
 20
23.97022240661698
 30
0.0
  0
SPLINE
  5
8E
330
1F
100
AcDbEntity
  8
0
  6
Continuous
 62
   179
370
     0
100
AcDbSpline
210
0.0
220
0.0
230
1.0
 70
     8
 71
     3
 72
    11
 73
     7
 74
     0
 42
0.000000001
 43
0.00000001
 40
14.0
 40
14.0
 40
14.0
 40
14.0
 40
15.0
 40
15.0
 40
15.0
 40
16.0
 40
16.0
 40
16.0
 40
16.0
 10
297.7632396991476
 20
20.25412130424438
 30
0.0
 10
298.3307257657572
 20
20.41986831094704
 30
0.0
 10
298.4849747460367
 20
20.62384393007452
 30
0.0
 10
298.485073144605
 20
21.23173567742802
 30
0.0
 10
298.4852207424561
 20
22.13796342697173
 30
0.0
 10
298.4851131190222
 20
23.04419117651474
 30
0.0
 10
298.4851131190222
 20
23.97022240661698
 30
0.0
  0
SPLINE
  5
8F
330
1F
100
AcDbEntity
  8
0
  6
Continuous
 62
   179
370
     0
100
AcDbSpline
210
0.0
220
0.0
230
1.0
 70
    24
 71
     3
 72
     8
 73
     4
 74
     0
 42
0.000000001
 43
0.00000001
 40
13.0
 40
13.0
 40
13.0
 40
13.0
 40
14.0
 40
14.0
 40
14.0
 40
14.0
 10
300.2193725060649
 20
20.25412130424438
 30
0.0
 10
299.4006625954106
 20
20.25412130424438
 30
0.0
 10
298.5819526847563
 20
20.25412130424438
 30
0.0
 10
297.7632396991476
 20
20.25412130424438
 30
0.0
  0
SPLINE
  5
90
330
1F
100
AcDbEntity
  8
0
  6
Continuous
 62
   179
370
     0
100
AcDbSpline
210
0.0
220
0.0
230
1.0
 70
     8
 71
     3
 72
    17
 73
    13
 74
     0
 42
0.000000001
 43
0.00000001
 40
9.0
 40
9.0
 40
9.0
 40
9.0
 40
10.0
 40
10.0
 40
10.0
 40
11.0
 40
11.0
 40
11.0
 40
12.0
 40
12.0
 40
12.0
 40
13.0
 40
13.0
 40
13.0
 40
13.0
 10
300.254931288593
 20
27.49433829349534
 30
0.0
 10
300.1600043450263
 20
27.45496618208605
 30
0.0
 10
300.1052670665943
 20
27.43024796211265
 30
0.0
 10
300.049118383702
 20
27.40930924651266
 30
0.0
 10
299.7248336028849
 20
27.28837413924314
 30
0.0
 10
299.5426363543262
 20
27.0468754177367
 30
0.0
 10
299.5421628112159
 20
26.70494346873036
 30
0.0
 10
299.5395583241182
 20
24.8160968563317
 30
0.0
 10
299.5393769017586
 20
22.92724217217554
 30
0.0
 10
299.542119761843
 20
21.03839632851544
 30
0.0
 10
299.5427163031618
 20
20.62720562490344
 30
0.0
 10
299.739442715284
 20
20.41422423058345
 30
0.0
 10
300.2193725060649
 20
20.25412130424438
 30
0.0
  0
SPLINE
  5
91
330
1F
100
AcDbEntity
  8
0
  6
Continuous
 62
   179
370
     0
100
AcDbSpline
210
0.0
220
0.0
230
1.0
 70
    24
 71
     3
 72
     8
 73
     4
 74
     0
 42
0.000000001
 43
0.00000001
 40
8.0
 40
8.0
 40
8.0
 40
8.0
 40
9.0
 40
9.0
 40
9.0
 40
9.0
 10
297.7186989723292
 20
27.49433829349534
 30
0.0
 10
298.5854396840106
 20
27.49433829349534
 30
0.0
 10
299.3949493285535
 20
27.49433829349534
 30
0.0
 10
300.254931288593
 20
27.49433829349534
 30
0.0
  0
SPLINE
  5
92
330
1F
100
AcDbEntity
  8
0
  6
Continuous
 62
   179
370
     0
100
AcDbSpline
210
0.0
220
0.0
230
1.0
 70
     8
 71
     3
 72
    14
 73
    10
 74
     0
 42
0.000000001
 43
0.00000001
 40
5.0
 40
5.0
 40
5.0
 40
5.0
 40
6.0
 40
6.0
 40
6.0
 40
7.0
 40
7.0
 40
7.0
 40
8.0
 40
8.0
 40
8.0
 40
8.0
 10
298.4851131190222
 20
24.16049564077469
 30
0.0
 10
298.4851131190222
 20
24.24049329222683
 30
0.0
 10
298.4851131190222
 20
24.32893553953833
 30
0.0
 10
298.4851131190222
 20
24.41737817121947
 30
0.0
 10
298.4851131190222
 20
25.09736416629037
 30
0.0
 10
298.4851377186649
 20
25.7773505457302
 30
0.0
 10
298.4851069691121
 20
26.45733654080182
 30
0.0
 10
298.4850762195594
 20
27.0944786077999
 30
0.0
 10
298.3648823686909
 20
27.26685790861022
 30
0.0
 10
297.7186989723292
 20
27.49433829349534
 30
0.0
  0
SPLINE
  5
93
330
1F
100
AcDbEntity
  8
0
  6
Continuous
 62
   179
370
     0
100
AcDbSpline
210
0.0
220
0.0
230
1.0
 70
    24
 71
     3
 72
     8
 73
     4
 74
     0
 42
0.000000001
 43
0.00000001
 40
4.0
 40
4.0
 40
4.0
 40
4.0
 40
5.0
 40
5.0
 40
5.0
 40
5.0
 10
295.5632814142282
 20
24.16049564077469
 30
0.0
 10
296.5292663066504
 20
24.16049564077469
 30
0.0
 10
297.4889290910767
 20
24.16049564077469
 30
0.0
 10
298.4851131190222
 20
24.16049564077469
 30
0.0
  0
SPLINE
  5
94
330
1F
100
AcDbEntity
  8
0
  6
Continuous
 62
   179
370
     0
100
AcDbSpline
210
0.0
220
0.0
230
1.0
 70
     8
 71
     3
 72
    14
 73
    10
 74
     0
 42
0.000000001
 43
0.00000001
 40
1.0
 40
1.0
 40
1.0
 40
1.0
 40
2.0
 40
2.0
 40
2.0
 40
3.0
 40
3.0
 40
3.0
 40
4.0
 40
4.0
 40
4.0
 40
4.0
 10
296.2715297073845
 20
27.50458020069892
 30
0.0
 10
295.9411319155254
 20
27.38780204855992
 30
0.0
 10
295.6648994604227
 20
27.22384581892186
 30
0.0
 10
295.5906023916359
 20
26.8479388815276
 30
0.0
 10
295.5792681065788
 20
26.79059327230428
 30
0.0
 10
295.5645605956114
 20
26.73240397223375
 30
0.0
 10
295.5644406723574
 20
26.67457866999212
 30
0.0
 10
295.562743297058
 20
25.84365465270932
 30
0.0
 10
295.5632814142282
 20
25.01272602299438
 30
0.0
 10
295.5632814142282
 20
24.16049564077469
 30
0.0
  0
SPLINE
  5
95
330
1F
100
AcDbEntity
  8
0
  6
Continuous
 62
   179
370
     0
100
AcDbSpline
210
0.0
220
0.0
230
1.0
 70
    24
 71
     3
 72
     8
 73
     4
 74
     0
 42
0.000000001
 43
0.00000001
 40
0.0
 40
0.0
 40
0.0
 40
0.0
 40
1.0
 40
1.0
 40
1.0
 40
1.0
 10
293.841527870193
 20
27.50458020069892
 30
0.0
 10
294.6515264326192
 20
27.50458020069892
 30
0.0
 10
295.4615280700011
 20
27.50458020069892
 30
0.0
 10
296.2715297073845
 20
27.50458020069892
 30
0.0
  0
SPLINE
  5
96
330
1F
100
AcDbEntity
  8
0
  6
Continuous
 62
   179
370
     0
100
AcDbSpline
210
0.0
220
0.0
230
1.0
 70
     8
 71
     3
 72
    14
 73
    10
 74
     0
 42
0.000000001
 43
0.00000001
 40
17.0
 40
17.0
 40
17.0
 40
17.0
 40
18.0
 40
18.0
 40
18.0
 40
19.0
 40
19.0
 40
19.0
 40
20.0
 40
20.0
 40
20.0
 40
20.0
 10
257.7053577757453
 20
20.25910042553502
 30
0.0
 10
258.2139995287706
 20
20.39587059142628
 30
0.0
 10
258.4104423723632
 20
20.62446660851326
 30
0.0
 10
258.4124688639662
 20
21.16843695483816
 30
0.0
 10
258.4191609275175
 20
22.96470127704906
 30
0.0
 10
258.4149081683119
 20
24.76100595804667
 30
0.0
 10
258.4151320634913
 20
26.55729487989966
 30
0.0
 10
258.4151924094879
 20
27.04153921726714
 30
0.0
 10
258.2057453879524
 20
27.36893835120057
 30
0.0
 10
257.7192638284546
 20
27.51463645747964
 30
0.0
  0
SPLINE
  5
97
330
1F
100
AcDbEntity
  8
0
  6
Continuous
 62
   179
370
     0
100
AcDbSpline
210
0.0
220
0.0
230
1.0
 70
    24
 71
     3
 72
     8
 73
     4
 74
     0
 42
0.000000001
 43
0.00000001
 40
16.0
 40
16.0
 40
16.0
 40
16.0
 40
17.0
 40
17.0
 40
17.0
 40
17.0
 10
260.1134120717832
 20
20.25910042553502
 30
0.0
 10
259.3107272904223
 20
20.25910042553502
 30
0.0
 10
258.5080426051526
 20
20.25910042553502
 30
0.0
 10
257.7053577757453
 20
20.25910042553502
 30
0.0
  0
SPLINE
  5
98
330
1F
100
AcDbEntity
  8
0
  6
Continuous
 62
   179
370
     0
100
AcDbSpline
210
0.0
220
0.0
230
1.0
 70
     8
 71
     3
 72
    14
 73
    10
 74
     0
 42
0.000000001
 43
0.00000001
 40
13.0
 40
13.0
 40
13.0
 40
13.0
 40
14.0
 40
14.0
 40
14.0
 40
15.0
 40
15.0
 40
15.0
 40
16.0
 40
16.0
 40
16.0
 40
16.0
 10
259.4607286043899
 20
23.57138302951071
 30
0.0
 10
259.4539911852495
 20
23.51939476107442
 30
0.0
 10
259.4406539512153
 20
23.46398560492077
 30
0.0
 10
259.4405559370167
 20
23.40855338660287
 30
0.0
 10
259.4392191002215
 20
22.65310606781493
 30
0.0
 10
259.4366701545022
 20
21.89763799307776
 30
0.0
 10
259.4408326829897
 20
21.14221143023692
 30
0.0
 10
259.4435911100346
 20
20.64162793377142
 30
0.0
 10
259.6377614656041
 20
20.40079128856705
 30
0.0
 10
260.1134120717832
 20
20.25910042553502
 30
0.0
  0
SPLINE
  5
99
330
1F
100
AcDbEntity
  8
0
  6
Continuous
 62
   179
370
     0
100
AcDbSpline
210
0.0
220
0.0
230
1.0
 70
     8
 71
     3
 72
    20
 73
    16
 74
     0
 42
0.000000001
 43
0.00000001
 40
8.0
 40
8.0
 40
8.0
 40
8.0
 40
9.0
 40
9.0
 40
9.0
 40
10.0
 40
10.0
 40
10.0
 40
11.0
 40
11.0
 40
11.0
 40
12.0
 40
12.0
 40
12.0
 40
13.0
 40
13.0
 40
13.0
 40
13.0
 10
263.9554858268652
 20
20.24609336482204
 30
0.0
 10
263.8909540472192
 20
20.24131411562172
 30
0.0
 10
263.8264337986555
 20
20.23257048036439
 30
0.0
 10
263.7618904879275
 20
20.2323936704376
 30
0.0
 10
263.3170171088603
 20
20.2311736819415
 30
0.0
 10
262.8718696744063
 20
20.24067529366942
 30
0.0
 10
262.427398730108
 20
20.22724465786874
 30
0.0
 10
262.2549406335689
 20
20.22203337745712
 30
0.0
 10
262.1765046750147
 20
20.28890135435546
 30
0.0
 10
262.1067370153144
 20
20.43629933433309
 30
0.0
 10
261.7451764738302
 20
21.20016664933901
 30
0.0
 10
261.3780268168071
 20
21.9614848264415
 30
0.0
 10
261.0037355762117
 20
22.71920223094413
 30
0.0
 10
260.6054131759577
 20
23.52556773374194
 30
0.0
 10
260.3725694925604
 20
23.65083910446932
 30
0.0
 10
259.4607286043899
 20
23.57138302951071
 30
0.0
  0
SPLINE
  5
9A
330
1F
100
AcDbEntity
  8
0
  6
Continuous
 62
   179
370
     0
100
AcDbSpline
210
0.0
220
0.0
230
1.0
 70
     8
 71
     3
 72
    14
 73
    10
 74
     0
 42
0.000000001
 43
0.00000001
 40
5.0
 40
5.0
 40
5.0
 40
5.0
 40
6.0
 40
6.0
 40
6.0
 40
7.0
 40
7.0
 40
7.0
 40
8.0
 40
8.0
 40
8.0
 40
8.0
 10
261.0219043336847
 20
23.63056361828031
 30
0.0
 10
261.7521543160346
 20
23.35408286053947
 30
0.0
 10
262.033208300972
 20
22.73079019980925
 30
0.0
 10
262.3739921385617
 20
22.16106556577573
 30
0.0
 10
262.6276890153665
 20
21.7369354504649
 30
0.0
 10
262.8739775562312
 20
21.30835818112305
 30
0.0
 10
263.1292772534608
 20
20.88520667032095
 30
0.0
 10
263.3178377375433
 20
20.57267359973515
 30
0.0
 10
263.5606000734738
 20
20.32757122285868
 30
0.0
 10
263.9554858268652
 20
20.24609336482204
 30
0.0
  0
SPLINE
  5
9B
330
1F
100
AcDbEntity
  8
0
  6
Continuous
 62
   179
370
     0
100
AcDbSpline
210
0.0
220
0.0
230
1.0
 70
     8
 71
     3
 72
    20
 73
    16
 74
     0
 42
0.000000001
 43
0.00000001
 40
0.0
 40
0.0
 40
0.0
 40
0.0
 40
1.0
 40
1.0
 40
1.0
 40
2.0
 40
2.0
 40
2.0
 40
3.0
 40
3.0
 40
3.0
 40
4.0
 40
4.0
 40
4.0
 40
5.0
 40
5.0
 40
5.0
 40
5.0
 10
257.7192638284546
 20
27.51463645747964
 30
0.0
 10
258.1174764912431
 20
27.51463645747964
 30
0.0
 10
258.5159962651877
 20
27.52468175973202
 30
0.0
 10
258.913837050576
 20
27.51251762112626
 30
0.0
 10
259.7094699986222
 20
27.48819126576296
 30
0.0
 10
260.5093946232761
 20
27.49481913962259
 30
0.0
 10
261.2989762515716
 20
27.40941936834727
 30
0.0
 10
262.3071445332423
 20
27.30037799580672
 30
0.0
 10
262.8488620904764
 20
26.74717259793779
 30
0.0
 10
262.9131259646454
 20
25.88395655371281
 30
0.0
 10
262.9966382899504
 20
24.76217905347503
 30
0.0
 10
262.5617362220245
 20
24.08644572151765
 30
0.0
 10
261.5515161764629
 20
23.77337299628438
 30
0.0
 10
261.3945785321864
 20
23.72473719781129
 30
0.0
 10
261.2341319795987
 20
23.68742184709605
 30
0.0
 10
261.0219043336847
 20
23.63056361828031
 30
0.0
  0
SPLINE
  5
9C
330
1F
100
AcDbEntity
  8
0
  6
Continuous
 62
   179
370
     0
100
AcDbSpline
210
0.0
220
0.0
230
1.0
 70
     8
 71
     3
 72
    20
 73
    16
 74
     0
 42
0.000000001
 43
0.00000001
 40
1.0
 40
1.0
 40
1.0
 40
1.0
 40
2.0
 40
2.0
 40
2.0
 40
3.0
 40
3.0
 40
3.0
 40
4.0
 40
4.0
 40
4.0
 40
5.0
 40
5.0
 40
5.0
 40
6.0
 40
6.0
 40
6.0
 40
6.0
 10
259.4558811296203
 20
23.74052094311723
 30
0.0
 10
259.8313410453958
 20
23.74052094311723
 30
0.0
 10
260.1942113256325
 20
23.70804326575078
 30
0.0
 10
260.5489927438957
 20
23.74778168120398
 30
0.0
 10
261.1506181168165
 20
23.81517009427841
 30
0.0
 10
261.6082598631961
 20
24.13857044109259
 30
0.0
 10
261.7413862071132
 20
24.73962656292206
 30
0.0
 10
261.8389787525148
 20
25.18024881635489
 30
0.0
 10
261.8719876284001
 20
25.65810454981779
 30
0.0
 10
261.8164781518313
 20
26.10478869315943
 30
0.0
 10
261.7108519014664
 20
26.95476897687368
 30
0.0
 10
261.3230227860075
 20
27.28690123567825
 30
0.0
 10
260.4792308497364
 20
27.35420547185249
 30
0.0
 10
260.146744010155
 20
27.38072599997261
 30
0.0
 10
259.8103733099057
 20
27.35855230546976
 30
0.0
 10
259.4558811296203
 20
27.35855230546976
 30
0.0
  0
SPLINE
  5
9D
330
1F
100
AcDbEntity
  8
0
  6
Continuous
 62
   179
370
     0
100
AcDbSpline
210
0.0
220
0.0
230
1.0
 70
    24
 71
     3
 72
     8
 73
     4
 74
     0
 42
0.000000001
 43
0.00000001
 40
0.0
 40
0.0
 40
0.0
 40
0.0
 40
1.0
 40
1.0
 40
1.0
 40
1.0
 10
259.4558811296203
 20
27.35855230546976
 30
0.0
 10
259.4558811296203
 20
26.13864548795524
 30
0.0
 10
259.4558811296203
 20
24.94385548148867
 30
0.0
 10
259.4558811296203
 20
23.74052094311723
 30
0.0
  0
SPLINE
  5
9E
330
1F
100
AcDbEntity
  8
0
  6
Continuous
 62
   179
370
     0
100
AcDbSpline
210
0.0
220
0.0
230
1.0
 70
     8
 71
     3
 72
    14
 73
    10
 74
     0
 42
0.000000001
 43
0.00000001
 40
3.0
 40
3.0
 40
3.0
 40
3.0
 40
4.0
 40
4.0
 40
4.0
 40
5.0
 40
5.0
 40
5.0
 40
6.0
 40
6.0
 40
6.0
 40
6.0
 10
267.2336118279071
 20
20.23490821509466
 30
0.0
 10
266.3034040398355
 20
20.48709452013179
 30
0.0
 10
265.5792320909092
 20
21.34541139190241
 30
0.0
 10
265.4837047623288
 20
22.29272284982233
 30
0.0
 10
265.4259332718035
 20
22.86561853145873
 30
0.0
 10
265.4879189885011
 20
23.41465794151554
 30
0.0
 10
265.7739382574312
 20
23.92202056120339
 30
0.0
 10
266.225828300013
 20
24.72361219597301
 30
0.0
 10
266.9062728477855
 20
25.1505801106106
 30
0.0
 10
267.7758432870376
 20
25.16748813643033
 30
0.0
  0
SPLINE
  5
9F
330
1F
100
AcDbEntity
  8
0
  6
Continuous
 62
   179
370
     0
100
AcDbSpline
210
0.0
220
0.0
230
1.0
 70
     8
 71
     3
 72
    14
 73
    10
 74
     0
 42
0.000000001
 43
0.00000001
 40
0.0
 40
0.0
 40
0.0
 40
0.0
 40
1.0
 40
1.0
 40
1.0
 40
2.0
 40
2.0
 40
2.0
 40
3.0
 40
3.0
 40
3.0
 40
3.0
 10
267.7758432870376
 20
25.16748813643033
 30
0.0
 10
268.6216197225536
 20
25.16033694362373
 30
0.0
 10
269.2464106552308
 20
24.83848445240962
 30
0.0
 10
269.7103360726668
 20
24.21398909980579
 30
0.0
 10
270.372934348899
 20
23.32205720159637
 30
0.0
 10
270.3723808569537
 20
22.03321892002499
 30
0.0
 10
269.7215189161772
 20
21.13111084177938
 30
0.0
 10
269.1482911393735
 20
20.33660467264828
 30
0.0
 10
268.1650050112285
 20
19.98240211471103
 30
0.0
 10
267.2336118279071
 20
20.23490821509466
 30
0.0
  0
SPLINE
  5
A0
330
1F
100
AcDbEntity
  8
0
  6
Continuous
 62
   179
370
     0
100
AcDbSpline
210
0.0
220
0.0
230
1.0
 70
     8
 71
     3
 72
    17
 73
    13
 74
     0
 42
0.000000001
 43
0.00000001
 40
4.0
 40
4.0
 40
4.0
 40
4.0
 40
5.0
 40
5.0
 40
5.0
 40
6.0
 40
6.0
 40
6.0
 40
7.0
 40
7.0
 40
7.0
 40
8.0
 40
8.0
 40
8.0
 40
8.0
 10
266.4699528411193
 20
22.82140374989816
 30
0.0
 10
266.4269741915698
 20
22.16270989809668
 30
0.0
 10
266.5287029361534
 20
21.51524885782823
 30
0.0
 10
266.8746830637486
 20
20.93428603108956
 30
0.0
 10
267.1048165584612
 20
20.54785025472892
 30
0.0
 10
267.4153070900211
 20
20.27237193240103
 30
0.0
 10
267.9076604687568
 20
20.30531315927085
 30
0.0
 10
268.3388937306983
 20
20.33416469565678
 30
0.0
 10
268.6078393105943
 20
20.59660136402461
 30
0.0
 10
268.810867074766
 20
20.94311038392242
 30
0.0
 10
269.1208448575376
 20
21.47214721006825
 30
0.0
 10
269.202432645224
 20
22.05765558940843
 30
0.0
 10
269.218762963826
 20
22.6835112253406
 30
0.0
  0
SPLINE
  5
A1
330
1F
100
AcDbEntity
  8
0
  6
Continuous
 62
   179
370
     0
100
AcDbSpline
210
0.0
220
0.0
230
1.0
 70
     8
 71
     3
 72
    17
 73
    13
 74
     0
 42
0.000000001
 43
0.00000001
 40
0.0
 40
0.0
 40
0.0
 40
0.0
 40
1.0
 40
1.0
 40
1.0
 40
2.0
 40
2.0
 40
2.0
 40
3.0
 40
3.0
 40
3.0
 40
4.0
 40
4.0
 40
4.0
 40
4.0
 10
269.218762963826
 20
22.6835112253406
 30
0.0
 10
269.195680043492
 20
23.34551372899321
 30
0.0
 10
269.0963628325642
 20
24.01168817818242
 30
0.0
 10
268.6683621173312
 20
24.58056604641373
 30
0.0
 10
268.2143234497673
 20
25.18405330473933
 30
0.0
 10
267.4640605055332
 20
25.19142205062979
 30
0.0
 10
267.0072628343699
 20
24.59213287496141
 30
0.0
 10
266.882078331128
 20
24.42789874624284
 30
0.0
 10
266.7597204805012
 20
24.2414496033099
 30
0.0
 10
266.7072125446275
 20
24.04607386528146
 30
0.0
 10
266.5993976948625
 20
23.64490674705059
 30
0.0
 10
266.4968487059656
 20
23.23360918874381
 30
0.0
 10
266.4699528411193
 20
22.82140374989816
 30
0.0
  0
SPLINE
  5
A2
330
1F
100
AcDbEntity
  8
0
  6
Continuous
 62
   179
370
     0
100
AcDbSpline
210
0.0
220
0.0
230
1.0
 70
     8
 71
     3
 72
    17
 73
    13
 74
     0
 42
0.000000001
 43
0.00000001
 40
6.0
 40
6.0
 40
6.0
 40
6.0
 40
7.0
 40
7.0
 40
7.0
 40
8.0
 40
8.0
 40
8.0
 40
9.0
 40
9.0
 40
9.0
 40
10.0
 40
10.0
 40
10.0
 40
10.0
 10
311.6156486607862
 20
20.25320881127337
 30
0.0
 10
312.1185268426077
 20
20.41647125413319
 30
0.0
 10
312.2872188877024
 20
20.63608302071405
 30
0.0
 10
312.2876555313485
 20
21.16871754450475
 30
0.0
 10
312.2890700107628
 20
22.88922803787956
 30
0.0
 10
312.287766229737
 20
24.60974045310045
 30
0.0
 10
312.2871819882396
 20
26.33025248395311
 30
0.0
 10
312.2871512386867
 20
26.42255802816858
 30
0.0
 10
312.2845313768121
 20
26.51487279724975
 30
0.0
 10
312.2823973578678
 20
26.60716642601487
 30
0.0
 10
312.2683694120104
 20
27.21300429544448
 30
0.0
 10
312.2096131670664
 20
27.27631108979181
 30
0.0
 10
311.6691528821609
 20
27.32445797038016
 30
0.0
  0
SPLINE
  5
A3
330
1F
100
AcDbEntity
  8
0
  6
Continuous
 62
   179
370
     0
100
AcDbSpline
210
0.0
220
0.0
230
1.0
 70
    24
 71
     3
 72
     8
 73
     4
 74
     0
 42
0.000000001
 43
0.00000001
 40
5.0
 40
5.0
 40
5.0
 40
5.0
 40
6.0
 40
6.0
 40
6.0
 40
6.0
 10
313.8867245107604
 20
20.25320881127337
 30
0.0
 10
313.0865658051385
 20
20.25320881127337
 30
0.0
 10
312.3511103079175
 20
20.25320881127337
 30
0.0
 10
311.6156486607862
 20
20.25320881127337
 30
0.0
  0
SPLINE
  5
A4
330
1F
100
AcDbEntity
  8
0
  6
Continuous
 62
   179
370
     0
100
AcDbSpline
210
0.0
220
0.0
230
1.0
 70
     8
 71
     3
 72
    17
 73
    13
 74
     0
 42
0.000000001
 43
0.00000001
 40
1.0
 40
1.0
 40
1.0
 40
1.0
 40
2.0
 40
2.0
 40
2.0
 40
3.0
 40
3.0
 40
3.0
 40
4.0
 40
4.0
 40
4.0
 40
5.0
 40
5.0
 40
5.0
 40
5.0
 10
313.1781318226163
 20
27.87703492426926
 30
0.0
 10
313.1781318226163
 20
27.83642744958889
 30
0.0
 10
313.1781318226163
 20
27.75161518695077
 30
0.0
 10
313.1781318226163
 20
27.66680273212925
 30
0.0
 10
313.1781318226163
 20
25.57700952371036
 30
0.0
 10
313.1781256727049
 20
23.48721689184594
 30
0.0
 10
313.1781441224363
 20
21.39742349124223
 30
0.0
 10
313.1781441224363
 20
21.32188875296784
 30
0.0
 10
313.1771847363982
 20
21.24633325874564
 30
0.0
 10
313.1786115156352
 20
21.17082388885262
 30
0.0
 10
313.1888880160859
 20
20.62648762285203
 30
0.0
 10
313.3266152617988
 20
20.4348325806782
 30
0.0
 10
313.8867245107604
 20
20.25320881127337
 30
0.0
  0
SPLINE
  5
A5
330
1F
100
AcDbEntity
  8
0
  6
Continuous
 62
   179
370
     0
100
AcDbSpline
210
0.0
220
0.0
230
1.0
 70
     8
 71
     3
 72
     8
 73
     4
 74
     0
 42
0.000000001
 43
0.00000001
 40
0.0
 40
0.0
 40
0.0
 40
0.0
 40
1.0
 40
1.0
 40
1.0
 40
1.0
 10
311.6691528821609
 20
27.32445797038016
 30
0.0
 10
312.1410908642435
 20
27.49727756634619
 30
0.0
 10
312.6458878181427
 20
27.68213176842718
 30
0.0
 10
313.1781318226163
 20
27.87703492426926
 30
0.0
  0
SPLINE
  5
A6
330
1F
100
AcDbEntity
  8
0
  6
Continuous
 62
   179
370
     0
100
AcDbSpline
210
0.0
220
0.0
230
1.0
 70
     8
 71
     3
 72
    14
 73
    10
 74
     0
 42
0.000000001
 43
0.00000001
 40
6.0
 40
6.0
 40
6.0
 40
6.0
 40
7.0
 40
7.0
 40
7.0
 40
8.0
 40
8.0
 40
8.0
 40
9.0
 40
9.0
 40
9.0
 40
9.0
 10
278.4819664915177
 20
27.88441039662488
 30
0.0
 10
278.4819664915177
 20
27.83987735719566
 30
0.0
 10
278.4819649540404
 20
27.75219577693941
 30
0.0
 10
278.4819649540404
 20
27.66451419668386
 30
0.0
 10
278.4819664915177
 20
25.48269219002111
 30
0.0
 10
278.4816605334703
 20
23.30086999117493
 30
0.0
 10
278.4822124879378
 20
21.11904779232805
 30
0.0
 10
278.4823339486704
 20
20.63637283524633
 30
0.0
 10
278.6550987719953
 20
20.40793364087759
 30
0.0
 10
279.1055120673173
 20
20.25491771765491
 30
0.0
  0
SPLINE
  5
A7
330
1F
100
AcDbEntity
  8
0
  6
Continuous
 62
   179
370
     0
100
AcDbSpline
210
0.0
220
0.0
230
1.0
 70
     8
 71
     3
 72
     8
 73
     4
 74
     0
 42
0.000000001
 43
0.00000001
 40
5.0
 40
5.0
 40
5.0
 40
5.0
 40
6.0
 40
6.0
 40
6.0
 40
6.0
 10
276.9846800684063
 20
27.3296354262854
 30
0.0
 10
277.4478728777531
 20
27.5012575193644
 30
0.0
 10
277.9568994326009
 20
27.68986239811422
 30
0.0
 10
278.4819664915177
 20
27.88441039662488
 30
0.0
  0
SPLINE
  5
A8
330
1F
100
AcDbEntity
  8
0
  6
Continuous
 62
   179
370
     0
100
AcDbSpline
210
0.0
220
0.0
230
1.0
 70
     8
 71
     3
 72
    17
 73
    13
 74
     0
 42
0.000000001
 43
0.00000001
 40
1.0
 40
1.0
 40
1.0
 40
1.0
 40
2.0
 40
2.0
 40
2.0
 40
3.0
 40
3.0
 40
3.0
 40
4.0
 40
4.0
 40
4.0
 40
5.0
 40
5.0
 40
5.0
 40
5.0
 10
276.9460186560295
 20
20.25491771765491
 30
0.0
 10
277.4179566381115
 20
20.4199152040148
 30
0.0
 10
277.5770686601204
 20
20.6342380475635
 30
0.0
 10
277.5771993457187
 20
21.13377529050539
 30
0.0
 10
277.5776652014392
 20
22.92958298186009
 30
0.0
 10
277.5773700057348
 20
24.72538990447762
 30
0.0
 10
277.577359243392
 20
26.52119721146338
 30
0.0
 10
277.577359243392
 20
26.53798031722657
 30
0.0
 10
277.5773838430334
 20
26.55476419172763
 30
0.0
 10
277.5772915943764
 20
26.57154691311976
 30
0.0
 10
277.5738092075535
 20
27.20775573119973
 30
0.0
 10
277.5366914227135
 20
27.25167954511983
 30
0.0
 10
276.9846800684063
 20
27.3296354262854
 30
0.0
  0
SPLINE
  5
A9
330
1F
100
AcDbEntity
  8
0
  6
Continuous
 62
   179
370
     0
100
AcDbSpline
210
0.0
220
0.0
230
1.0
 70
    24
 71
     3
 72
     8
 73
     4
 74
     0
 42
0.000000001
 43
0.00000001
 40
0.0
 40
0.0
 40
0.0
 40
0.0
 40
1.0
 40
1.0
 40
1.0
 40
1.0
 10
279.1055120673173
 20
20.25491771765491
 30
0.0
 10
278.3856819552066
 20
20.25491771765491
 30
0.0
 10
277.6658503056181
 20
20.25491771765491
 30
0.0
 10
276.9460186560295
 20
20.25491771765491
 30
0.0
  0
SPLINE
  5
AA
330
1F
100
AcDbEntity
  8
0
  6
Continuous
 62
   179
370
     0
100
AcDbSpline
210
0.0
220
0.0
230
1.0
 70
     8
 71
     3
 72
    20
 73
    16
 74
     0
 42
0.000000001
 43
0.00000001
 40
5.0
 40
5.0
 40
5.0
 40
5.0
 40
6.0
 40
6.0
 40
6.0
 40
7.0
 40
7.0
 40
7.0
 40
8.0
 40
8.0
 40
8.0
 40
9.0
 40
9.0
 40
9.0
 40
10.0
 40
10.0
 40
10.0
 40
10.0
 10
307.178408284104
 20
20.25443648715803
 30
0.0
 10
307.3179589782804
 20
20.36177625633667
 30
0.0
 10
307.5293898264143
 20
20.45652254628292
 30
0.0
 10
307.6283941606455
 20
20.61954360515536
 30
0.0
 10
307.7285516030972
 20
20.78446498637256
 30
0.0
 10
307.7490584796685
 20
21.01681475508337
 30
0.0
 10
307.7500732149022
 20
21.21990094340409
 30
0.0
 10
307.7587445887104
 20
22.95682170421714
 30
0.0
 10
307.7550484924979
 20
24.69380511724258
 30
0.0
 10
307.7550361926766
 20
26.43077008053731
 30
0.0
 10
307.7550361926766
 20
26.49789904426263
 30
0.0
 10
307.7552944889175
 20
26.56503146731187
 30
0.0
 10
307.7547502218385
 20
26.63215658734291
 30
0.0
 10
307.7501131893193
 20
27.20350460556406
 30
0.0
 10
307.6774858212348
 20
27.28280885460759
 30
0.0
 10
307.160813390154
 20
27.32540717062984
 30
0.0
  0
SPLINE
  5
AB
330
1F
100
AcDbEntity
  8
0
  6
Continuous
 62
   179
370
     0
100
AcDbSpline
210
0.0
220
0.0
230
1.0
 70
    24
 71
     3
 72
     8
 73
     4
 74
     0
 42
0.000000001
 43
0.00000001
 40
4.0
 40
4.0
 40
4.0
 40
4.0
 40
5.0
 40
5.0
 40
5.0
 40
5.0
 10
309.3620693061908
 20
20.25443648715802
 30
0.0
 10
308.5715044609525
 20
20.25443648715802
 30
0.0
 10
307.8517004859625
 20
20.25443648715802
 30
0.0
 10
307.178408284104
 20
20.25443648715803
 30
0.0
  0
SPLINE
  5
AC
330
1F
100
AcDbEntity
  8
0
  6
Continuous
 62
   179
370
     0
100
AcDbSpline
210
0.0
220
0.0
230
1.0
 70
     8
 71
     3
 72
    14
 73
    10
 74
     0
 42
0.000000001
 43
0.00000001
 40
1.0
 40
1.0
 40
1.0
 40
1.0
 40
2.0
 40
2.0
 40
2.0
 40
3.0
 40
3.0
 40
3.0
 40
4.0
 40
4.0
 40
4.0
 40
4.0
 10
308.65963267846
 20
27.88697759989075
 30
0.0
 10
308.65963267846
 20
27.83196991758182
 30
0.0
 10
308.65963267846
 20
27.74275854708867
 30
0.0
 10
308.65963267846
 20
27.65354698440997
 30
0.0
 10
308.65963267846
 20
25.48863300356693
 30
0.0
 10
308.6595035303402
 20
23.32371921490945
 30
0.0
 10
308.6597187772069
 20
21.15880542625192
 30
0.0
 10
308.6597679764911
 20
20.6374237012035
 30
0.0
 10
308.807415027844
 20
20.43200746554105
 30
0.0
 10
309.3620693061909
 20
20.25443648715802
 30
0.0
  0
SPLINE
  5
AD
330
1F
100
AcDbEntity
  8
0
  6
Continuous
 62
   179
370
     0
100
AcDbSpline
210
0.0
220
0.0
230
1.0
 70
     8
 71
     3
 72
     8
 73
     4
 74
     0
 42
0.000000001
 43
0.00000001
 40
0.0
 40
0.0
 40
0.0
 40
0.0
 40
1.0
 40
1.0
 40
1.0
 40
1.0
 10
307.160813390154
 20
27.32540717062984
 30
0.0
 10
307.6336123597078
 20
27.50255342081908
 30
0.0
 10
308.1420254609839
 20
27.69304267058278
 30
0.0
 10
308.65963267846
 20
27.88697759989075
 30
0.0
  0
SPLINE
  5
AE
330
1F
100
AcDbEntity
  8
0
  6
Continuous
 62
   179
370
     0
100
AcDbSpline
210
0.0
220
0.0
230
1.0
 70
     8
 71
     3
 72
    14
 73
    10
 74
     0
 42
0.000000001
 43
0.00000001
 40
6.0
 40
6.0
 40
6.0
 40
6.0
 40
7.0
 40
7.0
 40
7.0
 40
8.0
 40
8.0
 40
8.0
 40
9.0
 40
9.0
 40
9.0
 40
9.0
 10
272.426404840594
 20
20.25907966958721
 30
0.0
 10
273.005992393597
 20
20.37668517687365
 30
0.0
 10
273.0805785081768
 20
20.81042375860577
 30
0.0
 10
273.0783845276048
 20
21.29462927466368
 30
0.0
 10
273.0702866329497
 20
23.08209538116095
 30
0.0
 10
273.0685846452182
 20
24.86961337752775
 30
0.0
 10
273.0527409382852
 20
26.65700799131587
 30
0.0
 10
273.0476395875227
 20
27.23250104921648
 30
0.0
 10
272.9826104338649
 20
27.28380667758701
 30
0.0
 10
272.4594267850394
 20
27.32510813123116
 30
0.0
  0
SPLINE
  5
AF
330
1F
100
AcDbEntity
  8
0
  6
Continuous
 62
   179
370
     0
100
AcDbSpline
210
0.0
220
0.0
230
1.0
 70
    24
 71
     3
 72
     8
 73
     4
 74
     0
 42
0.000000001
 43
0.00000001
 40
5.0
 40
5.0
 40
5.0
 40
5.0
 40
6.0
 40
6.0
 40
6.0
 40
6.0
 10
274.6224502449564
 20
20.25907966958721
 30
0.0
 10
273.8904356226618
 20
20.25907966958721
 30
0.0
 10
273.1584194628893
 20
20.25907966958721
 30
0.0
 10
272.426404840594
 20
20.25907966958721
 30
0.0
  0
SPLINE
  5
B0
330
1F
100
AcDbEntity
  8
0
  6
Continuous
 62
   179
370
     0
100
AcDbSpline
210
0.0
220
0.0
230
1.0
 70
     8
 71
     3
 72
    17
 73
    13
 74
     0
 42
0.000000001
 43
0.00000001
 40
1.0
 40
1.0
 40
1.0
 40
1.0
 40
2.0
 40
2.0
 40
2.0
 40
3.0
 40
3.0
 40
3.0
 40
4.0
 40
4.0
 40
4.0
 40
5.0
 40
5.0
 40
5.0
 40
5.0
 10
273.9540333846496
 20
27.87257450949275
 30
0.0
 10
273.9540333846496
 20
27.8074859707617
 30
0.0
 10
273.9540333846496
 20
27.71082379150879
 30
0.0
 10
273.9540333846496
 20
27.61416161225588
 30
0.0
 10
273.9540349221275
 20
25.51596282147274
 30
0.0
 10
273.9539872603212
 20
23.41776441505854
 30
0.0
 10
273.9542086570993
 20
21.31956562427539
 30
0.0
 10
273.954217881965
 20
21.22727776105204
 30
0.0
 10
273.9506540088286
 20
21.13443409966764
 30
0.0
 10
273.9590578615309
 20
21.04279505200227
 30
0.0
 10
274.0006220316647
 20
20.58964274029083
 30
0.0
 10
274.1836818051717
 20
20.38260600321025
 30
0.0
 10
274.6224502449564
 20
20.25907966958721
 30
0.0
  0
SPLINE
  5
B1
330
1F
100
AcDbEntity
  8
0
  6
Continuous
 62
   179
370
     0
100
AcDbSpline
210
0.0
220
0.0
230
1.0
 70
     8
 71
     3
 72
     8
 73
     4
 74
     0
 42
0.000000001
 43
0.00000001
 40
0.0
 40
0.0
 40
0.0
 40
0.0
 40
1.0
 40
1.0
 40
1.0
 40
1.0
 10
272.4594267850394
 20
27.32510813123116
 30
0.0
 10
272.932774634105
 20
27.49849255803981
 30
0.0
 10
273.4351023989377
 20
27.68249307566929
 30
0.0
 10
273.9540333846496
 20
27.87257450949275
 30
0.0
  0
SPLINE
  5
B2
330
1F
100
AcDbEntity
  8
0
  6
Continuous
 62
   179
370
     0
100
AcDbSpline
210
0.0
220
0.0
230
1.0
 70
     8
 71
     3
 72
    17
 73
    13
 74
     0
 42
0.000000001
 43
0.00000001
 40
6.0
 40
6.0
 40
6.0
 40
6.0
 40
7.0
 40
7.0
 40
7.0
 40
8.0
 40
8.0
 40
8.0
 40
9.0
 40
9.0
 40
9.0
 40
10.0
 40
10.0
 40
10.0
 40
10.0
 10
304.1706223551654
 20
25.06377258638473
 30
0.0
 10
304.1727133247369
 20
25.01792115989103
 30
0.0
 10
304.1800409430993
 20
24.93136078519359
 30
0.0
 10
304.1800932173391
 20
24.84479541369365
 30
0.0
 10
304.1808527312862
 20
23.65282014439031
 30
0.0
 10
304.1797703470369
 20
22.46084295323947
 30
0.0
 10
304.1818797663413
 20
21.26887114326077
 30
0.0
 10
304.1821011631179
 20
21.14380579453512
 30
0.0
 10
304.1922454404933
 20
21.01764883669525
 30
0.0
 10
304.2107535961514
 20
20.89393877449616
 30
0.0
 10
304.2621822227331
 20
20.55023795748125
 30
0.0
 10
304.4578262506062
 20
20.33981031349823
 30
0.0
 10
304.8038079156779
 20
20.2539775500868
 30
0.0
  0
SPLINE
  5
B3
330
1F
100
AcDbEntity
  8
0
  6
Continuous
 62
   179
370
     0
100
AcDbSpline
210
0.0
220
0.0
230
1.0
 70
     8
 71
     3
 72
     8
 73
     4
 74
     0
 42
0.000000001
 43
0.00000001
 40
5.0
 40
5.0
 40
5.0
 40
5.0
 40
6.0
 40
6.0
 40
6.0
 40
6.0
 10
302.7125031745686
 20
24.50968064047994
 30
0.0
 10
303.1898069535648
 20
24.6910587978335
 30
0.0
 10
303.6729961969132
 20
24.87467283202501
 30
0.0
 10
304.1706223551654
 20
25.06377258638473
 30
0.0
  0
SPLINE
  5
B4
330
1F
100
AcDbEntity
  8
0
  6
Continuous
 62
   179
370
     0
100
AcDbSpline
210
0.0
220
0.0
230
1.0
 70
     8
 71
     3
 72
    17
 73
    13
 74
     0
 42
0.000000001
 43
0.00000001
 40
1.0
 40
1.0
 40
1.0
 40
1.0
 40
2.0
 40
2.0
 40
2.0
 40
3.0
 40
3.0
 40
3.0
 40
4.0
 40
4.0
 40
4.0
 40
5.0
 40
5.0
 40
5.0
 40
5.0
 10
302.6973344203136
 20
20.2539775500868
 30
0.0
 10
303.1321361678242
 20
20.3494649042487
 30
0.0
 10
303.2897768237453
 20
20.65853557522151
 30
0.0
 10
303.2916556214045
 20
21.04785181591347
 30
0.0
 10
303.2966032244031
 20
22.071496731734
 30
0.0
 10
303.2829750227277
 20
23.09531768874207
 30
0.0
 10
303.2668591822546
 20
24.11891186780057
 30
0.0
 10
303.2632153602819
 20
24.35030186610297
 30
0.0
 10
303.1332831261333
 20
24.4918735746181
 30
0.0
 10
302.8846514693662
 20
24.49557889569631
 30
0.0
 10
302.8224697242705
 20
24.49650561033552
 30
0.0
 10
302.760410977386
 20
24.5055728846329
 30
0.0
 10
302.7125031745686
 20
24.50968064047994
 30
0.0
  0
SPLINE
  5
B5
330
1F
100
AcDbEntity
  8
0
  6
Continuous
 62
   179
370
     0
100
AcDbSpline
210
0.0
220
0.0
230
1.0
 70
    24
 71
     3
 72
     8
 73
     4
 74
     0
 42
0.000000001
 43
0.00000001
 40
0.0
 40
0.0
 40
0.0
 40
0.0
 40
1.0
 40
1.0
 40
1.0
 40
1.0
 10
304.8038079156779
 20
20.2539775500868
 30
0.0
 10
304.101651108875
 20
20.2539775500868
 30
0.0
 10
303.3994912271164
 20
20.2539775500868
 30
0.0
 10
302.6973344203136
 20
20.2539775500868
 30
0.0
  0
SPLINE
  5
B6
330
1F
100
AcDbEntity
  8
0
  6
Continuous
 62
   179
370
     0
100
AcDbSpline
210
0.0
220
0.0
230
1.0
 70
     8
 71
     3
 72
    11
 73
     7
 74
     0
 42
0.000000001
 43
0.00000001
 40
2.0
 40
2.0
 40
2.0
 40
2.0
 40
3.0
 40
3.0
 40
3.0
 40
4.0
 40
4.0
 40
4.0
 40
4.0
 10
303.0570519104932
 20
26.35430478392947
 30
0.0
 10
303.0511172468595
 20
26.75330175249256
 30
0.0
 10
303.3266947364937
 20
27.05519259513757
 30
0.0
 10
303.6924299141011
 20
27.05034857969325
 30
0.0
 10
304.0507636744179
 20
27.04560238626284
 30
0.0
 10
304.3255386007336
 20
26.75299425696746
 30
0.0
 10
304.327448147944
 20
26.37412133304796
 30
0.0
  0
SPLINE
  5
B7
330
1F
100
AcDbEntity
  8
0
  6
Continuous
 62
   179
370
     0
100
AcDbSpline
210
0.0
220
0.0
230
1.0
 70
     8
 71
     3
 72
    11
 73
     7
 74
     0
 42
0.000000001
 43
0.00000001
 40
0.0
 40
0.0
 40
0.0
 40
0.0
 40
1.0
 40
1.0
 40
1.0
 40
2.0
 40
2.0
 40
2.0
 40
2.0
 10
304.327448147944
 20
26.37412133304796
 30
0.0
 10
304.3293945946187
 20
25.98752450590587
 30
0.0
 10
304.068057222753
 20
25.70828897263022
 30
0.0
 10
303.6993639381942
 20
25.70301926806731
 30
0.0
 10
303.3259905717408
 20
25.69768229885988
 30
0.0
 10
303.0628482011429
 20
25.96449808787493
 30
0.0
 10
303.0570519104932
 20
26.35430478392947
 30
0.0
  0
MTEXT
  5
B9
330
1F
100
AcDbEntity
  8
0
  6
Continuous
 62
     7
370
     0
100
AcDbMText
 10
257.9690483454
 20
40.3166048975
 30
0.0
 40
3.7041666667
 41
0.0
 71
     1
 72
     1
  1
MINFS - Mini Farrago Sconce
  7
SLDTEXTSTYLE0
 73
     1
 44
1.0
  0
MTEXT
  5
BA
330
1F
100
AcDbEntity
  8
0
  6
Continuous
 62
     7
370
     0
100
AcDbMText
 10
258.6105142387
 20
44.3546043689
 30
0.0
 40
1.5875
 41
0.0
 71
     1
 72
     1
  1
\LDESCRIPTION
  7
SLDTEXTSTYLE0
 73
     1
 44
1.0
  0
INSERT
  5
C1
330
1F
100
AcDbEntity
  8
0
  6
Continuous
 62
     7
370
     0
100
AcDbBlockReference
  2
SW_NOTE_0
 10
317.1049495712
 20
24.1495665419
 30
0.0
  0
MTEXT
  5
C2
330
1F
100
AcDbEntity
  8
0
  6
Continuous
 62
     7
370
     0
100
AcDbMText
 10
273.8792930731
 20
32.371143085
 30
0.0
 40
1.5875
 41
0.0
 71
     2
 72
     1
  1
\LSCALE
  7
SLDTEXTSTYLE0
 73
     1
 44
1.0
  0
MTEXT
  5
C3
330
1F
100
AcDbEntity
  8
0
  6
Continuous
 62
     7
370
     0
100
AcDbMText
 10
278.3960862508
 20
33.4394651033
 30
0.0
 40
2.6458333333
 41
0.0
 71
     1
 72
     1
  1
1:10
  7
SLDTEXTSTYLE0
 73
     1
 44
1.0
  0
MTEXT
  5
C4
330
1F
100
AcDbEntity
  8
0
  6
Continuous
 62
     7
370
     0
100
AcDbMText
 10
261.5657280329
 20
32.371143085
 30
0.0
 40
1.5875
 41
0.0
 71
     2
 72
     1
  1
\LSIZE
  7
SLDTEXTSTYLE0
 73
     1
 44
1.0
  0
MTEXT
  5
C5
330
1F
100
AcDbEntity
  8
0
  6
Continuous
 62
     7
370
     0
100
AcDbMText
 10
264.7495209372
 20
33.4394651033
 30
0.0
 40
2.6458333333
 41
0.0
 71
     1
 72
     1
  1
B
  7
SLDTEXTSTYLE0
 73
     1
 44
1.0
  0
INSERT
  5
CC
330
1F
100
AcDbEntity
  8
0
  6
Continuous
 62
     7
370
     0
100
AcDbBlockReference
  2
SW_NOTE_1
 10
258.0900415808
 20
15.6806800849
 30
0.0
  0
LINE
  5
CD
330
1F
100
AcDbEntity
  8
0
  6
Continuous
 62
     7
370
    15
100
AcDbLine
 10
109.9524502834
 20
141.698725112
 30
0.0
 11
109.830368926
 21
141.8680851818
 31
0.0
  0
LINE
  5
CE
330
1F
100
AcDbEntity
  8
0
  6
Continuous
 62
     7
370
    15
100
AcDbLine
 10
104.0352771051
 20
137.690756508
 30
0.0
 11
104.1573584625
 21
137.5213964381
 31
0.0
  0
LINE
  5
CF
330
1F
100
AcDbEntity
  8
0
  6
Continuous
 62
     7
370
    15
100
AcDbLine
 10
110.3964811865
 20
141.7614388574
 30
0.0
 11
110.274399829
 21
141.9307989272
 31
0.0
  0
LINE
  5
D0
330
1F
100
AcDbEntity
  8
0
  6
Continuous
 62
     7
370
    15
100
AcDbLine
 10
103.8354089169
 20
137.2893226229
 30
0.0
 11
103.9574902743
 21
137.1199625531
 31
0.0
  0
LINE
  5
D1
330
1F
100
AcDbEntity
  8
0
  6
Continuous
 62
     7
370
    15
100
AcDbLine
 10
118.6506212443
 20
130.0392178704
 30
0.0
 11
110.8517437458
 21
140.8583835939
 31
0.0
  0
LINE
  5
D2
330
1F
100
AcDbEntity
  8
0
  6
Continuous
 62
     7
370
    15
100
AcDbLine
 10
104.6703124701
 20
136.4025663418
 30
0.0
 11
112.4691899687
 21
125.5834006183
 31
0.0
  0
LINE
  5
D3
330
1F
100
AcDbEntity
  8
0
  6
Continuous
 62
     7
370
    15
100
AcDbLine
 10
103.1390297324
 20
83.1076811836
 30
0.0
 11
103.3183297066
 21
83.6221423927
 31
0.0
  0
LINE
  5
D4
330
1F
100
AcDbEntity
  8
0
  6
Continuous
 62
     7
370
    15
100
AcDbLine
 10
98.2215064869
 20
85.3984867617
 30
0.0
 11
98.0422065127
 21
84.8840255525
 31
0.0
  0
LINE
  5
D5
330
1F
100
AcDbEntity
  8
0
  6
Continuous
 62
     7
370
    15
100
AcDbLine
 10
106.6768440007
 20
109.1768194906
 30
0.0
 11
98.5643310354
 21
85.899776382
 31
0.0
  0
LINE
  5
D6
330
1F
100
AcDbEntity
  8
0
  6
Continuous
 62
     7
370
    15
100
AcDbLine
 10
103.3613411246
 20
84.2279228583
 30
0.0
 11
111.4738540898
 21
107.5049659669
 31
0.0
  0
LINE
  5
D7
330
1F
100
AcDbEntity
  8
0
  6
Continuous
 62
     7
370
    15
100
AcDbLine
 10
136.3857054874
 20
104.2991409778
 30
0.0
 11
101.0696351967
 21
134.15881871
 31
0.0
  0
LINE
  5
D8
330
1F
100
AcDbEntity
  8
0
  6
Continuous
 62
     7
370
    15
100
AcDbLine
 10
97.7897308014
 20
130.2795627043
 30
0.0
 11
133.1058010921
 21
100.4198849721
 31
0.0
  0
LINE
  5
D9
330
1F
100
AcDbEntity
  8
0
  6
Continuous
 62
     7
370
    15
100
AcDbLine
 10
133.5076399662
 20
157.6555052434
 30
0.0
 11
115.3593459223
 21
134.6051125338
 31
0.0
  0
LINE
  5
DA
330
1F
100
AcDbEntity
  8
0
  6
Continuous
 62
     7
370
    15
100
AcDbLine
 10
110.4555996834
 20
128.376798386
 30
0.0
 11
109.4375505286
 21
127.0837604421
 31
0.0
  0
LINE
  5
DB
330
1F
100
AcDbEntity
  8
0
  6
Continuous
 62
     7
370
    15
100
AcDbLine
 10
106.2931127381
 20
123.0899676511
 30
0.0
 11
103.6047397355
 21
119.67542889
 31
0.0
  0
LINE
  5
DC
330
1F
100
AcDbEntity
  8
0
  6
Continuous
 62
     7
370
    15
100
AcDbLine
 10
107.5960996158
 20
116.532906606
 30
0.0
 11
110.1747333222
 21
119.8080640087
 31
0.0
  0
LINE
  5
DD
330
1F
100
AcDbEntity
  8
0
  6
Continuous
 62
     7
370
    15
100
AcDbLine
 10
113.3191711127
 20
123.8018567998
 30
0.0
 11
113.5458557992
 21
124.0897720734
 31
0.0
  0
LINE
  5
DE
330
1F
100
AcDbEntity
  8
0
  6
Continuous
 62
     7
370
    15
100
AcDbLine
 10
118.5370204385
 20
130.4291175091
 30
0.0
 11
137.4989998466
 21
154.5129829594
 31
0.0
  0
LINE
  5
DF
330
1F
100
AcDbEntity
  8
0
  6
Continuous
 62
     7
370
    15
100
AcDbLine
 10
119.0642575632
 20
129.7368739003
 30
0.0
 11
118.7794010626
 21
130.1320473965
 31
0.0
  0
LINE
  5
E0
330
1F
100
AcDbEntity
  8
0
  6
Continuous
 62
     7
370
    15
100
AcDbLine
 10
112.3404101504
 20
125.4905710922
 30
0.0
 11
112.6252666511
 21
125.095397596
 31
0.0
  0
LINE
  5
E1
330
1F
100
AcDbEntity
  8
0
  6
Continuous
 62
     7
370
    15
100
AcDbLine
 10
113.3380888469
 20
124.3780013846
 30
0.0
 11
114.4310531603
 21
122.861762408
 31
0.0
  0
LINE
  5
E2
330
1F
100
AcDbEntity
  8
0
  6
Continuous
 62
     7
370
    15
100
AcDbLine
 10
123.1796124467
 20
123.7562744099
 30
0.0
 11
119.5195201225
 21
128.8338186368
 31
0.0
  0
LINE
  5
E3
330
1F
100
AcDbEntity
  8
0
  6
Continuous
 62
     7
370
    15
100
AcDbLine
 10
111.6237606551
 20
107.4527205443
 30
0.0
 11
111.8286749114
 21
108.0406762118
 31
0.0
  0
LINE
  5
E4
330
1F
100
AcDbEntity
  8
0
  6
Continuous
 62
     7
370
    15
100
AcDbLine
 10
106.7318516917
 20
109.8170205808
 30
0.0
 11
106.5269374354
 21
109.2290649132
 31
0.0
  0
LINE
  5
E5
330
1F
100
AcDbEntity
  8
0
  6
Continuous
 62
     7
370
    15
100
AcDbLine
 10
111.8716863294
 20
108.6464566775
 30
0.0
 11
114.4901051659
 21
116.1594244096
 31
0.0
  0
LINE
  5
E6
330
1F
100
AcDbEntity
  8
0
  6
Continuous
 62
     7
370
    15
100
AcDbLine
 10
110.3348595164
 20
119.6726775822
 30
0.0
 11
107.0746762402
 21
110.3183102012
 31
0.0
  0
LWPOLYLINE
  5
E7
330
1F
100
AcDbEntity
  8
0
  6
Continuous
 62
     7
370
    15
100
AcDbPolyline
 90
       64
 70
   128
 43
0.0
 10
109.7854734301
 20
141.9286820849
 10
109.5776561793
 20
142.1723496927
 10
109.3435533882
 20
142.3922352986
 10
109.0854916757
 20
142.5861535806
 10
108.8060357749
 20
142.7521772916
 10
108.5079630441
 20
142.8886564136
 10
108.194235864
 20
142.9942345555
 10
107.8679721963
 20
143.0678624345
 10
107.532414596
 20
143.1088083036
 10
107.1908979851
 20
143.1166652243
 10
106.8468165093
 20
143.0913551111
 10
106.5035898047
 20
143.0331295072
 10
106.1646290127
 20
142.9425670848
 10
105.8333028777
 20
142.8205678939
 10
105.5129042679
 20
142.6683444174
 10
105.2066174485
 20
142.4874095205
 10
104.9174864356
 20
142.2795614156
 10
104.648384743
 20
142.0468657904
 10
104.4019868243
 20
141.7916352787
 10
104.1807414927
 20
141.5164064759
 10
103.9868475838
 20
141.2239147295
 10
103.8222321021
 20
140.9170669539
 10
103.6885310705
 20
140.5989127402
 10
103.5870732698
 20
140.2726140478
 10
103.5188670332
 20
139.9414137799
 10
103.4845902249
 20
139.6086035533
 10
103.4845835033
 20
139.2774909858
 10
103.5188469352
 20
138.9513668227
 10
103.5870399951
 20
138.6334722325
 10
103.6884849499
 20
138.3269665944
 10
103.8221735939
 20
138.0348960992
 10
103.9867772694
 20
137.7601634747
 10
104.1806600711
 20
137.5054991372
 10
104.4018951046
 20
137.2734340551
 10
104.6482836367
 20
137.0662745957
 10
104.9173769476
 20
136.8860796026
 10
105.206500667
 20
136.7346399347
 10
105.5127813534
 20
136.6134606673
 10
105.8331750519
 20
136.5237461346
 10
106.1644975459
 20
136.4663879599
 10
106.5034560035
 20
136.4419561943
 10
106.8466817035
 20
136.450693652
 10
107.1907635145
 20
136.4925134959
 10
107.5322817969
 20
136.5670001018
 10
107.8678423887
 20
136.6734131883
 10
108.1941103378
 20
136.8106951743
 10
108.5078430469
 20
136.9774816897
 10
108.8059224993
 20
137.1721151353
 10
109.0853862475
 20
137.3926611565
 10
109.3434568552
 20
137.6369278677
 10
109.5775695008
 20
137.9024876367
 10
109.7853974677
 20
138.1867012112
 10
109.964875268
 20
138.4867439489
 10
110.1142191709
 20
138.7996338904
 10
110.2319449294
 20
139.1222613948
 10
110.3168825322
 20
139.4514200451
 10
110.3681878312
 20
139.7838385147
 10
110.3853509312
 20
140.1162130795
 10
110.3682012577
 20
140.4452404518
 10
110.3169092518
 20
140.7676506097
 10
110.2319846765
 20
141.0802392962
 10
110.1142715504
 20
141.3798998645
 10
109.9649397595
 20
141.6636541533
 10
109.7854734301
 20
141.9286820849
  0
LWPOLYLINE
  5
E8
330
1F
100
AcDbEntity
  8
0
  6
Continuous
 62
     7
370
    15
100
AcDbPolyline
 90
       33
 70
   128
 43
0.0
 10
104.1573584625
 20
137.5213964381
 10
104.3027414285
 20
137.3361390673
 10
104.523976462
 20
137.1040739853
 10
104.7703649942
 20
136.8969145259
 10
105.039458305
 20
136.7167195328
 10
105.3285820244
 20
136.5652798648
 10
105.6348627108
 20
136.4441005975
 10
105.9552564093
 20
136.3543860648
 10
106.2865789033
 20
136.29702789
 10
106.625537361
 20
136.2725961245
 10
106.9687630609
 20
136.2813335821
 10
107.3128448719
 20
136.3231534261
 10
107.6543631543
 20
136.397640032
 10
107.9899237461
 20
136.5040531184
 10
108.3161916952
 20
136.6413351044
 10
108.6299244043
 20
136.8081216199
 10
108.9280038567
 20
137.0027550655
 10
109.2074676049
 20
137.2233010867
 10
109.4655382126
 20
137.4675677979
 10
109.6996508582
 20
137.7331275669
 10
109.9074788251
 20
138.0173411413
 10
110.0869566254
 20
138.3173838791
 10
110.2363005283
 20
138.6302738206
 10
110.3540262868
 20
138.952901325
 10
110.4389638896
 20
139.2820599753
 10
110.4902691886
 20
139.6144784449
 10
110.5074322886
 20
139.9468530097
 10
110.4902826151
 20
140.275880382
 10
110.4389906092
 20
140.5982905399
 10
110.3540660339
 20
140.9108792264
 10
110.2363529078
 20
141.2105397947
 10
110.0870211169
 20
141.4942940835
 10
109.9524502834
 20
141.698725112
  0
ARC
  5
E9
330
1F
100
AcDbEntity
  8
0
  6
Continuous
 62
     7
370
    15
100
AcDbCircle
 10
107.6955399493
 20
139.8325858642
 30
0.0
 40
3.318969333407332
100
AcDbArc
 50
356.5172704775
 51
35.5321887321
  0
LWPOLYLINE
  5
EA
330
1F
100
AcDbEntity
  8
0
  6
Continuous
 62
     7
370
    15
100
AcDbPolyline
 90
       28
 70
   128
 43
0.0
 10
103.9574902743
 20
137.1199625531
 10
104.0473581295
 20
137.0012060044
 10
104.2724042006
 20
136.7466393983
 10
104.5237546118
 20
136.5164706286
 10
104.7991330949
 20
136.3127841393
 10
105.0960457796
 20
136.1374245468
 10
105.4118037789
 20
135.9919799347
 10
105.7435475392
 20
135.877767472
 10
106.0882727377
 20
135.7958214843
 10
106.4428574897
 20
135.7468840873
 10
106.8040906207
 20
135.7313984656
 10
107.1687007476
 20
135.7495048594
 10
107.5333859046
 20
135.8010392944
 10
107.8948434464
 20
135.8855350667
 10
108.2497999575
 20
136.0022269695
 10
108.5950408969
 20
136.150058223
 10
108.9274397091
 20
136.3276900444
 10
109.243986139
 20
136.5335137723
 10
109.5418134932
 20
136.7656654353
 10
109.8182246009
 20
137.022042632
 10
110.0707162404
 20
137.3003235707
 10
110.2970018083
 20
137.5979880962
 10
110.4950320274
 20
137.9123405124
 10
110.6630135055
 20
138.2405339953
 10
110.7994249762
 20
138.5795963736
 10
110.9030310761
 20
138.9264570462
 10
110.9728935324
 20
139.277974789
 10
111.0083796599
 20
139.6309662028
  0
LWPOLYLINE
  5
EB
330
1F
100
AcDbEntity
  8
0
  6
Continuous
 62
     7
370
    15
100
AcDbPolyline
 90
       67
 70
   128
 43
0.0
 10
110.8862983025
 20
139.8003262726
 10
110.8870867332
 20
140.1515946127
 10
110.853170327
 20
140.4979587385
 10
110.7848562362
 20
140.8362819228
 10
110.6827631237
 20
141.1635002585
 10
110.5478155605
 20
141.4766504057
 10
110.3812356528
 20
141.7728964281
 10
110.1845319739
 20
142.049555476
 10
109.9594859028
 20
142.3041220821
 10
109.7081354916
 20
142.5342908518
 10
109.4327570085
 20
142.7379773411
 10
109.1358443237
 20
142.9133369336
 10
108.8200863245
 20
143.0587815456
 10
108.4883425642
 20
143.1729940084
 10
108.1436173657
 20
143.254939996
 10
107.7890326137
 20
143.303877393
 10
107.4277994827
 20
143.3193630147
 10
107.0631893558
 20
143.301256621
 10
106.6985041988
 20
143.249722186
 10
106.337046657
 20
143.1652264137
 10
105.9820901459
 20
143.0485345108
 10
105.6368492065
 20
142.9007032574
 10
105.3044503943
 20
142.723071436
 10
104.9879039643
 20
142.517247708
 10
104.6900766102
 20
142.285096045
 10
104.4136655025
 20
142.0287188483
 10
104.161173863
 20
141.7504379096
 10
103.9348882951
 20
141.4527733841
 10
103.736858076
 20
141.1384209679
 10
103.5688765979
 20
140.8102274851
 10
103.4324651272
 20
140.4711651067
 10
103.3288590272
 20
140.1243044342
 10
103.2589965709
 20
139.7727866914
 10
103.2235104435
 20
139.4197952775
 10
103.2227220128
 20
139.0685269375
 10
103.256638419
 20
138.7221628117
 10
103.3249525098
 20
138.3838396274
 10
103.4270456223
 20
138.0566212917
 10
103.5619931854
 20
137.7434711445
 10
103.7285730932
 20
137.447225122
 10
103.9252767721
 20
137.1705660742
 10
104.1503228432
 20
136.9159994681
 10
104.4016732544
 20
136.6858306984
 10
104.6770517375
 20
136.4821442091
 10
104.9739644222
 20
136.3067846166
 10
105.2897224214
 20
136.1613400045
 10
105.6214661817
 20
136.0471275418
 10
105.9661913803
 20
135.9651815541
 10
106.3207761323
 20
135.9162441571
 10
106.6820092633
 20
135.9007585354
 10
107.0466193902
 20
135.9188649292
 10
107.4113045471
 20
135.9703993642
 10
107.7727620889
 20
136.0548951365
 10
108.1277186001
 20
136.1715870393
 10
108.4729595395
 20
136.3194182928
 10
108.8053583517
 20
136.4970501142
 10
109.1219047816
 20
136.7028738421
 10
109.4197321358
 20
136.9350255052
 10
109.6961432435
 20
137.1914027018
 10
109.948634883
 20
137.4696836405
 10
110.1749204509
 20
137.767348166
 10
110.37295067
 20
138.0817005823
 10
110.5409321481
 20
138.4098940651
 10
110.6773436188
 20
138.7489564435
 10
110.7809497187
 20
139.095817116
 10
110.850812175
 20
139.4473348588
 10
110.8862983025
 20
139.8003262726
  0
LWPOLYLINE
  5
EC
330
1F
100
AcDbEntity
  8
0
  6
Continuous
 62
     7
370
    15
100
AcDbPolyline
 90
       24
 70
   128
 43
0.0
 10
115.5599056065
 20
124.2685289871
 10
115.9153370799
 20
124.3197468053
 10
116.2674499853
 20
124.4035644012
 10
116.6129567395
 20
124.5191991926
 10
116.9486314391
 20
124.6655715285
 10
117.2713399796
 20
124.8413147698
 10
117.5780693186
 20
125.0447880494
 10
117.8659556068
 20
125.274091592
 10
118.1323109274
 20
125.5270844522
 10
118.3746483927
 20
125.8014045038
 10
118.5907053629
 20
126.0944904944
 10
118.7784645725
 20
126.4036059591
 10
118.9361729641
 20
126.7258647701
 10
119.0623580571
 20
127.0582580838
 10
119.1558416953
 20
127.3976824332
 10
119.2157510471
 20
127.7409687047
 10
119.241526755
 20
128.0849117268
 10
119.2329281582
 20
128.4263001963
 10
119.1900355395
 20
128.761946661
 10
119.1132493757
 20
129.0887172803
 10
119.0032865986
 20
129.4035610849
 10
118.8611739008
 20
129.7035384631
 10
118.6882381505
 20
129.9858486069
 10
118.6506212443
 20
130.0392178704
  0
ARC
  5
ED
330
1F
100
AcDbEntity
  8
0
  6
Continuous
 62
     7
370
    15
100
AcDbCircle
 10
115.1547212053
 20
127.6060376922
 30
0.0
 40
3.362014092086743
100
AcDbArc
 50
216.9856292115
 51
276.9220191386
  0
LWPOLYLINE
  5
EE
330
1F
100
AcDbEntity
  8
0
  6
Continuous
 62
     7
370
    15
100
AcDbPolyline
 90
       56
 70
   128
 43
0.0
 10
101.2574974354
 20
85.599177879
 10
101.5409784537
 20
85.4804933156
 10
101.8120700716
 20
85.3424542001
 10
102.0672381954
 20
85.1868600833
 10
102.3031563184
 20
85.0157393726
 10
102.516748887
 20
84.8313228882
 10
102.7052313954
 20
84.6360147808
 10
102.866146686
 20
84.4323611904
 10
102.9973969817
 20
84.223017053
 10
103.0972712344
 20
84.0107114896
 10
103.1644674302
 20
83.7982122278
 10
103.1981095642
 20
83.5882895206
 10
103.1977590596
 20
83.3836800314
 10
103.1634204857
 20
83.1870511578
 10
103.0955414985
 20
83.0009662579
 10
102.9950070042
 20
82.827851233
 10
102.8631276239
 20
82.6699629022
 10
102.7016226068
 20
82.5293595813
 10
102.5125974179
 20
82.4078742496
 10
102.2985162897
 20
82.3070906542
 10
102.0621700969
 20
82.2283226634
 10
101.8066399737
 20
82.1725971385
 10
101.5352571459
 20
82.1406405468
 10
101.2515595039
 20
82.1328694914
 10
100.9592454802
 20
82.1493852799
 10
100.6621258352
 20
82.1899726037
 10
100.3640739777
 20
82.2541023451
 10
100.0689754696
 20
82.3409384747
 10
99.7806773713
 20
82.4493489508
 10
99.5029380893
 20
82.5779204771
 10
99.2393783799
 20
82.724976927
 10
98.993434147
 20
82.8886011949
 10
98.7683116499
 20
83.0666601882
 10
98.5669457044
 20
83.2568326356
 10
98.3919614238
 20
83.4566393485
 10
98.2456399956
 20
83.6634755407
 10
98.1298889434
 20
83.8746447862
 10
98.0462172594
 20
84.0873941709
 10
97.9957157317
 20
84.2989501813
 10
97.9790427251
 20
84.5065548612
 10
97.9964155977
 20
84.7075017661
 10
98.0476078675
 20
84.8991712458
 10
98.131952165
 20
85.0790645956
 10
98.2483489334
 20
85.2448366304
 10
98.3952807626
 20
85.3943262583
 10
98.5708321717
 20
85.5255846534
 10
98.7727145795
 20
85.6369006618
 10
98.9982961401
 20
85.7268231091
 10
99.2446360529
 20
85.7941797186
 10
99.5085229004
 20
85.8380923939
 10
99.786516514
 20
85.8579886662
 10
100.0749928217
 20
85.8536091571
 10
100.3701910938
 20
85.8250109602
 10
100.6682629693
 20
85.7725668968
 10
100.9653226255
 20
85.6969606554
 10
101.2574974354
 20
85.599177879
  0
LWPOLYLINE
  5
EF
330
1F
100
AcDbEntity
  8
0
  6
Continuous
 62
     7
370
    15
100
AcDbPolyline
 90
       15
 70
   128
 43
0.0
 10
101.4367974096
 20
86.1136390881
 10
101.7202784279
 20
85.9949545248
 10
101.9913700458
 20
85.8569154092
 10
102.2465381697
 20
85.7013212925
 10
102.4824562926
 20
85.5302005818
 10
102.6960488612
 20
85.3457840973
 10
102.8845313697
 20
85.1504759899
 10
103.0454466602
 20
84.9468223995
 10
103.176696956
 20
84.7374782621
 10
103.2765712086
 20
84.5251726987
 10
103.3437674045
 20
84.3126734369
 10
103.3774095384
 20
84.1027507297
 10
103.3770590338
 20
83.8981412405
 10
103.3427204599
 20
83.7015123669
 10
103.3183297066
 20
83.6221423927
  0
LWPOLYLINE
  5
F0
330
1F
100
AcDbEntity
  8
0
  6
Continuous
 62
     7
370
    15
100
AcDbPolyline
 90
       16
 70
   128
 43
0.0
 10
98.2215064869
 20
85.3984867617
 10
98.2269078417
 20
85.413632455
 10
98.3112521393
 20
85.5935258047
 10
98.4276489076
 20
85.7592978395
 10
98.5745807368
 20
85.9087874674
 10
98.7501321459
 20
86.0400458625
 10
98.9520145537
 20
86.1513618709
 10
99.1775961143
 20
86.2412843182
 10
99.4239360271
 20
86.3086409277
 10
99.6878228746
 20
86.352553603
 10
99.9658164882
 20
86.3724498753
 10
100.2542927959
 20
86.3680703662
 10
100.549491068
 20
86.3394721694
 10
100.8475629435
 20
86.2870281059
 10
101.1446225997
 20
86.2114218645
 10
101.4367974096
 20
86.1136390881
  0
LWPOLYLINE
  5
F1
330
1F
100
AcDbEntity
  8
0
  6
Continuous
 62
     7
370
    15
100
AcDbPolyline
 90
       13
 70
   128
 43
0.0
 10
109.0753490453
 20
110.0280711027
 10
108.7846389119
 20
110.0728436465
 10
108.4980097115
 20
110.0933033959
 10
108.2194850898
 20
110.0891631408
 10
107.952974922
 20
110.0604810014
 10
107.7022204266
 20
110.0076596121
 10
107.4707416471
 20
109.9314404693
 10
107.2617880381
 20
109.8328935227
 10
107.0782928502
 20
109.7134021555
 10
106.9228319538
 20
109.5746437646
 10
106.7975876789
 20
109.4185662135
 10
106.7043181807
 20
109.247360489
 10
106.6768440007
 20
109.1768194906
  0
LWPOLYLINE
  5
F2
330
1F
100
AcDbEntity
  8
0
  6
Continuous
 62
     7
370
    15
100
AcDbPolyline
 90
       17
 70
   128
 43
0.0
 10
111.4738540898
 20
107.5049659669
 10
111.4805968813
 20
107.5249572394
 10
111.5235947494
 20
107.7142917257
 10
111.5322246145
 20
107.9124223167
 10
111.5063653321
 20
108.1165676929
 10
111.4463799099
 20
108.323862101
 10
111.3531104117
 20
108.5313955818
 10
111.2278661368
 20
108.73625482
 10
111.0724052403
 20
108.9355640412
 10
110.8889100525
 20
109.1265253807
 10
110.6799564435
 20
109.3064581598
 10
110.448477664
 20
109.4728365169
 10
110.1977231686
 20
109.6233248644
 10
109.9312130007
 20
109.7558106759
 10
109.6526883791
 20
109.8684341409
 10
109.3660591787
 20
109.9596142729
 10
109.0753490453
 20
110.0280711027
  0
ELLIPSE
  5
F3
330
1F
100
AcDbEntity
  8
0
  6
Continuous
 62
     7
370
    15
100
AcDbEllipse
 10
99.4296829991
 20
132.2191907072
 30
0.0
 11
3.561309194067434
 21
-3.011080903525652
 31
0.0
210
0.0
220
0.0
230
1.0
 40
0.544639035
 41
1.570796326794902
 42
4.712388980384694
  0
LWPOLYLINE
  5
F4
330
1F
100
AcDbEntity
  8
0
  6
Continuous
 62
     7
370
    15
100
AcDbPolyline
 90
       54
 70
   128
 43
0.0
 10
133.1058010921
 20
100.4198849721
 10
132.9923683215
 20
100.5391385001
 10
132.9035492324
 20
100.6839460954
 10
132.8405906502
 20
100.8522749768
 10
132.8043763752
 20
101.0417621758
 10
132.7954147765
 20
101.2497477075
 10
132.8138316554
 20
101.4733119108
 10
132.8593684792
 20
101.7093164346
 10
132.9313860108
 20
101.9544482925
 10
133.0288732817
 20
102.2052663707
 10
133.1504617846
 20
102.4582497331
 10
133.2944446833
 20
102.7098470478
 10
133.4588007734
 20
102.9565264401
 10
133.6412228559
 20
103.194825072
 10
133.8391501245
 20
103.421397753
 10
134.0498041143
 20
103.6330638995
 10
134.2702277049
 20
103.8268521827
 10
134.4973266324
 20
104.0000422398
 10
134.7279129256
 20
104.1502028621
 10
134.9587496584
 20
104.2752261237
 10
135.1865963891
 20
104.3733569719
 10
135.408254649
 20
104.4432178648
 10
135.620612842
 20
104.4838281087
 10
135.8206899247
 20
104.4946176245
 10
136.0056772533
 20
104.4754349514
 10
136.1729780112
 20
104.4265493718
 10
136.3202436625
 20
104.3486471322
 10
136.4454069203
 20
104.2428218093
 10
136.5467107669
 20
104.1105589586
 10
136.6227331182
 20
103.9537152606
 10
136.6724067871
 20
103.7744924571
 10
136.6950344642
 20
103.5754064433
 10
136.6902985065
 20
103.3592519505
 10
136.6582653964
 20
103.129063314
 10
136.5993848086
 20
102.8880718775
 10
136.5144832975
 20
102.6396606327
 10
136.4047526942
 20
102.3873167288
 10
136.2717333759
 20
102.1345825212
 10
136.1172926421
 20
101.8850058442
 10
135.9435985023
 20
101.642090207
 10
135.7530892414
 20
101.409245613
 10
135.5484391918
 20
101.1897406897
 10
135.3325211917
 20
100.9866568051
 10
135.1083662564
 20
100.8028448118
 10
134.87912103
 20
100.6408850272
 10
134.6480036128
 20
100.5030510118
 10
134.4182583868
 20
100.3912776529
 10
134.1931104714
 20
100.3071340035
 10
133.9757204497
 20
100.251801256
 10
133.7691400012
 20
100.2260561608
 10
133.5762690625
 20
100.2302601228
 10
133.3998151188
 20
100.2643541274
 10
133.2422551967
 20
100.3278595695
 10
133.1058010921
 20
100.4198849721
  0
LWPOLYLINE
  5
F5
330
1F
100
AcDbEntity
  8
0
  6
Continuous
 62
     7
370
    15
100
AcDbPolyline
 90
       54
 70
   128
 43
0.0
 10
137.4989998466
 20
154.5129829594
 10
137.4214320084
 20
154.443282631
 10
137.3169380809
 20
154.3966178046
 10
137.1869849297
 20
154.373643552
 10
137.0333968123
 20
154.3746823815
 10
136.858329769
 20
154.3997197102
 10
136.6642413575
 20
154.4484040688
 10
136.4538561536
 20
154.5200520356
 10
136.2301275044
 20
154.6136578303
 10
135.9961960697
 20
154.7279074326
 10
135.755345734
 20
154.8611970287
 10
135.5109575082
 20
155.0116555247
 10
135.2664620672
 20
155.1771708132
 10
135.025291591
 20
155.3554194223
 10
134.7908315846
 20
155.5438991323
 10
134.5663733524
 20
155.7399641013
 10
134.355067796
 20
155.9408620067
 10
134.1598811822
 20
156.1437726825
 10
133.9835535033
 20
156.3458477075
 10
133.8285600133
 20
156.5442503913
 10
133.6970764811
 20
156.7361955951
 10
133.5909486472
 20
156.9189888291
 10
133.5116663138
 20
157.0900640768
 10
133.4603424311
 20
157.2470198169
 10
133.437697474
 20
157.3876527348
 10
133.4440493278
 20
157.5099886526
 10
133.4793088266
 20
157.6123102421
 10
133.5429810043
 20
157.6931811326
 10
133.6341720431
 20
157.751466074
 10
133.7516018206
 20
157.7863468735
 10
133.8936218802
 20
157.7973338811
 10
134.0582385717
 20
157.7842728634
 10
134.2431410374
 20
157.7473471684
 10
134.445733652
 20
157.6870751518
 10
134.6631724595
 20
157.6043029008
 10
134.8924050954
 20
157.5001923563
 10
135.1302136362
 20
157.376205002
 10
135.3732597711
 20
157.2340813487
 10
135.6181316653
 20
157.0758165009
 10
135.861391854
 20
156.9036321502
 10
136.0996254975
 20
156.7199453874
 10
136.3294883176
 20
156.527334772
 10
136.5477535442
 20
156.3285041349
 10
136.7513572119
 20
156.1262446223
 10
136.9374411716
 20
155.9233955145
 10
137.1033932124
 20
155.7228043683
 10
137.2468837313
 20
155.5272870436
 10
137.3658984361
 20
155.3395881751
 10
137.4587666212
 20
155.1623426436
 10
137.5241846208
 20
154.9980385877
 10
137.5612341095
 20
154.8489824762
 10
137.5693949939
 20
154.7172667302
 10
137.5485527129
 20
154.60474035
 10
137.4989998466
 20
154.5129829594
  0
ELLIPSE
  5
F6
330
1F
100
AcDbEntity
  8
0
  6
Continuous
 62
     7
370
    15
100
AcDbEllipse
 10
105.6004196757
 20
118.104167748
 30
0.0
 11
4.594060240756348
 21
5.834977790441059
 31
2.842170943040400E-14
210
-2.367460909568110E-15
220
-3.006943989222289E-15
230
1.0
 40
0.3420201433
 41
1.570796326794896
 42
4.712388980384697
  0
LWPOLYLINE
  5
F7
330
1F
100
AcDbEntity
  8
0
  6
Continuous
 62
     7
370
    15
100
AcDbPolyline
 90
       41
 70
   128
 43
0.0
 10
111.8851475911
 20
126.3936263557
 10
111.9364247375
 20
126.246112139
 10
112.0725564553
 20
125.9335330348
 10
112.240270147
 20
125.6379593628
 10
112.4380469716
 20
125.3620678839
 10
112.6640958313
 20
125.108357114
 10
112.9163695928
 20
124.8791246972
 10
113.1925836258
 20
124.6764465977
 10
113.4902364933
 20
124.5021582997
 10
113.8066326047
 20
124.3578381852
 10
114.1389066279
 20
124.2447932393
 10
114.484049438
 20
124.1640472147
 10
114.8389353681
 20
124.1163313598
 10
115.2003505163
 20
124.1020777968
 10
115.5650218511
 20
124.1214156082
 10
115.9296468524
 20
124.1741696677
 10
116.2909234197
 20
124.2598622265
 10
116.6455797765
 20
124.3777172395
 10
116.9904040999
 20
124.5266673933
 10
117.3222736074
 20
124.7053637724
 10
117.6381828374
 20
124.9121880746
 10
117.935270867
 20
125.1452672671
 10
118.2108472209
 20
125.4024905486
 10
118.4624162371
 20
125.6815284652
 10
118.6876996675
 20
125.9798540063
 10
118.8846573105
 20
126.2947654897
 10
119.0515054873
 20
126.6234110282
 10
119.1867331949
 20
126.9628143569
 10
119.2891157902
 20
127.3099017866
 10
119.3577260806
 20
127.66153004
 10
119.3919427207
 20
128.014514717
 10
119.3914558392
 20
128.3656591338
 10
119.3562698455
 20
128.7117832721
 10
119.2867033894
 20
129.0497525783
 10
119.1833864755
 20
129.3765063498
 10
119.0472547577
 20
129.6890854539
 10
118.879541066
 20
129.9846591259
 10
118.6817642414
 20
130.2605506048
 10
118.4557153817
 20
130.5142613747
 10
118.2034416202
 20
130.7434937916
 10
118.0665788668
 20
130.8494436079
  0
LWPOLYLINE
  5
F8
330
1F
100
AcDbEntity
  8
0
  6
Continuous
 62
     7
370
    15
100
AcDbPolyline
 90
       35
 70
   128
 43
0.0
 10
112.6252666511
 20
125.095397596
 10
112.7229034722
 20
124.9668943877
 10
112.948952332
 20
124.7131836178
 10
113.2012260935
 20
124.4839512009
 10
113.4774401265
 20
124.2812731014
 10
113.7750929939
 20
124.1069848035
 10
114.0914891053
 20
123.9626646889
 10
114.4237631286
 20
123.8496197431
 10
114.7689059386
 20
123.7688737184
 10
115.1237918687
 20
123.7211578635
 10
115.4852070169
 20
123.7069043006
 10
115.8498783517
 20
123.7262421119
 10
116.214503353
 20
123.7789961715
 10
116.5757799203
 20
123.8646887303
 10
116.9304362771
 20
123.9825437432
 10
117.2752606005
 20
124.131493897
 10
117.6071301081
 20
124.3101902761
 10
117.923039338
 20
124.5170145784
 10
118.2201273676
 20
124.7500937708
 10
118.4957037215
 20
125.0073170523
 10
118.7472727377
 20
125.2863549689
 10
118.9725561681
 20
125.5846805101
 10
119.1695138112
 20
125.8995919935
 10
119.336361988
 20
126.2282375319
 10
119.4715896955
 20
126.5676408606
 10
119.5739722908
 20
126.9147282904
 10
119.6425825812
 20
127.2663565437
 10
119.6767992213
 20
127.6193412208
 10
119.6763123399
 20
127.9704856375
 10
119.6411263462
 20
128.3166097759
 10
119.5715598901
 20
128.654579082
 10
119.4682429761
 20
128.9813328535
 10
119.3321112583
 20
129.2939119576
 10
119.1643975666
 20
129.5894856297
 10
119.0642575632
 20
129.7368739003
  0
ELLIPSE
  5
F9
330
1F
100
AcDbEntity
  8
0
  6
Continuous
 62
     7
370
    15
100
AcDbEllipse
 10
120.0888968089
 20
121.5283657838
 30
0.0
 11
-2.478775460566368
 21
3.43873621609913
 31
0.0
210
0.0
220
0.0
230
1.0
 40
0.8987940463
 41
2.655148821944823
 42
4.7123889803847
  0
LWPOLYLINE
  5
FA
330
1F
100
AcDbEntity
  8
0
  6
Continuous
 62
     7
370
    15
100
AcDbPolyline
 90
       30
 70
   128
 43
0.0
 10
106.6729901171
 20
109.5117768574
 10
106.8054005224
 20
109.669381576
 10
106.9674031782
 20
109.8096674109
 10
107.156886132
 20
109.9308055216
 10
107.3713791838
 20
110.0312166876
 10
107.6080860887
 20
110.1095918957
 10
107.86392101
 20
110.1649094053
 10
108.1355487485
 20
110.1964480681
 10
108.419428221
 20
110.2037967293
 10
108.7118586246
 20
110.1868595879
 10
109.0090276817
 20
110.1458574455
 10
109.3070613392
 20
110.0813248277
 10
109.6020742726
 20
109.9941030158
 10
109.8902205372
 20
109.8853290795
 10
110.1677437056
 20
109.7564210535
 10
110.4310258391
 20
109.609059451
 10
110.6766346523
 20
109.4451653559
 10
110.9013682588
 20
109.2668753783
 10
111.1022969123
 20
109.0765138008
 10
111.2768012005
 20
108.8765622776
 10
111.4226061932
 20
108.6696274826
 10
111.5378110993
 20
108.4584071274
 10
111.6209140467
 20
108.2456547923
 10
111.6708316613
 20
108.0341440294
 10
111.6869131908
 20
107.8266322048
 10
111.6689489878
 20
107.6258245526
 10
111.6171732431
 20
107.4343389077
 10
111.5322609327
 20
107.2546715782
 10
111.4153190186
 20
107.0891648026
 10
111.2809361066
 20
106.9514309239
  0
ARC
  5
FB
330
1F
100
AcDbEntity
  8
0
  6
Continuous
 62
     7
370
    15
100
AcDbCircle
 10
107.6277224483
 20
108.8442555594
 30
0.0
 40
1.164945710164239
100
AcDbArc
 50
145.039864591
 51
190.9343208223
  0
LWPOLYLINE
  5
FC
330
1F
100
AcDbEntity
  8
0
  6
Continuous
 62
     7
370
    15
100
AcDbPolyline
 90
       27
 70
   128
 43
0.0
 10
106.8779043734
 20
110.099732525
 10
107.0103147787
 20
110.2573372436
 10
107.1723174344
 20
110.3976230785
 10
107.3618003883
 20
110.5187611892
 10
107.5762934401
 20
110.6191723551
 10
107.8130003449
 20
110.6975475633
 10
108.0688352663
 20
110.7528650729
 10
108.3404630047
 20
110.7844037357
 10
108.6243424773
 20
110.7917523969
 10
108.9167728809
 20
110.7748152555
 10
109.213941938
 20
110.7338131131
 10
109.5119755955
 20
110.6692804952
 10
109.8069885289
 20
110.5820586833
 10
110.0951347934
 20
110.4732847471
 10
110.3726579619
 20
110.3443767211
 10
110.6359400954
 20
110.1970151186
 10
110.8815489086
 20
110.0331210235
 10
111.106282515
 20
109.8548310459
 10
111.3072111685
 20
109.6644694684
 10
111.4817154568
 20
109.4645179452
 10
111.6275204495
 20
109.2575831502
 10
111.7427253556
 20
109.046362795
 10
111.8258283029
 20
108.8336104599
 10
111.8757459176
 20
108.6220996969
 10
111.8918274471
 20
108.4145878724
 10
111.873863244
 20
108.2137802202
 10
111.8286749114
 20
108.0406762118
  0
LWPOLYLINE
  5
FD
330
1F
100
AcDbEntity
  8
0
  6
Continuous
 62
     7
370
    15
100
AcDbPolyline
 90
        3
 70
   128
 43
0.0
 10
106.7318516917
 20
109.8170205808
 10
106.7768123906
 20
109.9268635411
 10
106.8779043734
 20
110.099732525
  0
ELLIPSE
  5
FE
330
1F
100
AcDbEntity
  8
0
  6
Continuous
 62
     7
370
    15
100
AcDbEllipse
 10
113.2397487352
 20
120.2897070503
 30
0.0
 11
-1.300471180927772
 21
-3.731411446678337
 31
0.0
210
0.0
220
0.0
230
1.0
 40
0.6427876097
 41
3.519711166212919
 42
3.535805870496819
  0
LINE
  5
FF
330
1F
100
AcDbEntity
  8
0
  6
Continuous
 62
     7
370
    15
100
AcDbLine
 10
124.4275863157
 20
136.8052640278
 30
0.0
 11
123.9718441426
 21
137.3319602988
 31
0.0
  0
ARC
  5
100
330
1F
100
AcDbEntity
  8
0
  6
Continuous
 62
     7
370
    15
100
AcDbCircle
 10
110.2766701409
 20
125.0212156396
 30
0.0
 40
18.41500000000002
100
AcDbArc
 50
57.8177908324
 51
97.2913594657
  0
ARC
  5
101
330
1F
100
AcDbEntity
  8
0
  6
Continuous
 62
     7
370
    15
100
AcDbCircle
 10
110.2766701409
 20
125.0212156396
 30
0.0
 40
18.41500000000001
100
AcDbArc
 50
105.3468170466
 51
256.4424051773
  0
ARC
  5
102
330
1F
100
AcDbEntity
  8
0
  6
Continuous
 62
     7
370
    15
100
AcDbCircle
 10
110.2766701409
 20
125.0212156396
 30
0.0
 40
18.415
100
AcDbArc
 50
272.7747928509
 51
307.0910139762
  0
ARC
  5
103
330
1F
100
AcDbEntity
  8
0
  6
Continuous
 62
     7
370
    15
100
AcDbCircle
 10
110.2766701409
 20
125.0212156396
 30
0.0
 40
18.41500000000002
100
AcDbArc
 50
323.0020418881
 51
39.7855368769
  0
INSERT
  5
10F
330
1F
100
AcDbEntity
  8
0
  6
Continuous
 62
     7
370
     0
100
AcDbBlockReference
  2
SW_CENTERMARKSYMBOL_0
 10
110.2766701409
 20
125.0212156396
 30
0.0
  0
LINE
  5
110
330
1F
100
AcDbEntity
  8
0
  6
Continuous
 62
     7
370
    15
100
AcDbLine
 10
136.7913716372
 20
229.6170121256
 30
0.0
 11
110.6092247147
 21
245.0218265206
 31
0.0
  0
LINE
  5
111
330
1F
100
AcDbEntity
  8
0
  6
Continuous
 62
     7
370
    15
100
AcDbLine
 10
109.5447996209
 20
239.7540326557
 30
0.0
 11
134.2152681755
 21
225.238645883
 31
0.0
  0
LINE
  5
112
330
1F
100
AcDbEntity
  8
0
  6
Continuous
 62
     7
370
    15
100
AcDbLine
 10
91.8616701409
 20
245.3393265206
 30
0.0
 11
91.8616701409
 21
245.0218265206
 31
0.0
  0
LINE
  5
113
330
1F
100
AcDbEntity
  8
0
  6
Continuous
 62
     7
370
    15
100
AcDbLine
 10
128.6916701409
 20
245.0218265206
 30
0.0
 11
128.6916701409
 21
245.3393265206
 31
0.0
  0
LINE
  5
114
330
1F
100
AcDbEntity
  8
0
  6
Continuous
 62
     7
370
    15
100
AcDbLine
 10
103.3604225934
 20
200.8376265122
 30
0.0
 11
103.238341236
 21
200.4095758477
 31
0.0
  0
LINE
  5
115
330
1F
100
AcDbEntity
  8
0
  6
Continuous
 62
     7
370
    15
100
AcDbLine
 10
110.87146751
 20
198.2325849117
 30
0.0
 11
110.9935488674
 21
198.6606355762
 31
0.0
  0
LINE
  5
116
330
1F
100
AcDbEntity
  8
0
  6
Continuous
 62
     7
370
    15
100
AcDbLine
 10
103.6199975497
 20
200.3007263009
 30
0.0
 11
103.4979161923
 21
199.8726756363
 31
0.0
  0
LINE
  5
117
330
1F
100
AcDbEntity
  8
0
  6
Continuous
 62
     7
370
    15
100
AcDbLine
 10
110.3677298389
 20
197.9133837939
 30
0.0
 11
110.4898111963
 21
198.3414344585
 31
0.0
  0
LINE
  5
118
330
1F
100
AcDbEntity
  8
0
  6
Continuous
 62
     7
370
    15
100
AcDbLine
 10
111.896004995
 20
230.1868989926
 30
0.0
 11
103.6214680001
 21
201.1741067498
 31
0.0
  0
LINE
  5
119
330
1F
100
AcDbEntity
  8
0
  6
Continuous
 62
     7
370
    15
100
AcDbLine
 10
110.9492692231
 20
199.0841954512
 30
0.0
 11
119.223806218
 21
228.096987694
 31
0.0
  0
LINE
  5
11A
330
1F
100
AcDbEntity
  8
0
  6
Continuous
 62
     7
370
    15
100
AcDbLine
 10
92.3696701409
 20
245.9743265206
 30
0.0
 11
92.3696701409
 21
245.3393265206
 31
0.0
  0
LINE
  5
11B
330
1F
100
AcDbEntity
  8
0
  6
Continuous
 62
     7
370
    15
100
AcDbLine
 10
128.1836701409
 20
245.3393265206
 30
0.0
 11
128.1836701409
 21
245.9743265206
 31
0.0
  0
LINE
  5
11C
330
1F
100
AcDbEntity
  8
0
  6
Continuous
 62
     7
370
    15
100
AcDbLine
 10
136.3912501947
 20
216.9233178889
 30
0.0
 11
120.0101459009
 21
230.8541099193
 31
0.0
  0
LINE
  5
11D
330
1F
100
AcDbEntity
  8
0
  6
Continuous
 62
     7
370
    15
100
AcDbLine
 10
113.6330167295
 20
236.2773377215
 30
0.0
 11
103.3504439439
 21
245.0218265206
 31
0.0
  0
LINE
  5
11E
330
1F
100
AcDbEntity
  8
0
  6
Continuous
 62
     7
370
    15
100
AcDbLine
 10
95.5089220543
 20
245.0218265206
 30
0.0
 11
111.96950909
 21
231.0234409063
 31
0.0
  0
LINE
  5
11F
330
1F
100
AcDbEntity
  8
0
  6
Continuous
 62
     7
370
    15
100
AcDbLine
 10
118.4794951191
 20
225.4872291916
 30
0.0
 11
133.1002563847
 21
213.0534652118
 31
0.0
  0
LINE
  5
120
330
1F
100
AcDbEntity
  8
0
  6
Continuous
 62
     7
370
    15
100
AcDbLine
 10
112.0281989702
 20
231.2292236953
 30
0.0
 11
111.7433424695
 21
230.2304388113
 31
0.0
  0
LINE
  5
121
330
1F
100
AcDbEntity
  8
0
  6
Continuous
 62
     7
370
    15
100
AcDbLine
 10
119.3764687435
 20
228.0534478753
 30
0.0
 11
119.6613252441
 21
229.0522327593
 31
0.0
  0
LINE
  5
122
330
1F
100
AcDbEntity
  8
0
  6
Continuous
 62
     7
370
    15
100
AcDbLine
 10
119.6170455998
 20
229.4757926343
 30
0.0
 11
120.6799029336
 21
233.2024614531
 31
0.0
  0
LINE
  5
123
330
1F
100
AcDbEntity
  8
0
  6
Continuous
 62
     7
370
    15
100
AcDbLine
 10
122.1193613085
 20
238.2495966339
 30
0.0
 11
124.0508219644
 21
245.0218265206
 31
0.0
  0
LINE
  5
124
330
1F
100
AcDbEntity
  8
0
  6
Continuous
 62
     7
370
    15
100
AcDbLine
 10
116.1269716534
 20
245.0218265206
 30
0.0
 11
115.3341111828
 21
242.2418406282
 31
0.0
  0
LINE
  5
125
330
1F
100
AcDbEntity
  8
0
  6
Continuous
 62
     7
370
    15
100
AcDbLine
 10
113.8946528079
 20
237.1947054474
 30
0.0
 11
112.2892443768
 21
231.5657039329
 31
0.0
  0
LINE
  5
126
330
1F
100
AcDbEntity
  8
0
  6
Continuous
 62
     7
370
    15
100
AcDbLine
 10
112.8122091642
 20
236.9753675542
 30
0.0
 11
113.0850622701
 21
237.6710449931
 31
0.0
  0
LINE
  5
127
330
1F
100
AcDbEntity
  8
0
  6
Continuous
 62
     7
370
    15
100
AcDbLine
 10
114.9633441104
 20
242.459989199
 30
0.0
 11
115.9681276937
 21
245.0218265206
 31
0.0
  0
LINE
  5
128
330
1F
100
AcDbEntity
  8
0
  6
Continuous
 62
     7
370
    15
100
AcDbLine
 10
106.6311046824
 20
235.563318087
 30
0.0
 11
106.5629322937
 21
235.3895029764
 31
0.0
  0
LINE
  5
129
330
1F
100
AcDbEntity
  8
0
  6
Continuous
 62
     7
370
    15
100
AcDbLine
 10
106.4698521328
 20
234.7174078294
 30
0.0
 11
98.4052905658
 21
214.1556718006
 31
0.0
  0
LINE
  5
12A
330
1F
100
AcDbEntity
  8
0
  6
Continuous
 62
     7
370
    15
100
AcDbLine
 10
103.1345456276
 20
212.3008007645
 30
0.0
 11
110.8508979821
 21
231.9747283426
 31
0.0
  0
LINE
  5
12B
330
1F
100
AcDbEntity
  8
0
  6
Continuous
 62
     7
370
    15
100
AcDbLine
 10
103.1030348741
 20
211.7856854966
 30
0.0
 11
103.2823348483
 21
212.2428360446
 31
0.0
  0
LINE
  5
12C
330
1F
100
AcDbEntity
  8
0
  6
Continuous
 62
     7
370
    15
100
AcDbLine
 10
98.2575013452
 20
214.2136365205
 30
0.0
 11
98.0782013709
 21
213.7564859724
 31
0.0
  0
LWPOLYLINE
  5
12D
330
1F
100
AcDbEntity
  8
0
  6
Continuous
 62
     7
370
    15
100
AcDbPolyline
 90
       54
 70
   128
 43
0.0
 10
137.4989998466
 20
227.4278290043
 10
137.4214320084
 20
227.1455323224
 10
137.3169380809
 20
226.8671984671
 10
137.1869849297
 20
226.5967346356
 10
137.0333968123
 20
226.3379375473
 10
136.858329769
 20
226.0944401459
 10
136.6642413575
 20
225.8696606013
 10
136.4538561536
 20
225.6667543256
 10
136.2301275044
 20
225.488569678
 10
135.9961960697
 20
225.3376079804
 10
135.755345734
 20
225.2159884042
 10
135.5109575082
 20
225.1254182216
 10
135.2664620672
 20
225.0671688395
 10
135.025291591
 20
225.0420579514
 10
134.7908315846
 20
225.0504380592
 10
134.5663733524
 20
225.0921915246
 10
134.355067796
 20
225.1667322205
 10
134.1598811822
 20
225.2730137588
 10
133.9835535033
 20
225.4095441797
 10
133.8285600133
 20
225.5744068954
 10
133.6970764811
 20
225.7652875948
 10
133.5909486472
 20
225.9795067312
 10
133.5116663138
 20
226.2140571376
 10
133.4603424311
 20
226.4656462404
 10
133.437697474
 20
226.7307422801
 10
133.4440493278
 20
227.0056238893
 10
133.4793088266
 20
227.2864323329
 10
133.5429810043
 20
227.5692256757
 10
133.6341720431
 20
227.8500341193
 10
133.7516018206
 20
228.1249157285
 10
133.8936218802
 20
228.3900117682
 10
134.0582385717
 20
228.641600871
 10
134.2431410374
 20
228.8761512774
 10
134.445733652
 20
229.0903704138
 10
134.6631724595
 20
229.2812511132
 10
134.8924050954
 20
229.4461138289
 10
135.1302136362
 20
229.5826442499
 10
135.3732597711
 20
229.6889257882
 10
135.6181316653
 20
229.763466484
 10
135.861391854
 20
229.8052199494
 10
136.0996254975
 20
229.8136000572
 10
136.3294883176
 20
229.7884891692
 10
136.5477535442
 20
229.730239787
 10
136.7513572119
 20
229.6396696044
 10
136.9374411716
 20
229.5180500282
 10
137.1033932124
 20
229.3670883306
 10
137.2468837313
 20
229.188903683
 10
137.3658984361
 20
228.9859974073
 10
137.4587666212
 20
228.7612178627
 10
137.5241846208
 20
228.5177204613
 10
137.5612341095
 20
228.258923373
 10
137.5693949939
 20
227.9884595415
 10
137.5485527129
 20
227.7101256862
 10
137.4989998466
 20
227.4278290043
  0
LINE
  5
12E
330
1F
100
AcDbEntity
  8
0
  6
Continuous
 62
     7
370
    15
100
AcDbLine
 10
124.4275863157
 20
245.0218265206
 30
0.0
 11
91.8616701409
 21
245.0218265206
 31
0.0
  0
LINE
  5
12F
330
1F
100
AcDbEntity
  8
0
  6
Continuous
 62
     7
370
    15
100
AcDbLine
 10
128.6916701409
 20
245.0218265206
 30
0.0
 11
124.4275863157
 21
245.0218265206
 31
0.0
  0
LINE
  5
130
330
1F
100
AcDbEntity
  8
0
  6
Continuous
 62
     7
370
    15
100
AcDbLine
 10
124.4275863157
 20
245.3393265206
 30
0.0
 11
91.8616701409
 21
245.3393265206
 31
0.0
  0
LINE
  5
131
330
1F
100
AcDbEntity
  8
0
  6
Continuous
 62
     7
370
    15
100
AcDbLine
 10
128.6916701409
 20
245.3393265206
 30
0.0
 11
124.4275863157
 21
245.3393265206
 31
0.0
  0
LWPOLYLINE
  5
132
330
1F
100
AcDbEntity
  8
0
  6
Continuous
 62
     7
370
    15
100
AcDbPolyline
 90
       39
 70
   128
 43
0.0
 10
110.8862983025
 20
198.3036344794
 10
110.8870867332
 20
198.4423904324
 10
110.853170327
 20
198.5891039377
 10
110.7848562362
 20
198.7424463349
 10
110.6827631237
 20
198.9010289317
 10
110.5478155605
 20
199.0634155795
 10
110.3812356528
 20
199.2281356795
 10
110.1845319739
 20
199.3936975012
 10
109.9594859028
 20
199.558601691
 10
109.7081354916
 20
199.721354851
 10
109.4327570085
 20
199.8804830634
 10
109.1358443237
 20
200.0345452384
 10
108.8200863245
 20
200.1821461653
 10
108.4883425642
 20
200.321949147
 10
108.1436173657
 20
200.4526881062
 10
107.7890326137
 20
200.5731790506
 10
107.4277994827
 20
200.6823307955
 10
107.0631893558
 20
200.7791548459
 10
106.6985041988
 20
200.8627743481
 10
106.337046657
 20
200.932432031
 10
105.9820901459
 20
200.9874970638
 10
105.6368492065
 20
201.0274707691
 10
105.3044503943
 20
201.0519911387
 10
104.9879039643
 20
201.0608361125
 10
104.6900766102
 20
201.053925589
 10
104.4136655025
 20
201.0313221509
 10
104.161173863
 20
200.9932304985
 10
103.9348882951
 20
200.9399955957
 10
103.736858076
 20
200.872099546
 10
103.5688765979
 20
200.7901572265
 10
103.4324651272
 20
200.6949107197
 10
103.3288590272
 20
200.5872225925
 10
103.2589965709
 20
200.4680680854
 10
103.2235104435
 20
200.33852628
 10
103.2227220128
 20
200.1997703269
 10
103.256638419
 20
200.0530568217
 10
103.3249525098
 20
199.8997144244
 10
103.4270456223
 20
199.7411318276
 10
103.4863178033
 20
199.6653509653
  0
LWPOLYLINE
  5
133
330
1F
100
AcDbEntity
  8
0
  6
Continuous
 62
     7
370
    15
100
AcDbPolyline
 90
        7
 70
   128
 43
0.0
 10
110.2682197731
 20
197.7311318017
 10
110.37295067
 20
197.7700612133
 10
110.5409321481
 20
197.8520035328
 10
110.6773436188
 20
197.9472500397
 10
110.7809497187
 20
198.0549381668
 10
110.850812175
 20
198.174092674
 10
110.8862983025
 20
198.3036344794
  0
LWPOLYLINE
  5
134
330
1F
100
AcDbEntity
  8
0
  6
Continuous
 62
     7
370
    15
100
AcDbPolyline
 90
       26
 70
   128
 43
0.0
 10
109.9075547875
 20
199.3578601353
 10
109.6997375367
 20
199.5135383777
 10
109.4656347456
 20
199.6673038862
 10
109.2075730331
 20
199.8176284698
 10
108.9281171323
 20
199.9630181355
 10
108.6300444015
 20
200.1020279353
 10
108.3163172214
 20
200.2332763275
 10
107.9900535538
 20
200.3554589066
 10
107.6544959534
 20
200.4673613671
 10
107.3129793426
 20
200.5678715722
 10
106.9688978667
 20
200.6559906062
 10
106.6256711621
 20
200.7308427027
 10
106.2867103701
 20
200.7916839479
 10
105.9553842352
 20
200.8379096741
 10
105.6349856253
 20
200.8690604693
 10
105.3286988059
 20
200.8848267429
 10
105.039567793
 20
200.8850518027
 10
104.7704661004
 20
200.8697334117
 10
104.5240681818
 20
200.8390238112
 10
104.3028228502
 20
200.7932282069
 10
104.1089289412
 20
200.7328017361
 10
103.9443134596
 20
200.6583449442
 10
103.8106124279
 20
200.5705978163
 10
103.7091546272
 20
200.4704324227
 10
103.6409483906
 20
200.3588442522
 10
103.6199975497
 20
200.3007263009
  0
LWPOLYLINE
  5
135
330
1F
100
AcDbEntity
  8
0
  6
Continuous
 62
     7
370
    15
100
AcDbPolyline
 90
        9
 70
   128
 43
0.0
 10
110.4898111963
 20
198.3414344585
 10
110.4902691886
 20
198.3430517075
 10
110.5074322886
 20
198.4696621522
 10
110.4902826151
 20
198.6047343736
 10
110.4389906092
 20
198.7469259635
 10
110.3540660339
 20
198.894823758
 10
110.2363529078
 20
199.0469578822
 10
110.0870211169
 20
199.201816359
 10
109.9075547875
 20
199.3578601353
  0
LWPOLYLINE
  5
136
330
1F
100
AcDbEntity
  8
0
  6
Continuous
 62
     7
370
    15
100
AcDbPolyline
 90
       35
 70
   128
 43
0.0
 10
110.9935488674
 20
198.6606355762
 10
111.0083796599
 20
198.7316851439
 10
111.0091680906
 20
198.8704410969
 10
110.9752516844
 20
199.0171546022
 10
110.9069375936
 20
199.1704969995
 10
110.8048444811
 20
199.3290795963
 10
110.669896918
 20
199.491466244
 10
110.5033170102
 20
199.6561863441
 10
110.3066133313
 20
199.8217481658
 10
110.0815672602
 20
199.9866523555
 10
109.830216849
 20
200.1494055155
 10
109.5548383659
 20
200.3085337279
 10
109.2579256812
 20
200.462595903
 10
108.942167682
 20
200.6101968298
 10
108.6104239216
 20
200.7499998116
 10
108.2656987231
 20
200.8807387707
 10
107.9111139711
 20
201.0012297151
 10
107.5498808401
 20
201.1103814601
 10
107.1852707132
 20
201.2072055104
 10
106.8205855562
 20
201.2908250126
 10
106.4591280144
 20
201.3604826955
 10
106.1041715033
 20
201.4155477284
 10
105.7589305639
 20
201.4555214336
 10
105.4265317517
 20
201.4800418033
 10
105.1099853218
 20
201.4888867771
 10
104.8121579676
 20
201.4819762536
 10
104.5357468599
 20
201.4593728155
 10
104.2832552204
 20
201.4212811631
 10
104.0569696525
 20
201.3680462603
 10
103.8589394334
 20
201.3001502106
 10
103.6909579553
 20
201.2182078911
 10
103.5545464846
 20
201.1229613842
 10
103.4509403847
 20
201.015273257
 10
103.3810779284
 20
200.8961187499
 10
103.3604225934
 20
200.8376265122
  0
LWPOLYLINE
  5
137
330
1F
100
AcDbEntity
  8
0
  6
Continuous
 62
     7
370
    15
100
AcDbPolyline
 90
       64
 70
   128
 43
0.0
 10
109.7854734301
 20
198.9298094707
 10
109.5776561793
 20
199.0854877132
 10
109.3435533882
 20
199.2392532216
 10
109.0854916757
 20
199.3895778053
 10
108.8060357749
 20
199.5349674709
 10
108.5079630441
 20
199.6739772708
 10
108.194235864
 20
199.805225663
 10
107.8679721963
 20
199.927408242
 10
107.532414596
 20
200.0393107025
 10
107.1908979851
 20
200.1398209076
 10
106.8468165093
 20
200.2279399417
 10
106.5035898047
 20
200.3027920382
 10
106.1646290127
 20
200.3636332833
 10
105.8333028777
 20
200.4098590095
 10
105.5129042679
 20
200.4410098048
 10
105.2066174485
 20
200.4567760784
 10
104.9174864356
 20
200.4570011381
 10
104.648384743
 20
200.4416827472
 10
104.4019868243
 20
200.4109731467
 10
104.1807414927
 20
200.3651775424
 10
103.9868475838
 20
200.3047510716
 10
103.8222321021
 20
200.2302942797
 10
103.6885310705
 20
200.1425471517
 10
103.5870732698
 20
200.0423817582
 10
103.5188670332
 20
199.9307935876
 10
103.4845902249
 20
199.8088916535
 10
103.4845835033
 20
199.6778874719
 10
103.5188469352
 20
199.5390830214
 10
103.5870399951
 20
199.3938578028
 10
103.6884849499
 20
199.2436551297
 10
103.8221735939
 20
199.0899677837
 10
103.9867772694
 20
198.9343231787
 10
104.1806600711
 20
198.7782681807
 10
104.4018951046
 20
198.6233537343
 10
104.6482836367
 20
198.4711194491
 10
104.9173769476
 20
198.3230782976
 10
105.206500667
 20
198.1807015794
 10
105.5127813534
 20
198.0454042982
 10
105.8331750519
 20
197.9185310992
 10
106.1644975459
 20
197.8013429052
 10
106.5034560035
 20
197.6950043853
 10
106.8466817035
 20
197.6005723793
 10
107.1907635145
 20
197.518985395
 10
107.5322817969
 20
197.4510542804
 10
107.8678423887
 20
197.3974541656
 10
108.1941103378
 20
197.3587177524
 10
108.5078430469
 20
197.3352300209
 10
108.8059224993
 20
197.3272244026
 10
109.0853862475
 20
197.334780461
 10
109.3434568552
 20
197.3578231005
 10
109.5775695008
 20
197.3961233131
 10
109.7853974677
 20
197.4493004541
 10
109.964875268
 20
197.516826025
 10
110.1142191709
 20
197.5980289265
 10
110.2319449294
 20
197.6921021277
 10
110.3168825322
 20
197.7981106867
 10
110.3681878312
 20
197.915001043
 10
110.3853509312
 20
198.0416114876
 10
110.3682012577
 20
198.1766837091
 10
110.3169092518
 20
198.318875299
 10
110.2319846765
 20
198.4667730934
 10
110.1142715504
 20
198.6189072177
 10
109.9649397595
 20
198.7737656945
 10
109.7854734301
 20
198.9298094707
  0
LWPOLYLINE
  5
138
330
1F
100
AcDbEntity
  8
0
  6
Continuous
 62
     7
370
    15
100
AcDbPolyline
 90
       34
 70
   128
 43
0.0
 10
119.223806218
 20
228.096987694
 10
119.241526755
 20
228.200185731
 10
119.2329281582
 20
228.3377098801
 10
119.1900355395
 20
228.4827429403
 10
119.1132493757
 20
228.6339307771
 10
119.0032865986
 20
228.7898617903
 10
118.8611739008
 20
228.9490800941
 10
118.6882381505
 20
229.1100991101
 10
118.4860940021
 20
229.2714154472
 10
118.2566288211
 20
229.4315229381
 10
118.001985062
 20
229.5889267023
 10
117.724540265
 20
229.7421571033
 10
117.4268848574
 20
229.8897834702
 10
117.1117979676
 20
230.0304274554
 10
116.782221477
 20
230.1627759037
 10
116.4412325524
 20
230.2855931135
 10
116.0920149156
 20
230.3977323735
 10
115.7378291175
 20
230.4981466697
 10
115.3819820955
 20
230.5858984609
 10
115.0277962974
 20
230.6601684321
 10
114.6785786606
 20
230.7202631448
 10
114.337589736
 20
230.7656215108
 10
114.0080132454
 20
230.7958200311
 10
113.6929263556
 20
230.8105767505
 10
113.395270948
 20
230.8097538893
 10
113.117826151
 20
230.7933591304
 10
112.8631823919
 20
230.7615455473
 10
112.6337172109
 20
230.7146101747
 10
112.4315730625
 20
230.6529912357
 10
112.2586373122
 20
230.5772640497
 10
112.1165246144
 20
230.4881356609
 10
112.0065618373
 20
230.3864382372
 10
111.9297756735
 20
230.2731213
 10
111.896004995
 20
230.1868989926
  0
LINE
  5
139
330
1F
100
AcDbEntity
  8
0
  6
Continuous
 62
     7
370
    15
100
AcDbLine
 10
98.8176989496
 20
245.9743265206
 30
0.0
 11
92.3696701409
 21
245.9743265206
 31
0.0
  0
LINE
  5
13A
330
1F
100
AcDbEntity
  8
0
  6
Continuous
 62
     7
370
    15
100
AcDbLine
 10
128.1836701409
 20
245.9743265206
 30
0.0
 11
98.8176989496
 21
245.9743265206
 31
0.0
  0
LWPOLYLINE
  5
13B
330
1F
100
AcDbEntity
  8
0
  6
Continuous
 62
     7
370
    15
100
AcDbPolyline
 90
       29
 70
   128
 43
0.0
 10
133.1002563847
 20
213.0534652118
 10
133.1504617846
 20
213.01433581
 10
133.2944446833
 20
212.9335024132
 10
133.4588007734
 20
212.8815151555
 10
133.6412228559
 20
212.8591038241
 10
133.8391501245
 20
212.8665830249
 10
134.0498041143
 20
212.9038477663
 10
134.2702277049
 20
212.9703749331
 10
134.4973266324
 20
213.0652306296
 10
134.7279129256
 20
213.1870832899
 10
134.9587496584
 20
213.3342223696
 10
135.1865963891
 20
213.5045823586
 10
135.408254649
 20
213.6957717761
 10
135.620612842
 20
213.9051067418
 10
135.8206899247
 20
214.1296486517
 10
136.0056772533
 20
214.3662454294
 10
136.1729780112
 20
214.6115757749
 10
136.3202436625
 20
214.8621957879
 10
136.4454069203
 20
215.1145873128
 10
136.5467107669
 20
215.3652073258
 10
136.6227331182
 20
215.6105376713
 10
136.6724067871
 20
215.8471344491
 10
136.6950344642
 20
216.0716763589
 10
136.6902985065
 20
216.2810113246
 10
136.6582653964
 20
216.4722007421
 10
136.5993848086
 20
216.6425607311
 10
136.5144832975
 20
216.7896998109
 10
136.4047526942
 20
216.9115524711
 10
136.3912501947
 20
216.9233178889
  0
ARC
  5
13C
330
1F
100
AcDbEntity
  8
0
  6
Continuous
 62
     7
370
    15
100
AcDbCircle
 10
112.6470056495
 20
231.0248726626
 30
0.0
 40
0.6516755718980363
100
AcDbArc
 50
116.8017281205
 51
161.7250180362
  0
LWPOLYLINE
  5
13D
330
1F
100
AcDbEntity
  8
0
  6
Continuous
 62
     7
370
    15
100
AcDbPolyline
 90
       31
 70
   128
 43
0.0
 10
119.6613252441
 20
229.0522327593
 10
119.6767992213
 20
229.128218645
 10
119.6763123399
 20
229.2672892902
 10
119.6411263462
 20
229.4142699337
 10
119.5715598901
 20
229.5678294959
 10
119.4682429761
 20
229.7265773178
 10
119.3321112583
 20
229.8890757545
 10
119.1643975666
 20
230.0538531949
 10
118.9666207421
 20
230.219417389
 10
118.7405718823
 20
230.384268962
 10
118.4882981208
 20
230.5469149923
 10
118.2120840878
 20
230.7058825324
 10
117.9144312204
 20
230.8597319475
 10
117.598035109
 20
231.0070699537
 10
117.2657610857
 20
231.146562235
 10
116.9206182757
 20
231.2769455278
 10
116.5657323456
 20
231.3970390607
 10
116.2043171974
 20
231.5057552482
 10
115.8396458626
 20
231.6021095397
 10
115.4750208613
 20
231.6852293356
 10
115.113744294
 20
231.7543618904
 10
114.7590879372
 20
231.8088811288
 10
114.4142636138
 20
231.8482933162
 10
114.0823941062
 20
231.8722415298
 10
113.7664848762
 20
231.8805088907
 10
113.4693968467
 20
231.8730205286
 10
113.1938204927
 20
231.8498442591
 10
112.9422514766
 20
231.8111899702
 10
112.7169680462
 20
231.757407721
 10
112.5200104031
 20
231.6889845721
 10
112.3531622263
 20
231.6065401739
  0
ARC
  5
13E
330
1F
100
AcDbEntity
  8
0
  6
Continuous
 62
     7
370
    15
100
AcDbCircle
 10
112.3255488001
 20
230.0679753037
 30
0.0
 40
0.5979435030807472
100
AcDbArc
 50
115.4810790637
 51
205.8907944145
  0
LWPOLYLINE
  5
13F
330
1F
100
AcDbEntity
  8
0
  6
Continuous
 62
     7
370
    15
100
AcDbPolyline
 90
       34
 70
   128
 43
0.0
 10
119.1154233368
 20
227.7169676377
 10
119.1867331949
 20
227.7718504149
 10
119.2891157902
 20
227.8799772068
 10
119.3577260806
 20
227.9995325595
 10
119.3919427207
 20
228.1294337611
 10
119.3914558392
 20
228.2685044063
 10
119.3562698455
 20
228.4154850497
 10
119.2867033894
 20
228.569044612
 10
119.1833864755
 20
228.7277924338
 10
119.0472547577
 20
228.8902908705
 10
118.879541066
 20
229.0550683109
 10
118.6817642414
 20
229.2206325051
 10
118.4557153817
 20
229.385484078
 10
118.2034416202
 20
229.5481301083
 10
117.9272275872
 20
229.7070976484
 10
117.6295747197
 20
229.8609470636
 10
117.3131786083
 20
230.0082850697
 10
116.9809045851
 20
230.147777351
 10
116.635761775
 20
230.2781606438
 10
116.2808758449
 20
230.3982541768
 10
115.9194606967
 20
230.5069703643
 10
115.5547893619
 20
230.6033246557
 10
115.1901643606
 20
230.6864444517
 10
114.8288877933
 20
230.7555770064
 10
114.4742314365
 20
230.8100962448
 10
114.1294071131
 20
230.8495084323
 10
113.7975376056
 20
230.8734566458
 10
113.4816283756
 20
230.8817240068
 10
113.184540346
 20
230.8742356446
 10
112.9089639921
 20
230.8510593752
 10
112.6573949759
 20
230.8124050862
 10
112.4321115455
 20
230.7586228371
 10
112.2351539025
 20
230.6901996881
 10
112.0683057257
 20
230.6077552899
  0
LWPOLYLINE
  5
140
330
1F
100
AcDbEntity
  8
0
  6
Continuous
 62
     7
370
    15
100
AcDbPolyline
 90
       15
 70
   128
 43
0.0
 10
109.2802633015
 20
233.0278690808
 10
108.9895531681
 20
233.0915036593
 10
108.7029239677
 20
233.1808984134
 10
108.4243993461
 20
233.2947984368
 10
108.1578891782
 20
233.4316048228
 10
107.9071346828
 20
233.5893971096
 10
107.6756559033
 20
233.7659602394
 10
107.4667022943
 20
233.9588156529
 10
107.2832071065
 20
234.1652560829
 10
107.12774621
 20
234.3823835582
 10
107.0025019351
 20
234.607150085
 10
106.9092324369
 20
234.836400434
 10
106.8492470147
 20
235.0669164328
 10
106.8233877323
 20
235.2954621421
 10
106.823102514
 20
235.4000396037
  0
LWPOLYLINE
  5
141
330
1F
100
AcDbEntity
  8
0
  6
Continuous
 62
     7
370
    15
100
AcDbPolyline
 90
        3
 70
   128
 43
0.0
 10
109.6631789149
 20
232.9847864571
 10
109.5709734349
 20
232.990887968
 10
109.2802633015
 20
233.0278690808
  0
LWPOLYLINE
  5
142
330
1F
100
AcDbEntity
  8
0
  6
Continuous
 62
     7
370
    15
100
AcDbPolyline
 90
       14
 70
   128
 43
0.0
 10
106.8779043734
 20
234.551122763
 10
107.0103147787
 20
234.3218269723
 10
107.1723174344
 20
234.100414808
 10
107.3618003883
 20
233.8897727164
 10
107.5762934401
 20
233.6926467392
 10
107.8130003449
 20
233.511606715
 10
108.0688352663
 20
233.3490127773
 10
108.3404630047
 20
233.2069845869
 10
108.6243424773
 20
233.0873736984
 10
108.9167728809
 20
232.9917394226
 10
109.213941938
 20
232.9213284985
 10
109.5119755955
 20
232.8770588403
 10
109.8069885289
 20
232.8595075707
 10
109.8105495433
 20
232.8594597673
  0
ARC
  5
143
330
1F
100
AcDbEntity
  8
0
  6
Continuous
 62
     7
370
    15
100
AcDbCircle
 10
108.4465860676
 20
235.3847504352
 30
0.0
 40
1.776428257356492
100
AcDbArc
 50
175.4599165291
 51
207.9870373742
  0
LWPOLYLINE
  5
144
330
1F
100
AcDbEntity
  8
0
  6
Continuous
 62
     7
370
    15
100
AcDbPolyline
 90
       16
 70
   128
 43
0.0
 10
106.6729901171
 20
234.0286649939
 10
106.8054005224
 20
233.7993692031
 10
106.9674031782
 20
233.5779570389
 10
107.156886132
 20
233.3673149473
 10
107.3713791838
 20
233.17018897
 10
107.6080860887
 20
232.9891489458
 10
107.86392101
 20
232.8265550082
 10
108.1355487485
 20
232.6845268178
 10
108.419428221
 20
232.5649159292
 10
108.7118586246
 20
232.4692816534
 10
109.0090276817
 20
232.3988707294
 10
109.3070613392
 20
232.3546010712
 10
109.6020742726
 20
232.3370498015
 10
109.8902205372
 20
232.3464457281
 10
110.1677437056
 20
232.3826663605
 10
110.3300268719
 20
232.4176867037
  0
ARC
  5
145
330
1F
100
AcDbEntity
  8
0
  6
Continuous
 62
     7
370
    15
100
AcDbCircle
 10
108.1293923356
 20
234.8313210351
 30
0.0
 40
1.662938406090901
100
AcDbArc
 50
160.3873214919
 51
208.8601483716
  0
LWPOLYLINE
  5
146
330
1F
100
AcDbEntity
  8
0
  6
Continuous
 62
     7
370
    15
100
AcDbPolyline
 90
       17
 70
   128
 43
0.0
 10
100.7699180967
 20
211.3295448557
 10
100.4792079633
 20
211.3931794341
 10
100.192578763
 20
211.4825741882
 10
99.9140541413
 20
211.5964742116
 10
99.6475439735
 20
211.7332805976
 10
99.3967894781
 20
211.8910728844
 10
99.1653106985
 20
212.0676360143
 10
98.9563570895
 20
212.2604914278
 10
98.7728619017
 20
212.4669318578
 10
98.6174010052
 20
212.6840593331
 10
98.4921567304
 20
212.9088258599
 10
98.3988872322
 20
213.1380762089
 10
98.3389018099
 20
213.3685922077
 10
98.3130425275
 20
213.5971379169
 10
98.3216723926
 20
213.8205050559
 10
98.3646702607
 20
214.0355580396
 10
98.4052905658
 20
214.1556718006
  0
LWPOLYLINE
  5
147
330
1F
100
AcDbEntity
  8
0
  6
Continuous
 62
     7
370
    15
100
AcDbPolyline
 90
       12
 70
   128
 43
0.0
 10
103.1345456276
 20
212.3008007645
 10
103.0476794631
 20
212.1204854889
 10
102.9224351883
 20
211.9390663994
 10
102.7669742918
 20
211.7757444292
 10
102.583479104
 20
211.6328122607
 10
102.374525495
 20
211.5122763483
 10
102.1430467154
 20
211.4158287519
 10
101.89229222
 20
211.3448233844
 10
101.6257820522
 20
211.3002570055
 10
101.3472574305
 20
211.2827552295
 10
101.0606282301
 20
211.2925637429
 10
100.7699180967
 20
211.3295448557
  0
LWPOLYLINE
  5
148
330
1F
100
AcDbEntity
  8
0
  6
Continuous
 62
     7
370
    15
100
AcDbPolyline
 90
       14
 70
   128
 43
0.0
 10
101.4367974096
 20
211.1623529225
 10
101.7202784279
 20
211.1847316876
 10
101.9913700458
 20
211.2337506602
 10
102.2465381697
 20
211.308770803
 10
102.4824562926
 20
211.4088141139
 10
102.6960488612
 20
211.5325763751
 10
102.8845313697
 20
211.6784441564
 10
103.0454466602
 20
211.8445158482
 10
103.176696956
 20
212.028626452
 10
103.2765712086
 20
212.2283758044
 10
103.3437674045
 20
212.4411598673
 10
103.3774095384
 20
212.664204675
 10
103.3770590338
 20
212.8946024972
 10
103.3754150092
 20
212.9149311917
  0
LWPOLYLINE
  5
149
330
1F
100
AcDbEntity
  8
0
  6
Continuous
 62
     7
370
    15
100
AcDbPolyline
 90
       23
 70
   128
 43
0.0
 10
98.6461599474
 20
214.7698022278
 10
98.571261398
 20
214.6973885975
 10
98.4249399698
 20
214.5220114278
 10
98.3091889177
 20
214.3297679205
 10
98.2255172336
 20
214.1231642637
 10
98.1750157059
 20
213.9048938521
 10
98.1583426993
 20
213.6778021742
 10
98.1757155719
 20
213.4448497174
 10
98.2269078417
 20
213.2090733732
 10
98.3112521393
 20
212.9735468469
 10
98.4276489076
 20
212.7413405868
 10
98.5745807368
 20
212.5154817568
 10
98.7501321459
 20
212.298914772
 10
98.9520145537
 20
212.0944629143
 10
99.1775961143
 20
211.9047915264
 10
99.4239360271
 20
211.7323732648
 10
99.6878228746
 20
211.5794558652
 10
99.9658164882
 20
211.4480328399
 10
100.2542927959
 20
211.3398174889
 10
100.549491068
 20
211.2562205649
 10
100.8475629435
 20
211.1983318816
 10
101.1446225997
 20
211.1669061064
 10
101.4367974096
 20
211.1623529225
  0
LWPOLYLINE
  5
14A
330
1F
100
AcDbEntity
  8
0
  6
Continuous
 62
     7
370
    15
100
AcDbPolyline
 90
       11
 70
   128
 43
0.0
 10
101.2574974354
 20
210.7052023745
 10
101.5409784537
 20
210.7275811396
 10
101.8120700716
 20
210.7766001122
 10
102.0672381954
 20
210.851620255
 10
102.3031563184
 20
210.9516635659
 10
102.516748887
 20
211.0754258271
 10
102.7052313954
 20
211.2212936084
 10
102.866146686
 20
211.3873653002
 10
102.9973969817
 20
211.571475904
 10
103.0972712344
 20
211.7712252564
 10
103.1030348741
 20
211.7856854966
  0
LWPOLYLINE
  5
14B
330
1F
100
AcDbEntity
  8
0
  6
Continuous
 62
     7
370
    15
100
AcDbPolyline
 90
       20
 70
   128
 43
0.0
 10
98.0782013709
 20
213.7564859724
 10
98.0462172594
 20
213.6660137157
 10
97.9957157317
 20
213.4477433041
 10
97.9790427251
 20
213.2206516262
 10
97.9964155977
 20
212.9876991694
 10
98.0476078675
 20
212.7519228252
 10
98.131952165
 20
212.5163962989
 10
98.2483489334
 20
212.2841900388
 10
98.3952807626
 20
212.0583312088
 10
98.5708321717
 20
211.841764224
 10
98.7727145795
 20
211.6373123663
 10
98.9982961401
 20
211.4476409784
 10
99.2446360529
 20
211.2752227168
 10
99.5085229004
 20
211.1223053172
 10
99.786516514
 20
210.9908822919
 10
100.0749928217
 20
210.8826669409
 10
100.3701910938
 20
210.7990700169
 10
100.6682629693
 20
210.7411813336
 10
100.9653226255
 20
210.7097555584
 10
101.2574974354
 20
210.7052023745
  0
LINE
  5
14C
330
1F
100
AcDbEntity
  8
0
  6
Continuous
 62
     7
370
    15
100
AcDbLine
 10
264.0271442311
 20
155.016599126
 30
0.0
 11
276.2321057915
 21
128.6698083229
 31
0.0
  0
LINE
  5
14D
330
1F
100
AcDbEntity
  8
0
  6
Continuous
 62
     7
370
    15
100
AcDbLine
 10
282.5846947742
 20
114.9565055683
 30
0.0
 11
283.9258617319
 21
112.061335019
 31
0.0
  0
LINE
  5
14E
330
1F
100
AcDbEntity
  8
0
  6
Continuous
 62
     7
370
    15
100
AcDbLine
 10
283.0871173995
 20
125.9575937635
 30
0.0
 11
268.6365842
 21
157.1518890767
 31
0.0
  0
LINE
  5
14F
330
1F
100
AcDbEntity
  8
0
  6
Continuous
 62
     7
370
    15
100
AcDbLine
 10
255.6832598855
 20
100.5582587668
 30
0.0
 11
275.8628894728
 21
120.6211399134
 31
0.0
  0
LINE
  5
150
330
1F
100
AcDbEntity
  8
0
  6
Continuous
 62
     7
370
    15
100
AcDbLine
 10
282.5016332591
 20
127.2214755127
 30
0.0
 11
283.9258617319
 21
128.6374641686
 31
0.0
  0
LINE
  5
151
330
1F
100
AcDbEntity
  8
0
  6
Continuous
 62
     7
370
    15
100
AcDbLine
 10
283.9258617319
 20
135.8009172457
 30
0.0
 11
280.2296198242
 21
132.1260597979
 31
0.0
  0
LINE
  5
152
330
1F
100
AcDbEntity
  8
0
  6
Continuous
 62
     7
370
    15
100
AcDbLine
 10
270.7088396326
 20
122.6603616997
 30
0.0
 11
252.1015936377
 21
104.1607671831
 31
0.0
  0
LINE
  5
153
330
1F
100
AcDbEntity
  8
0
  6
Continuous
 62
     7
370
    15
100
AcDbLine
 10
284.2433617319
 20
143.4362156396
 30
0.0
 11
283.9258617319
 21
143.4362156396
 31
0.0
  0
LINE
  5
154
330
1F
100
AcDbEntity
  8
0
  6
Continuous
 62
     7
370
    15
100
AcDbLine
 10
283.9258617319
 20
106.6062156396
 30
0.0
 11
284.2433617319
 21
106.6062156396
 31
0.0
  0
LINE
  5
155
330
1F
100
AcDbEntity
  8
0
  6
Continuous
 62
     7
370
    15
100
AcDbLine
 10
284.8783617319
 20
142.9282156396
 30
0.0
 11
284.2433617319
 21
142.9282156396
 31
0.0
  0
LINE
  5
156
330
1F
100
AcDbEntity
  8
0
  6
Continuous
 62
     7
370
    15
100
AcDbLine
 10
284.2433617319
 20
107.1142156396
 30
0.0
 11
284.8783617319
 21
107.1142156396
 31
0.0
  0
LINE
  5
157
330
1F
100
AcDbEntity
  8
0
  6
Continuous
 62
     7
370
    15
100
AcDbLine
 10
267.6430473301
 20
123.8733554908
 30
0.0
 11
283.9258617319
 21
117.430990574
 31
0.0
  0
LINE
  5
158
330
1F
100
AcDbEntity
  8
0
  6
Continuous
 62
     7
370
    15
100
AcDbLine
 10
283.9258617319
 20
125.6257409936
 30
0.0
 11
270.446479547
 21
130.9589160054
 31
0.0
  0
LINE
  5
159
330
1F
100
AcDbEntity
  8
0
  6
Continuous
 62
     7
370
    15
100
AcDbLine
 10
270.5048843848
 20
131.1065318495
 30
0.0
 11
269.5060995009
 21
131.5017053457
 31
0.0
  0
LINE
  5
15A
330
1F
100
AcDbEntity
  8
0
  6
Continuous
 62
     7
370
    15
100
AcDbLine
 10
266.5858576083
 20
124.120913143
 30
0.0
 11
267.5846424922
 21
123.7257396468
 31
0.0
  0
LINE
  5
15B
330
1F
100
AcDbEntity
  8
0
  6
Continuous
 62
     7
370
    15
100
AcDbLine
 10
269.1828169762
 20
131.4588894874
 30
0.0
 11
240.0548823639
 21
142.9834809625
 31
0.0
  0
LINE
  5
15C
330
1F
100
AcDbEntity
  8
0
  6
Continuous
 62
     7
370
    15
100
AcDbLine
 10
237.251450147
 20
135.897920448
 30
0.0
 11
266.3793847594
 21
124.3733289728
 31
0.0
  0
LINE
  5
15D
330
1F
100
AcDbEntity
  8
0
  6
Continuous
 62
     7
370
    15
100
AcDbLine
 10
275.7292871458
 20
107.2416700224
 30
0.0
 11
283.9258617319
 21
116.4658078707
 31
0.0
  0
LINE
  5
15E
330
1F
100
AcDbEntity
  8
0
  6
Continuous
 62
     7
370
    15
100
AcDbLine
 10
279.5323500986
 20
119.1693021772
 30
0.0
 11
271.9319042921
 21
110.6160267703
 31
0.0
  0
LINE
  5
15F
330
1F
100
AcDbEntity
  8
0
  6
Continuous
 62
     7
370
    15
100
AcDbLine
 10
275.3254975908
 20
106.5482657064
 30
0.0
 11
275.84795536
 21
107.136221374
 31
0.0
  0
LINE
  5
160
330
1F
100
AcDbEntity
  8
0
  6
Continuous
 62
     7
370
    15
100
AcDbLine
 10
271.8132360779
 20
110.7214754186
 30
0.0
 11
271.2907783087
 21
110.1335197511
 31
0.0
  0
LINE
  5
161
330
1F
100
AcDbEntity
  8
0
  6
Continuous
 62
     7
370
    15
100
AcDbLine
 10
271.2567298456
 20
109.8562091049
 30
0.0
 11
250.2335800669
 21
86.1974929511
 31
0.0
  0
LINE
  5
162
330
1F
100
AcDbEntity
  8
0
  6
Continuous
 62
     7
370
    15
100
AcDbLine
 10
254.0309629206
 20
82.8231362032
 30
0.0
 11
275.0541126993
 21
106.481852357
 31
0.0
  0
LINE
  5
163
330
1F
100
AcDbEntity
  8
0
  6
Continuous
 62
     7
370
    15
100
AcDbLine
 10
240.1132872018
 20
143.1310968066
 30
0.0
 11
239.6852365372
 21
143.3004568764
 31
0.0
  0
LINE
  5
164
330
1F
100
AcDbEntity
  8
0
  6
Continuous
 62
     7
370
    15
100
AcDbLine
 10
236.7649946446
 20
135.9196646738
 30
0.0
 11
237.1930453092
 21
135.7503046039
 31
0.0
  0
LINE
  5
165
330
1F
100
AcDbEntity
  8
0
  6
Continuous
 62
     7
370
    15
100
AcDbLine
 10
239.1268762036
 20
143.0945646045
 30
0.0
 11
239.111173778
 21
143.1007773361
 31
0.0
  0
LINE
  5
166
330
1F
100
AcDbEntity
  8
0
  6
Continuous
 62
     7
370
    15
100
AcDbLine
 10
236.4829560747
 20
136.4580643537
 30
0.0
 11
236.4986585003
 21
136.4518516221
 31
0.0
  0
LINE
  5
167
330
1F
100
AcDbEntity
  8
0
  6
Continuous
 62
     7
370
    15
100
AcDbLine
 10
253.6924805868
 20
82.2032263457
 30
0.0
 11
254.1496311348
 21
82.7176875548
 31
0.0
  0
LINE
  5
168
330
1F
100
AcDbEntity
  8
0
  6
Continuous
 62
     7
370
    15
100
AcDbLine
 10
250.1149118527
 20
86.3029415995
 30
0.0
 11
249.6577613047
 21
85.7884803904
 31
0.0
  0
LWPOLYLINE
  5
169
330
1F
100
AcDbEntity
  8
0
  6
Continuous
 62
     7
370
    15
100
AcDbPolyline
 90
       54
 70
   128
 43
0.0
 10
266.3318642156
 20
154.5129829594
 10
266.0495675337
 20
154.443282631
 10
265.7712336784
 20
154.3966178046
 10
265.5007698469
 20
154.373643552
 10
265.2419727585
 20
154.3746823815
 10
264.9984753572
 20
154.3997197102
 10
264.7736958126
 20
154.4484040688
 10
264.5707895369
 20
154.5200520356
 10
264.3926048893
 20
154.6136578303
 10
264.2416431917
 20
154.7279074326
 10
264.1200236155
 20
154.8611970287
 10
264.0294534329
 20
155.0116555247
 10
263.9712040507
 20
155.1771708132
 10
263.9460931627
 20
155.3554194223
 10
263.9544732705
 20
155.5438991323
 10
263.9962267359
 20
155.7399641013
 10
264.0707674317
 20
155.9408620067
 10
264.17704897
 20
156.1437726825
 10
264.3135793909
 20
156.3458477075
 10
264.4784421067
 20
156.5442503913
 10
264.6693228061
 20
156.7361955951
 10
264.8835419425
 20
156.9189888291
 10
265.1180923489
 20
157.0900640768
 10
265.3696814517
 20
157.2470198169
 10
265.6347774913
 20
157.3876527348
 10
265.9096591006
 20
157.5099886526
 10
266.1904675441
 20
157.6123102421
 10
266.473260887
 20
157.6931811326
 10
266.7540693306
 20
157.751466074
 10
267.0289509398
 20
157.7863468735
 10
267.2940469795
 20
157.7973338811
 10
267.5456360822
 20
157.7842728634
 10
267.7801864886
 20
157.7473471684
 10
267.9944056251
 20
157.6870751518
 10
268.1852863245
 20
157.6043029008
 10
268.3501490402
 20
157.5001923563
 10
268.4866794611
 20
157.376205002
 10
268.5929609994
 20
157.2340813487
 10
268.6675016953
 20
157.0758165009
 10
268.7092551607
 20
156.9036321502
 10
268.7176352685
 20
156.7199453874
 10
268.6925243804
 20
156.527334772
 10
268.6342749983
 20
156.3285041349
 10
268.5437048157
 20
156.1262446223
 10
268.4220852395
 20
155.9233955145
 10
268.2711235419
 20
155.7228043683
 10
268.0929388943
 20
155.5272870436
 10
267.8900326185
 20
155.3395881751
 10
267.6652530739
 20
155.1623426436
 10
267.4217556726
 20
154.9980385877
 10
267.1629585843
 20
154.8489824762
 10
266.8924947528
 20
154.7172667302
 10
266.6141608975
 20
154.60474035
 10
266.3318642156
 20
154.5129829594
  0
LWPOLYLINE
  5
16A
330
1F
100
AcDbEntity
  8
0
  6
Continuous
 62
     7
370
    15
100
AcDbPolyline
 90
       54
 70
   128
 43
0.0
 10
253.8924267616
 20
100.4198849721
 10
253.640478504
 20
100.5391385001
 10
253.3920670476
 20
100.6839460954
 10
253.1506795447
 20
100.8522749768
 10
252.9197045469
 20
101.0417621758
 10
252.7023844367
 20
101.2497477075
 10
252.5017699122
 20
101.4733119108
 10
252.3206771615
 20
101.7093164346
 10
252.1616483298
 20
101.9544482925
 10
252.0269158334
 20
102.2052663707
 10
251.9183710212
 20
102.4582497331
 10
251.8375376244
 20
102.7098470478
 10
251.7855503668
 20
102.9565264401
 10
251.7631390353
 20
103.194825072
 10
251.7706182361
 20
103.421397753
 10
251.8078829776
 20
103.6330638995
 10
251.8744101443
 20
103.8268521827
 10
251.9692658409
 20
104.0000422398
 10
252.0911185011
 20
104.1502028621
 10
252.2382575809
 20
104.2752261237
 10
252.4086175699
 20
104.3733569719
 10
252.5998069874
 20
104.4432178648
 10
252.8091419531
 20
104.4838281087
 10
253.0336838629
 20
104.4946176245
 10
253.2702806407
 20
104.4754349514
 10
253.5156109862
 20
104.4265493718
 10
253.7662309992
 20
104.3486471322
 10
254.0186225241
 20
104.2428218093
 10
254.2692425371
 20
104.1105589586
 10
254.5145728826
 20
103.9537152606
 10
254.7511696603
 20
103.7744924571
 10
254.9757115702
 20
103.5754064433
 10
255.1850465359
 20
103.3592519505
 10
255.3762359534
 20
103.129063314
 10
255.5465959424
 20
102.8880718775
 10
255.6937350221
 20
102.6396606327
 10
255.8155876824
 20
102.3873167288
 10
255.9104433789
 20
102.1345825212
 10
255.9769705457
 20
101.8850058442
 10
256.0142352871
 20
101.642090207
 10
256.0217144879
 20
101.409245613
 10
255.9993031565
 20
101.1897406897
 10
255.9473158988
 20
100.9866568051
 10
255.866482502
 20
100.8028448118
 10
255.7579376898
 20
100.6408850272
 10
255.6232051935
 20
100.5030510118
 10
255.4641763618
 20
100.3912776529
 10
255.2830836111
 20
100.3071340035
 10
255.0824690865
 20
100.251801256
 10
254.8651489764
 20
100.2260561608
 10
254.6341739785
 20
100.2302601228
 10
254.3927864757
 20
100.2643541274
 10
254.1443750193
 20
100.3278595695
 10
253.8924267616
 20
100.4198849721
  0
LINE
  5
16B
330
1F
100
AcDbEntity
  8
0
  6
Continuous
 62
     7
370
    15
100
AcDbLine
 10
283.9258617319
 20
136.8052640278
 30
0.0
 11
283.9258617319
 21
143.4362156396
 31
0.0
  0
LINE
  5
16C
330
1F
100
AcDbEntity
  8
0
  6
Continuous
 62
     7
370
    15
100
AcDbLine
 10
283.9258617319
 20
106.6062156396
 30
0.0
 11
283.9258617319
 21
136.8052640278
 31
0.0
  0
LINE
  5
16D
330
1F
100
AcDbEntity
  8
0
  6
Continuous
 62
     7
370
    15
100
AcDbLine
 10
284.2433617319
 20
136.8052640278
 30
0.0
 11
284.2433617319
 21
143.4362156396
 31
0.0
  0
LINE
  5
16E
330
1F
100
AcDbEntity
  8
0
  6
Continuous
 62
     7
370
    15
100
AcDbLine
 10
284.2433617319
 20
106.6062156396
 30
0.0
 11
284.2433617319
 21
136.8052640278
 31
0.0
  0
LINE
  5
16F
330
1F
100
AcDbEntity
  8
0
  6
Continuous
 62
     7
370
    15
100
AcDbLine
 10
284.8783617319
 20
107.1142156396
 30
0.0
 11
284.8783617319
 21
142.9282156396
 31
0.0
  0
LWPOLYLINE
  5
170
330
1F
100
AcDbEntity
  8
0
  6
Continuous
 62
     7
370
    15
100
AcDbPolyline
 90
       34
 70
   128
 43
0.0
 10
267.6430473301
 20
123.8733554908
 10
267.561941736
 20
123.924573309
 10
267.4946808485
 20
124.008390905
 10
267.4418926646
 20
124.1240256963
 10
267.4040700532
 20
124.2703980322
 10
267.3815661539
 20
124.4461412736
 10
267.3745910795
 20
124.6496145532
 10
267.3832099544
 20
124.8789180957
 10
267.4073423065
 20
125.1319109559
 10
267.4467628186
 20
125.4062310075
 10
267.5011034319
 20
125.6993169981
 10
267.5698567827
 20
126.0084324629
 10
267.6523809396
 20
126.3306912739
 10
267.7479053968
 20
126.6630845875
 10
267.855538268
 20
127.0025089369
 10
267.9742746143
 20
127.3457952084
 10
268.1030058262
 20
127.6897382306
 10
268.2405299753
 20
128.0311267001
 10
268.3855630355
 20
128.3667731648
 10
268.5367508723
 20
128.693543784
 10
268.6926818855
 20
129.0083875886
 10
268.8519001893
 20
129.3083649668
 10
269.0129192054
 20
129.5906751106
 10
269.1742355424
 20
129.8526821663
 10
269.3343430333
 20
130.0919398445
 10
269.4917467975
 20
130.3062142609
 10
269.6449771986
 20
130.4935047929
 10
269.7926035655
 20
130.6520627592
 10
269.9332475506
 20
130.780407747
 10
270.0655959989
 20
130.8773414335
 10
270.1884132087
 20
130.9419587751
 10
270.3005524687
 20
130.9736564571
 10
270.4009667649
 20
130.9721385268
 10
270.446479547
 20
130.9589160054
  0
LWPOLYLINE
  5
171
330
1F
100
AcDbEntity
  8
0
  6
Continuous
 62
     7
370
    15
100
AcDbPolyline
 90
       40
 70
   128
 43
0.0
 10
267.9079250169
 20
123.7685555051
 10
267.7884526051
 20
123.7211578635
 10
267.6797364176
 20
123.7069043006
 10
267.5833821261
 20
123.7262421119
 10
267.5002623302
 20
123.7789961715
 10
267.4311297754
 20
123.8646887303
 10
267.376610537
 20
123.9825437432
 10
267.3371983496
 20
124.131493897
 10
267.313250136
 20
124.3101902761
 10
267.3049827751
 20
124.5170145784
 10
267.3124711372
 20
124.7500937708
 10
267.3356474067
 20
125.0073170523
 10
267.3743016956
 20
125.2863549689
 10
267.4280839448
 20
125.5846805101
 10
267.4965070937
 20
125.8995919935
 10
267.5789514919
 20
126.2282375319
 10
267.6746705101
 20
126.5676408606
 10
267.782797302
 20
126.9147282904
 10
267.9023526547
 20
127.2663565437
 10
268.0322538563
 20
127.6193412208
 10
268.1713245015
 20
127.9704856375
 10
268.3183051449
 20
128.3166097759
 10
268.4718647072
 20
128.654579082
 10
268.6306125291
 20
128.9813328535
 10
268.7931109657
 20
129.2939119576
 10
268.9578884061
 20
129.5894856297
 10
269.1234526003
 20
129.8653771086
 10
269.2883041732
 20
130.1190878785
 10
269.4509502035
 20
130.3483202953
 10
269.6099177436
 20
130.5509983948
 10
269.7637671588
 20
130.7252866928
 10
269.9111051649
 20
130.8696068073
 10
270.0505974463
 20
130.9826517532
 10
270.180980739
 20
131.0633977778
 10
270.301074272
 20
131.1111136327
 10
270.4097904595
 20
131.1253671957
 10
270.5061447509
 20
131.1060293843
 10
270.5892645469
 20
131.0532753248
 10
270.6583971016
 20
130.967582766
 10
270.7113572337
 20
130.8541160197
  0
LWPOLYLINE
  5
172
330
1F
100
AcDbEntity
  8
0
  6
Continuous
 62
     7
370
    15
100
AcDbPolyline
 90
       35
 70
   128
 43
0.0
 10
266.5858576083
 20
124.120913143
 10
266.5845972422
 20
124.1214156082
 10
266.5014774462
 20
124.1741696677
 10
266.4323448915
 20
124.2598622265
 10
266.3778256531
 20
124.3777172395
 10
266.3384134656
 20
124.5266673933
 10
266.3144652521
 20
124.7053637724
 10
266.3061978911
 20
124.9121880746
 10
266.3136862533
 20
125.1452672671
 10
266.3368625227
 20
125.4024905486
 10
266.3755168117
 20
125.6815284652
 10
266.4292990608
 20
125.9798540063
 10
266.4977222098
 20
126.2947654897
 10
266.580166608
 20
126.6234110282
 10
266.6758856262
 20
126.9628143569
 10
266.7840124181
 20
127.3099017866
 10
266.9035677707
 20
127.66153004
 10
267.0334689723
 20
128.014514717
 10
267.1725396175
 20
128.3656591338
 10
267.319520261
 20
128.7117832721
 10
267.4730798232
 20
129.0497525783
 10
267.6318276451
 20
129.3765063498
 10
267.7943260818
 20
129.6890854539
 10
267.9591035222
 20
129.9846591259
 10
268.1246677163
 20
130.2605506048
 10
268.2895192893
 20
130.5142613747
 10
268.4521653196
 20
130.7434937916
 10
268.6111328597
 20
130.9461718911
 10
268.7649822748
 20
131.120460189
 10
268.912320281
 20
131.2647803036
 10
269.0518125623
 20
131.3778252494
 10
269.1821958551
 20
131.4585712741
 10
269.302289388
 20
131.5062871289
 10
269.4110055755
 20
131.5205406919
 10
269.5060995009
 20
131.5017053457
  0
LWPOLYLINE
  5
173
330
1F
100
AcDbEntity
  8
0
  6
Continuous
 62
     7
370
    15
100
AcDbPolyline
 90
       34
 70
   128
 43
0.0
 10
237.251450147
 20
135.897920448
 10
237.2066290143
 20
135.9210689843
 10
237.1328013368
 20
135.9897059332
 10
237.0731688968
 20
136.0905638905
 10
237.0282884665
 20
136.2227011725
 10
236.9985790823
 20
136.3848840492
 10
236.9843181327
 20
136.5755982626
 10
236.9856387684
 20
136.7930631656
 10
237.002528659
 20
137.0352483469
 10
237.0348301081
 20
137.2998925887
 10
237.0822415257
 20
137.5845249792
 10
237.1443202443
 20
137.8864879822
 10
237.2204866515
 20
138.2029622508
 10
237.3100296022
 20
138.5309929497
 10
237.412113058
 20
138.8675173449
 10
237.525783893
 20
139.2093933987
 10
237.6499807934
 20
139.5534291064
 10
237.7835441662
 20
139.8964122995
 10
237.9252269661
 20
140.2351406362
 10
238.0737063391
 20
140.5664515013
 10
238.2275959731
 20
140.8872515346
 10
238.3854590422
 20
141.1945455125
 10
238.5458216215
 20
141.4854643139
 10
238.7071864486
 20
141.7572917086
 10
238.8680469038
 20
142.0074897171
 10
239.0269010763
 20
142.2337223083
 10
239.1822657874
 20
142.4338772093
 10
239.3326904387
 20
142.6060856277
 10
239.4767705559
 20
142.7487397
 10
239.6131609016
 20
142.8605075035
 10
239.7405880359
 20
142.9403454923
 10
239.8578622061
 20
142.9875082407
 10
239.9638884548
 20
143.0015554028
 10
240.0548823639
 20
142.9834809625
  0
LWPOLYLINE
  5
174
330
1F
100
AcDbEntity
  8
0
  6
Continuous
 62
     7
370
    15
100
AcDbPolyline
 90
       28
 70
   128
 43
0.0
 10
275.7292871458
 20
107.2416700224
 10
275.7007543568
 20
107.216276014
 10
275.6241050738
 20
107.1836024839
 10
275.5222788509
 20
107.1754283808
 10
275.396705105
 20
107.1918684512
 10
275.2491466163
 20
107.2326919126
 10
275.0816747825
 20
107.2973256929
 10
274.8966405411
 20
107.3848624756
 10
274.6966413671
 20
107.4940734362
 10
274.4844848107
 20
107.6234254922
 10
274.2631490847
 20
107.7711028242
 10
274.0357412577
 20
107.9350323663
 10
273.8054536369
 20
108.112912907
 10
273.5755189559
 20
108.3022473933
 10
273.3491649935
 20
108.5003779842
 10
273.1295692632
 20
108.7045233605
 10
272.9198144077
 20
108.9118177686
 10
272.7228449253
 20
109.1193512493
 10
272.5414258358
 20
109.3242104876
 10
272.3781038656
 20
109.5235197088
 10
272.2351716971
 20
109.7144810482
 10
272.1146357847
 20
109.8944138274
 10
272.0181881883
 20
110.0607921845
 10
271.9471828208
 20
110.211280532
 10
271.9026164419
 20
110.3437663434
 10
271.8851146659
 20
110.4563898085
 10
271.8949231793
 20
110.5475699405
 10
271.9319042921
 20
110.6160267703
  0
LWPOLYLINE
  5
175
330
1F
100
AcDbEntity
  8
0
  6
Continuous
 62
     7
370
    15
100
AcDbPolyline
 90
       29
 70
   128
 43
0.0
 10
271.2907783087
 20
110.1335197511
 10
271.2586362825
 20
110.0813248277
 10
271.2410850128
 20
109.9941030158
 10
271.2504809393
 20
109.8853290795
 10
271.2867015718
 20
109.7564210535
 10
271.3492747188
 20
109.609059451
 10
271.4373846437
 20
109.4451653559
 10
271.549882699
 20
109.2668753783
 10
271.6853023003
 20
109.0765138008
 10
271.8418780461
 20
108.8765622776
 10
272.0175687321
 20
108.6696274826
 10
272.2100839616
 20
108.4584071274
 10
272.416914004
 20
108.2456547923
 10
272.6353625136
 20
108.0341440294
 10
272.8625816798
 20
107.8266322048
 10
273.0956093533
 20
107.6258245526
 10
273.3314076622
 20
107.4343389077
 10
273.5669026148
 20
107.2546715782
 10
273.7990241742
 20
107.0891648026
 10
274.024746281
 20
106.9399762148
 10
274.2411263023
 20
106.8090507161
 10
274.4453433935
 20
106.6980951207
 10
274.6347352727
 20
106.6085559045
 10
274.806832927
 20
106.5416003481
 10
274.9593928004
 20
106.4981013195
 10
275.0904260414
 20
106.4786258951
 10
275.1982244316
 20
106.4834279669
 10
275.2813826539
 20
106.5124449324
 10
275.3254975908
 20
106.5482657064
  0
LWPOLYLINE
  5
176
330
1F
100
AcDbEntity
  8
0
  6
Continuous
 62
     7
370
    15
100
AcDbPolyline
 90
       35
 70
   128
 43
0.0
 10
272.0846209694
 20
110.7878887681
 10
271.9914089097
 20
110.7917523969
 10
271.8957746338
 20
110.7748152555
 10
271.8253637098
 20
110.7338131131
 10
271.7810940516
 20
110.6692804952
 10
271.763542782
 20
110.5820586833
 10
271.7729387085
 20
110.4732847471
 10
271.8091593409
 20
110.3443767211
 10
271.871732488
 20
110.1970151186
 10
271.9598424129
 20
110.0331210235
 10
272.0723404681
 20
109.8548310459
 10
272.2077600695
 20
109.6644694684
 10
272.3643358153
 20
109.4645179452
 10
272.5400265013
 20
109.2575831502
 10
272.7325417307
 20
109.046362795
 10
272.9393717732
 20
108.8336104599
 10
273.1578202827
 20
108.6220996969
 10
273.3850394489
 20
108.4145878724
 10
273.6180671225
 20
108.2137802202
 10
273.8538654314
 20
108.0222945753
 10
274.0893603839
 20
107.8426272458
 10
274.3214819434
 20
107.6771204702
 10
274.5472040501
 20
107.5279318823
 10
274.7635840714
 20
107.3970063837
 10
274.9678011627
 20
107.2860507883
 10
275.1571930419
 20
107.1965115721
 10
275.3292906962
 20
107.1295560157
 10
275.4818505695
 20
107.0860569871
 10
275.6128838106
 20
107.0665815627
 10
275.7206822007
 20
107.0713836344
 10
275.8038404231
 20
107.1004006
 10
275.861274383
 20
107.1532541788
 10
275.892235341
 20
107.2292553437
 10
275.8963196737
 20
107.3274133032
 10
275.8820038231
 20
107.4135320201
  0
LWPOLYLINE
  5
177
330
1F
100
AcDbEntity
  8
0
  6
Continuous
 62
     7
370
    15
100
AcDbPolyline
 90
       29
 70
   128
 43
0.0
 10
254.0309629206
 20
82.8231362032
 10
254.0024301316
 20
82.7977421949
 10
253.9257808486
 20
82.7650686648
 10
253.8239546257
 20
82.7568945617
 10
253.6983808799
 20
82.7733346321
 10
253.5508223912
 20
82.8141580934
 10
253.3833505574
 20
82.8787918737
 10
253.1983163159
 20
82.9663286565
 10
252.998317142
 20
83.0755396171
 10
252.7861605855
 20
83.2048916731
 10
252.5648248596
 20
83.3525690051
 10
252.3374170325
 20
83.5164985472
 10
252.1071294118
 20
83.6943790878
 10
251.8771947308
 20
83.8837135742
 10
251.6508407684
 20
84.0818441651
 10
251.4312450381
 20
84.2859895414
 10
251.2214901825
 20
84.4932839495
 10
251.0245207001
 20
84.7008174302
 10
250.8431016107
 20
84.9056766685
 10
250.6797796405
 20
85.1049858896
 10
250.536847472
 20
85.2959472291
 10
250.4163115596
 20
85.4758800083
 10
250.3198639632
 20
85.6422583653
 10
250.2488585957
 20
85.7927467128
 10
250.2042922168
 20
85.9252325243
 10
250.1867904407
 20
86.0378559893
 10
250.1965989541
 20
86.1290361213
 10
250.2335800669
 20
86.1974929511
 10
250.2335800669
 20
86.1974929511
  0
LWPOLYLINE
  5
178
330
1F
100
AcDbEntity
  8
0
  6
Continuous
 62
     7
370
    15
100
AcDbPolyline
 90
       22
 70
   128
 43
0.0
 10
237.6357203552
 20
139.6309662028
 10
237.7744763082
 20
139.9822345429
 10
237.9211898135
 20
140.3285986686
 10
238.0745322107
 20
140.666921853
 10
238.2331148075
 20
140.9941401887
 10
238.3955014553
 20
141.3072903359
 10
238.5602215553
 20
141.6035363583
 10
238.725783377
 20
141.8801954062
 10
238.8906875668
 20
142.1347620122
 10
239.0534407268
 20
142.3649307819
 10
239.2125689392
 20
142.5686172712
 10
239.3666311143
 20
142.7439768637
 10
239.5142320411
 20
142.8894214758
 10
239.6540350228
 20
143.0036339386
 10
239.784773982
 20
143.0855799262
 10
239.9052649264
 20
143.1345173232
 10
240.0144166713
 20
143.1500029449
 10
240.1112407217
 20
143.1318965511
 10
240.1948602239
 20
143.0803621162
 10
240.2645179068
 20
142.9958663439
 10
240.3195829396
 20
142.879174441
 10
240.3197600507
 20
142.8786809768
  0
LWPOLYLINE
  5
179
330
1F
100
AcDbEntity
  8
0
  6
Continuous
 62
     7
370
    15
100
AcDbPolyline
 90
       20
 70
   128
 43
0.0
 10
237.5163278338
 20
135.7931204623
 10
237.4010675846
 20
135.7468840873
 10
237.2919158396
 20
135.7313984656
 10
237.1950917893
 20
135.7495048594
 10
237.1114722871
 20
135.8010392944
 10
237.0418146042
 20
135.8855350667
 10
236.9867495713
 20
136.0022269695
 10
236.9467758661
 20
136.150058223
 10
236.9222554964
 20
136.3276900444
 10
236.9134105226
 20
136.5335137723
 10
236.9203210461
 20
136.7656654353
 10
236.9429244842
 20
137.022042632
 10
236.9810161366
 20
137.3003235707
 10
237.0342510394
 20
137.5979880962
 10
237.1021470891
 20
137.9123405124
 10
237.1840894086
 20
138.2405339953
 10
237.2793359155
 20
138.5795963736
 10
237.3870240427
 20
138.9264570462
 10
237.5061785498
 20
139.277974789
 10
237.6357203552
 20
139.6309662028
  0
LWPOLYLINE
  5
17A
330
1F
100
AcDbEntity
  8
0
  6
Continuous
 62
     7
370
    15
100
AcDbPolyline
 90
       19
 70
   128
 43
0.0
 10
237.2076696906
 20
139.8003262726
 10
237.3464256437
 20
140.1515946127
 10
237.4931391489
 20
140.4979587385
 10
237.6464815462
 20
140.8362819228
 10
237.805064143
 20
141.1635002585
 10
237.9674507907
 20
141.4766504057
 10
238.1321708908
 20
141.7728964281
 10
238.2977327125
 20
142.049555476
 10
238.4626369022
 20
142.3041220821
 10
238.6253900622
 20
142.5342908518
 10
238.7845182746
 20
142.7379773411
 10
238.9385804497
 20
142.9133369336
 10
239.0861813765
 20
143.0587815456
 10
239.2259843583
 20
143.1729940084
 10
239.3567233175
 20
143.254939996
 10
239.4772142618
 20
143.303877393
 10
239.5863660068
 20
143.3193630147
 10
239.6831900571
 20
143.301256621
 10
239.6852365372
 20
143.3004568764
  0
LWPOLYLINE
  5
17B
330
1F
100
AcDbEntity
  8
0
  6
Continuous
 62
     7
370
    15
100
AcDbPolyline
 90
       17
 70
   128
 43
0.0
 10
236.7649946446
 20
135.9196646738
 10
236.6834216225
 20
135.9703993642
 10
236.6137639396
 20
136.0548951365
 10
236.5586989068
 20
136.1715870393
 10
236.5187252015
 20
136.3194182928
 10
236.4942048319
 20
136.4970501142
 10
236.4853598581
 20
136.7028738421
 10
236.4922703816
 20
136.9350255052
 10
236.5148738197
 20
137.1914027018
 10
236.5529654721
 20
137.4696836405
 10
236.6062003749
 20
137.767348166
 10
236.6740964246
 20
138.0817005823
 10
236.756038744
 20
138.4098940651
 10
236.8512852509
 20
138.7489564435
 10
236.9589733781
 20
139.095817116
 10
237.0781278852
 20
139.4473348588
 10
237.2076696906
 20
139.8003262726
  0
LWPOLYLINE
  5
17C
330
1F
100
AcDbEntity
  8
0
  6
Continuous
 62
     7
370
    15
100
AcDbPolyline
 90
       11
 70
   128
 43
0.0
 10
237.833844682
 20
141.9286820849
 10
237.9895229244
 20
142.1723496927
 10
238.1432884329
 20
142.3922352986
 10
238.2936130165
 20
142.5861535806
 10
238.4390026822
 20
142.7521772916
 10
238.5780124821
 20
142.8886564136
 10
238.7092608742
 20
142.9942345555
 10
238.8314434533
 20
143.0678624345
 10
238.9433459138
 20
143.1088083036
 10
239.0438561189
 20
143.1166652243
 10
239.111173778
 20
143.1007773361
  0
LWPOLYLINE
  5
17D
330
1F
100
AcDbEntity
  8
0
  6
Continuous
 62
     7
370
    15
100
AcDbPolyline
 90
       23
 70
   128
 43
0.0
 10
236.4829560747
 20
136.4580643537
 10
236.4230206062
 20
136.4925134959
 10
236.3550894917
 20
136.5670001018
 10
236.3014893768
 20
136.6734131883
 10
236.2627529637
 20
136.8106951743
 10
236.2392652322
 20
136.9774816897
 10
236.2312596139
 20
137.1721151353
 10
236.2388156723
 20
137.3926611565
 10
236.2618583118
 20
137.6369278677
 10
236.3001585244
 20
137.9024876367
 10
236.3533356653
 20
138.1867012112
 10
236.4208612363
 20
138.4867439489
 10
236.5020641378
 20
138.7996338904
 10
236.5961373389
 20
139.1222613948
 10
236.702145898
 20
139.4514200451
 10
236.8190362543
 20
139.7838385147
 10
236.9456466989
 20
140.1162130795
 10
237.0807189203
 20
140.4452404518
 10
237.2229105103
 20
140.7676506097
 10
237.3708083047
 20
141.0802392962
 10
237.522942429
 20
141.3798998645
 10
237.6778009058
 20
141.6636541533
 10
237.833844682
 20
141.9286820849
  0
LWPOLYLINE
  5
17E
330
1F
100
AcDbEntity
  8
0
  6
Continuous
 62
     7
370
    15
100
AcDbPolyline
 90
       30
 70
   128
 43
0.0
 10
250.0663881338
 20
86.1136390881
 10
250.0887668989
 20
85.9949545248
 10
250.1377858715
 20
85.8569154092
 10
250.2128060143
 20
85.7013212925
 10
250.3128493251
 20
85.5302005818
 10
250.4366115864
 20
85.3457840973
 10
250.5824793677
 20
85.1504759899
 10
250.7485510595
 20
84.9468223995
 10
250.9326616632
 20
84.7374782621
 10
251.1324110157
 20
84.5251726987
 10
251.3451950786
 20
84.3126734369
 10
251.5682398862
 20
84.1027507297
 10
251.7986377085
 20
83.8981412405
 10
252.0333849573
 20
83.7015123669
 10
252.2694213434
 20
83.5154274671
 10
252.5036697714
 20
83.3423124422
 10
252.7330764549
 20
83.1844241113
 10
252.954650727
 20
83.0438207904
 10
253.165504028
 20
82.9223354587
 10
253.3628875629
 20
82.8215518633
 10
253.5442281353
 20
82.7427838725
 10
253.7071616936
 20
82.6870583476
 10
253.8495641496
 20
82.6551017559
 10
253.9695790696
 20
82.6473307005
 10
254.0656418756
 20
82.663846489
 10
254.1365002419
 20
82.7044338129
 10
254.1812304214
 20
82.7685635542
 10
254.1992492878
 20
82.8553996838
 10
254.1903219376
 20
82.9638101599
 10
254.183679598
 20
82.994998201
  0
LWPOLYLINE
  5
17F
330
1F
100
AcDbEntity
  8
0
  6
Continuous
 62
     7
370
    15
100
AcDbPolyline
 90
        7
 70
   128
 43
0.0
 10
250.3862967442
 20
86.3693549489
 10
250.3520680512
 20
86.3724498753
 10
250.2438527002
 20
86.3680703662
 10
250.1602557762
 20
86.3394721694
 10
250.1023670928
 20
86.2870281059
 10
250.0709413177
 20
86.2114218645
 10
250.0663881338
 20
86.1136390881
  0
LWPOLYLINE
  5
180
330
1F
100
AcDbEntity
  8
0
  6
Continuous
 62
     7
370
    15
100
AcDbPolyline
 90
       27
 70
   128
 43
0.0
 10
249.6092375858
 20
85.599177879
 10
249.6316163508
 20
85.4804933156
 10
249.6806353234
 20
85.3424542001
 10
249.7556554663
 20
85.1868600833
 10
249.8556987771
 20
85.0157393726
 10
249.9794610384
 20
84.8313228882
 10
250.1253288197
 20
84.6360147808
 10
250.2914005115
 20
84.4323611904
 10
250.4755111152
 20
84.223017053
 10
250.6752604677
 20
84.0107114896
 10
250.8880445306
 20
83.7982122278
 10
251.1110893382
 20
83.5882895206
 10
251.3414871605
 20
83.3836800314
 10
251.5762344093
 20
83.1870511578
 10
251.8122707954
 20
83.0009662579
 10
252.0465192234
 20
82.827851233
 10
252.2759259069
 20
82.6699629022
 10
252.497500179
 20
82.5293595813
 10
252.70835348
 20
82.4078742496
 10
252.9057370149
 20
82.3070906542
 10
253.0870775873
 20
82.2283226634
 10
253.2500111455
 20
82.1725971385
 10
253.3924136016
 20
82.1406405468
 10
253.5124285216
 20
82.1328694914
 10
253.6084913275
 20
82.1493852799
 10
253.6793496939
 20
82.1899726037
 10
253.6924805868
 20
82.2032263457
  0
ARC
  5
181
330
1F
100
AcDbEntity
  8
0
  6
Continuous
 62
     7
370
    15
100
AcDbCircle
 10
249.8398254292
 20
85.6409418064
 30
0.0
 40
0.2343394528694991
100
AcDbArc
 50
140.979865828
 51
190.2660845906
  0
ENDSEC
  0
SECTION
  2
OBJECTS
  0
DICTIONARY
  5
C
330
0
100
AcDbDictionary
281
     1
  3
ACAD_GROUP
350
D
  3
ACAD_LAYOUT
350
1A
  3
ACAD_MLINESTYLE
350
17
  3
ACAD_PLOTSETTINGS
350
19
  3
ACAD_PLOTSTYLENAME
350
E
  3
ACAD_SCALELIST
350
47
  0
DICTIONARY
  5
D
102
{ACAD_REACTORS
330
C
102
}
330
C
100
AcDbDictionary
281
     1
  0
DICTIONARY
  5
1A
102
{ACAD_REACTORS
330
C
102
}
330
C
100
AcDbDictionary
281
     1
  3
Layout1
350
1E
  3
Layout2
350
26
  3
Model
350
22
  0
DICTIONARY
  5
17
102
{ACAD_REACTORS
330
C
102
}
330
C
100
AcDbDictionary
281
     1
  3
Standard
350
18
  0
DICTIONARY
  5
19
102
{ACAD_REACTORS
330
C
102
}
330
C
100
AcDbDictionary
281
     1
  0
ACDBDICTIONARYWDFLT
  5
E
102
{ACAD_REACTORS
330
C
102
}
330
C
100
AcDbDictionary
281
     1
  3
Normal
350
F
100
AcDbDictionaryWithDefault
340
F
  0
DICTIONARY
  5
47
102
{ACAD_REACTORS
330
C
102
}
330
C
100
AcDbDictionary
281
     1
  3
A0
350
48
  3
A1
350
49
  3
A2
350
4A
  3
A3
350
4B
  3
A4
350
4C
  3
A5
350
4D
  3
A6
350
4E
  3
A7
350
4F
  3
A8
350
50
  3
A9
350
51
  3
B0
350
52
  3
B1
350
53
  3
B2
350
54
  3
B3
350
55
  3
B4
350
56
  3
B5
350
57
  3
B6
350
58
  3
B7
350
59
  3
B8
350
5A
  3
B9
350
5B
  3
C0
350
5C
  3
C1
350
5D
  3
C2
350
5E
  3
C3
350
5F
  3
C4
350
60
  3
C5
350
61
  3
C6
350
62
  3
C7
350
63
  3
C8
350
64
  3
C9
350
65
  3
D0
350
66
  3
D1
350
67
  3
D2
350
68
  0
LAYOUT
  5
1E
102
{ACAD_REACTORS
330
1A
102
}
330
1A
100
AcDbPlotSettings
  1

  2
none_device
  4

  6

 40
0.0
 41
0.0
 42
0.0
 43
0.0
 44
0.0
 45
0.0
 46
0.0
 47
0.0
 48
0.0
 49
0.0
140
0.0
141
0.0
142
1.0
143
1.0
 70
   688
 72
     1
 73
     0
 74
     5
  7

 75
    16
147
1.0
148
0.0
149
0.0
100
AcDbLayout
  1
Layout1
 70
     1
 71
     1
 10
0.0
 20
0.0
 11
420.0
 21
297.0
 12
0.0
 22
0.0
 32
0.0
 14
1.0000000000E+20
 24
1.0000000000E+20
 34
1.0000000000E+20
 15
-1.0000000000E+20
 25
-1.0000000000E+20
 35
-1.0000000000E+20
146
0.0
 13
0.0
 23
0.0
 33
0.0
 16
1.0
 26
0.0
 36
0.0
 17
0.0
 27
1.0
 37
0.0
 76
     0
330
1B
  0
LAYOUT
  5
26
102
{ACAD_REACTORS
330
1A
102
}
330
1A
100
AcDbPlotSettings
  1

  2
none_device
  4

  6

 40
0.0
 41
0.0
 42
0.0
 43
0.0
 44
0.0
 45
0.0
 46
0.0
 47
0.0
 48
0.0
 49
0.0
140
0.0
141
0.0
142
1.0
143
1.0
 70
   688
 72
     1
 73
     0
 74
     5
  7

 75
    16
147
1.0
148
0.0
149
0.0
100
AcDbLayout
  1
Layout2
 70
     1
 71
     2
 10
0.0
 20
0.0
 11
0.0
 21
0.0
 12
0.0
 22
0.0
 32
0.0
 14
0.0
 24
0.0
 34
0.0
 15
0.0
 25
0.0
 35
0.0
146
0.0
 13
0.0
 23
0.0
 33
0.0
 16
1.0
 26
0.0
 36
0.0
 17
0.0
 27
1.0
 37
0.0
 76
     0
330
23
  0
LAYOUT
  5
22
102
{ACAD_REACTORS
330
1A
102
}
330
1A
100
AcDbPlotSettings
  1

  2
none_device
  4
Letter_(8.50_x_11.00_Inches)
  6

 40
6.35
 41
6.35
 42
6.35000508
 43
6.35000508
 44
215.9
 45
279.4
 46
0.0
 47
0.0
 48
0.0
 49
0.0
140
0.0
141
0.0
142
1.0
143
1.0
 70
  1712
 72
     1
 73
     0
 74
     0
  7

 75
     0
147
1.0
148
0.0
149
0.0
100
AcDbLayout
  1
Model
 70
     1
 71
     0
 10
0.0
 20
0.0
 11
431.8
 21
279.4
 12
0.0
 22
0.0
 32
0.0
 14
0.0
 24
0.0
 34
0.0
 15
431.8
 25
279.4
 35
0.0
146
0.0
 13
0.0
 23
0.0
 33
0.0
 16
1.0
 26
0.0
 36
0.0
 17
0.0
 27
1.0
 37
0.0
 76
     0
330
1F
331
29
  0
MLINESTYLE
  5
18
102
{ACAD_REACTORS
330
17
102
}
330
17
100
AcDbMlineStyle
  2
Standard
 70
     0
  3

 62
   256
 51
90.0
 52
90.0
 71
     2
 49
0.5
 62
   256
  6
BYLAYER
 49
-0.5
 62
   256
  6
BYLAYER
  0
ACDBPLACEHOLDER
  5
F
102
{ACAD_REACTORS
330
E
102
}
330
E
  0
SCALE
  5
48
102
{ACAD_REACTORS
330
47
102
}
330
47
100
AcDbScale
 70
     0
300
1:1
140
1.0
141
1.0
290
     1
  0
SCALE
  5
49
102
{ACAD_REACTORS
330
47
102
}
330
47
100
AcDbScale
 70
     0
300
1:2
140
1.0
141
2.0
290
     0
  0
SCALE
  5
4A
102
{ACAD_REACTORS
330
47
102
}
330
47
100
AcDbScale
 70
     0
300
1:4
140
1.0
141
4.0
290
     0
  0
SCALE
  5
4B
102
{ACAD_REACTORS
330
47
102
}
330
47
100
AcDbScale
 70
     0
300
1:5
140
1.0
141
5.0
290
     0
  0
SCALE
  5
4C
102
{ACAD_REACTORS
330
47
102
}
330
47
100
AcDbScale
 70
     0
300
1:8
140
1.0
141
8.0
290
     0
  0
SCALE
  5
4D
102
{ACAD_REACTORS
330
47
102
}
330
47
100
AcDbScale
 70
     0
300
1:10
140
1.0
141
10.0
290
     0
  0
SCALE
  5
4E
102
{ACAD_REACTORS
330
47
102
}
330
47
100
AcDbScale
 70
     0
300
1:16
140
1.0
141
16.0
290
     0
  0
SCALE
  5
4F
102
{ACAD_REACTORS
330
47
102
}
330
47
100
AcDbScale
 70
     0
300
1:20
140
1.0
141
20.0
290
     0
  0
SCALE
  5
50
102
{ACAD_REACTORS
330
47
102
}
330
47
100
AcDbScale
 70
     0
300
1:30
140
1.0
141
30.0
290
     0
  0
SCALE
  5
51
102
{ACAD_REACTORS
330
47
102
}
330
47
100
AcDbScale
 70
     0
300
1:40
140
1.0
141
40.0
290
     0
  0
SCALE
  5
52
102
{ACAD_REACTORS
330
47
102
}
330
47
100
AcDbScale
 70
     0
300
1:50
140
1.0
141
50.0
290
     0
  0
SCALE
  5
53
102
{ACAD_REACTORS
330
47
102
}
330
47
100
AcDbScale
 70
     0
300
1:100
140
1.0
141
100.0
290
     0
  0
SCALE
  5
54
102
{ACAD_REACTORS
330
47
102
}
330
47
100
AcDbScale
 70
     0
300
2:1
140
2.0
141
1.0
290
     0
  0
SCALE
  5
55
102
{ACAD_REACTORS
330
47
102
}
330
47
100
AcDbScale
 70
     0
300
4:1
140
4.0
141
1.0
290
     0
  0
SCALE
  5
56
102
{ACAD_REACTORS
330
47
102
}
330
47
100
AcDbScale
 70
     0
300
8:1
140
8.0
141
1.0
290
     0
  0
SCALE
  5
57
102
{ACAD_REACTORS
330
47
102
}
330
47
100
AcDbScale
 70
     0
300
10:1
140
10.0
141
1.0
290
     0
  0
SCALE
  5
58
102
{ACAD_REACTORS
330
47
102
}
330
47
100
AcDbScale
 70
     0
300
100:1
140
100.0
141
1.0
290
     0
  0
SCALE
  5
59
102
{ACAD_REACTORS
330
47
102
}
330
47
100
AcDbScale
 70
     0
300
1/128" = 1'-0"
140
0.0078125
141
12.0
290
     0
  0
SCALE
  5
5A
102
{ACAD_REACTORS
330
47
102
}
330
47
100
AcDbScale
 70
     0
300
1/64" = 1'-0"
140
0.015625
141
12.0
290
     0
  0
SCALE
  5
5B
102
{ACAD_REACTORS
330
47
102
}
330
47
100
AcDbScale
 70
     0
300
1/32" = 1'-0"
140
0.03125
141
12.0
290
     0
  0
SCALE
  5
5C
102
{ACAD_REACTORS
330
47
102
}
330
47
100
AcDbScale
 70
     0
300
1/16" = 1'-0"
140
0.0625
141
12.0
290
     0
  0
SCALE
  5
5D
102
{ACAD_REACTORS
330
47
102
}
330
47
100
AcDbScale
 70
     0
300
3/32" = 1'-0"
140
0.09375
141
12.0
290
     0
  0
SCALE
  5
5E
102
{ACAD_REACTORS
330
47
102
}
330
47
100
AcDbScale
 70
     0
300
1/8" = 1'-0"
140
0.125
141
12.0
290
     0
  0
SCALE
  5
5F
102
{ACAD_REACTORS
330
47
102
}
330
47
100
AcDbScale
 70
     0
300
3/16" = 1'-0"
140
0.1875
141
12.0
290
     0
  0
SCALE
  5
60
102
{ACAD_REACTORS
330
47
102
}
330
47
100
AcDbScale
 70
     0
300
1/4" = 1'-0"
140
0.25
141
12.0
290
     0
  0
SCALE
  5
61
102
{ACAD_REACTORS
330
47
102
}
330
47
100
AcDbScale
 70
     0
300
3/8" = 1'-0"
140
0.375
141
12.0
290
     0
  0
SCALE
  5
62
102
{ACAD_REACTORS
330
47
102
}
330
47
100
AcDbScale
 70
     0
300
1/2" = 1'-0"
140
0.5
141
12.0
290
     0
  0
SCALE
  5
63
102
{ACAD_REACTORS
330
47
102
}
330
47
100
AcDbScale
 70
     0
300
3/4" = 1'-0"
140
0.75
141
12.0
290
     0
  0
SCALE
  5
64
102
{ACAD_REACTORS
330
47
102
}
330
47
100
AcDbScale
 70
     0
300
1" = 1'-0"
140
1.0
141
12.0
290
     0
  0
SCALE
  5
65
102
{ACAD_REACTORS
330
47
102
}
330
47
100
AcDbScale
 70
     0
300
1-1/2" = 1'-0"
140
1.5
141
12.0
290
     0
  0
SCALE
  5
66
102
{ACAD_REACTORS
330
47
102
}
330
47
100
AcDbScale
 70
     0
300
3" = 1'-0"
140
3.0
141
12.0
290
     0
  0
SCALE
  5
67
102
{ACAD_REACTORS
330
47
102
}
330
47
100
AcDbScale
 70
     0
300
6" = 1'-0"
140
6.0
141
12.0
290
     0
  0
SCALE
  5
68
102
{ACAD_REACTORS
330
47
102
}
330
47
100
AcDbScale
 70
     0
300
1'-0" = 1'-0"
140
12.0
141
12.0
290
     0
  0
ENDSEC
  0
EOF
