  0
SECTION
  2
HEADER
  9
$ACADVER
  1
AC1015
  9
$ACADMAINTVER
 70
     6
  9
$DWGCODEPAGE
  3
ANSI_1252
  9
$INSBASE
 10
0.0
 20
0.0
 30
0.0
  9
$EXTMIN
 10
0.0
 20
0.0
 30
0.0
  9
$EXTMAX
 10
431.8
 20
279.4
 30
0.0
  9
$LIMMIN
 10
0.0
 20
0.0
  9
$LIMMAX
 10
431.8
 20
279.4
  9
$ORTHOMODE
 70
     0
  9
$REGENMODE
 70
     1
  9
$FILLMODE
 70
     1
  9
$QTEXTMODE
 70
     0
  9
$MIRRTEXT
 70
     1
  9
$LTSCALE
 40
1.0
  9
$ATTMODE
 70
     1
  9
$TEXTSIZE
 40
3.175
  9
$TRACEWID
 40
1.0
  9
$TEXTSTYLE
  7
Standard
  9
$CLAYER
  8
0
  9
$CELTYPE
  6
ByLayer
  9
$CECOLOR
 62
   256
  9
$CELTSCALE
 40
1.0
  9
$DISPSILH
 70
     0
  9
$DIMSCALE
 40
1.0
  9
$DIMASZ
 40
3.302
  9
$DIMEXO
 40
1.27
  9
$DIMDLI
 40
3.75
  9
$DIMRND
 40
0.0
  9
$DIMDLE
 40
0.0
  9
$DIMEXE
 40
3.175
  9
$DIMTP
 40
0.0
  9
$DIMTM
 40
0.0
  9
$DIMTXT
 40
3.175
  9
$DIMCEN
 40
2.5
  9
$DIMTSZ
 40
0.0
  9
$DIMTOL
 70
     0
  9
$DIMLIM
 70
     0
  9
$DIMTIH
 70
     1
  9
$DIMTOH
 70
     1
  9
$DIMSE1
 70
     0
  9
$DIMSE2
 70
     0
  9
$DIMTAD
 70
     0
  9
$DIMZIN
 70
     0
  9
$DIMBLK
  1

  9
$DIMASO
 70
     1
  9
$DIMSHO
 70
     1
  9
$DIMPOST
  1

  9
$DIMAPOST
  1

  9
$DIMALT
 70
     0
  9
$DIMALTD
 70
     3
  9
$DIMALTF
 40
0.0393700787
  9
$DIMLFAC
 40
15.0
  9
$DIMTOFL
 70
     1
  9
$DIMTVP
 40
0.0
  9
$DIMTIX
 70
     0
  9
$DIMSOXD
 70
     0
  9
$DIMSAH
 70
     0
  9
$DIMBLK1
  1

  9
$DIMBLK2
  1

  9
$DIMSTYLE
  2
ISO-25
  9
$DIMCLRD
 70
     0
  9
$DIMCLRE
 70
     0
  9
$DIMCLRT
 70
     0
  9
$DIMTFAC
 40
1.0
  9
$DIMGAP
 40
1.524
  9
$DIMJUST
 70
     0
  9
$DIMSD1
 70
     0
  9
$DIMSD2
 70
     0
  9
$DIMTOLJ
 70
     0
  9
$DIMTZIN
 70
     0
  9
$DIMALTZ
 70
     0
  9
$DIMALTTZ
 70
     0
  9
$DIMUPT
 70
     0
  9
$DIMDEC
 70
     0
  9
$DIMTDEC
 70
     0
  9
$DIMALTU
 70
     2
  9
$DIMALTTD
 70
     3
  9
$DIMTXSTY
  7
Standard
  9
$DIMAUNIT
 70
     0
  9
$DIMADEC
 70
     0
  9
$DIMALTRND
 40
0.0
  9
$DIMAZIN
 70
     0
  9
$DIMDSEP
 70
    44
  9
$DIMATFIT
 70
     3
  9
$DIMFRAC
 70
     0
  9
$DIMLDRBLK
  1

  9
$DIMLUNIT
 70
     2
  9
$DIMLWD
 70
    -2
  9
$DIMLWE
 70
    -2
  9
$DIMTMOVE
 70
     0
  9
$LUNITS
 70
     2
  9
$LUPREC
 70
     2
  9
$SKETCHINC
 40
1.0
  9
$FILLETRAD
 40
10.0
  9
$AUNITS
 70
     0
  9
$AUPREC
 70
     2
  9
$MENU
  1
.
  9
$ELEVATION
 40
0.0
  9
$PELEVATION
 40
0.0
  9
$THICKNESS
 40
0.0
  9
$LIMCHECK
 70
     0
  9
$CHAMFERA
 40
0.0
  9
$CHAMFERB
 40
0.0
  9
$CHAMFERC
 40
0.0
  9
$CHAMFERD
 40
0.0
  9
$SKPOLY
 70
     0
  9
$TDCREATE
 40
2458681.513493472
  9
$TDUCREATE
 40
2458681.680160139
  9
$TDUPDATE
 40
2458681.513494629
  9
$TDUUPDATE
 40
2458681.680161296
  9
$TDINDWG
 40
0.0000000116
  9
$TDUSRTIMER
 40
0.0000000116
  9
$USRTIMER
 70
     1
  9
$ANGBASE
 50
0.0
  9
$ANGDIR
 70
     0
  9
$PDMODE
 70
     0
  9
$PDSIZE
 40
-1.0
  9
$PLINEWID
 40
0.0
  9
$SPLFRAME
 70
     0
  9
$SPLINETYPE
 70
     6
  9
$SPLINESEGS
 70
     8
  9
$HANDSEED
  5
26C
  9
$SURFTAB1
 70
     6
  9
$SURFTAB2
 70
     6
  9
$SURFTYPE
 70
     6
  9
$SURFU
 70
     6
  9
$SURFV
 70
     6
  9
$UCSBASE
  2

  9
$UCSNAME
  2

  9
$UCSORG
 10
0.0
 20
0.0
 30
0.0
  9
$UCSXDIR
 10
1.0
 20
0.0
 30
0.0
  9
$UCSYDIR
 10
0.0
 20
1.0
 30
0.0
  9
$UCSORTHOREF
  2

  9
$UCSORTHOVIEW
 70
     0
  9
$UCSORGTOP
 10
0.0
 20
0.0
 30
0.0
  9
$UCSORGBOTTOM
 10
0.0
 20
0.0
 30
0.0
  9
$UCSORGLEFT
 10
0.0
 20
0.0
 30
0.0
  9
$UCSORGRIGHT
 10
0.0
 20
0.0
 30
0.0
  9
$UCSORGFRONT
 10
0.0
 20
0.0
 30
0.0
  9
$UCSORGBACK
 10
0.0
 20
0.0
 30
0.0
  9
$PUCSBASE
  2

  9
$PUCSNAME
  2

  9
$PUCSORG
 10
0.0
 20
0.0
 30
0.0
  9
$PUCSXDIR
 10
1.0
 20
0.0
 30
0.0
  9
$PUCSYDIR
 10
0.0
 20
1.0
 30
0.0
  9
$PUCSORTHOREF
  2

  9
$PUCSORTHOVIEW
 70
     0
  9
$PUCSORGTOP
 10
0.0
 20
0.0
 30
0.0
  9
$PUCSORGBOTTOM
 10
0.0
 20
0.0
 30
0.0
  9
$PUCSORGLEFT
 10
0.0
 20
0.0
 30
0.0
  9
$PUCSORGRIGHT
 10
0.0
 20
0.0
 30
0.0
  9
$PUCSORGFRONT
 10
0.0
 20
0.0
 30
0.0
  9
$PUCSORGBACK
 10
0.0
 20
0.0
 30
0.0
  9
$USERI1
 70
     0
  9
$USERI2
 70
     0
  9
$USERI3
 70
     0
  9
$USERI4
 70
     0
  9
$USERI5
 70
     0
  9
$USERR1
 40
0.0
  9
$USERR2
 40
0.0
  9
$USERR3
 40
0.0
  9
$USERR4
 40
0.0
  9
$USERR5
 40
0.0
  9
$WORLDVIEW
 70
     1
  9
$SHADEDGE
 70
     3
  9
$SHADEDIF
 70
    70
  9
$TILEMODE
 70
     1
  9
$MAXACTVP
 70
    64
  9
$PINSBASE
 10
0.0
 20
0.0
 30
0.0
  9
$PLIMCHECK
 70
     0
  9
$PEXTMIN
 10
1.0000000000E+20
 20
1.0000000000E+20
 30
1.0000000000E+20
  9
$PEXTMAX
 10
-1.0000000000E+20
 20
-1.0000000000E+20
 30
-1.0000000000E+20
  9
$PLIMMIN
 10
0.0
 20
0.0
  9
$PLIMMAX
 10
420.0
 20
297.0
  9
$UNITMODE
 70
     0
  9
$VISRETAIN
 70
     1
  9
$PLINEGEN
 70
     0
  9
$PSLTSCALE
 70
     1
  9
$TREEDEPTH
 70
  3020
  9
$CMLSTYLE
  2
Standard
  9
$CMLJUST
 70
     0
  9
$CMLSCALE
 40
20.0
  9
$PROXYGRAPHICS
 70
     1
  9
$MEASUREMENT
 70
     1
  9
$CELWEIGHT
370
    -1
  9
$ENDCAPS
280
     0
  9
$JOINSTYLE
280
     0
  9
$LWDISPLAY
290
     1
  9
$INSUNITS
 70
     4
  9
$HYPERLINKBASE
  1

  9
$STYLESHEET
  1

  9
$XEDIT
290
     1
  9
$CEPSNTYPE
380
     0
  9
$PSTYLEMODE
290
     1
  9
$FINGERPRINTGUID
  2
{6D15A6EC-FFB3-43A4-8939-6E6E970435CA}
  9
$VERSIONGUID
  2
{FAEB1C32-E019-11D5-929B-00C0DF256EC4}
  9
$EXTNAMES
290
     1
  9
$PSVPSCALE
 40
0.0
  9
$OLESTARTUP
290
     0
  0
ENDSEC
  0
SECTION
  2
CLASSES
  0
CLASS
  1
ACDBDICTIONARYWDFLT
  2
AcDbDictionaryWithDefault
  3
ObjectDBX Classes
 90
        0
280
     0
281
     0
  0
CLASS
  1
VISUALSTYLE
  2
AcDbVisualStyle
  3
ObjectDBX Classes
 90
     4095
280
     0
281
     0
  0
CLASS
  1
MATERIAL
  2
AcDbMaterial
  3
ObjectDBX Classes
 90
     1153
280
     0
281
     0
  0
CLASS
  1
SCALE
  2
AcDbScale
  3
ObjectDBX Classes
 90
     1153
280
     0
281
     0
  0
CLASS
  1
TABLESTYLE
  2
AcDbTableStyle
  3
ObjectDBX Classes
 90
     4095
280
     0
281
     0
  0
CLASS
  1
MLEADERSTYLE
  2
AcDbMLeaderStyle
  3
ACDB_MLEADERSTYLE_CLASS
 90
     4095
280
     0
281
     0
  0
CLASS
  1
SUN
  2
AcDbSun
  3
SCENEOE
 90
     1153
280
     0
281
     0
  0
CLASS
  1
ACDBPLACEHOLDER
  2
AcDbPlaceHolder
  3
ObjectDBX Classes
 90
        0
280
     0
281
     0
  0
CLASS
  1
LAYOUT
  2
AcDbLayout
  3
ObjectDBX Classes
 90
        0
280
     0
281
     0
  0
ENDSEC
  0
SECTION
  2
TABLES
  0
TABLE
  2
VPORT
  5
8
330
0
100
AcDbSymbolTable
 70
     1
  0
VPORT
  5
29
330
8
100
AcDbSymbolTableRecord
100
AcDbViewportTableRecord
  2
*Active
 70
     0
 10
0.0
 20
0.0
 11
1.0
 21
1.0
 12
215.9
 22
139.7
 13
0.0
 23
0.0
 14
10.0
 24
10.0
 15
10.0
 25
10.0
 16
0.0
 26
0.0
 36
1.0
 17
0.0
 27
0.0
 37
0.0
 40
279.4
 41
1.5454545455
 42
50.0
 43
0.0
 44
0.0
 50
0.0
 51
0.0
 71
     0
 72
  2000
 73
     1
 74
     3
 75
     0
 76
     0
 77
     0
 78
     0
281
     0
 65
     1
110
0.0
120
0.0
130
0.0
111
1.0
121
0.0
131
0.0
112
0.0
122
1.0
132
0.0
 79
     0
146
0.0
  0
ENDTAB
  0
TABLE
  2
LTYPE
  5
5
330
0
100
AcDbSymbolTable
 70
     6
  0
LTYPE
  5
14
330
5
100
AcDbSymbolTableRecord
100
AcDbLinetypeTableRecord
  2
ByBlock
 70
     0
  3

 72
    65
 73
     0
 40
0.0
  0
LTYPE
  5
15
330
5
100
AcDbSymbolTableRecord
100
AcDbLinetypeTableRecord
  2
ByLayer
 70
     0
  3

 72
    65
 73
     0
 40
0.0
  0
LTYPE
  5
16
330
5
100
AcDbSymbolTableRecord
100
AcDbLinetypeTableRecord
  2
Continuous
 70
     0
  3
Solid line
 72
    65
 73
     0
 40
0.0
  0
LTYPE
  5
6E
330
5
100
AcDbSymbolTableRecord
100
AcDbLinetypeTableRecord
  2
HIDDEN
 70
     0
  3
Hidden __ __ __ __ __ __ __ __ __ __ __ __ __ __
 72
    65
 73
     2
 40
1.905
 49
1.27
 74
     0
 49
-0.635
 74
     0
  0
LTYPE
  5
6F
330
5
100
AcDbSymbolTableRecord
100
AcDbLinetypeTableRecord
  2
PHANTOM
 70
     0
  3
Phantom ______  __  __  ______  __  __  ______
 72
    65
 73
     6
 40
12.7
 49
6.35
 74
     0
 49
-1.27
 74
     0
 49
1.27
 74
     0
 49
-1.27
 74
     0
 49
1.27
 74
     0
 49
-1.27
 74
     0
  0
LTYPE
  5
70
330
5
100
AcDbSymbolTableRecord
100
AcDbLinetypeTableRecord
  2
CENTER
 70
     0
  3
Center ____ _ ____ _ ____ _ ____ _ ____ _ ____
 72
    65
 73
     4
 40
10.16
 49
6.35
 74
     0
 49
-1.27
 74
     0
 49
1.27
 74
     0
 49
-1.27
 74
     0
  0
LTYPE
  5
71
330
5
100
AcDbSymbolTableRecord
100
AcDbLinetypeTableRecord
  2
CENTERX2
 70
     0
  3
Center (2x) ________  __  ________  __  _____
 72
    65
 73
     4
 40
20.32
 49
12.7
 74
     0
 49
-2.54
 74
     0
 49
2.54
 74
     0
 49
-2.54
 74
     0
  0
LTYPE
  5
72
330
5
100
AcDbSymbolTableRecord
100
AcDbLinetypeTableRecord
  2
DOT2
 70
     0
  3
Dot (.5x) ........................................
 72
    65
 73
     2
 40
0.635
 49
0.0
 74
     0
 49
-0.635
 74
     0
  0
ENDTAB
  0
TABLE
  2
LAYER
  5
2
330
0
100
AcDbSymbolTable
 70
     2
  0
LAYER
  5
10
330
2
100
AcDbSymbolTableRecord
100
AcDbLayerTableRecord
  2
0
 70
     0
 62
     7
  6
Continuous
370
    -3
390
F
  0
LAYER
  5
73
330
2
100
AcDbSymbolTableRecord
100
AcDbLayerTableRecord
  2
FORMAT
 70
     0
 62
     7
  6
Continuous
370
    -3
390
F
  0
ENDTAB
  0
TABLE
  2
STYLE
  5
3
330
0
100
AcDbSymbolTable
 70
     2
  0
STYLE
  5
11
330
3
100
AcDbSymbolTableRecord
100
AcDbTextStyleTableRecord
  2
Standard
 70
     0
 40
0.0
 41
1.0
 50
0.0
 71
     0
 42
3.175
  3
txt
  4

  0
STYLE
  5
B8
330
3
100
AcDbSymbolTableRecord
100
AcDbTextStyleTableRecord
  2
SLDTEXTSTYLE0
 70
     0
 40
0.0
 41
0.7
 50
0.0
 71
     0
 42
3.175
  3
TXT
  4

  0
ENDTAB
  0
TABLE
  2
VIEW
  5
6
330
0
100
AcDbSymbolTable
 70
     0
  0
ENDTAB
  0
TABLE
  2
UCS
  5
7
330
0
100
AcDbSymbolTable
 70
     0
  0
ENDTAB
  0
TABLE
  2
APPID
  5
9
330
0
100
AcDbSymbolTable
 70
     1
  0
APPID
  5
12
330
9
100
AcDbSymbolTableRecord
100
AcDbRegAppTableRecord
  2
ACAD
 70
     0
  0
ENDTAB
  0
TABLE
  2
DIMSTYLE
  5
A
330
0
100
AcDbSymbolTable
 70
     1
100
AcDbDimStyleTable
  0
DIMSTYLE
105
27
330
A
100
AcDbSymbolTableRecord
100
AcDbDimStyleTableRecord
  2
ISO-25
 70
     0
 41
2.5
 42
0.625
 43
3.75
 44
1.25
 73
     0
 74
     0
 77
     1
 78
     8
140
2.5
141
2.5
143
0.0393700787
147
0.625
171
     3
172
     1
178
     0
271
     2
272
     2
274
     3
278
    44
283
     0
284
     8
340
11
  0
ENDTAB
  0
TABLE
  2
BLOCK_RECORD
  5
1
330
0
100
AcDbSymbolTable
 70
     5
  0
BLOCK_RECORD
  5
1F
330
1
100
AcDbSymbolTableRecord
100
AcDbBlockTableRecord
  2
*Model_Space
340
22
  0
BLOCK_RECORD
  5
1B
330
1
100
AcDbSymbolTableRecord
100
AcDbBlockTableRecord
  2
*Paper_Space
340
1E
  0
BLOCK_RECORD
  5
23
330
1
100
AcDbSymbolTableRecord
100
AcDbBlockTableRecord
  2
*Paper_Space0
340
26
  0
BLOCK_RECORD
  5
BB
330
1
100
AcDbSymbolTableRecord
100
AcDbBlockTableRecord
  2
SW_NOTE_0
340
0
102
{BLKREFS
331
C1
102
}
  0
BLOCK_RECORD
  5
C6
330
1
100
AcDbSymbolTableRecord
100
AcDbBlockTableRecord
  2
SW_NOTE_1
340
0
102
{BLKREFS
331
CC
102
}
  0
BLOCK_RECORD
  5
1CA
330
1
100
AcDbSymbolTableRecord
100
AcDbBlockTableRecord
  2
SW_CENTERMARKSYMBOL_0
340
0
102
{BLKREFS
331
1D5
102
}
  0
BLOCK_RECORD
  5
1D6
330
1
100
AcDbSymbolTableRecord
100
AcDbBlockTableRecord
  2
SW_CENTERMARKSYMBOL_1
340
0
102
{BLKREFS
331
1E1
102
}
  0
ENDTAB
  0
ENDSEC
  0
SECTION
  2
BLOCKS
  0
BLOCK
  5
20
330
1F
100
AcDbEntity
  8
0
100
AcDbBlockBegin
  2
*Model_Space
 70
     0
 10
0.0
 20
0.0
 30
0.0
  3
*Model_Space
  1

  0
ENDBLK
  5
21
330
1F
100
AcDbEntity
  8
0
100
AcDbBlockEnd
  0
BLOCK
  5
1C
330
1B
100
AcDbEntity
 67
     1
  8
0
100
AcDbBlockBegin
  2
*Paper_Space
 70
     0
 10
0.0
 20
0.0
 30
0.0
  3
*Paper_Space
  1

  0
ENDBLK
  5
1D
330
1B
100
AcDbEntity
 67
     1
  8
0
100
AcDbBlockEnd
  0
BLOCK
  5
24
330
23
100
AcDbEntity
  8
0
100
AcDbBlockBegin
  2
*Paper_Space0
 70
     0
 10
0.0
 20
0.0
 30
0.0
  3
*Paper_Space0
  1

  0
ENDBLK
  5
25
330
23
100
AcDbEntity
  8
0
100
AcDbBlockEnd
  0
BLOCK
  5
BC
330
BB
100
AcDbEntity
  8
0
100
AcDbBlockBegin
  2
SW_NOTE_0
 70
     0
 10
0.0
 20
0.0
 30
0.0
  3
SW_NOTE_0
  1

  0
MTEXT
  5
BE
330
BB
100
AcDbEntity
  8
0
  6
Continuous
 62
     0
370
     0
100
AcDbMText
 10
0.0
 20
2.0463950369
 30
0.0
 40
1.5875
 41
0.0
 71
     1
 72
     1
  1
87 34th Street, Unit 11, Brooklyn, NY 11232
  7
SLDTEXTSTYLE0
 73
     1
 44
1.0
  0
MTEXT
  5
BF
330
BB
100
AcDbEntity
  8
0
  6
Continuous
 62
     0
370
     0
100
AcDbMText
 10
0.0
 20
-0.0702716042
 30
0.0
 40
1.5875
 41
0.0
 71
     1
 72
     1
  1
T +1 718-387-6132
  7
SLDTEXTSTYLE0
 73
     1
 44
1.0
  0
MTEXT
  5
C0
330
BB
100
AcDbEntity
  8
0
  6
Continuous
 62
     0
370
     0
100
AcDbMText
 10
0.0
 20
-2.1869382453
 30
0.0
 40
1.5875
 41
0.0
 71
     1
 72
     1
  1
www.rollandhill.com
  7
SLDTEXTSTYLE0
 73
     1
 44
1.0
  0
ENDBLK
  5
BD
330
BB
100
AcDbEntity
  8
0
100
AcDbBlockEnd
  0
BLOCK
  5
C7
330
C6
100
AcDbEntity
  8
0
100
AcDbBlockBegin
  2
SW_NOTE_1
 70
     0
 10
0.0
 20
0.0
 30
0.0
  3
SW_NOTE_1
  1

  0
MTEXT
  5
C9
330
C6
100
AcDbEntity
  8
0
  6
Continuous
 62
     0
370
     0
100
AcDbMText
 10
0.0
 20
2.0463950369
 30
0.0
 40
1.5875
 41
0.0
 71
     1
 72
     1
  1
\LPROPRIETARY AND CONFIDENTIAL
  7
SLDTEXTSTYLE0
 73
     1
 44
1.0
  0
MTEXT
  5
CA
330
C6
100
AcDbEntity
  8
0
  6
Continuous
 62
     0
370
     0
100
AcDbMText
 10
37.3117625713
 20
2.0463950369
 30
0.0
 40
1.5875
 41
0.0
 71
     1
 72
     1
  1
THE INFORMATION CONTAINED IN THIS DRAWING IS THE SOLE PROPERTY OF ROLL & HILL LLC. ANY REPRODUCTION IN
  7
SLDTEXTSTYLE0
 73
     1
 44
1.0
  0
MTEXT
  5
CB
330
C6
100
AcDbEntity
  8
0
  6
Continuous
 62
     0
370
     0
100
AcDbMText
 10
0.0
 20
-0.0702716042
 30
0.0
 40
1.5875
 41
0.0
 71
     1
 72
     1
  1
PART OR AS A WHOLE WITHOUT THE WRITTEN PERMISSION OF ROLL & HILL LLC. IS PROHIBITED.
  7
SLDTEXTSTYLE0
 73
     1
 44
1.0
  0
ENDBLK
  5
C8
330
C6
100
AcDbEntity
  8
0
100
AcDbBlockEnd
  0
BLOCK
  5
1CB
330
1CA
100
AcDbEntity
  8
0
100
AcDbBlockBegin
  2
SW_CENTERMARKSYMBOL_0
 70
     0
 10
0.0
 20
0.0
 30
0.0
  3
SW_CENTERMARKSYMBOL_0
  1

  0
LINE
  5
1CD
330
1CA
100
AcDbEntity
  8
0
  6
Continuous
 62
     0
370
     0
100
AcDbLine
 10
0.0
 20
0.0
 30
0.0
 11
0.0
 21
0.1693333333
 31
0.0
  0
LINE
  5
1CE
330
1CA
100
AcDbEntity
  8
0
  6
Continuous
 62
     0
370
     0
100
AcDbLine
 10
0.0
 20
0.0
 30
0.0
 11
-0.1693333333
 21
0.0
 31
0.0
  0
LINE
  5
1CF
330
1CA
100
AcDbEntity
  8
0
  6
Continuous
 62
     0
370
     0
100
AcDbLine
 10
0.0
 20
0.0
 30
0.0
 11
0.0
 21
-0.1693333333
 31
0.0
  0
LINE
  5
1D0
330
1CA
100
AcDbEntity
  8
0
  6
Continuous
 62
     0
370
     0
100
AcDbLine
 10
0.0
 20
0.0
 30
0.0
 11
0.1693333333
 21
0.0
 31
0.0
  0
LINE
  5
1D1
330
1CA
100
AcDbEntity
  8
0
  6
Continuous
 62
     0
370
     0
100
AcDbLine
 10
0.0
 20
0.3386666667
 30
0.0
 11
0.0
 21
4.4026666667
 31
0.0
  0
LINE
  5
1D2
330
1CA
100
AcDbEntity
  8
0
  6
Continuous
 62
     0
370
     0
100
AcDbLine
 10
-0.3386666667
 20
0.0
 30
0.0
 11
-4.4026666667
 21
0.0
 31
0.0
  0
LINE
  5
1D3
330
1CA
100
AcDbEntity
  8
0
  6
Continuous
 62
     0
370
     0
100
AcDbLine
 10
0.0
 20
-0.3386666667
 30
0.0
 11
0.0
 21
-4.4026666667
 31
0.0
  0
LINE
  5
1D4
330
1CA
100
AcDbEntity
  8
0
  6
Continuous
 62
     0
370
     0
100
AcDbLine
 10
0.3386666667
 20
0.0
 30
0.0
 11
4.4026666667
 21
0.0
 31
0.0
  0
ENDBLK
  5
1CC
330
1CA
100
AcDbEntity
  8
0
100
AcDbBlockEnd
  0
BLOCK
  5
1D7
330
1D6
100
AcDbEntity
  8
0
100
AcDbBlockBegin
  2
SW_CENTERMARKSYMBOL_1
 70
     0
 10
0.0
 20
0.0
 30
0.0
  3
SW_CENTERMARKSYMBOL_1
  1

  0
LINE
  5
1D9
330
1D6
100
AcDbEntity
  8
0
  6
Continuous
 62
     0
370
     0
100
AcDbLine
 10
0.0
 20
0.0
 30
0.0
 11
0.0
 21
0.1693333333
 31
0.0
  0
LINE
  5
1DA
330
1D6
100
AcDbEntity
  8
0
  6
Continuous
 62
     0
370
     0
100
AcDbLine
 10
0.0
 20
0.0
 30
0.0
 11
-0.1693333333
 21
0.0
 31
0.0
  0
LINE
  5
1DB
330
1D6
100
AcDbEntity
  8
0
  6
Continuous
 62
     0
370
     0
100
AcDbLine
 10
0.0
 20
0.0
 30
0.0
 11
0.0
 21
-0.1693333333
 31
0.0
  0
LINE
  5
1DC
330
1D6
100
AcDbEntity
  8
0
  6
Continuous
 62
     0
370
     0
100
AcDbLine
 10
0.0
 20
0.0
 30
0.0
 11
0.1693333333
 21
0.0
 31
0.0
  0
LINE
  5
1DD
330
1D6
100
AcDbEntity
  8
0
  6
Continuous
 62
     0
370
     0
100
AcDbLine
 10
0.0
 20
0.1693333333
 30
0.0
 11
0.0
 21
0.3048
 31
0.0
  0
LINE
  5
1DE
330
1D6
100
AcDbEntity
  8
0
  6
Continuous
 62
     0
370
     0
100
AcDbLine
 10
-0.1693333333
 20
0.0
 30
0.0
 11
-0.3048
 21
0.0
 31
0.0
  0
LINE
  5
1DF
330
1D6
100
AcDbEntity
  8
0
  6
Continuous
 62
     0
370
     0
100
AcDbLine
 10
0.0
 20
-0.1693333333
 30
0.0
 11
0.0
 21
-0.3048
 31
0.0
  0
LINE
  5
1E0
330
1D6
100
AcDbEntity
  8
0
  6
Continuous
 62
     0
370
     0
100
AcDbLine
 10
0.1693333333
 20
0.0
 30
0.0
 11
0.3048
 21
0.0
 31
0.0
  0
ENDBLK
  5
1D8
330
1D6
100
AcDbEntity
  8
0
100
AcDbBlockEnd
  0
ENDSEC
  0
SECTION
  2
ENTITIES
  0
HATCH
  5
74
330
1F
100
AcDbEntity
  8
0
  6
Continuous
 62
     7
100
AcDbHatch
 10
0.0
 20
0.0
 30
0.0
210
0.0
220
0.0
230
1.0
  2
SOLID
 70
     1
 71
     0
 91
        2
 92
        0
 93
        6
 72
     4
 94
        3
 73
     1
 74
     0
 95
       20
 96
       16
 40
0.0
 40
0.0
 40
0.0
 40
0.0
 40
1.0
 40
1.0
 40
1.0
 40
2.0
 40
2.0
 40
2.0
 40
3.0
 40
3.0
 40
3.0
 40
4.0
 40
4.0
 40
4.0
 40
5.0
 40
5.0
 40
5.0
 40
5.0
 10
261.0219043336847
 20
23.63056361828031
 42
1.0
 10
261.2341319795987
 20
23.68742184709604
 42
1.0
 10
261.3945785321864
 20
23.72473719781129
 42
1.0
 10
261.5515161764629
 20
23.77337299628437
 42
1.0
 10
262.5617362220245
 20
24.08644572151765
 42
1.0
 10
262.9966382899503
 20
24.76217905347502
 42
1.0
 10
262.9131259646454
 20
25.88395655371281
 42
1.0
 10
262.8488620904764
 20
26.74717259793779
 42
1.0
 10
262.3071445332423
 20
27.30037799580671
 42
1.0
 10
261.2989762515715
 20
27.40941936834727
 42
1.0
 10
260.5093946232761
 20
27.49481913962259
 42
1.0
 10
259.7094699986221
 20
27.48819126576296
 42
1.0
 10
258.913837050576
 20
27.51251762112626
 42
1.0
 10
258.5159962651877
 20
27.52468175973202
 42
1.0
 10
258.1174764912431
 20
27.51463645747964
 42
1.0
 10
257.7192638284546
 20
27.51463645747964
 42
1.0
 72
     4
 94
        3
 73
     1
 74
     0
 95
       14
 96
       10
 40
17.0
 40
17.0
 40
17.0
 40
17.0
 40
18.0
 40
18.0
 40
18.0
 40
19.0
 40
19.0
 40
19.0
 40
20.0
 40
20.0
 40
20.0
 40
20.0
 10
257.7192638284546
 20
27.51463645747964
 42
1.0
 10
258.2057453879524
 20
27.36893835120056
 42
1.0
 10
258.4151924094879
 20
27.04153921726714
 42
1.0
 10
258.4151320634913
 20
26.55729487989966
 42
1.0
 10
258.4149081683119
 20
24.76100595804667
 42
1.0
 10
258.4191609275175
 20
22.96470127704905
 42
1.0
 10
258.4124688639662
 20
21.16843695483816
 42
1.0
 10
258.4104423723632
 20
20.62446660851326
 42
1.0
 10
258.2139995287706
 20
20.39587059142628
 42
1.0
 10
257.7053577757453
 20
20.25910042553502
 42
1.0
 72
     1
 10
257.7053577757453
 20
20.25910042553502
 11
260.1134120717832
 21
20.25910042553502
 72
     4
 94
        3
 73
     1
 74
     0
 95
       14
 96
       10
 40
13.0
 40
13.0
 40
13.0
 40
13.0
 40
14.0
 40
14.0
 40
14.0
 40
15.0
 40
15.0
 40
15.0
 40
16.0
 40
16.0
 40
16.0
 40
16.0
 10
260.1134120717832
 20
20.25910042553502
 42
1.0
 10
259.6377614656041
 20
20.40079128856704
 42
1.0
 10
259.4435911100346
 20
20.64162793377141
 42
1.0
 10
259.4408326829897
 20
21.14221143023692
 42
1.0
 10
259.4366701545022
 20
21.89763799307775
 42
1.0
 10
259.4392191002215
 20
22.65310606781492
 42
1.0
 10
259.4405559370167
 20
23.40855338660287
 42
1.0
 10
259.4406539512153
 20
23.46398560492077
 42
1.0
 10
259.4539911852495
 20
23.51939476107442
 42
1.0
 10
259.4607286043899
 20
23.57138302951071
 42
1.0
 72
     4
 94
        3
 73
     1
 74
     0
 95
       20
 96
       16
 40
8.0
 40
8.0
 40
8.0
 40
8.0
 40
9.0
 40
9.0
 40
9.0
 40
10.0
 40
10.0
 40
10.0
 40
11.0
 40
11.0
 40
11.0
 40
12.0
 40
12.0
 40
12.0
 40
13.0
 40
13.0
 40
13.0
 40
13.0
 10
259.4607286043899
 20
23.57138302951071
 42
1.0
 10
260.3725694925604
 20
23.65083910446931
 42
1.0
 10
260.6054131759577
 20
23.52556773374194
 42
1.0
 10
261.0037355762117
 20
22.71920223094413
 42
1.0
 10
261.378026816807
 20
21.9614848264415
 42
1.0
 10
261.7451764738302
 20
21.200166649339
 42
1.0
 10
262.1067370153144
 20
20.43629933433309
 42
1.0
 10
262.1765046750147
 20
20.28890135435546
 42
1.0
 10
262.2549406335689
 20
20.22203337745712
 42
1.0
 10
262.427398730108
 20
20.22724465786873
 42
1.0
 10
262.8718696744063
 20
20.24067529366942
 42
1.0
 10
263.3170171088603
 20
20.2311736819415
 42
1.0
 10
263.7618904879274
 20
20.2323936704376
 42
1.0
 10
263.8264337986554
 20
20.23257048036439
 42
1.0
 10
263.8909540472192
 20
20.24131411562171
 42
1.0
 10
263.9554858268652
 20
20.24609336482204
 42
1.0
 72
     4
 94
        3
 73
     1
 74
     0
 95
       14
 96
       10
 40
5.0
 40
5.0
 40
5.0
 40
5.0
 40
6.0
 40
6.0
 40
6.0
 40
7.0
 40
7.0
 40
7.0
 40
8.0
 40
8.0
 40
8.0
 40
8.0
 10
263.9554858268652
 20
20.24609336482204
 42
1.0
 10
263.5606000734738
 20
20.32757122285868
 42
1.0
 10
263.3178377375433
 20
20.57267359973515
 42
1.0
 10
263.1292772534607
 20
20.88520667032095
 42
1.0
 10
262.8739775562312
 20
21.30835818112304
 42
1.0
 10
262.6276890153665
 20
21.7369354504649
 42
1.0
 10
262.3739921385617
 20
22.16106556577572
 42
1.0
 10
262.033208300972
 20
22.73079019980925
 42
1.0
 10
261.7521543160346
 20
23.35408286053947
 42
1.0
 10
261.0219043336847
 20
23.63056361828031
 42
1.0
 97
        0
 92
        0
 93
        2
 72
     1
 10
259.4558811296203
 20
23.74052094311722
 11
259.4558811296203
 21
27.35855230546976
 72
     4
 94
        3
 73
     1
 74
     0
 95
       20
 96
       16
 40
1.0
 40
1.0
 40
1.0
 40
1.0
 40
2.0
 40
2.0
 40
2.0
 40
3.0
 40
3.0
 40
3.0
 40
4.0
 40
4.0
 40
4.0
 40
5.0
 40
5.0
 40
5.0
 40
6.0
 40
6.0
 40
6.0
 40
6.0
 10
259.4558811296203
 20
27.35855230546976
 42
1.0
 10
259.8103733099057
 20
27.35855230546976
 42
1.0
 10
260.1467440101549
 20
27.38072599997261
 42
1.0
 10
260.4792308497364
 20
27.35420547185249
 42
1.0
 10
261.3230227860075
 20
27.28690123567825
 42
1.0
 10
261.7108519014664
 20
26.95476897687368
 42
1.0
 10
261.8164781518313
 20
26.10478869315943
 42
1.0
 10
261.8719876284001
 20
25.65810454981779
 42
1.0
 10
261.8389787525148
 20
25.18024881635489
 42
1.0
 10
261.7413862071132
 20
24.73962656292206
 42
1.0
 10
261.608259863196
 20
24.13857044109259
 42
1.0
 10
261.1506181168165
 20
23.81517009427841
 42
1.0
 10
260.5489927438957
 20
23.74778168120397
 42
1.0
 10
260.1942113256325
 20
23.70804326575078
 42
1.0
 10
259.8313410453958
 20
23.74052094311722
 42
1.0
 10
259.4558811296203
 20
23.74052094311722
 42
1.0
 97
        0
 75
     0
 76
     1
 98
        1
 10
0.0
 20
0.0
  0
HATCH
  5
75
330
1F
100
AcDbEntity
  8
0
  6
Continuous
 62
     7
100
AcDbHatch
 10
0.0
 20
0.0
 30
0.0
210
0.0
220
0.0
230
1.0
  2
SOLID
 70
     1
 71
     0
 91
        2
 92
        0
 93
        2
 72
     4
 94
        3
 73
     1
 74
     0
 95
       14
 96
       10
 40
0.0
 40
0.0
 40
0.0
 40
0.0
 40
1.0
 40
1.0
 40
1.0
 40
2.0
 40
2.0
 40
2.0
 40
3.0
 40
3.0
 40
3.0
 40
3.0
 10
267.2336118279071
 20
20.23490821509466
 42
1.0
 10
268.1650050112285
 20
19.98240211471103
 42
1.0
 10
269.1482911393735
 20
20.33660467264827
 42
1.0
 10
269.7215189161771
 20
21.13111084177937
 42
1.0
 10
270.3723808569537
 20
22.03321892002499
 42
1.0
 10
270.372934348899
 20
23.32205720159637
 42
1.0
 10
269.7103360726668
 20
24.21398909980579
 42
1.0
 10
269.2464106552308
 20
24.83848445240961
 42
1.0
 10
268.6216197225536
 20
25.16033694362372
 42
1.0
 10
267.7758432870376
 20
25.16748813643033
 42
1.0
 72
     4
 94
        3
 73
     1
 74
     0
 95
       14
 96
       10
 40
3.0
 40
3.0
 40
3.0
 40
3.0
 40
4.0
 40
4.0
 40
4.0
 40
5.0
 40
5.0
 40
5.0
 40
6.0
 40
6.0
 40
6.0
 40
6.0
 10
267.7758432870376
 20
25.16748813643033
 42
1.0
 10
266.9062728477855
 20
25.1505801106106
 42
1.0
 10
266.225828300013
 20
24.723612195973
 42
1.0
 10
265.7739382574312
 20
23.92202056120339
 42
1.0
 10
265.4879189885011
 20
23.41465794151554
 42
1.0
 10
265.4259332718035
 20
22.86561853145873
 42
1.0
 10
265.4837047623288
 20
22.29272284982232
 42
1.0
 10
265.5792320909092
 20
21.34541139190241
 42
1.0
 10
266.3034040398354
 20
20.48709452013179
 42
1.0
 10
267.2336118279071
 20
20.23490821509466
 42
1.0
 97
        0
 92
        0
 93
        2
 72
     4
 94
        3
 73
     1
 74
     0
 95
       17
 96
       13
 40
0.0
 40
0.0
 40
0.0
 40
0.0
 40
1.0
 40
1.0
 40
1.0
 40
2.0
 40
2.0
 40
2.0
 40
3.0
 40
3.0
 40
3.0
 40
4.0
 40
4.0
 40
4.0
 40
4.0
 10
266.4699528411193
 20
22.82140374989816
 42
1.0
 10
266.4968487059656
 20
23.23360918874381
 42
1.0
 10
266.5993976948625
 20
23.64490674705059
 42
1.0
 10
266.7072125446274
 20
24.04607386528146
 42
1.0
 10
266.7597204805012
 20
24.2414496033099
 42
1.0
 10
266.882078331128
 20
24.42789874624283
 42
1.0
 10
267.0072628343699
 20
24.59213287496141
 42
1.0
 10
267.4640605055332
 20
25.19142205062979
 42
1.0
 10
268.2143234497673
 20
25.18405330473933
 42
1.0
 10
268.6683621173312
 20
24.58056604641373
 42
1.0
 10
269.0963628325642
 20
24.01168817818241
 42
1.0
 10
269.195680043492
 20
23.34551372899321
 42
1.0
 10
269.218762963826
 20
22.68351122534059
 42
1.0
 72
     4
 94
        3
 73
     1
 74
     0
 95
       17
 96
       13
 40
4.0
 40
4.0
 40
4.0
 40
4.0
 40
5.0
 40
5.0
 40
5.0
 40
6.0
 40
6.0
 40
6.0
 40
7.0
 40
7.0
 40
7.0
 40
8.0
 40
8.0
 40
8.0
 40
8.0
 10
269.218762963826
 20
22.68351122534059
 42
1.0
 10
269.202432645224
 20
22.05765558940843
 42
1.0
 10
269.1208448575376
 20
21.47214721006825
 42
1.0
 10
268.810867074766
 20
20.94311038392242
 42
1.0
 10
268.6078393105943
 20
20.5966013640246
 42
1.0
 10
268.3388937306983
 20
20.33416469565678
 42
1.0
 10
267.9076604687568
 20
20.30531315927085
 42
1.0
 10
267.4153070900211
 20
20.27237193240103
 42
1.0
 10
267.1048165584612
 20
20.54785025472892
 42
1.0
 10
266.8746830637486
 20
20.93428603108956
 42
1.0
 10
266.5287029361534
 20
21.51524885782822
 42
1.0
 10
266.4269741915698
 20
22.16270989809668
 42
1.0
 10
266.4699528411193
 20
22.82140374989816
 42
1.0
 97
        0
 75
     0
 76
     1
 98
        1
 10
0.0
 20
0.0
  0
HATCH
  5
76
330
1F
100
AcDbEntity
  8
0
  6
Continuous
 62
     7
100
AcDbHatch
 10
0.0
 20
0.0
 30
0.0
210
0.0
220
0.0
230
1.0
  2
SOLID
 70
     1
 71
     0
 91
        1
 92
        0
 93
        4
 72
     1
 10
273.9540333846496
 20
27.87257450949275
 11
272.4594267850394
 21
27.32510813123116
 72
     4
 94
        3
 73
     1
 74
     0
 95
       14
 96
       10
 40
6.0
 40
6.0
 40
6.0
 40
6.0
 40
7.0
 40
7.0
 40
7.0
 40
8.0
 40
8.0
 40
8.0
 40
9.0
 40
9.0
 40
9.0
 40
9.0
 10
272.4594267850394
 20
27.32510813123116
 42
1.0
 10
272.9826104338649
 20
27.28380667758701
 42
1.0
 10
273.0476395875227
 20
27.23250104921648
 42
1.0
 10
273.0527409382852
 20
26.65700799131587
 42
1.0
 10
273.0685846452182
 20
24.86961337752774
 42
1.0
 10
273.0702866329497
 20
23.08209538116094
 42
1.0
 10
273.0783845276048
 20
21.29462927466367
 42
1.0
 10
273.0805785081768
 20
20.81042375860576
 42
1.0
 10
273.0059923935969
 20
20.37668517687364
 42
1.0
 10
272.426404840594
 20
20.2590796695872
 42
1.0
 72
     1
 10
272.426404840594
 20
20.2590796695872
 11
274.6224502449564
 21
20.2590796695872
 72
     4
 94
        3
 73
     1
 74
     0
 95
       17
 96
       13
 40
1.0
 40
1.0
 40
1.0
 40
1.0
 40
2.0
 40
2.0
 40
2.0
 40
3.0
 40
3.0
 40
3.0
 40
4.0
 40
4.0
 40
4.0
 40
5.0
 40
5.0
 40
5.0
 40
5.0
 10
274.6224502449564
 20
20.2590796695872
 42
1.0
 10
274.1836818051716
 20
20.38260600321025
 42
1.0
 10
274.0006220316647
 20
20.58964274029083
 42
1.0
 10
273.9590578615309
 20
21.04279505200226
 42
1.0
 10
273.9506540088286
 20
21.13443409966764
 42
1.0
 10
273.954217881965
 20
21.22727776105204
 42
1.0
 10
273.9542086570993
 20
21.31956562427539
 42
1.0
 10
273.9539872603212
 20
23.41776441505853
 42
1.0
 10
273.9540349221275
 20
25.51596282147274
 42
1.0
 10
273.9540333846496
 20
27.61416161225588
 42
1.0
 10
273.9540333846496
 20
27.71082379150879
 42
1.0
 10
273.9540333846496
 20
27.8074859707617
 42
1.0
 10
273.9540333846496
 20
27.87257450949275
 42
1.0
 97
        0
 75
     0
 76
     1
 98
        1
 10
0.0
 20
0.0
  0
HATCH
  5
77
330
1F
100
AcDbEntity
  8
0
  6
Continuous
 62
     7
100
AcDbHatch
 10
0.0
 20
0.0
 30
0.0
210
0.0
220
0.0
230
1.0
  2
SOLID
 70
     1
 71
     0
 91
        1
 92
        0
 93
        4
 72
     1
 10
276.9460186560295
 20
20.2549177176549
 11
279.1055120673172
 21
20.2549177176549
 72
     4
 94
        3
 73
     1
 74
     0
 95
       14
 96
       10
 40
6.0
 40
6.0
 40
6.0
 40
6.0
 40
7.0
 40
7.0
 40
7.0
 40
8.0
 40
8.0
 40
8.0
 40
9.0
 40
9.0
 40
9.0
 40
9.0
 10
279.1055120673172
 20
20.2549177176549
 42
1.0
 10
278.6550987719953
 20
20.40793364087759
 42
1.0
 10
278.4823339486704
 20
20.63637283524633
 42
1.0
 10
278.4822124879378
 20
21.11904779232805
 42
1.0
 10
278.4816605334703
 20
23.30086999117493
 42
1.0
 10
278.4819664915176
 20
25.48269219002111
 42
1.0
 10
278.4819649540404
 20
27.66451419668386
 42
1.0
 10
278.4819649540404
 20
27.75219577693941
 42
1.0
 10
278.4819664915176
 20
27.83987735719566
 42
1.0
 10
278.4819664915176
 20
27.88441039662488
 42
1.0
 72
     1
 10
278.4819664915176
 20
27.88441039662488
 11
276.9846800684063
 21
27.3296354262854
 72
     4
 94
        3
 73
     1
 74
     0
 95
       17
 96
       13
 40
1.0
 40
1.0
 40
1.0
 40
1.0
 40
2.0
 40
2.0
 40
2.0
 40
3.0
 40
3.0
 40
3.0
 40
4.0
 40
4.0
 40
4.0
 40
5.0
 40
5.0
 40
5.0
 40
5.0
 10
276.9846800684063
 20
27.3296354262854
 42
1.0
 10
277.5366914227135
 20
27.25167954511983
 42
1.0
 10
277.5738092075535
 20
27.20775573119973
 42
1.0
 10
277.5772915943764
 20
26.57154691311976
 42
1.0
 10
277.5773838430334
 20
26.55476419172763
 42
1.0
 10
277.577359243392
 20
26.53798031722657
 42
1.0
 10
277.577359243392
 20
26.52119721146337
 42
1.0
 10
277.5773700057348
 20
24.72538990447762
 42
1.0
 10
277.5776652014392
 20
22.92958298186009
 42
1.0
 10
277.5771993457187
 20
21.13377529050539
 42
1.0
 10
277.5770686601204
 20
20.6342380475635
 42
1.0
 10
277.4179566381115
 20
20.4199152040148
 42
1.0
 10
276.9460186560295
 20
20.2549177176549
 42
1.0
 97
        0
 75
     0
 76
     1
 98
        1
 10
0.0
 20
0.0
  0
HATCH
  5
78
330
1F
100
AcDbEntity
  8
0
  6
Continuous
 62
     7
100
AcDbHatch
 10
0.0
 20
0.0
 30
0.0
210
0.0
220
0.0
230
1.0
  2
SOLID
 70
     1
 71
     0
 91
        3
 92
        0
 93
        9
 72
     4
 94
        3
 73
     1
 74
     0
 95
       14
 96
       10
 40
0.0
 40
0.0
 40
0.0
 40
0.0
 40
1.0
 40
1.0
 40
1.0
 40
2.0
 40
2.0
 40
2.0
 40
3.0
 40
3.0
 40
3.0
 40
3.0
 10
287.0539854214827
 20
21.61211917311517
 42
1.0
 10
287.2972697310664
 20
21.3082559388604
 42
1.0
 10
287.5152010346028
 20
21.01001756649998
 42
1.0
 10
287.7601488949774
 20
20.73592220529573
 42
1.0
 10
288.1784811821614
 20
20.26780485511384
 42
1.0
 10
288.7048673968812
 20
20.09831485913089
 42
1.0
 10
289.3271645408483
 20
20.20870037148624
 42
1.0
 10
289.9739444785289
 20
20.32342848939635
 42
1.0
 10
290.7160910783766
 20
21.04182259740494
 42
1.0
 10
290.8103661314317
 20
21.70506046432864
 42
1.0
 72
     4
 94
        3
 73
     1
 74
     0
 95
       14
 96
       10
 40
24.0
 40
24.0
 40
24.0
 40
24.0
 40
25.0
 40
25.0
 40
25.0
 40
26.0
 40
26.0
 40
26.0
 40
27.0
 40
27.0
 40
27.0
 40
27.0
 10
290.8103661314317
 20
21.70506046432864
 42
1.0
 10
290.6825002672103
 20
21.49939669476813
 42
1.0
 10
290.5884281612034
 20
21.32571784099438
 42
1.0
 10
290.4735170834558
 20
21.16713932372221
 42
1.0
 10
289.9836367374808
 20
20.49110656799653
 42
1.0
 10
289.3841588364346
 20
20.43289382139212
 42
1.0
 10
288.8166481701822
 20
21.05011190802389
 42
1.0
 10
288.4270667146001
 20
21.47381844824843
 42
1.0
 10
288.0996055050067
 20
21.95463920731319
 42
1.0
 10
287.7314564875268
 20
22.4264857094768
 42
1.0
 72
     4
 94
        3
 73
     1
 74
     0
 95
       11
 96
        7
 40
22.0
 40
22.0
 40
22.0
 40
22.0
 40
23.0
 40
23.0
 40
23.0
 40
24.0
 40
24.0
 40
24.0
 40
24.0
 10
287.7314564875268
 20
22.4264857094768
 42
1.0
 10
288.1508588591387
 20
23.00030157147278
 42
1.0
 10
288.5466855488353
 20
23.55949371503118
 42
1.0
 10
288.9612633156569
 20
24.10441845059237
 42
1.0
 10
289.4290162836425
 20
24.71923384406366
 42
1.0
 10
289.9536528488242
 20
25.26443186627322
 42
1.0
 10
290.7742138825406
 20
25.39867403457779
 42
1.0
 72
     1
 10
290.7742138825406
 20
25.39867403457779
 11
287.7715077796773
 21
25.39867403457779
 72
     4
 94
        3
 73
     1
 74
     0
 95
       17
 96
       13
 40
16.0
 40
16.0
 40
16.0
 40
16.0
 40
17.0
 40
17.0
 40
17.0
 40
18.0
 40
18.0
 40
18.0
 40
19.0
 40
19.0
 40
19.0
 40
20.0
 40
20.0
 40
20.0
 40
20.0
 10
287.7715077796773
 20
25.39867403457779
 42
1.0
 10
287.9710693005408
 20
25.34310267453518
 42
1.0
 10
288.1718392788191
 20
25.32949945687163
 42
1.0
 10
288.3670435880915
 20
25.28904726743022
 42
1.0
 10
288.7601181928394
 20
25.20759054971102
 42
1.0
 10
288.9174636530569
 20
24.97387165717582
 42
1.0
 10
288.8543009972361
 20
24.57697987985169
 42
1.0
 10
288.8373887433532
 20
24.47070865762303
 42
1.0
 10
288.8131334963293
 20
24.35736772890119
 42
1.0
 10
288.7595985254019
 20
24.26650702928458
 42
1.0
 10
288.4211781752921
 20
23.692108847638
 42
1.0
 10
288.0735790837579
 20
23.12311989664797
 42
1.0
 10
287.7233847299918
 20
22.54303496963325
 42
1.0
 72
     1
 10
287.7233847299918
 20
22.54303496963325
 11
285.8065406500284
 21
24.86455968857224
 72
     4
 94
        3
 73
     1
 74
     0
 95
       20
 96
       16
 40
10.0
 40
10.0
 40
10.0
 40
10.0
 40
11.0
 40
11.0
 40
11.0
 40
12.0
 40
12.0
 40
12.0
 40
13.0
 40
13.0
 40
13.0
 40
14.0
 40
14.0
 40
14.0
 40
15.0
 40
15.0
 40
15.0
 40
15.0
 10
285.8065406500283
 20
24.86455968857225
 42
1.0
 10
285.9002991106001
 20
24.9215528310502
 42
1.0
 10
286.0025259979348
 20
24.975621306713
 42
1.0
 10
286.0959738880259
 20
25.04203380586477
 42
1.0
 10
286.361711520857
 20
25.23088333574105
 42
1.0
 10
286.6551698752792
 20
25.39378370261948
 42
1.0
 10
286.8815726805328
 20
25.62247811827483
 42
1.0
 10
287.5614237619422
 20
26.30921056516709
 42
1.0
 10
287.361321048954
 20
27.32558686332681
 42
1.0
 10
286.4793408590448
 20
27.71426216803416
 42
1.0
 10
285.840402057257
 20
27.99583274545401
 42
1.0
 10
285.1912113546599
 20
27.99239110178883
 42
1.0
 10
284.558084218296
 20
27.68711127408746
 42
1.0
 10
283.9109291360762
 20
27.37506654483262
 42
1.0
 10
283.6309452355653
 20
26.8393466878164
 42
1.0
 10
283.7149530130354
 20
26.1296866058298
 42
1.0
 72
     4
 94
        3
 73
     1
 74
     0
 95
       11
 96
        7
 40
8.0
 40
8.0
 40
8.0
 40
8.0
 40
9.0
 40
9.0
 40
9.0
 40
10.0
 40
10.0
 40
10.0
 40
10.0
 10
283.7149530130354
 20
26.1296866058298
 42
1.0
 10
283.7707819005811
 20
25.65802498535045
 42
1.0
 10
284.0198409761273
 20
25.28515591156022
 42
1.0
 10
284.3077767109179
 20
24.93075271279267
 42
1.0
 10
284.4323277733789
 20
24.77744812814591
 42
1.0
 10
284.5641388051866
 20
24.6300390014551
 42
1.0
 10
284.7027239634148
 20
24.46818604120849
 42
1.0
 72
     4
 94
        3
 73
     1
 74
     0
 95
       20
 96
       16
 40
3.0
 40
3.0
 40
3.0
 40
3.0
 40
4.0
 40
4.0
 40
4.0
 40
5.0
 40
5.0
 40
5.0
 40
6.0
 40
6.0
 40
6.0
 40
7.0
 40
7.0
 40
7.0
 40
8.0
 40
8.0
 40
8.0
 40
8.0
 10
284.7027239634148
 20
24.46818604120849
 42
1.0
 10
284.5513685160267
 20
24.38851087568819
 42
1.0
 10
284.4255536469583
 20
24.32317807019961
 42
1.0
 10
284.3005597909425
 20
24.25632085564481
 42
1.0
 10
283.8607304915963
 20
24.02105948868024
 42
1.0
 10
283.460866385652
 20
23.73663343094009
 42
1.0
 10
283.1417229300147
 20
23.34576433784628
 42
1.0
 10
282.3522343191156
 20
22.37884389028816
 42
1.0
 10
282.6109241545095
 20
20.5355588898502
 42
1.0
 10
284.198169930981
 20
20.23446388406056
 42
1.0
 10
285.1515567317372
 20
20.05360962220845
 42
1.0
 10
285.9488126796034
 20
20.36759637788916
 42
1.0
 10
286.5896302790503
 20
21.09003174583673
 42
1.0
 10
286.7443651022574
 20
21.26447318851251
 42
1.0
 10
286.8995550188436
 20
21.43851181205056
 42
1.0
 10
287.0539854214827
 20
21.61211917311517
 42
1.0
 97
        0
 92
        0
 93
        2
 72
     4
 94
        3
 73
     1
 74
     0
 95
       14
 96
       10
 40
0.0
 40
0.0
 40
0.0
 40
0.0
 40
1.0
 40
1.0
 40
1.0
 40
2.0
 40
2.0
 40
2.0
 40
3.0
 40
3.0
 40
3.0
 40
3.0
 10
284.688382372121
 20
27.15085253116304
 42
1.0
 10
284.8337724063213
 20
27.5710895609412
 42
1.0
 10
285.1818973152029
 20
27.79269159230804
 42
1.0
 10
285.6158934244382
 20
27.76810636414938
 42
1.0
 10
285.9916529561654
 20
27.74682017860581
 42
1.0
 10
286.2400293916459
 20
27.5110460628537
 42
1.0
 10
286.3549927436335
 20
27.06650131962916
 42
1.0
 10
286.5713650448558
 20
26.2298440482801
 42
1.0
 10
286.3259713159692
 20
25.4295804098103
 42
1.0
 10
285.6520579731507
 20
24.9254318870995
 42
1.0
 72
     4
 94
        3
 73
     1
 74
     0
 95
       11
 96
        7
 40
3.0
 40
3.0
 40
3.0
 40
3.0
 40
4.0
 40
4.0
 40
4.0
 40
5.0
 40
5.0
 40
5.0
 40
5.0
 10
285.6520579731507
 20
24.9254318870995
 42
1.0
 10
285.3510444536752
 20
25.31853032275095
 42
1.0
 10
285.0380140090768
 20
25.68714980838475
 42
1.0
 10
284.7721626029031
 20
26.08712768767229
 42
1.0
 10
284.5571094574822
 20
26.41068293535724
 42
1.0
 10
284.5630810205802
 20
26.788679112661
 42
1.0
 10
284.688382372121
 20
27.15085253116304
 42
1.0
 97
        0
 92
        0
 93
        2
 72
     1
 10
284.845288113738
 20
24.3712657578988
 11
287.0009947176327
 21
21.77781006188367
 72
     4
 94
        3
 73
     1
 74
     0
 95
       14
 96
       10
 40
1.0
 40
1.0
 40
1.0
 40
1.0
 40
2.0
 40
2.0
 40
2.0
 40
3.0
 40
3.0
 40
3.0
 40
4.0
 40
4.0
 40
4.0
 40
4.0
 10
287.0009947176327
 20
21.77781006188367
 42
1.0
 10
286.5509442670314
 20
21.22618922689351
 42
1.0
 10
286.0339581905155
 20
20.90925282038733
 42
1.0
 10
285.3603677179978
 20
20.87638462370451
 42
1.0
 10
284.4974276510072
 20
20.83427541775252
 42
1.0
 10
283.8665083325146
 20
21.39392726712143
 42
1.0
 10
283.7780264951535
 20
22.28619625730053
 42
1.0
 10
283.6988925217564
 20
23.08417174469389
 42
1.0
 10
284.1054815548355
 20
23.90423117633508
 42
1.0
 10
284.845288113738
 20
24.3712657578988
 42
1.0
 97
        0
 75
     0
 76
     1
 98
        1
 10
0.0
 20
0.0
  0
HATCH
  5
79
330
1F
100
AcDbEntity
  8
0
  6
Continuous
 62
     7
100
AcDbHatch
 10
0.0
 20
0.0
 30
0.0
210
0.0
220
0.0
230
1.0
  2
SOLID
 70
     1
 71
     0
 91
        1
 92
        0
 93
        2
 72
     4
 94
        3
 73
     1
 74
     0
 95
       11
 96
        7
 40
0.0
 40
0.0
 40
0.0
 40
0.0
 40
1.0
 40
1.0
 40
1.0
 40
2.0
 40
2.0
 40
2.0
 40
2.0
 10
303.0570519104932
 20
26.35430478392947
 42
1.0
 10
303.0628482011429
 20
25.96449808787493
 42
1.0
 10
303.3259905717408
 20
25.69768229885988
 42
1.0
 10
303.6993639381942
 20
25.70301926806731
 42
1.0
 10
304.0680572227529
 20
25.70828897263022
 42
1.0
 10
304.3293945946187
 20
25.98752450590587
 42
1.0
 10
304.327448147944
 20
26.37412133304796
 42
1.0
 72
     4
 94
        3
 73
     1
 74
     0
 95
       11
 96
        7
 40
2.0
 40
2.0
 40
2.0
 40
2.0
 40
3.0
 40
3.0
 40
3.0
 40
4.0
 40
4.0
 40
4.0
 40
4.0
 10
304.327448147944
 20
26.37412133304796
 42
1.0
 10
304.3255386007336
 20
26.75299425696746
 42
1.0
 10
304.0507636744179
 20
27.04560238626284
 42
1.0
 10
303.6924299141011
 20
27.05034857969325
 42
1.0
 10
303.3266947364936
 20
27.05519259513757
 42
1.0
 10
303.0511172468595
 20
26.75330175249256
 42
1.0
 10
303.0570519104932
 20
26.35430478392947
 42
1.0
 97
        0
 75
     0
 76
     1
 98
        1
 10
0.0
 20
0.0
  0
HATCH
  5
7A
330
1F
100
AcDbEntity
  8
0
  6
Continuous
 62
     7
100
AcDbHatch
 10
0.0
 20
0.0
 30
0.0
210
0.0
220
0.0
230
1.0
  2
SOLID
 70
     1
 71
     0
 91
        1
 92
        0
 93
        4
 72
     1
 10
302.6973344203136
 20
20.2539775500868
 11
304.8038079156778
 21
20.2539775500868
 72
     4
 94
        3
 73
     1
 74
     0
 95
       17
 96
       13
 40
6.0
 40
6.0
 40
6.0
 40
6.0
 40
7.0
 40
7.0
 40
7.0
 40
8.0
 40
8.0
 40
8.0
 40
9.0
 40
9.0
 40
9.0
 40
10.0
 40
10.0
 40
10.0
 40
10.0
 10
304.8038079156778
 20
20.2539775500868
 42
1.0
 10
304.4578262506061
 20
20.33981031349822
 42
1.0
 10
304.2621822227331
 20
20.55023795748124
 42
1.0
 10
304.2107535961514
 20
20.89393877449616
 42
1.0
 10
304.1922454404932
 20
21.01764883669525
 42
1.0
 10
304.1821011631179
 20
21.14380579453512
 42
1.0
 10
304.1818797663412
 20
21.26887114326077
 42
1.0
 10
304.1797703470369
 20
22.46084295323946
 42
1.0
 10
304.1808527312862
 20
23.65282014439031
 42
1.0
 10
304.1800932173391
 20
24.84479541369365
 42
1.0
 10
304.1800409430993
 20
24.93136078519359
 42
1.0
 10
304.1727133247369
 20
25.01792115989102
 42
1.0
 10
304.1706223551654
 20
25.06377258638473
 42
1.0
 72
     1
 10
304.1706223551654
 20
25.06377258638473
 11
302.7125031745686
 21
24.50968064047992
 72
     4
 94
        3
 73
     1
 74
     0
 95
       17
 96
       13
 40
1.0
 40
1.0
 40
1.0
 40
1.0
 40
2.0
 40
2.0
 40
2.0
 40
3.0
 40
3.0
 40
3.0
 40
4.0
 40
4.0
 40
4.0
 40
5.0
 40
5.0
 40
5.0
 40
5.0
 10
302.7125031745686
 20
24.50968064047994
 42
1.0
 10
302.7604109773859
 20
24.50557288463289
 42
1.0
 10
302.8224697242704
 20
24.49650561033552
 42
1.0
 10
302.8846514693661
 20
24.49557889569631
 42
1.0
 10
303.1332831261333
 20
24.4918735746181
 42
1.0
 10
303.2632153602819
 20
24.35030186610297
 42
1.0
 10
303.2668591822546
 20
24.11891186780057
 42
1.0
 10
303.2829750227277
 20
23.09531768874206
 42
1.0
 10
303.296603224403
 20
22.071496731734
 42
1.0
 10
303.2916556214044
 20
21.04785181591346
 42
1.0
 10
303.2897768237453
 20
20.65853557522151
 42
1.0
 10
303.1321361678242
 20
20.3494649042487
 42
1.0
 10
302.6973344203136
 20
20.2539775500868
 42
1.0
 97
        0
 75
     0
 76
     1
 98
        1
 10
0.0
 20
0.0
  0
HATCH
  5
7B
330
1F
100
AcDbEntity
  8
0
  6
Continuous
 62
     7
100
AcDbHatch
 10
0.0
 20
0.0
 30
0.0
210
0.0
220
0.0
230
1.0
  2
SOLID
 70
     1
 71
     0
 91
        1
 92
        0
 93
        4
 72
     1
 10
308.65963267846
 20
27.88697759989075
 11
307.1608133901539
 21
27.32540717062984
 72
     4
 94
        3
 73
     1
 74
     0
 95
       20
 96
       16
 40
5.0
 40
5.0
 40
5.0
 40
5.0
 40
6.0
 40
6.0
 40
6.0
 40
7.0
 40
7.0
 40
7.0
 40
8.0
 40
8.0
 40
8.0
 40
9.0
 40
9.0
 40
9.0
 40
10.0
 40
10.0
 40
10.0
 40
10.0
 10
307.1608133901539
 20
27.32540717062984
 42
1.0
 10
307.6774858212348
 20
27.28280885460759
 42
1.0
 10
307.7501131893193
 20
27.20350460556406
 42
1.0
 10
307.7547502218385
 20
26.63215658734291
 42
1.0
 10
307.7552944889174
 20
26.56503146731187
 42
1.0
 10
307.7550361926765
 20
26.49789904426262
 42
1.0
 10
307.7550361926765
 20
26.43077008053731
 42
1.0
 10
307.7550484924979
 20
24.69380511724257
 42
1.0
 10
307.7587445887104
 20
22.95682170421714
 42
1.0
 10
307.7500732149022
 20
21.21990094340409
 42
1.0
 10
307.7490584796685
 20
21.01681475508336
 42
1.0
 10
307.7285516030971
 20
20.78446498637255
 42
1.0
 10
307.6283941606454
 20
20.61954360515536
 42
1.0
 10
307.5293898264143
 20
20.45652254628292
 42
1.0
 10
307.3179589782804
 20
20.36177625633667
 42
1.0
 10
307.178408284104
 20
20.25443648715803
 42
1.0
 72
     1
 10
307.178408284104
 20
20.25443648715803
 11
309.3620693061908
 21
20.25443648715802
 72
     4
 94
        3
 73
     1
 74
     0
 95
       14
 96
       10
 40
1.0
 40
1.0
 40
1.0
 40
1.0
 40
2.0
 40
2.0
 40
2.0
 40
3.0
 40
3.0
 40
3.0
 40
4.0
 40
4.0
 40
4.0
 40
4.0
 10
309.3620693061908
 20
20.25443648715802
 42
1.0
 10
308.807415027844
 20
20.43200746554105
 42
1.0
 10
308.6597679764911
 20
20.6374237012035
 42
1.0
 10
308.6597187772069
 20
21.15880542625192
 42
1.0
 10
308.6595035303402
 20
23.32371921490944
 42
1.0
 10
308.65963267846
 20
25.48863300356693
 42
1.0
 10
308.65963267846
 20
27.65354698440997
 42
1.0
 10
308.65963267846
 20
27.74275854708867
 42
1.0
 10
308.65963267846
 20
27.83196991758182
 42
1.0
 10
308.65963267846
 20
27.88697759989075
 42
1.0
 97
        0
 75
     0
 76
     1
 98
        1
 10
0.0
 20
0.0
  0
HATCH
  5
7C
330
1F
100
AcDbEntity
  8
0
  6
Continuous
 62
     7
100
AcDbHatch
 10
0.0
 20
0.0
 30
0.0
210
0.0
220
0.0
230
1.0
  2
SOLID
 70
     1
 71
     0
 91
        1
 92
        0
 93
        4
 72
     1
 10
313.1781318226163
 20
27.87703492426926
 11
311.6691528821608
 21
27.32445797038016
 72
     4
 94
        3
 73
     1
 74
     0
 95
       17
 96
       13
 40
6.0
 40
6.0
 40
6.0
 40
6.0
 40
7.0
 40
7.0
 40
7.0
 40
8.0
 40
8.0
 40
8.0
 40
9.0
 40
9.0
 40
9.0
 40
10.0
 40
10.0
 40
10.0
 40
10.0
 10
311.6691528821608
 20
27.32445797038016
 42
1.0
 10
312.2096131670664
 20
27.27631108979181
 42
1.0
 10
312.2683694120104
 20
27.21300429544448
 42
1.0
 10
312.2823973578678
 20
26.60716642601487
 42
1.0
 10
312.2845313768121
 20
26.51487279724974
 42
1.0
 10
312.2871512386867
 20
26.42255802816857
 42
1.0
 10
312.2871819882395
 20
26.33025248395311
 42
1.0
 10
312.2877662297369
 20
24.60974045310045
 42
1.0
 10
312.2890700107628
 20
22.88922803787955
 42
1.0
 10
312.2876555313485
 20
21.16871754450475
 42
1.0
 10
312.2872188877024
 20
20.63608302071405
 42
1.0
 10
312.1185268426077
 20
20.41647125413319
 42
1.0
 10
311.6156486607861
 20
20.25320881127337
 42
1.0
 72
     1
 10
311.6156486607861
 20
20.25320881127337
 11
313.8867245107604
 21
20.25320881127337
 72
     4
 94
        3
 73
     1
 74
     0
 95
       17
 96
       13
 40
1.0
 40
1.0
 40
1.0
 40
1.0
 40
2.0
 40
2.0
 40
2.0
 40
3.0
 40
3.0
 40
3.0
 40
4.0
 40
4.0
 40
4.0
 40
5.0
 40
5.0
 40
5.0
 40
5.0
 10
313.8867245107604
 20
20.25320881127337
 42
1.0
 10
313.3266152617988
 20
20.4348325806782
 42
1.0
 10
313.1888880160859
 20
20.62648762285203
 42
1.0
 10
313.1786115156352
 20
21.17082388885262
 42
1.0
 10
313.1771847363981
 20
21.24633325874564
 42
1.0
 10
313.1781441224363
 20
21.32188875296783
 42
1.0
 10
313.1781441224363
 20
21.39742349124222
 42
1.0
 10
313.1781256727049
 20
23.48721689184593
 42
1.0
 10
313.1781318226163
 20
25.57700952371036
 42
1.0
 10
313.1781318226163
 20
27.66680273212925
 42
1.0
 10
313.1781318226163
 20
27.75161518695077
 42
1.0
 10
313.1781318226163
 20
27.83642744958889
 42
1.0
 10
313.1781318226163
 20
27.87703492426926
 42
1.0
 97
        0
 75
     0
 76
     1
 98
        1
 10
0.0
 20
0.0
  0
HATCH
  5
7D
330
1F
100
AcDbEntity
  8
0
  6
Continuous
 62
     7
100
AcDbHatch
 10
0.0
 20
0.0
 30
0.0
210
0.0
220
0.0
230
1.0
  2
SOLID
 70
     1
 71
     0
 91
        1
 92
        0
 93
       12
 72
     1
 10
296.2715297073844
 20
27.50458020069891
 11
293.841527870193
 21
27.50458020069891
 72
     4
 94
        3
 73
     1
 74
     0
 95
       17
 96
       13
 40
21.0
 40
21.0
 40
21.0
 40
21.0
 40
22.0
 40
22.0
 40
22.0
 40
23.0
 40
23.0
 40
23.0
 40
24.0
 40
24.0
 40
24.0
 40
25.0
 40
25.0
 40
25.0
 40
25.0
 10
293.841527870193
 20
27.50458020069891
 42
1.0
 10
294.4654639653083
 20
27.35271373418588
 42
1.0
 10
294.541848928711
 20
26.88863860486635
 42
1.0
 10
294.5396718603926
 20
26.35648992400541
 42
1.0
 10
294.5326947869268
 20
24.65236702027423
 42
1.0
 10
294.54232862173
 20
22.9481603240125
 42
1.0
 10
294.5304592944584
 20
21.24409084762873
 42
1.0
 10
294.52894334152
 20
21.02641399663968
 42
1.0
 10
294.4888489999954
 20
20.77588586122133
 42
1.0
 10
294.3739502220706
 20
20.60171040217499
 42
1.0
 10
294.2655211499942
 20
20.43733713173098
 42
1.0
 10
294.0348564567621
 20
20.35359533789035
 42
1.0
 10
293.8906841048422
 20
20.25643828302682
 42
1.0
 72
     1
 10
293.8906841048422
 20
20.25643828302682
 11
296.2880237673525
 21
20.25643828302682
 72
     4
 94
        3
 73
     1
 74
     0
 95
       14
 96
       10
 40
17.0
 40
17.0
 40
17.0
 40
17.0
 40
18.0
 40
18.0
 40
18.0
 40
19.0
 40
19.0
 40
19.0
 40
20.0
 40
20.0
 40
20.0
 40
20.0
 10
296.2880237673525
 20
20.25643828302682
 42
1.0
 10
295.7413366980624
 20
20.4024294709773
 42
1.0
 10
295.5628078711177
 20
20.63015527572819
 42
1.0
 10
295.5619960829322
 20
21.2138824872384
 42
1.0
 10
295.560827599936
 20
22.05336910178782
 42
1.0
 10
295.561359567195
 20
22.89285956003151
 42
1.0
 10
295.5621928800676
 20
23.73234771205876
 42
1.0
 10
295.5622759038603
 20
23.81306182808445
 42
1.0
 10
295.5696219719554
 20
23.89376787235267
 42
1.0
 10
295.5733857171835
 20
23.97022240661697
 42
1.0
 72
     1
 10
295.5733857171835
 20
23.97022240661697
 11
298.4851131190222
 21
23.97022240661697
 72
     4
 94
        3
 73
     1
 74
     0
 95
       11
 96
        7
 40
14.0
 40
14.0
 40
14.0
 40
14.0
 40
15.0
 40
15.0
 40
15.0
 40
16.0
 40
16.0
 40
16.0
 40
16.0
 10
298.4851131190222
 20
23.97022240661697
 42
1.0
 10
298.4851131190222
 20
23.04419117651474
 42
1.0
 10
298.4852207424561
 20
22.13796342697173
 42
1.0
 10
298.485073144605
 20
21.23173567742801
 42
1.0
 10
298.4849747460367
 20
20.62384393007452
 42
1.0
 10
298.3307257657572
 20
20.41986831094703
 42
1.0
 10
297.7632396991476
 20
20.25412130424438
 42
1.0
 72
     1
 10
297.7632396991476
 20
20.25412130424438
 11
300.2193725060648
 21
20.25412130424438
 72
     4
 94
        3
 73
     1
 74
     0
 95
       17
 96
       13
 40
9.0
 40
9.0
 40
9.0
 40
9.0
 40
10.0
 40
10.0
 40
10.0
 40
11.0
 40
11.0
 40
11.0
 40
12.0
 40
12.0
 40
12.0
 40
13.0
 40
13.0
 40
13.0
 40
13.0
 10
300.2193725060648
 20
20.25412130424438
 42
1.0
 10
299.739442715284
 20
20.41422423058344
 42
1.0
 10
299.5427163031618
 20
20.62720562490344
 42
1.0
 10
299.542119761843
 20
21.03839632851544
 42
1.0
 10
299.5393769017586
 20
22.92724217217554
 42
1.0
 10
299.5395583241182
 20
24.8160968563317
 42
1.0
 10
299.5421628112159
 20
26.70494346873036
 42
1.0
 10
299.5426363543262
 20
27.0468754177367
 42
1.0
 10
299.7248336028849
 20
27.28837413924314
 42
1.0
 10
300.049118383702
 20
27.40930924651266
 42
1.0
 10
300.1052670665942
 20
27.43024796211264
 42
1.0
 10
300.1600043450263
 20
27.45496618208605
 42
1.0
 10
300.2549312885929
 20
27.49433829349534
 42
1.0
 72
     1
 10
300.2549312885929
 20
27.49433829349534
 11
297.7186989723292
 21
27.49433829349534
 72
     4
 94
        3
 73
     1
 74
     0
 95
       14
 96
       10
 40
5.0
 40
5.0
 40
5.0
 40
5.0
 40
6.0
 40
6.0
 40
6.0
 40
7.0
 40
7.0
 40
7.0
 40
8.0
 40
8.0
 40
8.0
 40
8.0
 10
297.7186989723292
 20
27.49433829349534
 42
1.0
 10
298.3648823686909
 20
27.26685790861022
 42
1.0
 10
298.4850762195593
 20
27.0944786077999
 42
1.0
 10
298.4851069691121
 20
26.45733654080182
 42
1.0
 10
298.4851377186649
 20
25.7773505457302
 42
1.0
 10
298.4851131190222
 20
25.09736416629037
 42
1.0
 10
298.4851131190222
 20
24.41737817121947
 42
1.0
 10
298.4851131190222
 20
24.32893553953832
 42
1.0
 10
298.4851131190222
 20
24.24049329222682
 42
1.0
 10
298.4851131190222
 20
24.16049564077468
 42
1.0
 72
     1
 10
298.4851131190222
 20
24.16049564077468
 11
295.5632814142282
 21
24.16049564077468
 72
     4
 94
        3
 73
     1
 74
     0
 95
       14
 96
       10
 40
1.0
 40
1.0
 40
1.0
 40
1.0
 40
2.0
 40
2.0
 40
2.0
 40
3.0
 40
3.0
 40
3.0
 40
4.0
 40
4.0
 40
4.0
 40
4.0
 10
295.5632814142282
 20
24.16049564077468
 42
1.0
 10
295.5632814142282
 20
25.01272602299438
 42
1.0
 10
295.5627432970579
 20
25.84365465270932
 42
1.0
 10
295.5644406723573
 20
26.67457866999212
 42
1.0
 10
295.5645605956114
 20
26.73240397223375
 42
1.0
 10
295.5792681065788
 20
26.79059327230427
 42
1.0
 10
295.5906023916358
 20
26.8479388815276
 42
1.0
 10
295.6648994604227
 20
27.22384581892186
 42
1.0
 10
295.9411319155254
 20
27.38780204855992
 42
1.0
 10
296.2715297073844
 20
27.50458020069891
 42
1.0
 97
        0
 75
     0
 76
     1
 98
        1
 10
0.0
 20
0.0
  0
SPLINE
  5
7E
330
1F
100
AcDbEntity
  8
0
  6
Continuous
 62
   179
370
     0
100
AcDbSpline
210
0.0
220
0.0
230
1.0
 70
     8
 71
     3
 72
    14
 73
    10
 74
     0
 42
0.000000001
 43
0.00000001
 40
24.0
 40
24.0
 40
24.0
 40
24.0
 40
25.0
 40
25.0
 40
25.0
 40
26.0
 40
26.0
 40
26.0
 40
27.0
 40
27.0
 40
27.0
 40
27.0
 10
287.7314564875268
 20
22.4264857094768
 30
0.0
 10
288.0996055050067
 20
21.95463920731319
 30
0.0
 10
288.4270667146001
 20
21.47381844824843
 30
0.0
 10
288.8166481701822
 20
21.05011190802389
 30
0.0
 10
289.3841588364346
 20
20.43289382139212
 30
0.0
 10
289.9836367374808
 20
20.49110656799653
 30
0.0
 10
290.4735170834558
 20
21.16713932372221
 30
0.0
 10
290.5884281612034
 20
21.32571784099438
 30
0.0
 10
290.6825002672103
 20
21.49939669476813
 30
0.0
 10
290.8103661314317
 20
21.70506046432864
 30
0.0
  0
SPLINE
  5
7F
330
1F
100
AcDbEntity
  8
0
  6
Continuous
 62
   179
370
     0
100
AcDbSpline
210
0.0
220
0.0
230
1.0
 70
     8
 71
     3
 72
    11
 73
     7
 74
     0
 42
0.000000001
 43
0.00000001
 40
22.0
 40
22.0
 40
22.0
 40
22.0
 40
23.0
 40
23.0
 40
23.0
 40
24.0
 40
24.0
 40
24.0
 40
24.0
 10
290.7742138825406
 20
25.39867403457779
 30
0.0
 10
289.9536528488242
 20
25.26443186627322
 30
0.0
 10
289.4290162836425
 20
24.71923384406366
 30
0.0
 10
288.9612633156569
 20
24.10441845059237
 30
0.0
 10
288.5466855488353
 20
23.55949371503118
 30
0.0
 10
288.1508588591387
 20
23.00030157147278
 30
0.0
 10
287.7314564875268
 20
22.4264857094768
 30
0.0
  0
SPLINE
  5
80
330
1F
100
AcDbEntity
  8
0
  6
Continuous
 62
   179
370
     0
100
AcDbSpline
210
0.0
220
0.0
230
1.0
 70
     8
 71
     3
 72
    11
 73
     7
 74
     0
 42
0.000000001
 43
0.00000001
 40
20.0
 40
20.0
 40
20.0
 40
20.0
 40
21.0
 40
21.0
 40
21.0
 40
22.0
 40
22.0
 40
22.0
 40
22.0
 10
287.7715077796773
 20
25.39867403457779
 30
0.0
 10
288.2706160663608
 20
25.39867403457779
 30
0.0
 10
288.76972127809
 20
25.39867441894744
 30
0.0
 10
289.2688295647749
 20
25.39867441894744
 30
0.0
 10
289.7706253623487
 20
25.39867441894744
 30
0.0
 10
290.2724180849667
 20
25.39867403457779
 30
0.0
 10
290.7742138825406
 20
25.39867403457779
 30
0.0
  0
SPLINE
  5
81
330
1F
100
AcDbEntity
  8
0
  6
Continuous
 62
   179
370
     0
100
AcDbSpline
210
0.0
220
0.0
230
1.0
 70
     8
 71
     3
 72
    17
 73
    13
 74
     0
 42
0.000000001
 43
0.00000001
 40
16.0
 40
16.0
 40
16.0
 40
16.0
 40
17.0
 40
17.0
 40
17.0
 40
18.0
 40
18.0
 40
18.0
 40
19.0
 40
19.0
 40
19.0
 40
20.0
 40
20.0
 40
20.0
 40
20.0
 10
287.7233847299918
 20
22.54303496963325
 30
0.0
 10
288.0735790837579
 20
23.12311989664797
 30
0.0
 10
288.4211781752921
 20
23.692108847638
 30
0.0
 10
288.7595985254018
 20
24.26650702928458
 30
0.0
 10
288.8131334963293
 20
24.35736772890119
 30
0.0
 10
288.8373887433532
 20
24.47070865762303
 30
0.0
 10
288.8543009972361
 20
24.57697987985169
 30
0.0
 10
288.9174636530569
 20
24.97387165717582
 30
0.0
 10
288.7601181928394
 20
25.20759054971102
 30
0.0
 10
288.3670435880915
 20
25.28904726743022
 30
0.0
 10
288.1718392788191
 20
25.32949945687163
 30
0.0
 10
287.9710693005408
 20
25.34310267453518
 30
0.0
 10
287.7715077796773
 20
25.39867403457779
 30
0.0
  0
SPLINE
  5
82
330
1F
100
AcDbEntity
  8
0
  6
Continuous
 62
   179
370
     0
100
AcDbSpline
210
0.0
220
0.0
230
1.0
 70
     8
 71
     3
 72
     8
 73
     4
 74
     0
 42
0.000000001
 43
0.00000001
 40
15.0
 40
15.0
 40
15.0
 40
15.0
 40
16.0
 40
16.0
 40
16.0
 40
16.0
 10
285.8065406500282
 20
24.86455968857225
 30
0.0
 10
286.4380688096612
 20
24.09970377545334
 30
0.0
 10
287.0596648638312
 20
23.34687900912474
 30
0.0
 10
287.7233847299918
 20
22.54303496963325
 30
0.0
  0
SPLINE
  5
83
330
1F
100
AcDbEntity
  8
0
  6
Continuous
 62
   179
370
     0
100
AcDbSpline
210
0.0
220
0.0
230
1.0
 70
     8
 71
     3
 72
    26
 73
    22
 74
     0
 42
0.000000001
 43
0.00000001
 40
8.0
 40
8.0
 40
8.0
 40
8.0
 40
9.0
 40
9.0
 40
9.0
 40
10.0
 40
10.0
 40
10.0
 40
11.0
 40
11.0
 40
11.0
 40
12.0
 40
12.0
 40
12.0
 40
13.0
 40
13.0
 40
13.0
 40
14.0
 40
14.0
 40
14.0
 40
15.0
 40
15.0
 40
15.0
 40
15.0
 10
284.7027239634148
 20
24.46818604120849
 30
0.0
 10
284.5641388051866
 20
24.6300390014551
 30
0.0
 10
284.4323277733789
 20
24.77744812814591
 30
0.0
 10
284.3077767109179
 20
24.93075271279267
 30
0.0
 10
284.0198409761273
 20
25.28515591156022
 30
0.0
 10
283.7707819005811
 20
25.65802498535045
 30
0.0
 10
283.7149530130354
 20
26.1296866058298
 30
0.0
 10
283.6309452355653
 20
26.8393466878164
 30
0.0
 10
283.9109291360762
 20
27.37506654483262
 30
0.0
 10
284.558084218296
 20
27.68711127408746
 30
0.0
 10
285.1912113546599
 20
27.99239110178883
 30
0.0
 10
285.840402057257
 20
27.99583274545401
 30
0.0
 10
286.4793408590448
 20
27.71426216803416
 30
0.0
 10
287.361321048954
 20
27.32558686332681
 30
0.0
 10
287.5614237619422
 20
26.30921056516709
 30
0.0
 10
286.8815726805328
 20
25.62247811827483
 30
0.0
 10
286.6551698752792
 20
25.39378370261948
 30
0.0
 10
286.361711520857
 20
25.23088333574105
 30
0.0
 10
286.0959738880259
 20
25.04203380586477
 30
0.0
 10
286.0025259979348
 20
24.975621306713
 30
0.0
 10
285.9002991106001
 20
24.9215528310502
 30
0.0
 10
285.8065406500282
 20
24.86455968857225
 30
0.0
  0
SPLINE
  5
84
330
1F
100
AcDbEntity
  8
0
  6
Continuous
 62
   179
370
     0
100
AcDbSpline
210
0.0
220
0.0
230
1.0
 70
     8
 71
     3
 72
    20
 73
    16
 74
     0
 42
0.000000001
 43
0.00000001
 40
3.0
 40
3.0
 40
3.0
 40
3.0
 40
4.0
 40
4.0
 40
4.0
 40
5.0
 40
5.0
 40
5.0
 40
6.0
 40
6.0
 40
6.0
 40
7.0
 40
7.0
 40
7.0
 40
8.0
 40
8.0
 40
8.0
 40
8.0
 10
287.0539854214827
 20
21.61211917311517
 30
0.0
 10
286.8995550188436
 20
21.43851181205056
 30
0.0
 10
286.7443651022574
 20
21.26447318851251
 30
0.0
 10
286.5896302790503
 20
21.09003174583673
 30
0.0
 10
285.9488126796034
 20
20.36759637788916
 30
0.0
 10
285.1515567317372
 20
20.05360962220845
 30
0.0
 10
284.198169930981
 20
20.23446388406056
 30
0.0
 10
282.6109241545095
 20
20.5355588898502
 30
0.0
 10
282.3522343191156
 20
22.37884389028816
 30
0.0
 10
283.1417229300146
 20
23.34576433784628
 30
0.0
 10
283.460866385652
 20
23.73663343094009
 30
0.0
 10
283.8607304915963
 20
24.02105948868024
 30
0.0
 10
284.3005597909425
 20
24.25632085564481
 30
0.0
 10
284.4255536469583
 20
24.32317807019961
 30
0.0
 10
284.5513685160267
 20
24.38851087568819
 30
0.0
 10
284.7027239634148
 20
24.46818604120849
 30
0.0
  0
SPLINE
  5
85
330
1F
100
AcDbEntity
  8
0
  6
Continuous
 62
   179
370
     0
100
AcDbSpline
210
0.0
220
0.0
230
1.0
 70
     8
 71
     3
 72
    14
 73
    10
 74
     0
 42
0.000000001
 43
0.00000001
 40
0.0
 40
0.0
 40
0.0
 40
0.0
 40
1.0
 40
1.0
 40
1.0
 40
2.0
 40
2.0
 40
2.0
 40
3.0
 40
3.0
 40
3.0
 40
3.0
 10
290.8103661314317
 20
21.70506046432864
 30
0.0
 10
290.7160910783766
 20
21.04182259740494
 30
0.0
 10
289.9739444785289
 20
20.32342848939635
 30
0.0
 10
289.3271645408483
 20
20.20870037148624
 30
0.0
 10
288.7048673968812
 20
20.09831485913089
 30
0.0
 10
288.1784811821614
 20
20.26780485511384
 30
0.0
 10
287.7601488949774
 20
20.73592220529573
 30
0.0
 10
287.5152010346028
 20
21.01001756649998
 30
0.0
 10
287.2972697310664
 20
21.3082559388604
 30
0.0
 10
287.0539854214827
 20
21.61211917311517
 30
0.0
  0
SPLINE
  5
86
330
1F
100
AcDbEntity
  8
0
  6
Continuous
 62
   179
370
     0
100
AcDbSpline
210
0.0
220
0.0
230
1.0
 70
     8
 71
     3
 72
    14
 73
    10
 74
     0
 42
0.000000001
 43
0.00000001
 40
1.0
 40
1.0
 40
1.0
 40
1.0
 40
2.0
 40
2.0
 40
2.0
 40
3.0
 40
3.0
 40
3.0
 40
4.0
 40
4.0
 40
4.0
 40
4.0
 10
284.845288113738
 20
24.3712657578988
 30
0.0
 10
284.1054815548355
 20
23.90423117633508
 30
0.0
 10
283.6988925217564
 20
23.08417174469389
 30
0.0
 10
283.7780264951535
 20
22.28619625730053
 30
0.0
 10
283.8665083325146
 20
21.39392726712143
 30
0.0
 10
284.4974276510072
 20
20.83427541775252
 30
0.0
 10
285.3603677179978
 20
20.87638462370451
 30
0.0
 10
286.0339581905155
 20
20.90925282038733
 30
0.0
 10
286.5509442670314
 20
21.22618922689351
 30
0.0
 10
287.0009947176327
 20
21.77781006188367
 30
0.0
  0
SPLINE
  5
87
330
1F
100
AcDbEntity
  8
0
  6
Continuous
 62
   179
370
     0
100
AcDbSpline
210
0.0
220
0.0
230
1.0
 70
     8
 71
     3
 72
     8
 73
     4
 74
     0
 42
0.000000001
 43
0.00000001
 40
0.0
 40
0.0
 40
0.0
 40
0.0
 40
1.0
 40
1.0
 40
1.0
 40
1.0
 10
287.0009947176327
 20
21.77781006188367
 30
0.0
 10
286.2819902310067
 20
22.64282111123716
 30
0.0
 10
285.5612360948443
 20
23.50993158628786
 30
0.0
 10
284.845288113738
 20
24.3712657578988
 30
0.0
  0
SPLINE
  5
88
330
1F
100
AcDbEntity
  8
0
  6
Continuous
 62
   179
370
     0
100
AcDbSpline
210
0.0
220
0.0
230
1.0
 70
     8
 71
     3
 72
    11
 73
     7
 74
     0
 42
0.000000001
 43
0.00000001
 40
3.0
 40
3.0
 40
3.0
 40
3.0
 40
4.0
 40
4.0
 40
4.0
 40
5.0
 40
5.0
 40
5.0
 40
5.0
 10
284.688382372121
 20
27.15085253116304
 30
0.0
 10
284.5630810205802
 20
26.788679112661
 30
0.0
 10
284.5571094574822
 20
26.41068293535724
 30
0.0
 10
284.7721626029031
 20
26.08712768767229
 30
0.0
 10
285.0380140090768
 20
25.68714980838475
 30
0.0
 10
285.3510444536752
 20
25.31853032275095
 30
0.0
 10
285.6520579731507
 20
24.9254318870995
 30
0.0
  0
SPLINE
  5
89
330
1F
100
AcDbEntity
  8
0
  6
Continuous
 62
   179
370
     0
100
AcDbSpline
210
0.0
220
0.0
230
1.0
 70
     8
 71
     3
 72
    14
 73
    10
 74
     0
 42
0.000000001
 43
0.00000001
 40
0.0
 40
0.0
 40
0.0
 40
0.0
 40
1.0
 40
1.0
 40
1.0
 40
2.0
 40
2.0
 40
2.0
 40
3.0
 40
3.0
 40
3.0
 40
3.0
 10
285.6520579731507
 20
24.9254318870995
 30
0.0
 10
286.3259713159692
 20
25.4295804098103
 30
0.0
 10
286.5713650448558
 20
26.2298440482801
 30
0.0
 10
286.3549927436335
 20
27.06650131962916
 30
0.0
 10
286.2400293916459
 20
27.5110460628537
 30
0.0
 10
285.9916529561654
 20
27.74682017860581
 30
0.0
 10
285.6158934244382
 20
27.76810636414938
 30
0.0
 10
285.1818973152029
 20
27.79269159230804
 30
0.0
 10
284.8337724063213
 20
27.5710895609412
 30
0.0
 10
284.688382372121
 20
27.15085253116304
 30
0.0
  0
SPLINE
  5
8A
330
1F
100
AcDbEntity
  8
0
  6
Continuous
 62
   179
370
     0
100
AcDbSpline
210
0.0
220
0.0
230
1.0
 70
     8
 71
     3
 72
    17
 73
    13
 74
     0
 42
0.000000001
 43
0.00000001
 40
21.0
 40
21.0
 40
21.0
 40
21.0
 40
22.0
 40
22.0
 40
22.0
 40
23.0
 40
23.0
 40
23.0
 40
24.0
 40
24.0
 40
24.0
 40
25.0
 40
25.0
 40
25.0
 40
25.0
 10
293.8906841048422
 20
20.25643828302682
 30
0.0
 10
294.0348564567621
 20
20.35359533789035
 30
0.0
 10
294.2655211499942
 20
20.43733713173098
 30
0.0
 10
294.3739502220706
 20
20.60171040217499
 30
0.0
 10
294.4888489999954
 20
20.77588586122133
 30
0.0
 10
294.52894334152
 20
21.02641399663968
 30
0.0
 10
294.5304592944584
 20
21.24409084762873
 30
0.0
 10
294.54232862173
 20
22.9481603240125
 30
0.0
 10
294.5326947869268
 20
24.65236702027423
 30
0.0
 10
294.5396718603926
 20
26.35648992400541
 30
0.0
 10
294.541848928711
 20
26.88863860486635
 30
0.0
 10
294.4654639653083
 20
27.35271373418588
 30
0.0
 10
293.841527870193
 20
27.50458020069891
 30
0.0
  0
SPLINE
  5
8B
330
1F
100
AcDbEntity
  8
0
  6
Continuous
 62
   179
370
     0
100
AcDbSpline
210
0.0
220
0.0
230
1.0
 70
    24
 71
     3
 72
     8
 73
     4
 74
     0
 42
0.000000001
 43
0.00000001
 40
20.0
 40
20.0
 40
20.0
 40
20.0
 40
21.0
 40
21.0
 40
21.0
 40
21.0
 10
296.2880237673525
 20
20.25643828302682
 30
0.0
 10
295.4693261565182
 20
20.25643828302682
 30
0.0
 10
294.6506254707311
 20
20.25643828302682
 30
0.0
 10
293.8906841048422
 20
20.25643828302682
 30
0.0
  0
SPLINE
  5
8C
330
1F
100
AcDbEntity
  8
0
  6
Continuous
 62
   179
370
     0
100
AcDbSpline
210
0.0
220
0.0
230
1.0
 70
     8
 71
     3
 72
    14
 73
    10
 74
     0
 42
0.000000001
 43
0.00000001
 40
17.0
 40
17.0
 40
17.0
 40
17.0
 40
18.0
 40
18.0
 40
18.0
 40
19.0
 40
19.0
 40
19.0
 40
20.0
 40
20.0
 40
20.0
 40
20.0
 10
295.5733857171835
 20
23.97022240661697
 30
0.0
 10
295.5696219719554
 20
23.89376787235267
 30
0.0
 10
295.5622759038603
 20
23.81306182808445
 30
0.0
 10
295.5621928800676
 20
23.73234771205876
 30
0.0
 10
295.561359567195
 20
22.89285956003151
 30
0.0
 10
295.560827599936
 20
22.05336910178782
 30
0.0
 10
295.5619960829322
 20
21.2138824872384
 30
0.0
 10
295.5628078711177
 20
20.63015527572819
 30
0.0
 10
295.7413366980624
 20
20.4024294709773
 30
0.0
 10
296.2880237673525
 20
20.25643828302682
 30
0.0
  0
SPLINE
  5
8D
330
1F
100
AcDbEntity
  8
0
  6
Continuous
 62
   179
370
     0
100
AcDbSpline
210
0.0
220
0.0
230
1.0
 70
    24
 71
     3
 72
     8
 73
     4
 74
     0
 42
0.000000001
 43
0.00000001
 40
16.0
 40
16.0
 40
16.0
 40
16.0
 40
17.0
 40
17.0
 40
17.0
 40
17.0
 10
298.4851131190222
 20
23.97022240661697
 30
0.0
 10
297.5154382802974
 20
23.97022240661697
 30
0.0
 10
296.5557754958724
 20
23.97022240661697
 30
0.0
 10
295.5733857171835
 20
23.97022240661697
 30
0.0
  0
SPLINE
  5
8E
330
1F
100
AcDbEntity
  8
0
  6
Continuous
 62
   179
370
     0
100
AcDbSpline
210
0.0
220
0.0
230
1.0
 70
     8
 71
     3
 72
    11
 73
     7
 74
     0
 42
0.000000001
 43
0.00000001
 40
14.0
 40
14.0
 40
14.0
 40
14.0
 40
15.0
 40
15.0
 40
15.0
 40
16.0
 40
16.0
 40
16.0
 40
16.0
 10
297.7632396991476
 20
20.25412130424438
 30
0.0
 10
298.3307257657572
 20
20.41986831094703
 30
0.0
 10
298.4849747460367
 20
20.62384393007452
 30
0.0
 10
298.4850731446049
 20
21.23173567742801
 30
0.0
 10
298.4852207424561
 20
22.13796342697173
 30
0.0
 10
298.4851131190222
 20
23.04419117651474
 30
0.0
 10
298.4851131190222
 20
23.97022240661697
 30
0.0
  0
SPLINE
  5
8F
330
1F
100
AcDbEntity
  8
0
  6
Continuous
 62
   179
370
     0
100
AcDbSpline
210
0.0
220
0.0
230
1.0
 70
    24
 71
     3
 72
     8
 73
     4
 74
     0
 42
0.000000001
 43
0.00000001
 40
13.0
 40
13.0
 40
13.0
 40
13.0
 40
14.0
 40
14.0
 40
14.0
 40
14.0
 10
300.2193725060648
 20
20.25412130424438
 30
0.0
 10
299.4006625954106
 20
20.25412130424438
 30
0.0
 10
298.5819526847563
 20
20.25412130424438
 30
0.0
 10
297.7632396991476
 20
20.25412130424438
 30
0.0
  0
SPLINE
  5
90
330
1F
100
AcDbEntity
  8
0
  6
Continuous
 62
   179
370
     0
100
AcDbSpline
210
0.0
220
0.0
230
1.0
 70
     8
 71
     3
 72
    17
 73
    13
 74
     0
 42
0.000000001
 43
0.00000001
 40
9.0
 40
9.0
 40
9.0
 40
9.0
 40
10.0
 40
10.0
 40
10.0
 40
11.0
 40
11.0
 40
11.0
 40
12.0
 40
12.0
 40
12.0
 40
13.0
 40
13.0
 40
13.0
 40
13.0
 10
300.2549312885929
 20
27.49433829349534
 30
0.0
 10
300.1600043450263
 20
27.45496618208605
 30
0.0
 10
300.1052670665942
 20
27.43024796211264
 30
0.0
 10
300.0491183837019
 20
27.40930924651266
 30
0.0
 10
299.7248336028849
 20
27.28837413924314
 30
0.0
 10
299.5426363543262
 20
27.0468754177367
 30
0.0
 10
299.5421628112159
 20
26.70494346873036
 30
0.0
 10
299.5395583241182
 20
24.8160968563317
 30
0.0
 10
299.5393769017586
 20
22.92724217217554
 30
0.0
 10
299.542119761843
 20
21.03839632851544
 30
0.0
 10
299.5427163031618
 20
20.62720562490344
 30
0.0
 10
299.739442715284
 20
20.41422423058344
 30
0.0
 10
300.2193725060648
 20
20.25412130424438
 30
0.0
  0
SPLINE
  5
91
330
1F
100
AcDbEntity
  8
0
  6
Continuous
 62
   179
370
     0
100
AcDbSpline
210
0.0
220
0.0
230
1.0
 70
    24
 71
     3
 72
     8
 73
     4
 74
     0
 42
0.000000001
 43
0.00000001
 40
8.0
 40
8.0
 40
8.0
 40
8.0
 40
9.0
 40
9.0
 40
9.0
 40
9.0
 10
297.7186989723292
 20
27.49433829349534
 30
0.0
 10
298.5854396840106
 20
27.49433829349534
 30
0.0
 10
299.3949493285535
 20
27.49433829349534
 30
0.0
 10
300.2549312885929
 20
27.49433829349534
 30
0.0
  0
SPLINE
  5
92
330
1F
100
AcDbEntity
  8
0
  6
Continuous
 62
   179
370
     0
100
AcDbSpline
210
0.0
220
0.0
230
1.0
 70
     8
 71
     3
 72
    14
 73
    10
 74
     0
 42
0.000000001
 43
0.00000001
 40
5.0
 40
5.0
 40
5.0
 40
5.0
 40
6.0
 40
6.0
 40
6.0
 40
7.0
 40
7.0
 40
7.0
 40
8.0
 40
8.0
 40
8.0
 40
8.0
 10
298.4851131190222
 20
24.16049564077468
 30
0.0
 10
298.4851131190222
 20
24.24049329222682
 30
0.0
 10
298.4851131190222
 20
24.32893553953832
 30
0.0
 10
298.4851131190222
 20
24.41737817121947
 30
0.0
 10
298.4851131190222
 20
25.09736416629037
 30
0.0
 10
298.4851377186649
 20
25.7773505457302
 30
0.0
 10
298.4851069691121
 20
26.45733654080182
 30
0.0
 10
298.4850762195593
 20
27.0944786077999
 30
0.0
 10
298.3648823686909
 20
27.26685790861022
 30
0.0
 10
297.7186989723292
 20
27.49433829349534
 30
0.0
  0
SPLINE
  5
93
330
1F
100
AcDbEntity
  8
0
  6
Continuous
 62
   179
370
     0
100
AcDbSpline
210
0.0
220
0.0
230
1.0
 70
    24
 71
     3
 72
     8
 73
     4
 74
     0
 42
0.000000001
 43
0.00000001
 40
4.0
 40
4.0
 40
4.0
 40
4.0
 40
5.0
 40
5.0
 40
5.0
 40
5.0
 10
295.5632814142282
 20
24.16049564077468
 30
0.0
 10
296.5292663066504
 20
24.16049564077468
 30
0.0
 10
297.4889290910767
 20
24.16049564077468
 30
0.0
 10
298.4851131190222
 20
24.16049564077468
 30
0.0
  0
SPLINE
  5
94
330
1F
100
AcDbEntity
  8
0
  6
Continuous
 62
   179
370
     0
100
AcDbSpline
210
0.0
220
0.0
230
1.0
 70
     8
 71
     3
 72
    14
 73
    10
 74
     0
 42
0.000000001
 43
0.00000001
 40
1.0
 40
1.0
 40
1.0
 40
1.0
 40
2.0
 40
2.0
 40
2.0
 40
3.0
 40
3.0
 40
3.0
 40
4.0
 40
4.0
 40
4.0
 40
4.0
 10
296.2715297073844
 20
27.50458020069891
 30
0.0
 10
295.9411319155254
 20
27.38780204855992
 30
0.0
 10
295.6648994604227
 20
27.22384581892186
 30
0.0
 10
295.5906023916358
 20
26.8479388815276
 30
0.0
 10
295.5792681065788
 20
26.79059327230427
 30
0.0
 10
295.5645605956114
 20
26.73240397223375
 30
0.0
 10
295.5644406723573
 20
26.67457866999212
 30
0.0
 10
295.5627432970579
 20
25.84365465270932
 30
0.0
 10
295.5632814142282
 20
25.01272602299438
 30
0.0
 10
295.5632814142282
 20
24.16049564077468
 30
0.0
  0
SPLINE
  5
95
330
1F
100
AcDbEntity
  8
0
  6
Continuous
 62
   179
370
     0
100
AcDbSpline
210
0.0
220
0.0
230
1.0
 70
    24
 71
     3
 72
     8
 73
     4
 74
     0
 42
0.000000001
 43
0.00000001
 40
0.0
 40
0.0
 40
0.0
 40
0.0
 40
1.0
 40
1.0
 40
1.0
 40
1.0
 10
293.841527870193
 20
27.50458020069891
 30
0.0
 10
294.6515264326192
 20
27.50458020069891
 30
0.0
 10
295.4615280700011
 20
27.50458020069891
 30
0.0
 10
296.2715297073844
 20
27.50458020069891
 30
0.0
  0
SPLINE
  5
96
330
1F
100
AcDbEntity
  8
0
  6
Continuous
 62
   179
370
     0
100
AcDbSpline
210
0.0
220
0.0
230
1.0
 70
     8
 71
     3
 72
    14
 73
    10
 74
     0
 42
0.000000001
 43
0.00000001
 40
17.0
 40
17.0
 40
17.0
 40
17.0
 40
18.0
 40
18.0
 40
18.0
 40
19.0
 40
19.0
 40
19.0
 40
20.0
 40
20.0
 40
20.0
 40
20.0
 10
257.7053577757453
 20
20.25910042553502
 30
0.0
 10
258.2139995287706
 20
20.39587059142628
 30
0.0
 10
258.4104423723632
 20
20.62446660851326
 30
0.0
 10
258.4124688639662
 20
21.16843695483816
 30
0.0
 10
258.4191609275175
 20
22.96470127704905
 30
0.0
 10
258.4149081683119
 20
24.76100595804667
 30
0.0
 10
258.4151320634913
 20
26.55729487989966
 30
0.0
 10
258.4151924094879
 20
27.04153921726714
 30
0.0
 10
258.2057453879524
 20
27.36893835120056
 30
0.0
 10
257.7192638284546
 20
27.51463645747964
 30
0.0
  0
SPLINE
  5
97
330
1F
100
AcDbEntity
  8
0
  6
Continuous
 62
   179
370
     0
100
AcDbSpline
210
0.0
220
0.0
230
1.0
 70
    24
 71
     3
 72
     8
 73
     4
 74
     0
 42
0.000000001
 43
0.00000001
 40
16.0
 40
16.0
 40
16.0
 40
16.0
 40
17.0
 40
17.0
 40
17.0
 40
17.0
 10
260.1134120717832
 20
20.25910042553502
 30
0.0
 10
259.3107272904223
 20
20.25910042553502
 30
0.0
 10
258.5080426051526
 20
20.25910042553502
 30
0.0
 10
257.7053577757453
 20
20.25910042553502
 30
0.0
  0
SPLINE
  5
98
330
1F
100
AcDbEntity
  8
0
  6
Continuous
 62
   179
370
     0
100
AcDbSpline
210
0.0
220
0.0
230
1.0
 70
     8
 71
     3
 72
    14
 73
    10
 74
     0
 42
0.000000001
 43
0.00000001
 40
13.0
 40
13.0
 40
13.0
 40
13.0
 40
14.0
 40
14.0
 40
14.0
 40
15.0
 40
15.0
 40
15.0
 40
16.0
 40
16.0
 40
16.0
 40
16.0
 10
259.4607286043899
 20
23.57138302951071
 30
0.0
 10
259.4539911852495
 20
23.51939476107442
 30
0.0
 10
259.4406539512153
 20
23.46398560492077
 30
0.0
 10
259.4405559370167
 20
23.40855338660287
 30
0.0
 10
259.4392191002215
 20
22.65310606781492
 30
0.0
 10
259.4366701545022
 20
21.89763799307775
 30
0.0
 10
259.4408326829897
 20
21.14221143023692
 30
0.0
 10
259.4435911100346
 20
20.64162793377141
 30
0.0
 10
259.6377614656041
 20
20.40079128856704
 30
0.0
 10
260.1134120717832
 20
20.25910042553502
 30
0.0
  0
SPLINE
  5
99
330
1F
100
AcDbEntity
  8
0
  6
Continuous
 62
   179
370
     0
100
AcDbSpline
210
0.0
220
0.0
230
1.0
 70
     8
 71
     3
 72
    20
 73
    16
 74
     0
 42
0.000000001
 43
0.00000001
 40
8.0
 40
8.0
 40
8.0
 40
8.0
 40
9.0
 40
9.0
 40
9.0
 40
10.0
 40
10.0
 40
10.0
 40
11.0
 40
11.0
 40
11.0
 40
12.0
 40
12.0
 40
12.0
 40
13.0
 40
13.0
 40
13.0
 40
13.0
 10
263.9554858268652
 20
20.24609336482204
 30
0.0
 10
263.8909540472192
 20
20.24131411562171
 30
0.0
 10
263.8264337986554
 20
20.23257048036439
 30
0.0
 10
263.7618904879274
 20
20.2323936704376
 30
0.0
 10
263.3170171088603
 20
20.2311736819415
 30
0.0
 10
262.8718696744063
 20
20.24067529366942
 30
0.0
 10
262.427398730108
 20
20.22724465786873
 30
0.0
 10
262.2549406335689
 20
20.22203337745712
 30
0.0
 10
262.1765046750147
 20
20.28890135435546
 30
0.0
 10
262.1067370153144
 20
20.43629933433309
 30
0.0
 10
261.7451764738302
 20
21.200166649339
 30
0.0
 10
261.378026816807
 20
21.9614848264415
 30
0.0
 10
261.0037355762117
 20
22.71920223094413
 30
0.0
 10
260.6054131759577
 20
23.52556773374194
 30
0.0
 10
260.3725694925604
 20
23.65083910446931
 30
0.0
 10
259.4607286043899
 20
23.57138302951071
 30
0.0
  0
SPLINE
  5
9A
330
1F
100
AcDbEntity
  8
0
  6
Continuous
 62
   179
370
     0
100
AcDbSpline
210
0.0
220
0.0
230
1.0
 70
     8
 71
     3
 72
    14
 73
    10
 74
     0
 42
0.000000001
 43
0.00000001
 40
5.0
 40
5.0
 40
5.0
 40
5.0
 40
6.0
 40
6.0
 40
6.0
 40
7.0
 40
7.0
 40
7.0
 40
8.0
 40
8.0
 40
8.0
 40
8.0
 10
261.0219043336847
 20
23.63056361828031
 30
0.0
 10
261.7521543160346
 20
23.35408286053947
 30
0.0
 10
262.033208300972
 20
22.73079019980925
 30
0.0
 10
262.3739921385617
 20
22.16106556577572
 30
0.0
 10
262.6276890153665
 20
21.7369354504649
 30
0.0
 10
262.8739775562312
 20
21.30835818112304
 30
0.0
 10
263.1292772534607
 20
20.88520667032095
 30
0.0
 10
263.3178377375433
 20
20.57267359973515
 30
0.0
 10
263.5606000734738
 20
20.32757122285868
 30
0.0
 10
263.9554858268652
 20
20.24609336482204
 30
0.0
  0
SPLINE
  5
9B
330
1F
100
AcDbEntity
  8
0
  6
Continuous
 62
   179
370
     0
100
AcDbSpline
210
0.0
220
0.0
230
1.0
 70
     8
 71
     3
 72
    20
 73
    16
 74
     0
 42
0.000000001
 43
0.00000001
 40
0.0
 40
0.0
 40
0.0
 40
0.0
 40
1.0
 40
1.0
 40
1.0
 40
2.0
 40
2.0
 40
2.0
 40
3.0
 40
3.0
 40
3.0
 40
4.0
 40
4.0
 40
4.0
 40
5.0
 40
5.0
 40
5.0
 40
5.0
 10
257.7192638284546
 20
27.51463645747964
 30
0.0
 10
258.1174764912431
 20
27.51463645747964
 30
0.0
 10
258.5159962651877
 20
27.52468175973202
 30
0.0
 10
258.913837050576
 20
27.51251762112626
 30
0.0
 10
259.7094699986221
 20
27.48819126576296
 30
0.0
 10
260.5093946232761
 20
27.49481913962259
 30
0.0
 10
261.2989762515715
 20
27.40941936834727
 30
0.0
 10
262.3071445332423
 20
27.30037799580671
 30
0.0
 10
262.8488620904764
 20
26.74717259793779
 30
0.0
 10
262.9131259646454
 20
25.88395655371281
 30
0.0
 10
262.9966382899503
 20
24.76217905347502
 30
0.0
 10
262.5617362220245
 20
24.08644572151765
 30
0.0
 10
261.5515161764629
 20
23.77337299628437
 30
0.0
 10
261.3945785321864
 20
23.72473719781129
 30
0.0
 10
261.2341319795987
 20
23.68742184709604
 30
0.0
 10
261.0219043336847
 20
23.63056361828031
 30
0.0
  0
SPLINE
  5
9C
330
1F
100
AcDbEntity
  8
0
  6
Continuous
 62
   179
370
     0
100
AcDbSpline
210
0.0
220
0.0
230
1.0
 70
     8
 71
     3
 72
    20
 73
    16
 74
     0
 42
0.000000001
 43
0.00000001
 40
1.0
 40
1.0
 40
1.0
 40
1.0
 40
2.0
 40
2.0
 40
2.0
 40
3.0
 40
3.0
 40
3.0
 40
4.0
 40
4.0
 40
4.0
 40
5.0
 40
5.0
 40
5.0
 40
6.0
 40
6.0
 40
6.0
 40
6.0
 10
259.4558811296203
 20
23.74052094311722
 30
0.0
 10
259.8313410453958
 20
23.74052094311722
 30
0.0
 10
260.1942113256325
 20
23.70804326575078
 30
0.0
 10
260.5489927438957
 20
23.74778168120397
 30
0.0
 10
261.1506181168165
 20
23.81517009427841
 30
0.0
 10
261.608259863196
 20
24.13857044109259
 30
0.0
 10
261.7413862071132
 20
24.73962656292206
 30
0.0
 10
261.8389787525148
 20
25.18024881635489
 30
0.0
 10
261.8719876284001
 20
25.65810454981779
 30
0.0
 10
261.8164781518313
 20
26.10478869315943
 30
0.0
 10
261.7108519014664
 20
26.95476897687368
 30
0.0
 10
261.3230227860075
 20
27.28690123567825
 30
0.0
 10
260.4792308497364
 20
27.35420547185249
 30
0.0
 10
260.1467440101549
 20
27.38072599997261
 30
0.0
 10
259.8103733099057
 20
27.35855230546976
 30
0.0
 10
259.4558811296203
 20
27.35855230546976
 30
0.0
  0
SPLINE
  5
9D
330
1F
100
AcDbEntity
  8
0
  6
Continuous
 62
   179
370
     0
100
AcDbSpline
210
0.0
220
0.0
230
1.0
 70
    24
 71
     3
 72
     8
 73
     4
 74
     0
 42
0.000000001
 43
0.00000001
 40
0.0
 40
0.0
 40
0.0
 40
0.0
 40
1.0
 40
1.0
 40
1.0
 40
1.0
 10
259.4558811296203
 20
27.35855230546976
 30
0.0
 10
259.4558811296203
 20
26.13864548795524
 30
0.0
 10
259.4558811296203
 20
24.94385548148867
 30
0.0
 10
259.4558811296203
 20
23.74052094311722
 30
0.0
  0
SPLINE
  5
9E
330
1F
100
AcDbEntity
  8
0
  6
Continuous
 62
   179
370
     0
100
AcDbSpline
210
0.0
220
0.0
230
1.0
 70
     8
 71
     3
 72
    14
 73
    10
 74
     0
 42
0.000000001
 43
0.00000001
 40
3.0
 40
3.0
 40
3.0
 40
3.0
 40
4.0
 40
4.0
 40
4.0
 40
5.0
 40
5.0
 40
5.0
 40
6.0
 40
6.0
 40
6.0
 40
6.0
 10
267.2336118279071
 20
20.23490821509466
 30
0.0
 10
266.3034040398354
 20
20.48709452013179
 30
0.0
 10
265.5792320909092
 20
21.34541139190241
 30
0.0
 10
265.4837047623288
 20
22.29272284982232
 30
0.0
 10
265.4259332718035
 20
22.86561853145873
 30
0.0
 10
265.4879189885011
 20
23.41465794151554
 30
0.0
 10
265.7739382574312
 20
23.92202056120339
 30
0.0
 10
266.225828300013
 20
24.723612195973
 30
0.0
 10
266.9062728477855
 20
25.1505801106106
 30
0.0
 10
267.7758432870376
 20
25.16748813643033
 30
0.0
  0
SPLINE
  5
9F
330
1F
100
AcDbEntity
  8
0
  6
Continuous
 62
   179
370
     0
100
AcDbSpline
210
0.0
220
0.0
230
1.0
 70
     8
 71
     3
 72
    14
 73
    10
 74
     0
 42
0.000000001
 43
0.00000001
 40
0.0
 40
0.0
 40
0.0
 40
0.0
 40
1.0
 40
1.0
 40
1.0
 40
2.0
 40
2.0
 40
2.0
 40
3.0
 40
3.0
 40
3.0
 40
3.0
 10
267.7758432870376
 20
25.16748813643033
 30
0.0
 10
268.6216197225536
 20
25.16033694362372
 30
0.0
 10
269.2464106552308
 20
24.83848445240961
 30
0.0
 10
269.7103360726668
 20
24.21398909980579
 30
0.0
 10
270.372934348899
 20
23.32205720159637
 30
0.0
 10
270.3723808569537
 20
22.03321892002499
 30
0.0
 10
269.7215189161771
 20
21.13111084177937
 30
0.0
 10
269.1482911393735
 20
20.33660467264827
 30
0.0
 10
268.1650050112285
 20
19.98240211471103
 30
0.0
 10
267.2336118279071
 20
20.23490821509466
 30
0.0
  0
SPLINE
  5
A0
330
1F
100
AcDbEntity
  8
0
  6
Continuous
 62
   179
370
     0
100
AcDbSpline
210
0.0
220
0.0
230
1.0
 70
     8
 71
     3
 72
    17
 73
    13
 74
     0
 42
0.000000001
 43
0.00000001
 40
4.0
 40
4.0
 40
4.0
 40
4.0
 40
5.0
 40
5.0
 40
5.0
 40
6.0
 40
6.0
 40
6.0
 40
7.0
 40
7.0
 40
7.0
 40
8.0
 40
8.0
 40
8.0
 40
8.0
 10
266.4699528411193
 20
22.82140374989816
 30
0.0
 10
266.4269741915698
 20
22.16270989809668
 30
0.0
 10
266.5287029361534
 20
21.51524885782822
 30
0.0
 10
266.8746830637486
 20
20.93428603108956
 30
0.0
 10
267.1048165584611
 20
20.54785025472892
 30
0.0
 10
267.4153070900211
 20
20.27237193240103
 30
0.0
 10
267.9076604687568
 20
20.30531315927085
 30
0.0
 10
268.3388937306983
 20
20.33416469565678
 30
0.0
 10
268.6078393105943
 20
20.5966013640246
 30
0.0
 10
268.810867074766
 20
20.94311038392242
 30
0.0
 10
269.1208448575376
 20
21.47214721006825
 30
0.0
 10
269.202432645224
 20
22.05765558940843
 30
0.0
 10
269.218762963826
 20
22.68351122534059
 30
0.0
  0
SPLINE
  5
A1
330
1F
100
AcDbEntity
  8
0
  6
Continuous
 62
   179
370
     0
100
AcDbSpline
210
0.0
220
0.0
230
1.0
 70
     8
 71
     3
 72
    17
 73
    13
 74
     0
 42
0.000000001
 43
0.00000001
 40
0.0
 40
0.0
 40
0.0
 40
0.0
 40
1.0
 40
1.0
 40
1.0
 40
2.0
 40
2.0
 40
2.0
 40
3.0
 40
3.0
 40
3.0
 40
4.0
 40
4.0
 40
4.0
 40
4.0
 10
269.218762963826
 20
22.68351122534059
 30
0.0
 10
269.195680043492
 20
23.34551372899321
 30
0.0
 10
269.0963628325642
 20
24.01168817818241
 30
0.0
 10
268.6683621173312
 20
24.58056604641373
 30
0.0
 10
268.2143234497673
 20
25.18405330473933
 30
0.0
 10
267.4640605055332
 20
25.19142205062979
 30
0.0
 10
267.0072628343699
 20
24.59213287496141
 30
0.0
 10
266.882078331128
 20
24.42789874624283
 30
0.0
 10
266.7597204805012
 20
24.2414496033099
 30
0.0
 10
266.7072125446274
 20
24.04607386528146
 30
0.0
 10
266.5993976948625
 20
23.64490674705059
 30
0.0
 10
266.4968487059656
 20
23.23360918874381
 30
0.0
 10
266.4699528411193
 20
22.82140374989816
 30
0.0
  0
SPLINE
  5
A2
330
1F
100
AcDbEntity
  8
0
  6
Continuous
 62
   179
370
     0
100
AcDbSpline
210
0.0
220
0.0
230
1.0
 70
     8
 71
     3
 72
    17
 73
    13
 74
     0
 42
0.000000001
 43
0.00000001
 40
6.0
 40
6.0
 40
6.0
 40
6.0
 40
7.0
 40
7.0
 40
7.0
 40
8.0
 40
8.0
 40
8.0
 40
9.0
 40
9.0
 40
9.0
 40
10.0
 40
10.0
 40
10.0
 40
10.0
 10
311.6156486607861
 20
20.25320881127337
 30
0.0
 10
312.1185268426077
 20
20.41647125413319
 30
0.0
 10
312.2872188877024
 20
20.63608302071405
 30
0.0
 10
312.2876555313485
 20
21.16871754450475
 30
0.0
 10
312.2890700107628
 20
22.88922803787955
 30
0.0
 10
312.2877662297369
 20
24.60974045310045
 30
0.0
 10
312.2871819882395
 20
26.33025248395311
 30
0.0
 10
312.2871512386867
 20
26.42255802816857
 30
0.0
 10
312.2845313768121
 20
26.51487279724974
 30
0.0
 10
312.2823973578678
 20
26.60716642601487
 30
0.0
 10
312.2683694120104
 20
27.21300429544448
 30
0.0
 10
312.2096131670664
 20
27.27631108979181
 30
0.0
 10
311.6691528821608
 20
27.32445797038016
 30
0.0
  0
SPLINE
  5
A3
330
1F
100
AcDbEntity
  8
0
  6
Continuous
 62
   179
370
     0
100
AcDbSpline
210
0.0
220
0.0
230
1.0
 70
    24
 71
     3
 72
     8
 73
     4
 74
     0
 42
0.000000001
 43
0.00000001
 40
5.0
 40
5.0
 40
5.0
 40
5.0
 40
6.0
 40
6.0
 40
6.0
 40
6.0
 10
313.8867245107603
 20
20.25320881127337
 30
0.0
 10
313.0865658051385
 20
20.25320881127337
 30
0.0
 10
312.3511103079174
 20
20.25320881127337
 30
0.0
 10
311.6156486607861
 20
20.25320881127337
 30
0.0
  0
SPLINE
  5
A4
330
1F
100
AcDbEntity
  8
0
  6
Continuous
 62
   179
370
     0
100
AcDbSpline
210
0.0
220
0.0
230
1.0
 70
     8
 71
     3
 72
    17
 73
    13
 74
     0
 42
0.000000001
 43
0.00000001
 40
1.0
 40
1.0
 40
1.0
 40
1.0
 40
2.0
 40
2.0
 40
2.0
 40
3.0
 40
3.0
 40
3.0
 40
4.0
 40
4.0
 40
4.0
 40
5.0
 40
5.0
 40
5.0
 40
5.0
 10
313.1781318226163
 20
27.87703492426926
 30
0.0
 10
313.1781318226163
 20
27.83642744958889
 30
0.0
 10
313.1781318226163
 20
27.75161518695077
 30
0.0
 10
313.1781318226163
 20
27.66680273212925
 30
0.0
 10
313.1781318226163
 20
25.57700952371036
 30
0.0
 10
313.1781256727049
 20
23.48721689184593
 30
0.0
 10
313.1781441224363
 20
21.39742349124222
 30
0.0
 10
313.1781441224363
 20
21.32188875296783
 30
0.0
 10
313.1771847363981
 20
21.24633325874564
 30
0.0
 10
313.1786115156352
 20
21.17082388885262
 30
0.0
 10
313.1888880160859
 20
20.62648762285203
 30
0.0
 10
313.3266152617988
 20
20.4348325806782
 30
0.0
 10
313.8867245107603
 20
20.25320881127337
 30
0.0
  0
SPLINE
  5
A5
330
1F
100
AcDbEntity
  8
0
  6
Continuous
 62
   179
370
     0
100
AcDbSpline
210
0.0
220
0.0
230
1.0
 70
     8
 71
     3
 72
     8
 73
     4
 74
     0
 42
0.000000001
 43
0.00000001
 40
0.0
 40
0.0
 40
0.0
 40
0.0
 40
1.0
 40
1.0
 40
1.0
 40
1.0
 10
311.6691528821608
 20
27.32445797038016
 30
0.0
 10
312.1410908642435
 20
27.49727756634619
 30
0.0
 10
312.6458878181427
 20
27.68213176842718
 30
0.0
 10
313.1781318226163
 20
27.87703492426926
 30
0.0
  0
SPLINE
  5
A6
330
1F
100
AcDbEntity
  8
0
  6
Continuous
 62
   179
370
     0
100
AcDbSpline
210
0.0
220
0.0
230
1.0
 70
     8
 71
     3
 72
    14
 73
    10
 74
     0
 42
0.000000001
 43
0.00000001
 40
6.0
 40
6.0
 40
6.0
 40
6.0
 40
7.0
 40
7.0
 40
7.0
 40
8.0
 40
8.0
 40
8.0
 40
9.0
 40
9.0
 40
9.0
 40
9.0
 10
278.4819664915176
 20
27.88441039662488
 30
0.0
 10
278.4819664915176
 20
27.83987735719566
 30
0.0
 10
278.4819649540404
 20
27.75219577693941
 30
0.0
 10
278.4819649540404
 20
27.66451419668386
 30
0.0
 10
278.4819664915176
 20
25.48269219002111
 30
0.0
 10
278.4816605334703
 20
23.30086999117493
 30
0.0
 10
278.4822124879378
 20
21.11904779232805
 30
0.0
 10
278.4823339486704
 20
20.63637283524633
 30
0.0
 10
278.6550987719953
 20
20.40793364087759
 30
0.0
 10
279.1055120673172
 20
20.2549177176549
 30
0.0
  0
SPLINE
  5
A7
330
1F
100
AcDbEntity
  8
0
  6
Continuous
 62
   179
370
     0
100
AcDbSpline
210
0.0
220
0.0
230
1.0
 70
     8
 71
     3
 72
     8
 73
     4
 74
     0
 42
0.000000001
 43
0.00000001
 40
5.0
 40
5.0
 40
5.0
 40
5.0
 40
6.0
 40
6.0
 40
6.0
 40
6.0
 10
276.9846800684063
 20
27.3296354262854
 30
0.0
 10
277.4478728777531
 20
27.5012575193644
 30
0.0
 10
277.9568994326009
 20
27.68986239811422
 30
0.0
 10
278.4819664915176
 20
27.88441039662488
 30
0.0
  0
SPLINE
  5
A8
330
1F
100
AcDbEntity
  8
0
  6
Continuous
 62
   179
370
     0
100
AcDbSpline
210
0.0
220
0.0
230
1.0
 70
     8
 71
     3
 72
    17
 73
    13
 74
     0
 42
0.000000001
 43
0.00000001
 40
1.0
 40
1.0
 40
1.0
 40
1.0
 40
2.0
 40
2.0
 40
2.0
 40
3.0
 40
3.0
 40
3.0
 40
4.0
 40
4.0
 40
4.0
 40
5.0
 40
5.0
 40
5.0
 40
5.0
 10
276.9460186560295
 20
20.2549177176549
 30
0.0
 10
277.4179566381115
 20
20.4199152040148
 30
0.0
 10
277.5770686601204
 20
20.6342380475635
 30
0.0
 10
277.5771993457187
 20
21.13377529050539
 30
0.0
 10
277.5776652014392
 20
22.92958298186009
 30
0.0
 10
277.5773700057348
 20
24.72538990447762
 30
0.0
 10
277.577359243392
 20
26.52119721146337
 30
0.0
 10
277.577359243392
 20
26.53798031722657
 30
0.0
 10
277.5773838430333
 20
26.55476419172763
 30
0.0
 10
277.5772915943764
 20
26.57154691311976
 30
0.0
 10
277.5738092075535
 20
27.20775573119973
 30
0.0
 10
277.5366914227135
 20
27.25167954511983
 30
0.0
 10
276.9846800684063
 20
27.3296354262854
 30
0.0
  0
SPLINE
  5
A9
330
1F
100
AcDbEntity
  8
0
  6
Continuous
 62
   179
370
     0
100
AcDbSpline
210
0.0
220
0.0
230
1.0
 70
    24
 71
     3
 72
     8
 73
     4
 74
     0
 42
0.000000001
 43
0.00000001
 40
0.0
 40
0.0
 40
0.0
 40
0.0
 40
1.0
 40
1.0
 40
1.0
 40
1.0
 10
279.1055120673172
 20
20.2549177176549
 30
0.0
 10
278.3856819552066
 20
20.2549177176549
 30
0.0
 10
277.6658503056181
 20
20.2549177176549
 30
0.0
 10
276.9460186560295
 20
20.2549177176549
 30
0.0
  0
SPLINE
  5
AA
330
1F
100
AcDbEntity
  8
0
  6
Continuous
 62
   179
370
     0
100
AcDbSpline
210
0.0
220
0.0
230
1.0
 70
     8
 71
     3
 72
    20
 73
    16
 74
     0
 42
0.000000001
 43
0.00000001
 40
5.0
 40
5.0
 40
5.0
 40
5.0
 40
6.0
 40
6.0
 40
6.0
 40
7.0
 40
7.0
 40
7.0
 40
8.0
 40
8.0
 40
8.0
 40
9.0
 40
9.0
 40
9.0
 40
10.0
 40
10.0
 40
10.0
 40
10.0
 10
307.178408284104
 20
20.25443648715803
 30
0.0
 10
307.3179589782804
 20
20.36177625633667
 30
0.0
 10
307.5293898264143
 20
20.45652254628291
 30
0.0
 10
307.6283941606454
 20
20.61954360515536
 30
0.0
 10
307.7285516030971
 20
20.78446498637255
 30
0.0
 10
307.7490584796685
 20
21.01681475508336
 30
0.0
 10
307.7500732149022
 20
21.21990094340409
 30
0.0
 10
307.7587445887104
 20
22.95682170421714
 30
0.0
 10
307.7550484924979
 20
24.69380511724257
 30
0.0
 10
307.7550361926765
 20
26.43077008053731
 30
0.0
 10
307.7550361926765
 20
26.49789904426262
 30
0.0
 10
307.7552944889174
 20
26.56503146731187
 30
0.0
 10
307.7547502218385
 20
26.63215658734291
 30
0.0
 10
307.7501131893193
 20
27.20350460556406
 30
0.0
 10
307.6774858212348
 20
27.28280885460759
 30
0.0
 10
307.1608133901539
 20
27.32540717062984
 30
0.0
  0
SPLINE
  5
AB
330
1F
100
AcDbEntity
  8
0
  6
Continuous
 62
   179
370
     0
100
AcDbSpline
210
0.0
220
0.0
230
1.0
 70
    24
 71
     3
 72
     8
 73
     4
 74
     0
 42
0.000000001
 43
0.00000001
 40
4.0
 40
4.0
 40
4.0
 40
4.0
 40
5.0
 40
5.0
 40
5.0
 40
5.0
 10
309.3620693061908
 20
20.25443648715802
 30
0.0
 10
308.5715044609524
 20
20.25443648715802
 30
0.0
 10
307.8517004859624
 20
20.25443648715802
 30
0.0
 10
307.178408284104
 20
20.25443648715803
 30
0.0
  0
SPLINE
  5
AC
330
1F
100
AcDbEntity
  8
0
  6
Continuous
 62
   179
370
     0
100
AcDbSpline
210
0.0
220
0.0
230
1.0
 70
     8
 71
     3
 72
    14
 73
    10
 74
     0
 42
0.000000001
 43
0.00000001
 40
1.0
 40
1.0
 40
1.0
 40
1.0
 40
2.0
 40
2.0
 40
2.0
 40
3.0
 40
3.0
 40
3.0
 40
4.0
 40
4.0
 40
4.0
 40
4.0
 10
308.65963267846
 20
27.88697759989075
 30
0.0
 10
308.65963267846
 20
27.83196991758182
 30
0.0
 10
308.65963267846
 20
27.74275854708867
 30
0.0
 10
308.65963267846
 20
27.65354698440997
 30
0.0
 10
308.65963267846
 20
25.48863300356693
 30
0.0
 10
308.6595035303402
 20
23.32371921490944
 30
0.0
 10
308.6597187772069
 20
21.15880542625192
 30
0.0
 10
308.6597679764911
 20
20.6374237012035
 30
0.0
 10
308.807415027844
 20
20.43200746554105
 30
0.0
 10
309.3620693061908
 20
20.25443648715802
 30
0.0
  0
SPLINE
  5
AD
330
1F
100
AcDbEntity
  8
0
  6
Continuous
 62
   179
370
     0
100
AcDbSpline
210
0.0
220
0.0
230
1.0
 70
     8
 71
     3
 72
     8
 73
     4
 74
     0
 42
0.000000001
 43
0.00000001
 40
0.0
 40
0.0
 40
0.0
 40
0.0
 40
1.0
 40
1.0
 40
1.0
 40
1.0
 10
307.1608133901539
 20
27.32540717062984
 30
0.0
 10
307.6336123597077
 20
27.50255342081908
 30
0.0
 10
308.1420254609839
 20
27.69304267058278
 30
0.0
 10
308.65963267846
 20
27.88697759989075
 30
0.0
  0
SPLINE
  5
AE
330
1F
100
AcDbEntity
  8
0
  6
Continuous
 62
   179
370
     0
100
AcDbSpline
210
0.0
220
0.0
230
1.0
 70
     8
 71
     3
 72
    14
 73
    10
 74
     0
 42
0.000000001
 43
0.00000001
 40
6.0
 40
6.0
 40
6.0
 40
6.0
 40
7.0
 40
7.0
 40
7.0
 40
8.0
 40
8.0
 40
8.0
 40
9.0
 40
9.0
 40
9.0
 40
9.0
 10
272.426404840594
 20
20.2590796695872
 30
0.0
 10
273.0059923935969
 20
20.37668517687364
 30
0.0
 10
273.0805785081768
 20
20.81042375860576
 30
0.0
 10
273.0783845276048
 20
21.29462927466367
 30
0.0
 10
273.0702866329497
 20
23.08209538116094
 30
0.0
 10
273.0685846452182
 20
24.86961337752774
 30
0.0
 10
273.0527409382852
 20
26.65700799131587
 30
0.0
 10
273.0476395875227
 20
27.23250104921648
 30
0.0
 10
272.9826104338649
 20
27.28380667758701
 30
0.0
 10
272.4594267850393
 20
27.32510813123116
 30
0.0
  0
SPLINE
  5
AF
330
1F
100
AcDbEntity
  8
0
  6
Continuous
 62
   179
370
     0
100
AcDbSpline
210
0.0
220
0.0
230
1.0
 70
    24
 71
     3
 72
     8
 73
     4
 74
     0
 42
0.000000001
 43
0.00000001
 40
5.0
 40
5.0
 40
5.0
 40
5.0
 40
6.0
 40
6.0
 40
6.0
 40
6.0
 10
274.6224502449563
 20
20.2590796695872
 30
0.0
 10
273.8904356226618
 20
20.2590796695872
 30
0.0
 10
273.1584194628892
 20
20.2590796695872
 30
0.0
 10
272.426404840594
 20
20.2590796695872
 30
0.0
  0
SPLINE
  5
B0
330
1F
100
AcDbEntity
  8
0
  6
Continuous
 62
   179
370
     0
100
AcDbSpline
210
0.0
220
0.0
230
1.0
 70
     8
 71
     3
 72
    17
 73
    13
 74
     0
 42
0.000000001
 43
0.00000001
 40
1.0
 40
1.0
 40
1.0
 40
1.0
 40
2.0
 40
2.0
 40
2.0
 40
3.0
 40
3.0
 40
3.0
 40
4.0
 40
4.0
 40
4.0
 40
5.0
 40
5.0
 40
5.0
 40
5.0
 10
273.9540333846496
 20
27.87257450949275
 30
0.0
 10
273.9540333846496
 20
27.8074859707617
 30
0.0
 10
273.9540333846496
 20
27.71082379150879
 30
0.0
 10
273.9540333846496
 20
27.61416161225588
 30
0.0
 10
273.9540349221275
 20
25.51596282147274
 30
0.0
 10
273.9539872603212
 20
23.41776441505853
 30
0.0
 10
273.9542086570993
 20
21.31956562427539
 30
0.0
 10
273.954217881965
 20
21.22727776105204
 30
0.0
 10
273.9506540088286
 20
21.13443409966764
 30
0.0
 10
273.9590578615309
 20
21.04279505200226
 30
0.0
 10
274.0006220316647
 20
20.58964274029083
 30
0.0
 10
274.1836818051716
 20
20.38260600321025
 30
0.0
 10
274.6224502449563
 20
20.2590796695872
 30
0.0
  0
SPLINE
  5
B1
330
1F
100
AcDbEntity
  8
0
  6
Continuous
 62
   179
370
     0
100
AcDbSpline
210
0.0
220
0.0
230
1.0
 70
     8
 71
     3
 72
     8
 73
     4
 74
     0
 42
0.000000001
 43
0.00000001
 40
0.0
 40
0.0
 40
0.0
 40
0.0
 40
1.0
 40
1.0
 40
1.0
 40
1.0
 10
272.4594267850393
 20
27.32510813123116
 30
0.0
 10
272.932774634105
 20
27.4984925580398
 30
0.0
 10
273.4351023989377
 20
27.68249307566929
 30
0.0
 10
273.9540333846496
 20
27.87257450949275
 30
0.0
  0
SPLINE
  5
B2
330
1F
100
AcDbEntity
  8
0
  6
Continuous
 62
   179
370
     0
100
AcDbSpline
210
0.0
220
0.0
230
1.0
 70
     8
 71
     3
 72
    17
 73
    13
 74
     0
 42
0.000000001
 43
0.00000001
 40
6.0
 40
6.0
 40
6.0
 40
6.0
 40
7.0
 40
7.0
 40
7.0
 40
8.0
 40
8.0
 40
8.0
 40
9.0
 40
9.0
 40
9.0
 40
10.0
 40
10.0
 40
10.0
 40
10.0
 10
304.1706223551654
 20
25.06377258638473
 30
0.0
 10
304.1727133247369
 20
25.01792115989102
 30
0.0
 10
304.1800409430993
 20
24.93136078519359
 30
0.0
 10
304.1800932173391
 20
24.84479541369365
 30
0.0
 10
304.1808527312862
 20
23.65282014439031
 30
0.0
 10
304.1797703470369
 20
22.46084295323946
 30
0.0
 10
304.1818797663412
 20
21.26887114326077
 30
0.0
 10
304.1821011631179
 20
21.14380579453512
 30
0.0
 10
304.1922454404932
 20
21.01764883669525
 30
0.0
 10
304.2107535961514
 20
20.89393877449616
 30
0.0
 10
304.2621822227331
 20
20.55023795748124
 30
0.0
 10
304.4578262506061
 20
20.33981031349822
 30
0.0
 10
304.8038079156778
 20
20.2539775500868
 30
0.0
  0
SPLINE
  5
B3
330
1F
100
AcDbEntity
  8
0
  6
Continuous
 62
   179
370
     0
100
AcDbSpline
210
0.0
220
0.0
230
1.0
 70
     8
 71
     3
 72
     8
 73
     4
 74
     0
 42
0.000000001
 43
0.00000001
 40
5.0
 40
5.0
 40
5.0
 40
5.0
 40
6.0
 40
6.0
 40
6.0
 40
6.0
 10
302.7125031745686
 20
24.50968064047994
 30
0.0
 10
303.1898069535648
 20
24.69105879783349
 30
0.0
 10
303.6729961969132
 20
24.874672832025
 30
0.0
 10
304.1706223551654
 20
25.06377258638473
 30
0.0
  0
SPLINE
  5
B4
330
1F
100
AcDbEntity
  8
0
  6
Continuous
 62
   179
370
     0
100
AcDbSpline
210
0.0
220
0.0
230
1.0
 70
     8
 71
     3
 72
    17
 73
    13
 74
     0
 42
0.000000001
 43
0.00000001
 40
1.0
 40
1.0
 40
1.0
 40
1.0
 40
2.0
 40
2.0
 40
2.0
 40
3.0
 40
3.0
 40
3.0
 40
4.0
 40
4.0
 40
4.0
 40
5.0
 40
5.0
 40
5.0
 40
5.0
 10
302.6973344203136
 20
20.2539775500868
 30
0.0
 10
303.1321361678242
 20
20.3494649042487
 30
0.0
 10
303.2897768237453
 20
20.65853557522151
 30
0.0
 10
303.2916556214044
 20
21.04785181591346
 30
0.0
 10
303.296603224403
 20
22.071496731734
 30
0.0
 10
303.2829750227277
 20
23.09531768874206
 30
0.0
 10
303.2668591822546
 20
24.11891186780057
 30
0.0
 10
303.2632153602819
 20
24.35030186610297
 30
0.0
 10
303.1332831261333
 20
24.4918735746181
 30
0.0
 10
302.8846514693661
 20
24.49557889569631
 30
0.0
 10
302.8224697242704
 20
24.49650561033552
 30
0.0
 10
302.7604109773859
 20
24.50557288463289
 30
0.0
 10
302.7125031745686
 20
24.50968064047994
 30
0.0
  0
SPLINE
  5
B5
330
1F
100
AcDbEntity
  8
0
  6
Continuous
 62
   179
370
     0
100
AcDbSpline
210
0.0
220
0.0
230
1.0
 70
    24
 71
     3
 72
     8
 73
     4
 74
     0
 42
0.000000001
 43
0.00000001
 40
0.0
 40
0.0
 40
0.0
 40
0.0
 40
1.0
 40
1.0
 40
1.0
 40
1.0
 10
304.8038079156778
 20
20.2539775500868
 30
0.0
 10
304.1016511088749
 20
20.2539775500868
 30
0.0
 10
303.3994912271164
 20
20.2539775500868
 30
0.0
 10
302.6973344203136
 20
20.2539775500868
 30
0.0
  0
SPLINE
  5
B6
330
1F
100
AcDbEntity
  8
0
  6
Continuous
 62
   179
370
     0
100
AcDbSpline
210
0.0
220
0.0
230
1.0
 70
     8
 71
     3
 72
    11
 73
     7
 74
     0
 42
0.000000001
 43
0.00000001
 40
2.0
 40
2.0
 40
2.0
 40
2.0
 40
3.0
 40
3.0
 40
3.0
 40
4.0
 40
4.0
 40
4.0
 40
4.0
 10
303.0570519104932
 20
26.35430478392947
 30
0.0
 10
303.0511172468595
 20
26.75330175249256
 30
0.0
 10
303.3266947364936
 20
27.05519259513757
 30
0.0
 10
303.6924299141011
 20
27.05034857969325
 30
0.0
 10
304.0507636744179
 20
27.04560238626284
 30
0.0
 10
304.3255386007336
 20
26.75299425696746
 30
0.0
 10
304.327448147944
 20
26.37412133304796
 30
0.0
  0
SPLINE
  5
B7
330
1F
100
AcDbEntity
  8
0
  6
Continuous
 62
   179
370
     0
100
AcDbSpline
210
0.0
220
0.0
230
1.0
 70
     8
 71
     3
 72
    11
 73
     7
 74
     0
 42
0.000000001
 43
0.00000001
 40
0.0
 40
0.0
 40
0.0
 40
0.0
 40
1.0
 40
1.0
 40
1.0
 40
2.0
 40
2.0
 40
2.0
 40
2.0
 10
304.327448147944
 20
26.37412133304796
 30
0.0
 10
304.3293945946187
 20
25.98752450590587
 30
0.0
 10
304.0680572227529
 20
25.70828897263022
 30
0.0
 10
303.6993639381942
 20
25.70301926806731
 30
0.0
 10
303.3259905717407
 20
25.69768229885988
 30
0.0
 10
303.0628482011429
 20
25.96449808787493
 30
0.0
 10
303.0570519104932
 20
26.35430478392947
 30
0.0
  0
MTEXT
  5
B9
330
1F
100
AcDbEntity
  8
0
  6
Continuous
 62
     7
370
     0
100
AcDbMText
 10
257.9690483454
 20
40.3166048975
 30
0.0
 40
3.7041666667
 41
0.0
 71
     1
 72
     1
  1
MINFP02 -  Mini Farrago Pendant 02
  7
SLDTEXTSTYLE0
 73
     1
 44
1.0
  0
MTEXT
  5
BA
330
1F
100
AcDbEntity
  8
0
  6
Continuous
 62
     7
370
     0
100
AcDbMText
 10
258.6105142387
 20
44.3546043689
 30
0.0
 40
1.5875
 41
0.0
 71
     1
 72
     1
  1
\LDESCRIPTION
  7
SLDTEXTSTYLE0
 73
     1
 44
1.0
  0
INSERT
  5
C1
330
1F
100
AcDbEntity
  8
0
  6
Continuous
 62
     7
370
     0
100
AcDbBlockReference
  2
SW_NOTE_0
 10
317.1049495712
 20
24.1495665419
 30
0.0
  0
MTEXT
  5
C2
330
1F
100
AcDbEntity
  8
0
  6
Continuous
 62
     7
370
     0
100
AcDbMText
 10
273.8792930731
 20
32.371143085
 30
0.0
 40
1.5875
 41
0.0
 71
     2
 72
     1
  1
\LSCALE
  7
SLDTEXTSTYLE0
 73
     1
 44
1.0
  0
MTEXT
  5
C3
330
1F
100
AcDbEntity
  8
0
  6
Continuous
 62
     7
370
     0
100
AcDbMText
 10
278.3960862508
 20
33.4394651033
 30
0.0
 40
2.6458333333
 41
0.0
 71
     1
 72
     1
  1
1:15
  7
SLDTEXTSTYLE0
 73
     1
 44
1.0
  0
MTEXT
  5
C4
330
1F
100
AcDbEntity
  8
0
  6
Continuous
 62
     7
370
     0
100
AcDbMText
 10
261.5657280329
 20
32.371143085
 30
0.0
 40
1.5875
 41
0.0
 71
     2
 72
     1
  1
\LSIZE
  7
SLDTEXTSTYLE0
 73
     1
 44
1.0
  0
MTEXT
  5
C5
330
1F
100
AcDbEntity
  8
0
  6
Continuous
 62
     7
370
     0
100
AcDbMText
 10
264.7495209372
 20
33.4394651033
 30
0.0
 40
2.6458333333
 41
0.0
 71
     1
 72
     1
  1
B
  7
SLDTEXTSTYLE0
 73
     1
 44
1.0
  0
INSERT
  5
CC
330
1F
100
AcDbEntity
  8
0
  6
Continuous
 62
     7
370
     0
100
AcDbBlockReference
  2
SW_NOTE_1
 10
258.0900415808
 20
15.6806800849
 30
0.0
  0
LINE
  5
CD
330
1F
100
AcDbEntity
  8
0
  6
Continuous
 62
     7
370
    15
100
AcDbLine
 10
86.2932900841
 20
71.2724305769
 30
0.0
 11
86.2932900841
 21
59.7225602474
 31
0.0
  0
LINE
  5
CE
330
1F
100
AcDbEntity
  8
0
  6
Continuous
 62
     7
370
    15
100
AcDbLine
 10
91.3732900841
 20
59.7225602474
 30
0.0
 11
91.3732900841
 21
71.2724305769
 31
0.0
  0
LINE
  5
CF
330
1F
100
AcDbEntity
  8
0
  6
Continuous
 62
     7
370
    15
100
AcDbLine
 10
61.3151182567
 20
89.8921034816
 30
0.0
 11
61.0537040363
 21
89.9905398764
 31
0.0
  0
LINE
  5
D0
330
1F
100
AcDbEntity
  8
0
  6
Continuous
 62
     7
370
    15
100
AcDbLine
 10
59.1889335176
 20
85.0383315788
 30
0.0
 11
59.450347738
 21
84.9398951839
 31
0.0
  0
LINE
  5
D1
330
1F
100
AcDbEntity
  8
0
  6
Continuous
 62
     7
370
    15
100
AcDbLine
 10
60.9604655104
 20
89.7429294615
 30
0.0
 11
60.69905129
 21
89.8413658564
 31
0.0
  0
LINE
  5
D2
330
1F
100
AcDbEntity
  8
0
  6
Continuous
 62
     7
370
    15
100
AcDbLine
 10
59.0207578231
 20
85.3843783885
 30
0.0
 11
59.2821720435
 21
85.2859419936
 31
0.0
  0
LINE
  5
D3
330
1F
100
AcDbEntity
  8
0
  6
Continuous
 62
     7
370
    15
100
AcDbLine
 10
91.9504247064
 20
78.2431889862
 30
0.0
 11
61.607395972
 21
89.6689574581
 31
0.0
  0
LINE
  5
D4
330
1F
100
AcDbEntity
  8
0
  6
Continuous
 62
     7
370
    15
100
AcDbLine
 10
59.817216274
 20
84.9148374924
 30
0.0
 11
90.1602450084
 21
73.4890690205
 31
0.0
  0
LINE
  5
D5
330
1F
100
AcDbEntity
  8
0
  6
Continuous
 62
     7
370
    15
100
AcDbLine
 10
134.859652262
 20
84.9398951839
 30
0.0
 11
135.1210664824
 21
85.0383315788
 31
0.0
  0
LINE
  5
D6
330
1F
100
AcDbEntity
  8
0
  6
Continuous
 62
     7
370
    15
100
AcDbLine
 10
133.2562959637
 20
89.9905398765
 30
0.0
 11
132.9948817433
 21
89.8921034816
 31
0.0
  0
LINE
  5
D7
330
1F
100
AcDbEntity
  8
0
  6
Continuous
 62
     7
370
    15
100
AcDbLine
 10
135.0278279565
 20
85.2859419937
 30
0.0
 11
135.2892421769
 21
85.3843783885
 31
0.0
  0
LINE
  5
D8
330
1F
100
AcDbEntity
  8
0
  6
Continuous
 62
     7
370
    15
100
AcDbLine
 10
133.61094871
 20
89.8413658564
 30
0.0
 11
133.3495344896
 21
89.7429294616
 31
0.0
  0
LINE
  5
D9
330
1F
100
AcDbEntity
  8
0
  6
Continuous
 62
     7
370
    15
100
AcDbLine
 10
104.4219813335
 20
73.5915767556
 30
0.0
 11
134.492783726
 21
84.9148374924
 31
0.0
  0
LINE
  5
DA
330
1F
100
AcDbEntity
  8
0
  6
Continuous
 62
     7
370
    15
100
AcDbLine
 10
132.702604028
 20
89.6689574582
 30
0.0
 11
102.3595752936
 21
78.2431889862
 31
0.0
  0
LINE
  5
DB
330
1F
100
AcDbEntity
  8
0
  6
Continuous
 62
     7
370
    15
100
AcDbLine
 10
92.5105485576
 20
78.1453603625
 30
0.0
 11
91.9877201168
 21
78.3422331522
 31
0.0
  0
LINE
  5
DC
330
1F
100
AcDbEntity
  8
0
  6
Continuous
 62
     7
370
    15
100
AcDbLine
 10
103.6269265508
 20
73.8463633495
 30
0.0
 11
92.8028262728
 21
77.922214339
 31
0.0
  0
LINE
  5
DD
330
1F
100
AcDbEntity
  8
0
  6
Continuous
 62
     7
370
    15
100
AcDbLine
 10
91.0126465748
 20
73.1680943733
 30
0.0
 11
101.8367468528
 21
69.0922433837
 31
0.0
  0
LINE
  5
DE
330
1F
100
AcDbEntity
  8
0
  6
Continuous
 62
     7
370
    15
100
AcDbLine
 10
91.4791234174
 20
71.2724305769
 30
0.0
 11
91.4791234174
 21
71.4693033666
 31
0.0
  0
LINE
  5
DF
330
1F
100
AcDbEntity
  8
0
  6
Continuous
 62
     7
370
    15
100
AcDbLine
 10
86.1874567508
 20
71.4693033666
 30
0.0
 11
86.1874567508
 21
71.2724305769
 31
0.0
  0
LINE
  5
E0
330
1F
100
AcDbEntity
  8
0
  6
Continuous
 62
     7
370
    15
100
AcDbLine
 10
86.2932900841
 20
74.945183769
 30
0.0
 11
86.2932900841
 21
72.173632029
 31
0.0
  0
LINE
  5
E1
330
1F
100
AcDbEntity
  8
0
  6
Continuous
 62
     7
370
    15
100
AcDbLine
 10
91.3732900841
 20
72.173632029
 30
0.0
 11
91.3732900841
 21
73.0322928594
 31
0.0
  0
ARC
  5
E2
330
1F
100
AcDbEntity
  8
0
  6
Continuous
 62
     7
370
    15
100
AcDbCircle
 10
98.4027633614
 20
153.076335656
 30
0.0
 40
0.2116666666666731
100
AcDbArc
 50
270.0
 51
0.0
  0
ARC
  5
E3
330
1F
100
AcDbEntity
  8
0
  6
Continuous
 62
     7
370
    15
100
AcDbCircle
 10
90.359430028
 20
153.076335656
 30
0.0
 40
0.2116666666666731
100
AcDbArc
 50
180.0
 51
270.0
  0
LINE
  5
E4
330
1F
100
AcDbEntity
  8
0
  6
Continuous
 62
     7
370
    15
100
AcDbLine
 10
90.1477633614
 20
153.711335656
 30
0.0
 11
90.1477633614
 21
153.076335656
 31
0.0
  0
LINE
  5
E5
330
1F
100
AcDbEntity
  8
0
  6
Continuous
 62
     7
370
    15
100
AcDbLine
 10
98.614430028
 20
153.076335656
 30
0.0
 11
98.614430028
 21
153.711335656
 31
0.0
  0
LINE
  5
E6
330
1F
100
AcDbEntity
  8
0
  6
Continuous
 62
     7
370
    15
100
AcDbLine
 10
97.497861079
 20
76.1542833545
 30
0.0
 11
95.0111065969
 21
91.756066574
 31
0.0
  0
LINE
  5
E7
330
1F
100
AcDbEntity
  8
0
  6
Continuous
 62
     7
370
    15
100
AcDbLine
 10
94.5930502956
 20
91.6894329485
 30
0.0
 11
97.0418127656
 21
76.326009865
 31
0.0
  0
LINE
  5
E8
330
1F
100
AcDbEntity
  8
0
  6
Continuous
 62
     7
370
    15
100
AcDbLine
 10
104.187050402
 20
73.7485347257
 30
0.0
 11
103.6642219612
 21
73.9454075154
 31
0.0
  0
LINE
  5
E9
330
1F
100
AcDbEntity
  8
0
  6
Continuous
 62
     7
370
    15
100
AcDbLine
 10
101.7994514424
 20
68.9931992177
 30
0.0
 11
102.3222798832
 21
68.796326428
 31
0.0
  0
LINE
  5
EA
330
1F
100
AcDbEntity
  8
0
  6
Continuous
 62
     7
370
    15
100
AcDbLine
 10
134.8223568517
 20
62.0996202303
 30
0.0
 11
104.4793281173
 21
73.5253887023
 31
0.0
  0
LINE
  5
EB
330
1F
100
AcDbEntity
  8
0
  6
Continuous
 62
     7
370
    15
100
AcDbLine
 10
102.6891484192
 20
68.7712687365
 30
0.0
 11
133.0321771536
 21
57.3455002646
 31
0.0
  0
LINE
  5
EC
330
1F
100
AcDbEntity
  8
0
  6
Continuous
 62
     7
370
    15
100
AcDbLine
 10
92.9671633614
 20
93.1738166182
 30
0.0
 11
92.9671633614
 21
91.9038166182
 31
0.0
  0
LINE
  5
ED
330
1F
100
AcDbEntity
  8
0
  6
Continuous
 62
     7
370
    15
100
AcDbLine
 10
95.795030028
 20
91.9038166182
 30
0.0
 11
95.795030028
 21
93.1738166182
 31
0.0
  0
LINE
  5
EE
330
1F
100
AcDbEntity
  8
0
  6
Continuous
 62
     7
370
    15
100
AcDbLine
 10
102.3222798832
 20
78.3422331522
 30
0.0
 11
101.7994514424
 21
78.1453603625
 31
0.0
  0
LINE
  5
EF
330
1F
100
AcDbEntity
  8
0
  6
Continuous
 62
     7
370
    15
100
AcDbLine
 10
90.6094558367
 20
78.7481352777
 30
0.0
 11
93.9140482746
 21
91.6811107304
 31
0.0
  0
LINE
  5
F0
330
1F
100
AcDbEntity
  8
0
  6
Continuous
 62
     7
370
    15
100
AcDbLine
 10
93.5038925485
 20
91.785912407
 30
0.0
 11
90.2108715848
 21
78.8982235046
 31
0.0
  0
ARC
  5
F1
330
1F
100
AcDbEntity
  8
0
  6
Continuous
 62
     7
370
    15
100
AcDbCircle
 10
94.7454980051
 20
92.0777328461
 30
0.0
 40
0.4233333333333377
100
AcDbArc
 50
309.0561464263
 51
335.7432832489
  0
ARC
  5
F2
330
1F
100
AcDbEntity
  8
0
  6
Continuous
 62
     7
370
    15
100
AcDbCircle
 10
94.7454980051
 20
92.0777328461
 30
0.0
 40
0.4233333333333289
100
AcDbArc
 50
204.2567167511
 51
249.0561464263
  0
LINE
  5
F3
330
1F
100
AcDbEntity
  8
0
  6
Continuous
 62
     7
370
    15
100
AcDbLine
 10
93.6402633614
 20
152.8646689894
 30
0.0
 11
93.6402633614
 21
152.6106689894
 31
0.0
  0
LINE
  5
F4
330
1F
100
AcDbEntity
  8
0
  6
Continuous
 62
     7
370
    15
100
AcDbLine
 10
95.121930028
 20
152.6106689894
 30
0.0
 11
95.121930028
 21
152.8646689894
 31
0.0
  0
LINE
  5
F5
330
1F
100
AcDbEntity
  8
0
  6
Continuous
 62
     7
370
    15
100
AcDbLine
 10
93.6402633614
 20
152.6106689894
 30
0.0
 11
93.724930028
 21
152.5260023227
 31
0.0
  0
LINE
  5
F6
330
1F
100
AcDbEntity
  8
0
  6
Continuous
 62
     7
370
    15
100
AcDbLine
 10
95.0372633614
 20
152.5260023227
 30
0.0
 11
95.121930028
 21
152.6106689894
 31
0.0
  0
LINE
  5
F7
330
1F
100
AcDbEntity
  8
0
  6
Continuous
 62
     7
370
    15
100
AcDbLine
 10
92.4732531472
 20
69.0922433837
 30
0.0
 11
97.155
 21
70.8551707451
 31
0.0
  0
LINE
  5
F8
330
1F
100
AcDbEntity
  8
0
  6
Continuous
 62
     7
370
    15
100
AcDbLine
 10
101.5071737272
 20
77.922214339
 30
0.0
 11
97.459035325
 21
76.3978743488
 31
0.0
  0
ARC
  5
F9
330
1F
100
AcDbEntity
  8
0
  6
Continuous
 62
     7
370
    15
100
AcDbCircle
 10
93.7996745517
 20
92.0884946536
 30
0.0
 40
0.4233333333333429
100
AcDbArc
 50
285.6044743324
 51
334.1353101408
  0
ARC
  5
FA
330
1F
100
AcDbEntity
  8
0
  6
Continuous
 62
     7
370
    15
100
AcDbCircle
 10
93.7996745517
 20
92.0884946536
 30
0.0
 40
0.4233333333333305
100
AcDbArc
 50
205.8646898592
 51
225.7288242028
  0
LINE
  5
FB
330
1F
100
AcDbEntity
  8
0
  6
Continuous
 62
     7
370
    15
100
AcDbLine
 10
94.804430028
 20
93.1738166182
 30
0.0
 11
94.804430028
 21
152.5260023227
 31
0.0
  0
LINE
  5
FC
330
1F
100
AcDbEntity
  8
0
  6
Continuous
 62
     7
370
    15
100
AcDbLine
 10
93.9577633614
 20
152.5260023227
 30
0.0
 11
93.9577633614
 21
93.1738166182
 31
0.0
  0
ARC
  5
FD
330
1F
100
AcDbEntity
  8
0
  6
Continuous
 62
     7
370
    15
100
AcDbCircle
 10
94.5951933869
 20
92.1367581262
 30
0.0
 40
0.4233333333333345
100
AcDbArc
 50
213.3845452095
 51
248.4024154132
  0
LINE
  5
FE
330
1F
100
AcDbEntity
  8
0
  6
Continuous
 62
     7
370
    15
100
AcDbLine
 10
96.3008660539
 20
76.6050158156
 30
0.0
 11
95.2425494033
 21
87.6145054264
 31
0.0
  0
LINE
  5
FF
330
1F
100
AcDbEntity
  8
0
  6
Continuous
 62
     7
370
    15
100
AcDbLine
 10
94.4195783232
 20
91.7515692628
 30
0.0
 11
95.8596090392
 21
76.7711726133
 31
0.0
  0
LINE
  5
100
330
1F
100
AcDbEntity
  8
0
  6
Continuous
 62
     7
370
    15
100
AcDbLine
 10
91.9877201168
 20
68.796326428
 30
0.0
 11
92.5105485576
 21
68.9931992177
 31
0.0
  0
LINE
  5
101
330
1F
100
AcDbEntity
  8
0
  6
Continuous
 62
     7
370
    15
100
AcDbLine
 10
61.2778228464
 20
57.3455002646
 30
0.0
 11
86.2932900841
 21
66.7651577212
 31
0.0
  0
LINE
  5
102
330
1F
100
AcDbEntity
  8
0
  6
Continuous
 62
     7
370
    15
100
AcDbLine
 10
91.3732900841
 20
68.6780486309
 30
0.0
 11
91.6208515808
 21
68.7712687365
 31
0.0
  0
LINE
  5
103
330
1F
100
AcDbEntity
  8
0
  6
Continuous
 62
     7
370
    15
100
AcDbLine
 10
86.2932900841
 20
72.1933758112
 30
0.0
 11
59.4876431484
 21
62.0996202303
 31
0.0
  0
LINE
  5
104
330
1F
100
AcDbEntity
  8
0
  6
Continuous
 62
     7
370
    15
100
AcDbLine
 10
86.2932900841
 20
87.4159993328
 30
0.0
 11
86.2932900841
 21
80.373401859
 31
0.0
  0
LINE
  5
105
330
1F
100
AcDbEntity
  8
0
  6
Continuous
 62
     7
370
    15
100
AcDbLine
 10
91.3732900841
 20
78.4605109493
 30
0.0
 11
91.3732900841
 21
81.7375053004
 31
0.0
  0
LINE
  5
106
330
1F
100
AcDbEntity
  8
0
  6
Continuous
 62
     7
370
    15
100
AcDbLine
 10
91.3732900841
 20
83.4475076297
 30
0.0
 11
91.3732900841
 21
87.4159993328
 31
0.0
  0
LINE
  5
107
330
1F
100
AcDbEntity
  8
0
  6
Continuous
 62
     7
370
    15
100
AcDbLine
 10
132.9948817433
 20
57.2464560986
 30
0.0
 11
133.2562959637
 21
57.1480197038
 31
0.0
  0
LINE
  5
108
330
1F
100
AcDbEntity
  8
0
  6
Continuous
 62
     7
370
    15
100
AcDbLine
 10
135.1210664824
 20
62.1002280014
 30
0.0
 11
134.859652262
 21
62.1986643963
 31
0.0
  0
LINE
  5
109
330
1F
100
AcDbEntity
  8
0
  6
Continuous
 62
     7
370
    15
100
AcDbLine
 10
59.450347738
 20
62.1986643963
 30
0.0
 11
59.1889335176
 21
62.1002280014
 31
0.0
  0
LINE
  5
10A
330
1F
100
AcDbEntity
  8
0
  6
Continuous
 62
     7
370
    15
100
AcDbLine
 10
61.0537040363
 20
57.1480197038
 30
0.0
 11
61.3151182567
 21
57.2464560986
 31
0.0
  0
LWPOLYLINE
  5
10B
330
1F
100
AcDbEntity
  8
0
  6
Continuous
 62
     7
370
    15
100
AcDbPolyline
 90
       66
 70
   128
 43
0.0
 10
87.0215359756
 20
58.0300705143
 10
87.2018089367
 20
57.8717284089
 10
87.3973145976
 20
57.7306670218
 10
87.6062275747
 20
57.608203405
 10
87.8265973039
 20
57.5054809684
 10
88.0563662524
 20
57.4234588036
 10
88.2933891293
 20
57.3629027296
 10
88.5354529159
 20
57.324378142
 10
88.780297528
 20
57.3082447346
 10
89.0256369173
 20
57.3146531407
 10
89.269180416
 20
57.3435435266
 10
89.5086541241
 20
57.3946461507
 10
89.7418221402
 20
57.4674838814
 10
89.9665074372
 20
57.5613766526
 10
90.1806121892
 20
57.6754478127
 10
90.3821373577
 20
57.8086323101
 10
90.5692013564
 20
57.9596866369
 10
90.7400576194
 20
58.1272004396
 10
90.8931109076
 20
58.3096096871
 10
91.0269322038
 20
58.5052112732
 10
91.1402720546
 20
58.7121789186
 10
91.2320722363
 20
58.9285802224
 10
91.3014756353
 20
59.1523947037
 10
91.3478342509
 20
59.381532667
 10
91.3707152451
 20
59.613854713
 10
91.3699049842
 20
59.8471917132
 10
91.3454110335
 20
60.0793650631
 10
91.2974620863
 20
60.3082070225
 10
91.2265058291
 20
60.5315809558
 10
91.1332047612
 20
60.7474012807
 10
91.0184300097
 20
60.953652941
 10
90.8832531955
 20
61.1484102205
 10
90.7289364281
 20
61.329854723
 10
90.5569205214
 20
61.4962923501
 10
90.3688115418
 20
61.6461691184
 10
90.1663658121
 20
61.7780856689
 10
89.9514735135
 20
61.8908103325
 10
89.7261410375
 20
61.9832906292
 10
89.4924722526
 20
62.0546630954
 10
89.2526488615
 20
62.1042613457
 10
89.0089100305
 20
62.1316222946
 10
88.7635314834
 20
62.1364904802
 10
88.5188042535
 20
62.1188204496
 10
88.277013293
 20
62.0787771832
 10
88.0404161391
 20
62.016734554
 10
87.8112218356
 20
61.9332718376
 10
87.591570308
 20
61.8291683026
 10
87.3835123833
 20
61.7053959358
 10
87.1889906424
 20
61.5631103665
 10
87.0098212824
 20
61.4036400765
 10
86.8476771592
 20
61.2284739972
 10
86.7040721689
 20
61.039247607
 10
86.5803471127
 20
60.8377276616
 10
86.4776571779
 20
60.6257956985
 10
86.3969611529
 20
60.4054304694
 10
86.3390124747
 20
60.178689465
 10
86.3043521944
 20
59.9476897051
 10
86.2933039259
 20
59.714587972
 10
86.3059708238
 20
59.4815606739
 10
86.3422346206
 20
59.2507835239
 10
86.4017567311
 20
59.0244112261
 10
86.4839814134
 20
58.8045573575
 10
86.5881409578
 20
58.5932746346
 10
86.7132628547
 20
58.3925357472
 10
86.8581788745
 20
58.2042149402
 10
87.0215359756
 20
58.0300705143
  0
LWPOLYLINE
  5
10C
330
1F
100
AcDbEntity
  8
0
  6
Continuous
 62
     7
370
    15
100
AcDbPolyline
 90
       18
 70
   128
 43
0.0
 10
88.8332900841
 20
73.6872717051
 10
88.588144725
 20
73.6759983446
 10
88.345288222
 20
73.6422835195
 10
88.106988061
 20
73.586442016
 10
87.8754691862
 20
73.5089952111
 10
87.6528932271
 20
73.4106662049
 10
87.4413383154
 20
73.2923730687
 10
87.2427796824
 20
73.1552202737
 10
87.0590712164
 20
73.0004883786
 10
86.8919281539
 20
72.8296220734
 10
86.7429110647
 20
72.6442166908
 10
86.6134112812
 20
72.4460033108
 10
86.504637908
 20
72.2368325984
 10
86.4176065327
 20
72.0186575242
 10
86.3531297439
 20
71.79351513
 10
86.3118095439
 20
71.5635075098
 10
86.2940317283
 20
71.3307821827
 10
86.2932900841
 20
71.2724305769
  0
ARC
  5
10D
330
1F
100
AcDbEntity
  8
0
  6
Continuous
 62
     7
370
    15
100
AcDbCircle
 10
88.9914954871
 20
71.2527536442
 30
0.0
 40
2.38187587506662
100
AcDbArc
 50
0.4733319781
 51
54.6567657445
  0
ARC
  5
10E
330
1F
100
AcDbEntity
  8
0
  6
Continuous
 62
     7
370
    15
100
AcDbCircle
 10
88.8356476682
 20
71.0398791202
 30
0.0
 40
2.647393634636743
100
AcDbArc
 50
64.343944906
 51
90.0510236306
  0
LWPOLYLINE
  5
10F
330
1F
100
AcDbEntity
  8
0
  6
Continuous
 62
     7
370
    15
100
AcDbPolyline
 90
       41
 70
   128
 43
0.0
 10
59.103204154
 20
85.0785907365
 10
59.2127306487
 20
85.0299394871
 10
59.3304854583
 20
85.0037882205
 10
59.4554021768
 20
85.0003737664
 10
59.5863495392
 20
85.0197270468
 10
59.7221416658
 20
85.0616727953
 10
59.8615488022
 20
85.1258311447
 10
60.0033084557
 20
85.2116210672
 10
60.146136829
 20
85.3182656358
 10
60.2887404461
 20
85.4447990608
 10
60.4298278666
 20
85.590075436
 10
60.5681213811
 20
85.752779116
 10
60.702368582
 20
85.931436631
 10
60.8313537059
 20
86.124430031
 10
60.9539086435
 20
86.3300115379
 10
61.0689235183
 20
86.5463193736
 10
61.1753567379
 20
86.7713946209
 10
61.2722444265
 20
87.0031989636
 10
61.3587091541
 20
87.2396331455
 10
61.4339678829
 20
87.4785559822
 10
61.4973390582
 20
87.7178037514
 10
61.5482487806
 20
87.9552097883
 10
61.586236004
 20
88.1886241071
 10
61.6109567102
 20
88.4159328715
 10
61.6221870245
 20
88.6350775382
 10
61.6198252436
 20
88.844073499
 10
61.6038927561
 20
89.0410280544
 10
61.574533849
 20
89.2241575532
 10
61.5320144012
 20
89.3918035464
 10
61.4767194754
 20
89.5424478059
 10
61.4091498309
 20
89.674726074
 10
61.329917389
 20
89.7874404182
 10
61.239739691
 20
89.8795700799
 10
61.1394333999
 20
89.9502807187
 10
61.0299069052
 20
89.9989319681
 10
60.9121520956
 20
90.0250832347
 10
60.7872353771
 20
90.0284976888
 10
60.6562880147
 20
90.0091444084
 10
60.5204958881
 20
89.9671986599
 10
60.3810887517
 20
89.9030403104
 10
60.2726078919
 20
89.8392026841
  0
ARC
  5
110
330
1F
100
AcDbEntity
  8
0
  6
Continuous
 62
     7
370
    15
100
AcDbCircle
 10
59.6567270848
 20
85.8874455746
 30
0.0
 40
0.9801192703326261
100
AcDbArc
 50
192.9812625378
 51
235.6150267572
  0
LWPOLYLINE
  5
111
330
1F
100
AcDbEntity
  8
0
  6
Continuous
 62
     7
370
    15
100
AcDbPolyline
 90
       27
 70
   128
 43
0.0
 10
59.9905280273
 20
85.4256144183
 10
60.1251056628
 20
85.5229170354
 10
60.2596456625
 20
85.64001226
 10
60.3928109075
 20
85.7757363471
 10
60.5232779417
 20
85.9287404098
 10
60.6497501252
 20
86.097503825
 10
60.7709705205
 20
86.280349346
 10
60.8857343849
 20
86.4754597719
 10
60.9929011435
 20
86.6808960077
 10
61.0914057251
 20
86.8946163356
 10
61.1802691467
 20
87.1144967072
 10
61.2586082438
 20
87.3383518524
 10
61.3256444472
 20
87.5639569983
 10
61.380711521
 20
87.7890699795
 10
61.423262184
 20
88.0114535222
 10
61.4528735484
 20
88.2288974787
 10
61.4692513233
 20
88.4392407933
 10
61.4722327389
 20
88.6403929798
 10
61.4617881647
 20
88.8303548972
 10
61.4380214035
 20
89.0072386186
 10
61.40116866
 20
89.1692861943
 10
61.3515961934
 20
89.3148871226
 10
61.2897966771
 20
89.442594356
 10
61.2163843025
 20
89.5511386827
 10
61.1320886747
 20
89.6394413404
 10
61.0377475615
 20
89.7066247377
 10
60.9604655104
 20
89.7429294615
  0
LWPOLYLINE
  5
112
330
1F
100
AcDbEntity
  8
0
  6
Continuous
 62
     7
370
    15
100
AcDbPolyline
 90
        7
 70
   128
 43
0.0
 10
59.2821720435
 20
85.2859419936
 10
59.3631609129
 20
85.2624717567
 10
59.4783184831
 20
85.2505327506
 10
59.5998664792
 20
85.2610934294
 10
59.7265969024
 20
85.2940488364
 10
59.857250249
 20
85.3490714458
 10
59.9905280273
 20
85.4256144183
  0
LWPOLYLINE
  5
113
330
1F
100
AcDbEntity
  8
0
  6
Continuous
 62
     7
370
    15
100
AcDbPolyline
 90
       35
 70
   128
 43
0.0
 10
59.450347738
 20
84.9398951839
 10
59.4741448691
 20
84.9315030923
 10
59.5918996787
 20
84.9053518256
 10
59.7168163972
 20
84.9019373716
 10
59.8477637596
 20
84.9212906519
 10
59.9835558862
 20
84.9632364004
 10
60.1229630226
 20
85.0273947499
 10
60.2647226761
 20
85.1131846723
 10
60.4075510494
 20
85.2198292409
 10
60.5501546665
 20
85.346362666
 10
60.691242087
 20
85.4916390411
 10
60.8295356015
 20
85.6543427211
 10
60.9637828024
 20
85.8330002362
 10
61.0927679263
 20
86.0259936362
 10
61.2153228639
 20
86.231575143
 10
61.3303377387
 20
86.4478829787
 10
61.4367709583
 20
86.6729582261
 10
61.5336586469
 20
86.9047625687
 10
61.6201233745
 20
87.1411967507
 10
61.6953821033
 20
87.3801195874
 10
61.7587532786
 20
87.6193673566
 10
61.809663001
 20
87.8567733935
 10
61.8476502244
 20
88.0901877123
 10
61.8723709306
 20
88.3174964766
 10
61.8836012449
 20
88.5366411433
 10
61.881239464
 20
88.7456371042
 10
61.8653069765
 20
88.9425916595
 10
61.8359480694
 20
89.1257211583
 10
61.7934286216
 20
89.2933671516
 10
61.7381336958
 20
89.4440114111
 10
61.6705640513
 20
89.5762896792
 10
61.5913316094
 20
89.6890040234
 10
61.5011539114
 20
89.7811336851
 10
61.4008476203
 20
89.8518443239
 10
61.3151182567
 20
89.8921034816
  0
LWPOLYLINE
  5
114
330
1F
100
AcDbEntity
  8
0
  6
Continuous
 62
     7
370
    15
100
AcDbPolyline
 90
       64
 70
   128
 43
0.0
 10
59.7291138069
 20
85.5240508131
 10
59.8636914424
 20
85.6213534302
 10
59.9982314421
 20
85.7384486548
 10
60.1313966871
 20
85.8741727419
 10
60.2618637213
 20
86.0271768047
 10
60.3883359048
 20
86.1959402199
 10
60.5095563001
 20
86.3787857409
 10
60.6243201645
 20
86.5738961668
 10
60.7314869231
 20
86.7793324025
 10
60.8299915047
 20
86.9930527305
 10
60.9188549263
 20
87.212933102
 10
60.9971940234
 20
87.4367882473
 10
61.0642302268
 20
87.6623933931
 10
61.1192973006
 20
87.8875063744
 10
61.1618479636
 20
88.109889917
 10
61.191459328
 20
88.3273338735
 10
61.2078371029
 20
88.5376771882
 10
61.2108185185
 20
88.7388293746
 10
61.2003739443
 20
88.928791292
 10
61.1766071831
 20
89.1056750135
 10
61.1397544396
 20
89.2677225892
 10
61.090181973
 20
89.4133235174
 10
61.0283824567
 20
89.5410307509
 10
60.9549700821
 20
89.6495750776
 10
60.8706744543
 20
89.7378777353
 10
60.7763333411
 20
89.8050611325
 10
60.672884347
 20
89.8504575705
 10
60.5613555944
 20
89.873615879
 10
60.4428555063
 20
89.8743059004
 10
60.3185617898
 20
89.8525207768
 10
60.1897097316
 20
89.8084770188
 10
60.0575799214
 20
89.7426123529
 10
59.9234855246
 20
89.6555813717
 10
59.7887592316
 20
89.5482490283
 10
59.6547400128
 20
89.4216820397
 10
59.5227598114
 20
89.2771382855
 10
59.394130306
 20
89.1160543065
 10
59.2701298743
 20
88.9400310276
 10
59.1519908884
 20
88.7508178472
 10
59.0408874665
 20
88.550295251
 10
58.9379238045
 20
88.3404561226
 10
58.8441232014
 20
88.1233859375
 10
58.7604178897
 20
87.9012420368
 10
58.6876397706
 20
87.6762321862
 10
58.6265121455
 20
87.450592635
 10
58.5776425283
 20
87.2265658901
 10
58.5415166072
 20
87.0063784302
 10
58.5184934179
 20
86.792218577
 10
58.5088017752
 20
86.5862147475
 10
58.5125379989
 20
86.3904143002
 10
58.5296649568
 20
86.206763188
 10
58.5600124334
 20
86.037086618
 10
58.603278822
 20
85.8830709124
 10
58.6590341217
 20
85.7462467483
 10
58.7267242113
 20
85.6279739459
 10
58.8056763562
 20
85.5294279532
 10
58.8951058947
 20
85.4515881648
 10
58.9941240357
 20
85.3952281873
 10
59.1017466925
 20
85.3609081515
 10
59.2169042627
 20
85.3489691455
 10
59.3384522588
 20
85.3595298243
 10
59.465182682
 20
85.3924852312
 10
59.5958360286
 20
85.4475078407
 10
59.7291138069
 20
85.5240508131
  0
LWPOLYLINE
  5
115
330
1F
100
AcDbEntity
  8
0
  6
Continuous
 62
     7
370
    15
100
AcDbPolyline
 90
       20
 70
   128
 43
0.0
 10
91.9210831466
 20
74.8511871734
 10
92.0282834577
 20
75.0674064489
 10
92.1263996099
 20
75.2910831818
 10
92.214515519
 20
75.5201289625
 10
92.2918084707
 20
75.7524052523
 10
92.3575568014
 20
75.9857433502
 10
92.4111466366
 20
76.2179646412
 10
92.4520776226
 20
76.4469009376
 10
92.4799675977
 20
76.6704147229
 10
92.4945561608
 20
76.8864191092
 10
92.4957071023
 20
77.0928973216
 10
92.4834096763
 20
77.2879215289
 10
92.4577787004
 20
77.4696708423
 10
92.4190534843
 20
77.6364483177
 10
92.3675955948
 20
77.7866967986
 10
92.3038854803
 20
77.9190134555
 10
92.2285179851
 20
78.0321628834
 10
92.1421967951
 20
78.1250886365
 10
92.045727868
 20
78.1969230922
 10
91.9504247064
 20
78.2431889862
  0
LWPOLYLINE
  5
116
330
1F
100
AcDbEntity
  8
0
  6
Continuous
 62
     7
370
    15
100
AcDbPolyline
 90
       15
 70
   128
 43
0.0
 10
90.1602450084
 20
73.4890690205
 10
90.2266780989
 20
73.4685411415
 10
90.3443894243
 20
73.4519235219
 10
90.4687386557
 20
73.4578466883
 10
90.5985647777
 20
73.4862553379
 10
90.7326556389
 20
73.5368842267
 10
90.869759269
 20
73.6092606464
 10
91.0085955684
 20
73.7027088378
 10
91.14786826
 20
73.8163563004
 10
91.2862769921
 20
73.9491419385
 10
91.4225294797
 20
74.0998259683
 10
91.55535357
 20
74.2670014936
 10
91.6835091204
 20
74.4491076416
 10
91.8057995769
 20
74.6444441363
 10
91.9210831466
 20
74.8511871734
  0
LWPOLYLINE
  5
117
330
1F
100
AcDbEntity
  8
0
  6
Continuous
 62
     7
370
    15
100
AcDbPolyline
 90
       30
 70
   128
 43
0.0
 10
132.5986711398
 20
89.5016528921
 10
132.5381740633
 20
89.3585347518
 10
132.4902568276
 20
89.1978247099
 10
132.4553533785
 20
89.0209781815
 10
132.4337798072
 20
88.8295967161
 10
132.4257314872
 20
88.6254134939
 10
132.4312813053
 20
88.4102776298
 10
132.4503790015
 20
88.1861374274
 10
132.4828516242
 20
87.9550227352
 10
132.5284050962
 20
87.7190265636
 10
132.5866268783
 20
87.4802861305
 10
132.6569897049
 20
87.2409635062
 10
132.7388563595
 20
87.0032260334
 10
132.8314854449
 20
86.7692266996
 10
132.9340380977
 20
86.5410846389
 10
133.0455855853
 20
86.3208659411
 10
133.1651177164
 20
86.1105649409
 10
133.2915519894
 20
85.9120861567
 10
133.423743396
 20
85.7272270431
 10
133.5604947904
 20
85.5576617129
 10
133.7005677307
 20
85.4049257759
 10
133.8426936947
 20
85.2704024325
 10
133.9855855678
 20
85.1553099469
 10
134.1279492988
 20
85.0606906145
 10
134.2684956199
 20
84.9874013225
 10
134.4059517218
 20
84.9361057901
 10
134.5390727808
 20
84.9072685578
 10
134.6666532319
 20
84.9011507798
 10
134.7875376868
 20
84.9178078597
 10
134.859652262
 20
84.9398951839
  0
ARC
  5
118
330
1F
100
AcDbEntity
  8
0
  6
Continuous
 62
     7
370
    15
100
AcDbCircle
 10
133.2861394757
 20
89.2002959604
 30
0.0
 40
0.7506188867466673
100
AcDbArc
 50
112.8315686696
 51
156.329395185
  0
LWPOLYLINE
  5
119
330
1F
100
AcDbEntity
  8
0
  6
Continuous
 62
     7
370
    15
100
AcDbPolyline
 90
       36
 70
   128
 43
0.0
 10
132.8600853602
 20
89.6000892869
 10
132.7995882837
 20
89.4569711466
 10
132.751671048
 20
89.2962611047
 10
132.7167675989
 20
89.1194145763
 10
132.6951940276
 20
88.9280331109
 10
132.6871457076
 20
88.7238498888
 10
132.6926955257
 20
88.5087140246
 10
132.7117932219
 20
88.2845738223
 10
132.7442658446
 20
88.0534591301
 10
132.7898193166
 20
87.8174629585
 10
132.8480410987
 20
87.5787225254
 10
132.9184039253
 20
87.3393999011
 10
133.0002705799
 20
87.1016624283
 10
133.0928996653
 20
86.8676630944
 10
133.1954523181
 20
86.6395210337
 10
133.3069998057
 20
86.4193023359
 10
133.4265319368
 20
86.2090013357
 10
133.5529662098
 20
86.0105225516
 10
133.6851576164
 20
85.825663438
 10
133.8219090108
 20
85.6560981078
 10
133.9619819511
 20
85.5033621708
 10
134.1041079151
 20
85.3688388274
 10
134.2469997882
 20
85.2537463418
 10
134.3893635192
 20
85.1591270093
 10
134.5299098403
 20
85.0858377173
 10
134.6673659422
 20
85.034542185
 10
134.8004870012
 20
85.0057049526
 10
134.9280674523
 20
84.9995871746
 10
135.0489519072
 20
85.0162442545
 10
135.1620456175
 20
85.0555253433
 10
135.2663243892
 20
85.1170747053
 10
135.3608438575
 20
85.2003349399
 10
135.4447480395
 20
85.3045520296
 10
135.5172770858
 20
85.4287821683
 10
135.5777741623
 20
85.5719003086
 10
135.6083438444
 20
85.667279037
  0
LWPOLYLINE
  5
11A
330
1F
100
AcDbEntity
  8
0
  6
Continuous
 62
     7
370
    15
100
AcDbPolyline
 90
       12
 70
   128
 43
0.0
 10
134.0373921081
 20
89.8392026841
 10
133.9879989269
 20
89.8697444459
 10
133.8474526058
 20
89.9430337379
 10
133.7099965039
 20
89.9943292702
 10
133.5768754449
 20
90.0231665026
 10
133.4492949938
 20
90.0292842806
 10
133.3284105389
 20
90.0126272007
 10
133.2153168285
 20
89.9733461119
 10
133.1110380568
 20
89.91179675
 10
133.0165185886
 20
89.8285365153
 10
132.9326144066
 20
89.7243194256
 10
132.8600853602
 20
89.6000892869
  0
LWPOLYLINE
  5
11B
330
1F
100
AcDbEntity
  8
0
  6
Continuous
 62
     7
370
    15
100
AcDbPolyline
 90
       22
 70
   128
 43
0.0
 10
132.8552459804
 20
88.2467957023
 10
132.8837597434
 20
88.0298637659
 10
132.9252424023
 20
87.8078092741
 10
132.9792816838
 20
87.5828391041
 10
133.0453405213
 20
87.3571891107
 10
133.1227623924
 20
87.1331019048
 10
133.2107778436
 20
86.9128045658
 10
133.308512138
 20
86.6984865075
 10
133.4149939482
 20
86.4922777192
 10
133.5291650102
 20
86.2962275964
 10
133.6498906405
 20
86.1122845732
 10
133.7759710137
 20
85.9422767582
 10
133.9061530864
 20
85.7878937654
 10
134.0391430507
 20
85.6506699223
 10
134.1736191925
 20
85.5319690211
 10
134.3082450275
 20
85.4329707646
 10
134.4416825837
 20
85.3546590421
 10
134.5726056987
 20
85.2978121507
 10
134.6997131998
 20
85.2629950602
 10
134.8217418356
 20
85.2505537985
 10
134.9374788305
 20
85.2606120126
 10
135.0278279565
 20
85.2859419937
  0
LWPOLYLINE
  5
11C
330
1F
100
AcDbEntity
  8
0
  6
Continuous
 62
     7
370
    15
100
AcDbPolyline
 90
       12
 70
   128
 43
0.0
 10
133.3495344896
 20
89.7429294616
 10
133.2805711876
 20
89.7112652182
 10
133.1854308855
 20
89.6458818099
 10
133.100261336
 20
89.5593151329
 10
133.0259089924
 20
89.4524255257
 10
132.9631128015
 20
89.3262753052
 10
132.9124968602
 20
89.1821182089
 10
132.8745642125
 20
89.0213869349
 10
132.8496918501
 20
88.8456789028
 10
132.8381269655
 20
88.656740378
 10
132.839984496
 20
88.4564491163
 10
132.8552459804
 20
88.2467957023
  0
LWPOLYLINE
  5
11D
330
1F
100
AcDbEntity
  8
0
  6
Continuous
 62
     7
370
    15
100
AcDbPolyline
 90
       64
 70
   128
 43
0.0
 10
133.1166602008
 20
88.3452320972
 10
133.1451739638
 20
88.1283001608
 10
133.1866566227
 20
87.9062456689
 10
133.2406959042
 20
87.681275499
 10
133.3067547417
 20
87.4556255056
 10
133.3841766128
 20
87.2315382997
 10
133.472192064
 20
87.0112409606
 10
133.5699263584
 20
86.7969229024
 10
133.6764081686
 20
86.590714114
 10
133.7905792306
 20
86.3946639912
 10
133.9113048609
 20
86.2107209681
 10
134.0373852341
 20
86.0407131531
 10
134.1675673068
 20
85.8863301603
 10
134.3005572711
 20
85.7491063171
 10
134.4350334129
 20
85.6304054159
 10
134.5696592479
 20
85.5314071595
 10
134.7030968041
 20
85.453095437
 10
134.8340199191
 20
85.3962485455
 10
134.9611274202
 20
85.361431455
 10
135.083156056
 20
85.3489901934
 10
135.1988930509
 20
85.3590484074
 10
135.3071881588
 20
85.3915061341
 10
135.4069650943
 20
85.446040794
 10
135.4972322292
 20
85.5221103971
 10
135.5770924483
 20
85.6189589296
 10
135.6457520649
 20
85.7356238672
 10
135.7025287088
 20
85.8709457413
 10
135.7468581082
 20
86.0235796624
 10
135.7782996977
 20
86.192008686
 10
135.7965409966
 20
86.3745588888
 10
135.8014007146
 20
86.5694160048
 10
135.7928305538
 20
86.7746434565
 10
135.7709156882
 20
86.9882016013
 10
135.7358739175
 20
87.2079680024
 10
135.6880535028
 20
87.4317585225
 10
135.6279297047
 20
87.657349031
 10
135.5561000605
 20
87.8824975079
 10
135.4732784455
 20
88.1049663267
 10
135.3802879782
 20
88.3225444921
 10
135.2780528396
 20
88.5330696147
 10
135.1675890884
 20
88.7344494013
 10
135.049994563
 20
88.9246824489
 10
134.9264379706
 20
89.1018781361
 10
134.7981472722
 20
89.2642754127
 10
134.6663974784
 20
89.4102603014
 10
134.5324979777
 20
89.5383819388
 10
134.3977795237
 20
89.6473669947
 10
134.2635810087
 20
89.7361323264
 10
134.131236158
 20
89.8037957444
 10
134.0020602742
 20
89.849684779
 10
133.8773371651
 20
89.8733433646
 10
133.7583063851
 20
89.8745363714
 10
133.6461509156
 20
89.8532519428
 10
133.541985408
 20
89.809701613
 10
133.4468451059
 20
89.7443182048
 10
133.3616755564
 20
89.6577515278
 10
133.2873232128
 20
89.5508619205
 10
133.2245270219
 20
89.4247117
 10
133.1739110806
 20
89.2805546038
 10
133.1359784329
 20
89.1198233298
 10
133.1111060704
 20
88.9441152977
 10
133.0995411859
 20
88.7551767728
 10
133.1013987164
 20
88.5548855111
 10
133.1166602008
 20
88.3452320972
  0
LWPOLYLINE
  5
11E
330
1F
100
AcDbEntity
  8
0
  6
Continuous
 62
     7
370
    15
100
AcDbPolyline
 90
       24
 70
   128
 43
0.0
 10
102.3595752936
 20
78.2431889862
 10
102.2629938518
 20
78.1961501732
 10
102.1666476876
 20
78.1240446818
 10
102.0804600494
 20
78.03085764
 10
102.0052356476
 20
77.9174591102
 10
101.9416768325
 20
77.7849078639
 10
101.8903770354
 20
77.6344414964
 10
101.8518152288
 20
77.4674648716
 10
101.8263514539
 20
77.2855370052
 10
101.814223459
 20
77.0903565087
 10
101.8155444801
 20
76.8837457299
 10
101.830302183
 20
76.6676337379
 10
101.8583587791
 20
76.4440383121
 10
101.8994523115
 20
76.2150471028
 10
101.9531991009
 20
75.9827981393
 10
102.0190973282
 20
75.7494598674
 10
102.0965317192
 20
75.5172109039
 10
102.1847792899
 20
75.2882196946
 10
102.2830160966
 20
75.0646242688
 10
102.3903249286
 20
74.8485122768
 10
102.5057038723
 20
74.641901498
 10
102.6280756656
 20
74.4467210015
 10
102.7562977561
 20
74.2647931351
 10
102.8570806201
 20
74.1362513972
  0
LWPOLYLINE
  5
11F
330
1F
100
AcDbEntity
  8
0
  6
Continuous
 62
     7
370
    15
100
AcDbPolyline
 90
       34
 70
   128
 43
0.0
 10
90.675848219
 20
73.182733563
 10
90.7936876568
 20
73.1578663602
 10
90.918592151
 20
73.1556169549
 10
91.0494368009
 20
73.1760056054
 10
91.185043208
 20
73.2188486897
 10
91.3241900892
 20
73.2837603592
 10
91.4656242754
 20
73.3701560138
 10
91.6080719979
 20
73.4772575666
 10
91.75025036
 20
73.6041004516
 10
91.890878891
 20
73.7495423107
 10
92.0286910779
 20
73.9122732817
 10
92.162445772
 20
74.0908277952
 10
92.2909383669
 20
74.2835977736
 10
92.413011647
 20
74.4888471135
 10
92.5275662095
 20
74.7047273214
 10
92.6335703661
 20
74.9292941611
 10
92.730069434
 20
75.1605251641
 10
92.8161943342
 20
75.3963378435
 10
92.8911694181
 20
75.6346084497
 10
92.9543194537
 20
75.8731910968
 10
93.0050757062
 20
76.1099370884
 10
93.0429810603
 20
76.3427142693
 10
93.067694137
 20
76.5694262279
 10
93.0789923682
 20
76.7880311763
 10
93.0767740012
 20
76.9965603392
 10
93.0610590145
 20
77.1931356846
 10
93.0319889389
 20
77.3759868378
 10
92.989825582
 20
77.5434670251
 10
92.9349486706
 20
77.6940679054
 10
92.8678524311
 20
77.8264331539
 10
92.789141138
 20
77.9393706774
 10
92.6995236722
 20
78.0318633509
 10
92.5998071365
 20
78.1030781771
 10
92.5105485576
 20
78.1453603625
  0
LINE
  5
120
330
1F
100
AcDbEntity
  8
0
  6
Continuous
 62
     7
370
    15
100
AcDbLine
 10
90.675848219
 20
73.182733563
 30
0.0
 11
90.1530197782
 21
73.3796063527
 31
0.0
  0
LWPOLYLINE
  5
121
330
1F
100
AcDbEntity
  8
0
  6
Continuous
 62
     7
370
    15
100
AcDbPolyline
 90
       37
 70
   128
 43
0.0
 10
90.1530197782
 20
73.3796063527
 10
90.270859216
 20
73.3547391499
 10
90.3957637102
 20
73.3524897446
 10
90.5266083601
 20
73.3728783951
 10
90.6622147672
 20
73.4157214794
 10
90.8013616484
 20
73.4806331489
 10
90.9427958346
 20
73.5670288035
 10
91.0852435571
 20
73.6741303563
 10
91.2274219193
 20
73.8009732413
 10
91.3680504502
 20
73.9464151004
 10
91.5058626371
 20
74.1091460714
 10
91.6396173312
 20
74.2877005849
 10
91.7681099261
 20
74.4804705633
 10
91.8901832062
 20
74.6857199032
 10
92.0047377687
 20
74.9016001111
 10
92.1107419253
 20
75.1261669508
 10
92.2072409932
 20
75.3573979538
 10
92.2933658934
 20
75.5932106332
 10
92.3683409773
 20
75.8314812395
 10
92.4314910129
 20
76.0700638865
 10
92.4822472654
 20
76.3068098781
 10
92.5201526195
 20
76.539587059
 10
92.5448656962
 20
76.7662990176
 10
92.5561639275
 20
76.984903966
 10
92.5539455604
 20
77.1934331289
 10
92.5382305737
 20
77.3900084743
 10
92.5091604981
 20
77.5728596275
 10
92.4669971412
 20
77.7403398148
 10
92.4121202298
 20
77.8909406951
 10
92.3450239903
 20
78.0233059436
 10
92.2663126972
 20
78.1362434671
 10
92.1766952315
 20
78.2287361406
 10
92.0769786957
 20
78.2999509668
 10
91.9680611459
 20
78.3492465788
 10
91.850923503
 20
78.3761790159
 10
91.7266207189
 20
78.3805057223
 10
91.6208515808
 20
78.3672908437
  0
LWPOLYLINE
  5
122
330
1F
100
AcDbEntity
  8
0
  6
Continuous
 62
     7
370
    15
100
AcDbPolyline
 90
        9
 70
   128
 43
0.0
 10
90.1530197782
 20
73.3796063527
 10
90.1427928277
 20
73.3811282097
 10
90.1316876612
 20
73.3795293596
 10
90.1199662002
 20
73.3748475124
 10
90.1079049015
 20
73.3671930919
 10
90.0957882375
 20
73.3567466317
 10
90.0839019862
 20
73.3437545173
 10
90.0725264913
 20
73.3285231746
 10
90.0619300499
 20
73.3114118432
  0
LINE
  5
123
330
1F
100
AcDbEntity
  8
0
  6
Continuous
 62
     7
370
    15
100
AcDbLine
 10
90.0619300499
 20
73.3114118432
 30
0.0
 11
89.8822101579
 21
73.5692797901
 31
0.0
  0
LINE
  5
124
330
1F
100
AcDbEntity
  8
0
  6
Continuous
 62
     7
370
    15
100
AcDbLine
 10
89.8822101579
 20
73.5692797901
 30
0.0
 11
89.8590743174
 21
73.6024758466
 31
0.0
  0
LWPOLYLINE
  5
125
330
1F
100
AcDbEntity
  8
0
  6
Continuous
 62
     7
370
    15
100
AcDbPolyline
 90
       13
 70
   128
 43
0.0
 10
104.1538519124
 20
72.2474224906
 10
104.1700281992
 20
72.4644248289
 10
104.1727764794
 20
72.6721359863
 10
104.1620710932
 20
72.8686166196
 10
104.1380119938
 20
73.0520322421
 10
104.1008238146
 20
73.2206703515
 10
104.0508537716
 20
73.3729564193
 10
103.9885684216
 20
73.5074685914
 10
103.9145493061
 20
73.6229509639
 10
103.8294875217
 20
73.7183253091
 10
103.7341772673
 20
73.7927011424
 10
103.6295084292
 20
73.8453840367
 10
103.6269265508
 20
73.8463633495
  0
LWPOLYLINE
  5
126
330
1F
100
AcDbEntity
  8
0
  6
Continuous
 62
     7
370
    15
100
AcDbPolyline
 90
       23
 70
   128
 43
0.0
 10
101.8367468528
 20
69.0922433837
 10
101.8897066362
 20
69.0751778663
 10
102.0065561472
 20
69.0558920642
 10
102.1301774074
 20
69.0591396332
 10
102.2594161982
 20
69.0848902516
 10
102.3930658521
 20
69.1329034928
 10
102.529878518
 20
69.2027310702
 10
102.6685768132
 20
69.2937210223
 10
102.8078657488
 20
69.4050238007
 10
102.9464448218
 20
69.5356002011
 10
103.0830201565
 20
69.684231067
 10
103.2163165859
 20
69.849528672
 10
103.3450895572
 20
70.0299496769
 10
103.4681367519
 20
70.2238095394
 10
103.5843093113
 20
70.4292982421
 10
103.6925225637
 20
70.6444971925
 10
103.791766151
 20
70.867397136
 10
103.8811134627
 20
71.0959169157
 10
103.9597302868
 20
71.3279229041
 10
104.0268825994
 20
71.5612489238
 10
104.0819434174
 20
71.7937164726
 10
104.1243986528
 20
72.0231550636
 10
104.1538519124
 20
72.2474224906
  0
LINE
  5
127
330
1F
100
AcDbEntity
  8
0
  6
Continuous
 62
     7
370
    15
100
AcDbLine
 10
90.5847584907
 20
73.1145390535
 30
0.0
 11
90.0619300499
 21
73.3114118432
 31
0.0
  0
LWPOLYLINE
  5
128
330
1F
100
AcDbEntity
  8
0
  6
Continuous
 62
     7
370
    15
100
AcDbPolyline
 90
        9
 70
   128
 43
0.0
 10
90.675848219
 20
73.182733563
 10
90.6656212685
 20
73.18425542
 10
90.654516102
 20
73.1826565699
 10
90.642794641
 20
73.1779747227
 10
90.6307333423
 20
73.1703203022
 10
90.6186166783
 20
73.159873842
 10
90.606730427
 20
73.1468817275
 10
90.5953549321
 20
73.1316503849
 10
90.5847584907
 20
73.1145390535
  0
LINE
  5
129
330
1F
100
AcDbEntity
  8
0
  6
Continuous
 62
     7
370
    15
100
AcDbLine
 10
89.8822101579
 20
73.5692797901
 30
0.0
 11
89.6994704949
 21
73.6625751973
 31
0.0
  0
LINE
  5
12A
330
1F
100
AcDbEntity
  8
0
  6
Continuous
 62
     7
370
    15
100
AcDbLine
 10
90.7729203386
 20
73.1145390535
 30
0.0
 11
90.6457943875
 21
73.1794415885
 31
0.0
  0
ARC
  5
12B
330
1F
100
AcDbEntity
  8
0
  6
Continuous
 62
     7
370
    15
100
AcDbCircle
 10
90.8838689335
 20
73.0518354615
 30
0.0
 40
0.1274414813594326
100
AcDbArc
 50
150.5266485412
 51
224.182726136
  0
ARC
  5
12C
330
1F
100
AcDbEntity
  8
0
  6
Continuous
 62
     7
370
    15
100
AcDbCircle
 10
89.0527519081
 20
71.2732128912
 30
0.0
 40
2.425299757972798
100
AcDbArc
 50
343.0982465482
 51
44.1660028776
  0
LWPOLYLINE
  5
12D
330
1F
100
AcDbEntity
  8
0
  6
Continuous
 62
     7
370
    15
100
AcDbPolyline
 90
       23
 70
   128
 43
0.0
 10
86.2932900841
 20
70.5681019145
 10
86.2840438688
 20
70.5989725212
 10
86.2283750435
 20
70.8317497021
 10
86.1961663116
 20
71.0684956937
 10
86.187707748
 20
71.3070783408
 10
86.203075531
 20
71.545348947
 10
86.2421312572
 20
71.7811616264
 10
86.3045231873
 20
72.0123926294
 10
86.389689414
 20
72.2369594691
 10
86.4968629228
 20
72.452839677
 10
86.6250784996
 20
72.6580890169
 10
86.7731814239
 20
72.8508589953
 10
86.9398378676
 20
73.0294135088
 10
87.1235469081
 20
73.1921444798
 10
87.3226540458
 20
73.3375863389
 10
87.5353661042
 20
73.4644292239
 10
87.7597673799
 20
73.5715307767
 10
87.9938368953
 20
73.6579264313
 10
88.2354665998
 20
73.7228381008
 10
88.482480355
 20
73.7656811851
 10
88.7326535335
 20
73.7860698356
 10
88.9837330536
 20
73.7838204303
 10
89.2334576711
 20
73.7589532275
  0
ARC
  5
12E
330
1F
100
AcDbEntity
  8
0
  6
Continuous
 62
     7
370
    15
100
AcDbCircle
 10
89.2547191645
 20
73.9010826485
 30
0.0
 40
0.1437109022264311
100
AcDbArc
 50
261.4920708043
 51
311.8121578375
  0
ARC
  5
12F
330
1F
100
AcDbEntity
  8
0
  6
Continuous
 62
     7
370
    15
100
AcDbCircle
 10
89.0316181406
 20
71.4599639735
 30
0.0
 40
2.447523095836672
100
AcDbArc
 50
0.2186329126
 51
43.9912682242
  0
LWPOLYLINE
  5
130
330
1F
100
AcDbEntity
  8
0
  6
Continuous
 62
     7
370
    15
100
AcDbPolyline
 90
       19
 70
   128
 43
0.0
 10
86.1874567508
 20
71.4693033666
 10
86.187707748
 20
71.5039511305
 10
86.203075531
 20
71.7422217367
 10
86.2421312572
 20
71.9780344161
 10
86.3045231873
 20
72.2092654191
 10
86.389689414
 20
72.4338322588
 10
86.4968629228
 20
72.6497124667
 10
86.6250784996
 20
72.8549618066
 10
86.7731814239
 20
73.047731785
 10
86.9398378676
 20
73.2262862985
 10
87.1235469081
 20
73.3890172695
 10
87.3226540458
 20
73.5344591286
 10
87.5353661042
 20
73.6613020136
 10
87.7597673799
 20
73.7684035664
 10
87.9938368953
 20
73.854799221
 10
88.2354665998
 20
73.9197108905
 10
88.482480355
 20
73.9625539748
 10
88.7326535335
 20
73.9829426253
 10
88.8439012471
 20
73.9847426455
  0
LINE
  5
131
330
1F
100
AcDbEntity
  8
0
  6
Continuous
 62
     7
370
    15
100
AcDbLine
 10
90.7729203386
 20
73.1145390535
 30
0.0
 11
90.7729203386
 21
73.1605315839
 31
0.0
  0
LINE
  5
132
330
1F
100
AcDbEntity
  8
0
  6
Continuous
 62
     7
370
    15
100
AcDbLine
 10
98.4027633614
 20
152.8646689894
 30
0.0
 11
90.359430028
 21
152.8646689894
 31
0.0
  0
LINE
  5
133
330
1F
100
AcDbEntity
  8
0
  6
Continuous
 62
     7
370
    15
100
AcDbLine
 10
98.614430028
 20
153.711335656
 30
0.0
 11
90.1477633614
 21
153.711335656
 31
0.0
  0
LWPOLYLINE
  5
134
330
1F
100
AcDbEntity
  8
0
  6
Continuous
 62
     7
370
    15
100
AcDbPolyline
 90
        6
 70
   128
 43
0.0
 10
94.8020784463
 20
91.7648635985
 10
94.8736053686
 20
91.7732731286
 10
94.9365050885
 20
91.775588795
 10
94.9831909714
 20
91.7715312941
 10
95.0080320108
 20
91.7615900204
 10
95.0111065969
 20
91.756066574
  0
ARC
  5
135
330
1F
100
AcDbEntity
  8
0
  6
Continuous
 62
     7
370
    15
100
AcDbCircle
 10
94.796871259
 20
91.4519559591
 30
0.0
 40
0.3129509635335079
100
AcDbArc
 50
89.0466122247
 51
130.6387232726
  0
LWPOLYLINE
  5
136
330
1F
100
AcDbEntity
  8
0
  6
Continuous
 62
     7
370
    15
100
AcDbPolyline
 90
       35
 70
   128
 43
0.0
 10
102.3222798832
 20
68.796326428
 10
102.3857537269
 20
68.776371849
 10
102.5057556196
 20
68.7580538579
 10
102.6325022572
 20
68.7623805643
 10
102.7648521484
 20
68.7893130014
 10
102.9016133384
 20
68.8386086134
 10
103.0415541439
 20
68.9098234396
 10
103.1834142458
 20
69.0023161131
 10
103.3259160395
 20
69.1152536366
 10
103.4677761414
 20
69.2476188851
 10
103.6077169469
 20
69.3982197654
 10
103.7444781369
 20
69.5656999527
 10
103.876828028
 20
69.7485511059
 10
104.0035746657
 20
69.9451264513
 10
104.1235765584
 20
70.1536556142
 10
104.2357529586
 20
70.3722605626
 10
104.3390935958
 20
70.5989725212
 10
104.4326677753
 20
70.8317497022
 10
104.5156327596
 20
71.0684956937
 10
104.5872413588
 20
71.3070783408
 10
104.6468486597
 20
71.545348947
 10
104.6939178336
 20
71.7811616264
 10
104.7280249715
 20
72.0123926294
 10
104.7488629014
 20
72.2369594691
 10
104.7562439552
 20
72.452839677
 10
104.7501016584
 20
72.6580890169
 10
104.730491329
 20
72.8508589953
 10
104.6975895795
 20
73.0294135088
 10
104.6516927258
 20
73.1921444798
 10
104.5932141191
 20
73.3375863389
 10
104.5226804228
 20
73.4644292239
 10
104.4407268696
 20
73.5715307767
 10
104.3480915404
 20
73.6579264313
 10
104.2456087171
 20
73.7228381008
 10
104.187050402
 20
73.7485347257
  0
LWPOLYLINE
  5
137
330
1F
100
AcDbEntity
  8
0
  6
Continuous
 62
     7
370
    15
100
AcDbPolyline
 90
       41
 70
   128
 43
0.0
 10
101.5071737272
 20
69.2163452412
 10
101.5538340692
 20
69.1614080993
 10
101.6474082486
 20
69.0769523649
 10
101.7507488858
 20
69.0140423537
 10
101.8629252861
 20
68.9732446387
 10
101.9829271788
 20
68.9549266476
 10
102.1096738164
 20
68.959253354
 10
102.2420237076
 20
68.9861857911
 10
102.3787848976
 20
69.0354814031
 10
102.5187257031
 20
69.1066962293
 10
102.660585805
 20
69.1991889028
 10
102.8030875987
 20
69.3121264264
 10
102.9449477006
 20
69.4444916748
 10
103.0848885061
 20
69.5950925551
 10
103.2216496961
 20
69.7625727424
 10
103.3539995873
 20
69.9454238956
 10
103.4807462249
 20
70.141999241
 10
103.6007481176
 20
70.3505284039
 10
103.7129245178
 20
70.5691333523
 10
103.816265155
 20
70.7958453109
 10
103.9098393345
 20
71.0286224919
 10
103.9928043188
 20
71.2653684834
 10
104.064412918
 20
71.5039511305
 10
104.1240202189
 20
71.7422217367
 10
104.1710893928
 20
71.9780344161
 10
104.2051965307
 20
72.2092654191
 10
104.2260344606
 20
72.4338322588
 10
104.2334155144
 20
72.6497124667
 10
104.2272732176
 20
72.8549618066
 10
104.2076628882
 20
73.047731785
 10
104.1747611387
 20
73.2262862985
 10
104.128864285
 20
73.3890172695
 10
104.0703856783
 20
73.5344591286
 10
103.999851982
 20
73.6613020136
 10
103.9178984288
 20
73.7684035664
 10
103.8252630996
 20
73.854799221
 10
103.7227802763
 20
73.9197108905
 10
103.6113729282
 20
73.9625539748
 10
103.4920443996
 20
73.9829426253
 10
103.3658693737
 20
73.98069322
 10
103.2973534252
 20
73.970465207
  0
LINE
  5
138
330
1F
100
AcDbEntity
  8
0
  6
Continuous
 62
     7
370
    15
100
AcDbLine
 10
103.1729467817
 20
74.0173109427
 30
0.0
 11
103.1814127701
 21
74.0240205267
 31
0.0
  0
LINE
  5
139
330
1F
100
AcDbEntity
  8
0
  6
Continuous
 62
     7
370
    15
100
AcDbLine
 10
103.1817190337
 20
74.014007722
 30
0.0
 11
103.1814127701
 21
74.0240205267
 31
0.0
  0
LWPOLYLINE
  5
13A
330
1F
100
AcDbEntity
  8
0
  6
Continuous
 62
     7
370
    15
100
AcDbPolyline
 90
       34
 70
   128
 43
0.0
 10
134.8223568517
 20
62.0996202303
 10
134.9189382935
 20
62.0525814173
 10
135.0152844576
 20
61.9804759259
 10
135.1014720959
 20
61.8872888841
 10
135.1766964976
 20
61.7738903543
 10
135.2402553128
 20
61.641339108
 10
135.2915551099
 20
61.4908727405
 10
135.3301169164
 20
61.3238961157
 10
135.3555806914
 20
61.1419682493
 10
135.3677086862
 20
60.9467877528
 10
135.3663876652
 20
60.740176974
 10
135.3516299623
 20
60.524064982
 10
135.3235733662
 20
60.3004695562
 10
135.2824798338
 20
60.071478347
 10
135.2287330443
 20
59.8392293834
 10
135.1628348171
 20
59.6058911115
 10
135.0854004261
 20
59.373642148
 10
134.9971528554
 20
59.1446509387
 10
134.8989160487
 20
58.9210555129
 10
134.7916072167
 20
58.7049435209
 10
134.6762282729
 20
58.4983327421
 10
134.5538564796
 20
58.3031522456
 10
134.4256343892
 20
58.1212243793
 10
134.2927591768
 20
57.9542477544
 10
134.1564714624
 20
57.8037813869
 10
134.0180437277
 20
57.6712301406
 10
133.8787684352
 20
57.5578316108
 10
133.7399459608
 20
57.464644569
 10
133.6028724524
 20
57.3925390776
 10
133.4688277286
 20
57.342188366
 10
133.3390633287
 20
57.3140625454
 10
133.2147908281
 20
57.3084242188
 10
133.0971705256
 20
57.3253260299
 10
133.0321771536
 20
57.3455002646
  0
LINE
  5
13B
330
1F
100
AcDbEntity
  8
0
  6
Continuous
 62
     7
370
    15
100
AcDbLine
 10
92.9813906865
 20
93.1738166182
 30
0.0
 11
95.795030028
 21
93.1738166182
 31
0.0
  0
LINE
  5
13C
330
1F
100
AcDbEntity
  8
0
  6
Continuous
 62
     7
370
    15
100
AcDbLine
 10
92.9671633614
 20
93.1738166182
 30
0.0
 11
92.9813906865
 21
93.1738166182
 31
0.0
  0
LINE
  5
13D
330
1F
100
AcDbEntity
  8
0
  6
Continuous
 62
     7
370
    15
100
AcDbLine
 10
92.9813906865
 20
91.9038166182
 30
0.0
 11
95.795030028
 21
91.9038166182
 31
0.0
  0
LINE
  5
13E
330
1F
100
AcDbEntity
  8
0
  6
Continuous
 62
     7
370
    15
100
AcDbLine
 10
92.9671633614
 20
91.9038166182
 30
0.0
 11
92.9813906865
 21
91.9038166182
 31
0.0
  0
LWPOLYLINE
  5
13F
330
1F
100
AcDbEntity
  8
0
  6
Continuous
 62
     7
370
    15
100
AcDbPolyline
 90
       22
 70
   128
 43
0.0
 10
101.7994514424
 20
78.1453603625
 10
101.7507488858
 20
78.1245172265
 10
101.6474082486
 20
78.0616072153
 10
101.5538340692
 20
77.977151481
 10
101.4708690849
 20
77.8719106393
 10
101.3992604856
 20
77.7468324985
 10
101.3396531847
 20
77.6030435233
 10
101.2925840108
 20
77.4418386899
 10
101.2584768729
 20
77.2646698231
 10
101.237638943
 20
77.0731325213
 10
101.2302578893
 20
76.8689517863
 10
101.2364001861
 20
76.6539664876
 10
101.2560105154
 20
76.4301128017
 10
101.288912265
 20
76.1994067747
 10
101.3348091186
 20
75.9639261651
 10
101.3932877253
 20
75.7257917322
 10
101.4638214216
 20
75.4871481353
 10
101.5457749748
 20
75.2501446198
 10
101.638410304
 20
75.0169156601
 10
101.7408931273
 20
74.7895617367
 10
101.8523004755
 20
74.570130419
 10
101.8906485807
 20
74.5001645986
  0
LINE
  5
140
330
1F
100
AcDbEntity
  8
0
  6
Continuous
 62
     7
370
    15
100
AcDbLine
 10
104.4427500016
 20
73.5692797901
 30
0.0
 11
104.4793281173
 21
73.613170878
 31
0.0
  0
LWPOLYLINE
  5
141
330
1F
100
AcDbEntity
  8
0
  6
Continuous
 62
     7
370
    15
100
AcDbPolyline
 90
       27
 70
   128
 43
0.0
 10
102.6891484192
 20
78.3672908437
 10
102.6325022572
 20
78.3761790159
 10
102.5057556196
 20
78.3805057223
 10
102.3857537269
 20
78.3621877313
 10
102.2735773266
 20
78.3213900162
 10
102.1702366894
 20
78.258480005
 10
102.07666251
 20
78.1740242707
 10
101.9936975257
 20
78.068783429
 10
101.9220889264
 20
77.9437052882
 10
101.8624816255
 20
77.799916313
 10
101.8154124516
 20
77.6387114796
 10
101.7813053137
 20
77.4615426128
 10
101.7604673838
 20
77.270005311
 10
101.7530863301
 20
77.065824576
 10
101.7592286269
 20
76.8508392773
 10
101.7788389562
 20
76.6269855915
 10
101.8117407058
 20
76.3962795644
 10
101.8576375594
 20
76.1607989549
 10
101.9161161661
 20
75.9226645219
 10
101.9866498624
 20
75.684020925
 10
102.0686034156
 20
75.4470174095
 10
102.1612387448
 20
75.2137884498
 10
102.2637215681
 20
74.9864345264
 10
102.3751289163
 20
74.7670032087
 10
102.4944574449
 20
74.5574707144
 10
102.6206324707
 20
74.3597241114
 10
102.7525176505
 20
74.1755443232
  0
ARC
  5
142
330
1F
100
AcDbEntity
  8
0
  6
Continuous
 62
     7
370
    15
100
AcDbCircle
 10
93.1489942044
 20
89.5419679284
 30
0.0
 40
2.271836186407918
100
AcDbArc
 50
70.320655795
 51
81.0126427402
  0
LINE
  5
143
330
1F
100
AcDbEntity
  8
0
  6
Continuous
 62
     7
370
    15
100
AcDbLine
 10
103.3150888336
 20
73.9736843601
 30
0.0
 11
103.1814127701
 21
74.0240205267
 31
0.0
  0
LINE
  5
144
330
1F
100
AcDbEntity
  8
0
  6
Continuous
 62
     7
370
    15
100
AcDbLine
 10
94.4859271383
 20
152.6106689894
 30
0.0
 11
93.6402633614
 21
152.6106689894
 31
0.0
  0
LINE
  5
145
330
1F
100
AcDbEntity
  8
0
  6
Continuous
 62
     7
370
    15
100
AcDbLine
 10
95.121930028
 20
152.6106689894
 30
0.0
 11
94.4859271383
 21
152.6106689894
 31
0.0
  0
LINE
  5
146
330
1F
100
AcDbEntity
  8
0
  6
Continuous
 62
     7
370
    15
100
AcDbLine
 10
94.4739465162
 20
152.5260023227
 30
0.0
 11
93.724930028
 21
152.5260023227
 31
0.0
  0
LINE
  5
147
330
1F
100
AcDbEntity
  8
0
  6
Continuous
 62
     7
370
    15
100
AcDbLine
 10
95.0372633614
 20
152.5260023227
 30
0.0
 11
94.4739465162
 21
152.5260023227
 31
0.0
  0
LWPOLYLINE
  5
148
330
1F
100
AcDbEntity
  8
0
  6
Continuous
 62
     7
370
    15
100
AcDbPolyline
 90
       11
 70
   128
 43
0.0
 10
91.3732900841
 20
69.5257720264
 10
91.4127017739
 20
69.4870022175
 10
91.5516823197
 20
69.3631531696
 10
91.6909101112
 20
69.2589686785
 10
91.8290852161
 20
69.1754214869
 10
91.9649175307
 20
69.1132916524
 10
92.0971388252
 20
69.0731592645
 10
92.224514585
 20
69.0553990284
 10
92.3458555371
 20
69.0601767667
 10
92.4600287535
 20
69.087447871
 10
92.4732531472
 20
69.0922433837
  0
ARC
  5
149
330
1F
100
AcDbEntity
  8
0
  6
Continuous
 62
     7
370
    15
100
AcDbCircle
 10
94.516505294
 20
91.9710291613
 30
0.0
 40
0.2405834933842998
100
AcDbArc
 50
251.2998706457
 51
266.7494555779
  0
LWPOLYLINE
  5
14A
330
1F
100
AcDbEntity
  8
0
  6
Continuous
 62
     7
370
    15
100
AcDbPolyline
 90
       14
 70
   128
 43
0.0
 10
91.3732900841
 20
69.4362541833
 10
91.4190644804
 20
69.3917270817
 10
91.5613209651
 20
69.2666489409
 10
91.7037291333
 20
69.1614080993
 10
91.8450064445
 20
69.0769523649
 10
91.9838805429
 20
69.0140423537
 10
92.1191007163
 20
68.9732446387
 10
92.2494491597
 20
68.9549266476
 10
92.3737519438
 20
68.959253354
 10
92.4908895867
 20
68.9861857911
 10
92.5998071365
 20
69.0354814031
 10
92.6995236723
 20
69.1066962293
 10
92.789141138
 20
69.1991889028
 10
92.8028262728
 20
69.2163452412
  0
ARC
  5
14B
330
1F
100
AcDbEntity
  8
0
  6
Continuous
 62
     7
370
    15
100
AcDbCircle
 10
91.7482315002
 20
69.5401564169
 30
0.0
 40
0.7814332023767686
100
AcDbArc
 50
241.3268433842
 51
287.8468388759
  0
LWPOLYLINE
  5
14C
330
1F
100
AcDbEntity
  8
0
  6
Continuous
 62
     7
370
    15
100
AcDbPolyline
 90
       16
 70
   128
 43
0.0
 10
59.1127329974
 20
59.7225602474
 10
59.0528405482
 20
59.9556260331
 10
59.0053649466
 20
60.1865157463
 10
58.9707494593
 20
60.4130736321
 10
58.9493172819
 20
60.6331843804
 10
58.9412685208
 20
60.8447928766
 10
58.9466783251
 20
61.045923389
 10
58.965496185
 20
61.2346980164
 10
58.9975464031
 20
61.4093542208
 10
59.0425297353
 20
61.5682612844
 10
59.1000261842
 20
61.7099355347
 10
59.169498921
 20
61.8330541974
 10
59.2502992976
 20
61.9364677468
 10
59.3416729024
 20
62.0192106383
 10
59.4427666049
 20
62.0805103239
 10
59.4876431484
 20
62.0996202303
  0
LWPOLYLINE
  5
14D
330
1F
100
AcDbEntity
  8
0
  6
Continuous
 62
     7
370
    15
100
AcDbPolyline
 90
       20
 70
   128
 43
0.0
 10
61.2778228464
 20
57.3455002646
 10
61.2687991565
 20
57.342188366
 10
61.1549210637
 20
57.3140625453
 10
61.033833259
 20
57.3084242188
 10
60.9066663066
 20
57.3253260299
 10
60.7746075301
 20
57.364610171
 10
60.6388899266
 20
57.4259098566
 10
60.5007806549
 20
57.5086527481
 10
60.3615692041
 20
57.6120662975
 10
60.2225553538
 20
57.7351849602
 10
60.0850370391
 20
57.8768592105
 10
59.9502982313
 20
58.0357662741
 10
59.8195969504
 20
58.2104224785
 10
59.6941535191
 20
58.3991971059
 10
59.5751391688
 20
58.6003276183
 10
59.4636651045
 20
58.8119361145
 10
59.3607721295
 20
59.0320468628
 10
59.2674209278
 20
59.2586047485
 10
59.1844830943
 20
59.4894944618
 10
59.1127329974
 20
59.7225602474
  0
ARC
  5
14E
330
1F
100
AcDbEntity
  8
0
  6
Continuous
 62
     7
370
    15
100
AcDbCircle
 10
88.6916742394
 20
87.3919853117
 30
0.0
 40
2.398504373491296
100
AcDbArc
 50
116.1933661629
 51
179.426340407
  0
LWPOLYLINE
  5
14F
330
1F
100
AcDbEntity
  8
0
  6
Continuous
 62
     7
370
    15
100
AcDbPolyline
 90
       23
 70
   128
 43
0.0
 10
91.3732900841
 20
87.4159993328
 10
91.3719033628
 20
87.4957844728
 10
91.351952709
 20
87.7283505493
 10
91.3084859808
 20
87.9580002866
 10
91.2419090155
 20
88.1825895071
 10
91.1528434241
 20
88.4000212816
 10
91.0421207882
 20
88.6082655083
 10
90.9107748952
 20
88.805377867
 10
90.7600320862
 20
88.9895179727
 10
90.5912998063
 20
89.1589665588
 10
90.4061534633
 20
89.3121415295
 10
90.2063217186
 20
89.4476127314
 10
89.9936703476
 20
89.5641153064
 10
89.7701848187
 20
89.6605615013
 10
89.5379517561
 20
89.736050824
 10
89.2991394573
 20
89.7898784511
 10
89.0559776484
 20
89.8215418084
 10
88.8107366657
 20
89.8307452638
 10
88.5657062583
 20
89.817402887
 10
88.3231742089
 20
89.7816392523
 10
88.085404974
 20
89.723788275
 10
87.8546185409
 20
89.6443900942
 10
87.6329697002
 20
89.5441860292
  0
LWPOLYLINE
  5
150
330
1F
100
AcDbEntity
  8
0
  6
Continuous
 62
     7
370
    15
100
AcDbPolyline
 90
       41
 70
   128
 43
0.0
 10
134.492783726
 20
62.2237220878
 10
134.5957163414
 20
62.236775601
 10
134.7205021877
 20
62.2329105043
 10
134.8381043733
 20
62.2063112868
 10
134.9474578747
 20
62.1572188354
 10
135.0475723695
 20
62.0860777387
 10
135.1375412054
 20
61.9935322617
 10
135.2165496108
 20
61.8804205104
 10
135.2838820732
 20
61.7477668425
 10
135.3389288194
 20
61.59677259
 10
135.3811913376
 20
61.4288051802
 10
135.4102868919
 20
61.2453857522
 10
135.4259519885
 20
61.0481753806
 10
135.4280447617
 20
60.838960033
 10
135.4165462591
 20
60.6196343962
 10
135.391560613
 20
60.3921847169
 10
135.3533140972
 20
60.1586708147
 10
135.302153078
 20
59.9212074277
 10
135.2385408777
 20
59.6819450611
 10
135.1630535781
 20
59.4430505119
 10
135.0763748039
 20
59.2066872461
 10
134.9792895315
 20
58.9749958061
 10
134.8726769802
 20
58.7500744255
 10
134.7575026497
 20
58.533960027
 10
134.6348095766
 20
58.3286097763
 10
134.5057088884
 20
58.1358833568
 10
134.371369741
 20
57.957526129
 10
134.2330087303
 20
57.7951533234
 10
134.0918788752
 20
57.6502354135
 10
133.9492582696
 20
57.5240847981
 10
133.8064385076
 20
57.4178439169
 10
133.6647129871
 20
57.3324749036
 10
133.5253651965
 20
57.2687508733
 10
133.3896570909
 20
57.2272489207
 10
133.2588176639
 20
57.2083448939
 10
133.1340318176
 20
57.2122099907
 10
133.016429632
 20
57.2388092081
 10
132.9070761306
 20
57.2879016596
 10
132.8069616358
 20
57.3590427562
 10
132.7169927999
 20
57.4515882332
 10
132.702604028
 20
57.4696021221
  0
LWPOLYLINE
  5
151
330
1F
100
AcDbEntity
  8
0
  6
Continuous
 62
     7
370
    15
100
AcDbPolyline
 90
       35
 70
   128
 43
0.0
 10
135.1210664824
 20
62.1002280014
 10
135.2088720951
 20
62.0587824405
 10
135.3089865899
 20
61.9876413439
 10
135.3989554258
 20
61.8950958668
 10
135.4779638312
 20
61.7819841156
 10
135.5452962936
 20
61.6493304476
 10
135.6003430398
 20
61.4983361951
 10
135.642605558
 20
61.3303687854
 10
135.6717011123
 20
61.1469493574
 10
135.6873662088
 20
60.9497389857
 10
135.6894589821
 20
60.7405236382
 10
135.6779604795
 20
60.5211980013
 10
135.6529748334
 20
60.293748322
 10
135.6147283176
 20
60.0602344199
 10
135.5635672984
 20
59.8227710328
 10
135.4999550981
 20
59.5835086662
 10
135.4244677985
 20
59.344614117
 10
135.3377890243
 20
59.1082508512
 10
135.2407037519
 20
58.8765594113
 10
135.1340912006
 20
58.6516380306
 10
135.0189168701
 20
58.4355236322
 10
134.896223797
 20
58.2301733814
 10
134.7671231088
 20
58.0374469619
 10
134.6327839614
 20
57.8590897341
 10
134.4944229507
 20
57.6967169286
 10
134.3532930956
 20
57.5517990186
 10
134.21067249
 20
57.4256484033
 10
134.067852728
 20
57.319407522
 10
133.9261272075
 20
57.2340385088
 10
133.7867794169
 20
57.1703144785
 10
133.6510713113
 20
57.1288125259
 10
133.5202318843
 20
57.1099084991
 10
133.395446038
 20
57.1137735958
 10
133.2778438524
 20
57.1403728132
 10
133.2562959637
 20
57.1480197038
  0
LWPOLYLINE
  5
152
330
1F
100
AcDbEntity
  8
0
  6
Continuous
 62
     7
370
    15
100
AcDbPolyline
 90
       26
 70
   128
 43
0.0
 10
135.6083438438
 20
61.4712805444
 10
135.6602672771
 20
61.3725874481
 10
135.7141482729
 20
61.2330456615
 10
135.7554665439
 20
61.0765353819
 10
135.7838114503
 20
60.9046120789
 10
135.7989012879
 20
60.7189844035
 10
135.800586087
 20
60.521497207
 10
135.7888491034
 20
60.3141132058
 10
135.7638069844
 20
60.0988934752
 10
135.7257086099
 20
59.8779769658
 10
135.6749326187
 20
59.653559245
 10
135.6119836454
 20
59.4278706768
 10
135.5374873051
 20
59.2031542558
 10
135.4521839759
 20
58.9816433147
 10
135.3569214407
 20
58.7655393287
 10
135.2526464614
 20
58.5569900363
 10
135.1403953694
 20
58.3580680941
 10
135.0212837667
 20
58.1707504777
 10
134.8964954378
 20
57.9968988337
 10
134.7672705852
 20
57.8382409779
 10
134.6348935035
 20
57.6963537234
 10
134.5006798157
 20
57.5726472093
 10
134.3659633977
 20
57.4683508867
 10
134.2320831218
 20
57.3845012993
 10
134.1003695502
 20
57.3219317818
 10
134.0373921066
 20
57.2993568956
  0
LWPOLYLINE
  5
153
330
1F
100
AcDbEntity
  8
0
  6
Continuous
 62
     7
370
    15
100
AcDbPolyline
 90
       41
 70
   128
 43
0.0
 10
61.607395972
 20
57.4696021221
 10
61.5482609773
 20
57.4015759721
 10
61.4529895398
 20
57.3198974492
 10
61.3480256934
 20
57.2599778127
 10
61.2343200068
 20
57.2223597041
 10
61.1129022164
 20
57.2073837987
 10
60.9848719004
 20
57.2151857208
 10
60.8513885213
 20
57.2456948149
 10
60.7136609253
 20
57.2986347858
 10
60.5729363946
 20
57.3735262011
 10
60.4304893526
 20
57.4696908325
 10
60.2876098215
 20
57.5862577982
 10
60.1455917407
 20
57.7221714496
 10
60.0057212479
 20
57.8762009318
 10
59.8692650318
 20
58.0469513299
 10
59.7374588612
 20
58.2328763018
 10
59.611496393
 20
58.4322920822
 10
59.4925183629
 20
58.6433927309
 10
59.3816022545
 20
58.8642664877
 10
59.2797525411
 20
59.0929130857
 10
59.1878915894
 20
59.327261866
 10
59.1068513066
 20
59.5651905296
 10
59.037365606
 20
59.8045443577
 10
58.9800637608
 20
60.043155725
 10
58.9354647054
 20
60.2788637301
 10
58.9039723358
 20
60.5095337646
 10
58.8858718517
 20
60.7330768451
 10
58.881327174
 20
60.9474685309
 10
58.8903794599
 20
61.1507672575
 10
58.9129467305
 20
61.3411319203
 10
58.9488246132
 20
61.5168385474
 10
58.9976881922
 20
61.6762959123
 10
59.0590949515
 20
61.8180599445
 10
59.1324887818
 20
61.940846807
 10
59.2172050174
 20
62.0435445228
 10
59.3124764549
 20
62.1252230457
 10
59.4174403014
 20
62.1851426822
 10
59.5311459879
 20
62.2227607908
 10
59.6525637784
 20
62.2377366961
 10
59.7805940943
 20
62.2299347741
 10
59.817216274
 20
62.2237220878
  0
LWPOLYLINE
  5
154
330
1F
100
AcDbEntity
  8
0
  6
Continuous
 62
     7
370
    15
100
AcDbPolyline
 90
       35
 70
   128
 43
0.0
 10
61.0537040363
 20
57.1480197038
 10
60.9729057864
 20
57.1239233092
 10
60.851487996
 20
57.1089474039
 10
60.72345768
 20
57.116749326
 10
60.5899743009
 20
57.14725842
 10
60.4522467049
 20
57.200198391
 10
60.3115221742
 20
57.2750898063
 10
60.1690751322
 20
57.3712544377
 10
60.0261956011
 20
57.4878214033
 10
59.8841775203
 20
57.6237350548
 10
59.7443070275
 20
57.777764537
 10
59.6078508114
 20
57.948514935
 10
59.4760446408
 20
58.1344399069
 10
59.3500821726
 20
58.3338556873
 10
59.2311041425
 20
58.544956336
 10
59.1201880341
 20
58.7658300929
 10
59.0183383207
 20
58.9944766909
 10
58.926477369
 20
59.2288254711
 10
58.8454370862
 20
59.4667541347
 10
58.7759513856
 20
59.7061079628
 10
58.7186495404
 20
59.9447193302
 10
58.674050485
 20
60.1804273352
 10
58.6425581154
 20
60.4110973698
 10
58.6244576313
 20
60.6346404503
 10
58.6199129536
 20
60.849032136
 10
58.6289652395
 20
61.0523308626
 10
58.6515325101
 20
61.2426955254
 10
58.6874103928
 20
61.4184021525
 10
58.7362739718
 20
61.5778595174
 10
58.7976807311
 20
61.7196235496
 10
58.8710745614
 20
61.8424104121
 10
58.955790797
 20
61.945108128
 10
59.0510622345
 20
62.0267866508
 10
59.156026081
 20
62.0867062873
 10
59.1889335176
 20
62.1002280014
  0
LWPOLYLINE
  5
155
330
1F
100
AcDbEntity
  8
0
  6
Continuous
 62
     7
370
    15
100
AcDbPolyline
 90
       26
 70
   128
 43
0.0
 10
60.2726078933
 20
57.2993568956
 10
60.2173366083
 20
57.318907394
 10
60.0857927358
 20
57.3801946925
 10
59.952003885
 20
57.4628048619
 10
59.8172997098
 20
57.5659168854
 10
59.6830189607
 20
57.6885059893
 10
59.5504961801
 20
57.8293538281
 10
59.421048439
 20
57.9870605925
 10
59.2959622471
 20
58.160058922
 10
59.1764807672
 20
58.3466294814
 10
59.06379146
 20
58.5449180487
 10
58.9590142825
 20
58.752953943
 10
58.8631905572
 20
58.9686696102
 10
58.7772726234
 20
59.1899211709
 10
58.7021143722
 20
59.4145097279
 10
58.63846276
 20
59.6402032191
 10
58.5869503851
 20
59.8647586012
 10
58.5480892007
 20
60.085944142
 10
58.5222654267
 20
60.3015616001
 10
58.5097357112
 20
60.5094680725
 10
58.5106245804
 20
60.7075972911
 10
58.5249232001
 20
60.8939801587
 10
58.5524894644
 20
61.0667643188
 10
58.5930494072
 20
61.2242325647
 10
58.6461999256
 20
61.3648199062
 10
58.7016561562
 20
61.4712805442
  0
LINE
  5
156
330
1F
100
AcDbEntity
  8
0
  6
Continuous
 62
     8
370
    15
100
AcDbLine
 10
89.2334576711
 20
73.7589532275
 30
0.0
 11
89.2334576711
 21
73.8380538773
 31
0.0
  0
LINE
  5
157
330
1F
100
AcDbEntity
  8
0
  6
Continuous
 62
     8
370
    15
100
AcDbLine
 10
90.7924780015
 20
72.963015257
 30
0.0
 11
90.7924780015
 21
73.1580026498
 31
0.0
  0
LINE
  5
158
330
1F
100
AcDbEntity
  8
0
  6
Continuous
 62
     8
370
    15
100
AcDbLine
 10
90.1477633614
 20
153.076335656
 30
0.0
 11
98.614430028
 21
153.076335656
 31
0.0
  0
LINE
  5
159
330
1F
100
AcDbEntity
  8
0
  6
Continuous
 62
     7
370
    15
100
AcDbLine
 10
95.9407358379
 20
224.8393374579
 30
0.0
 11
95.759276848
 21
224.3871494465
 31
0.0
  0
LINE
  5
15A
330
1F
100
AcDbEntity
  8
0
  6
Continuous
 62
     7
370
    15
100
AcDbLine
 10
96.1521568347
 20
224.2294902345
 30
0.0
 11
96.3336158246
 21
224.6816782459
 31
0.0
  0
LINE
  5
15B
330
1F
100
AcDbEntity
  8
0
  6
Continuous
 62
     7
370
    15
100
AcDbLine
 10
89.7308854693
 20
219.5059066834
 30
0.0
 11
90.2255533972
 21
219.5766153697
 31
0.0
  0
LINE
  5
15C
330
1F
100
AcDbEntity
  8
0
  6
Continuous
 62
     7
370
    15
100
AcDbLine
 10
90.1656502866
 20
219.9956890249
 30
0.0
 11
89.6709823586
 21
219.9249803386
 31
0.0
  0
LINE
  5
15D
330
1F
100
AcDbEntity
  8
0
  6
Continuous
 62
     7
370
    15
100
AcDbLine
 10
97.4687446365
 20
216.7943117894
 30
0.0
 11
97.1584598389
 21
217.1895373223
 31
0.0
  0
LINE
  5
15E
330
1F
100
AcDbEntity
  8
0
  6
Continuous
 62
     7
370
    15
100
AcDbLine
 10
96.8254829628
 20
216.9281228791
 30
0.0
 11
97.1357677604
 21
216.5328973462
 31
0.0
  0
LINE
  5
15F
330
1F
100
AcDbEntity
  8
0
  6
Continuous
 62
     7
370
    15
100
AcDbLine
 10
132.604350336
 20
201.6671383727
 30
0.0
 11
132.8657645564
 21
201.5162108022
 31
0.0
  0
LINE
  5
160
330
1F
100
AcDbEntity
  8
0
  6
Continuous
 62
     7
370
    15
100
AcDbLine
 10
135.5115978897
 20
206.0989285639
 30
0.0
 11
135.2501836693
 21
206.2498561344
 31
0.0
  0
LINE
  5
161
330
1F
100
AcDbEntity
  8
0
  6
Continuous
 62
     7
370
    15
100
AcDbLine
 10
59.0598163307
 20
196.6407732143
 30
0.0
 11
58.7984021103
 21
196.4898456438
 31
0.0
  0
LINE
  5
162
330
1F
100
AcDbEntity
  8
0
  6
Continuous
 62
     7
370
    15
100
AcDbLine
 10
61.4442354436
 20
191.9071278821
 30
0.0
 11
61.705649664
 21
192.0580554526
 31
0.0
  0
LINE
  5
163
330
1F
100
AcDbEntity
  8
0
  6
Continuous
 62
     7
370
    15
100
AcDbLine
 10
132.998056223
 20
201.7453466903
 30
0.0
 11
133.2594704434
 21
201.5944191198
 31
0.0
  0
LINE
  5
164
330
1F
100
AcDbEntity
  8
0
  6
Continuous
 62
     7
370
    15
100
AcDbLine
 10
135.6407204434
 20
205.7188651053
 30
0.0
 11
135.379306223
 21
205.8697926758
 31
0.0
  0
LINE
  5
165
330
1F
100
AcDbEntity
  8
0
  6
Continuous
 62
     7
370
    15
100
AcDbLine
 10
58.930693777
 20
196.2607097557
 30
0.0
 11
58.6692795566
 21
196.1097821852
 31
0.0
  0
LINE
  5
166
330
1F
100
AcDbEntity
  8
0
  6
Continuous
 62
     7
370
    15
100
AcDbLine
 10
61.0505295566
 20
191.9853361997
 30
0.0
 11
61.3119437769
 21
192.1362637702
 31
0.0
  0
LINE
  5
167
330
1F
100
AcDbEntity
  8
0
  6
Continuous
 62
     7
370
    15
100
AcDbLine
 10
101.9846651426
 20
219.4676276686
 30
0.0
 11
132.4583540259
 21
201.8736351886
 31
0.0
  0
LINE
  5
168
330
1F
100
AcDbEntity
  8
0
  6
Continuous
 62
     7
370
    15
100
AcDbLine
 10
134.9983540259
 20
206.2730442398
 30
0.0
 11
104.5246651426
 21
223.8670367198
 31
0.0
  0
LINE
  5
169
330
1F
100
AcDbEntity
  8
0
  6
Continuous
 62
     7
370
    15
100
AcDbLine
 10
86.2932900841
 20
262.8453905516
 30
0.0
 11
86.2932900841
 21
227.4277206703
 31
0.0
  0
LINE
  5
16A
330
1F
100
AcDbEntity
  8
0
  6
Continuous
 62
     7
370
    15
100
AcDbLine
 10
91.3732900841
 20
227.4277206703
 30
0.0
 11
91.3732900841
 21
262.8453905516
 31
0.0
  0
LINE
  5
16B
330
1F
100
AcDbEntity
  8
0
  6
Continuous
 62
     7
370
    15
100
AcDbLine
 10
89.7853348574
 20
214.2579537997
 30
0.0
 11
59.3116459741
 21
196.6639613197
 31
0.0
  0
LINE
  5
16C
330
1F
100
AcDbEntity
  8
0
  6
Continuous
 62
     7
370
    15
100
AcDbLine
 10
61.8516459741
 20
192.2645522685
 30
0.0
 11
92.3253348574
 21
209.8585447485
 31
0.0
  0
LINE
  5
16D
330
1F
100
AcDbEntity
  8
0
  6
Continuous
 62
     7
370
    15
100
AcDbLine
 10
101.4089200352
 20
219.6778284544
 30
0.0
 11
101.931748476
 21
219.3759733133
 31
0.0
  0
LINE
  5
16E
330
1F
100
AcDbEntity
  8
0
  6
Continuous
 62
     7
370
    15
100
AcDbLine
 10
104.5775818093
 20
223.958691075
 30
0.0
 11
104.0547533685
 21
224.2605462161
 31
0.0
  0
LINE
  5
16F
330
1F
100
AcDbEntity
  8
0
  6
Continuous
 62
     7
370
    15
100
AcDbLine
 10
90.2552466315
 20
214.651463296
 30
0.0
 11
89.7324181907
 21
214.3496081549
 31
0.0
  0
LINE
  5
170
330
1F
100
AcDbEntity
  8
0
  6
Continuous
 62
     7
370
    15
100
AcDbLine
 10
92.378251524
 20
209.7668903932
 30
0.0
 11
92.9010799648
 21
210.0687455343
 31
0.0
  0
LINE
  5
171
330
1F
100
AcDbEntity
  8
0
  6
Continuous
 62
     7
370
    15
100
AcDbLine
 10
86.1874567508
 20
227.4277206703
 30
0.0
 11
86.1874567508
 21
226.8240103882
 31
0.0
  0
LINE
  5
172
330
1F
100
AcDbEntity
  8
0
  6
Continuous
 62
     7
370
    15
100
AcDbLine
 10
91.4791234174
 20
226.8240103882
 30
0.0
 11
91.4791234174
 21
227.4277206703
 31
0.0
  0
LINE
  5
173
330
1F
100
AcDbEntity
  8
0
  6
Continuous
 62
     7
370
    15
100
AcDbLine
 10
91.3732900841
 20
225.5941079151
 30
0.0
 11
93.305143826
 21
224.4787516371
 31
0.0
  0
LINE
  5
174
330
1F
100
AcDbEntity
  8
0
  6
Continuous
 62
     7
370
    15
100
AcDbLine
 10
98.464856174
 20
221.4997903241
 30
0.0
 11
101.2629237251
 21
219.8843252703
 31
0.0
  0
LINE
  5
175
330
1F
100
AcDbEntity
  8
0
  6
Continuous
 62
     7
370
    15
100
AcDbLine
 10
103.8029237251
 20
224.2837343215
 30
0.0
 11
92.8481632982
 21
230.6084682029
 31
0.0
  0
LINE
  5
176
330
1F
100
AcDbEntity
  8
0
  6
Continuous
 62
     7
370
    15
100
AcDbLine
 10
100.3967099159
 20
220.3844340462
 30
0.0
 11
98.464856174
 21
219.2690777682
 31
0.0
  0
LINE
  5
177
330
1F
100
AcDbEntity
  8
0
  6
Continuous
 62
     7
370
    15
100
AcDbLine
 10
93.305143826
 20
216.2901164552
 30
0.0
 11
90.5070762749
 21
214.6746514014
 31
0.0
  0
LINE
  5
178
330
1F
100
AcDbEntity
  8
0
  6
Continuous
 62
     7
370
    15
100
AcDbLine
 10
93.0470762749
 20
210.2752423502
 30
0.0
 11
104.0018367018
 21
216.5999762315
 31
0.0
  0
LINE
  5
179
330
1F
100
AcDbEntity
  8
0
  6
Continuous
 62
     7
370
    15
100
AcDbLine
 10
86.2932900841
 20
226.5943254669
 30
0.0
 11
86.2932900841
 21
213.9448577041
 31
0.0
  0
LINE
  5
17A
330
1F
100
AcDbEntity
  8
0
  6
Continuous
 62
     7
370
    15
100
AcDbLine
 10
91.3732900841
 20
215.1747601773
 30
0.0
 11
91.3732900841
 21
217.4054727332
 31
0.0
  0
LINE
  5
17B
330
1F
100
AcDbEntity
  8
0
  6
Continuous
 62
     7
370
    15
100
AcDbLine
 10
91.3732900841
 20
223.3633953592
 30
0.0
 11
91.3732900841
 21
226.5943254669
 31
0.0
  0
ARC
  5
17C
330
1F
100
AcDbEntity
  8
0
  6
Continuous
 62
     7
370
    15
100
AcDbCircle
 10
96.1712995302
 20
224.8455426446
 30
0.0
 40
0.4233333333333339
100
AcDbArc
 50
158.1348515021
 51
218.1348515021
  0
LINE
  5
17D
330
1F
100
AcDbEntity
  8
0
  6
Continuous
 62
     7
370
    15
100
AcDbLine
 10
104.0547533685
 20
216.5083218763
 30
0.0
 11
104.5775818093
 21
216.8101770173
 31
0.0
  0
LINE
  5
17E
330
1F
100
AcDbEntity
  8
0
  6
Continuous
 62
     7
370
    15
100
AcDbLine
 10
92.9010799648
 20
230.7001225581
 30
0.0
 11
92.378251524
 21
231.0019776991
 31
0.0
  0
LINE
  5
17F
330
1F
100
AcDbEntity
  8
0
  6
Continuous
 62
     7
370
    15
100
AcDbLine
 10
86.1874567508
 20
213.9448577041
 30
0.0
 11
86.1874567508
 21
213.3411474221
 31
0.0
  0
LINE
  5
180
330
1F
100
AcDbEntity
  8
0
  6
Continuous
 62
     7
370
    15
100
AcDbLine
 10
132.6572670027
 20
239.0100753644
 30
0.0
 11
105.4767099159
 21
223.3173734137
 31
0.0
  0
LINE
  5
181
330
1F
100
AcDbEntity
  8
0
  6
Continuous
 62
     7
370
    15
100
AcDbLine
 10
104.7235781194
 20
217.0166738332
 30
0.0
 11
105.4767099159
 21
217.4514946787
 31
0.0
  0
LINE
  5
182
330
1F
100
AcDbEntity
  8
0
  6
Continuous
 62
     7
370
    15
100
AcDbLine
 10
110.5567099159
 20
220.3844340462
 30
0.0
 11
135.1972670027
 21
234.6106663132
 31
0.0
  0
LINE
  5
183
330
1F
100
AcDbEntity
  8
0
  6
Continuous
 62
     7
370
    15
100
AcDbLine
 10
59.1127329974
 20
244.2197492333
 30
0.0
 11
86.2932900841
 21
228.5270472826
 31
0.0
  0
LINE
  5
184
330
1F
100
AcDbEntity
  8
0
  6
Continuous
 62
     7
370
    15
100
AcDbLine
 10
92.1264218807
 20
231.0251658046
 30
0.0
 11
91.3732900841
 21
231.45998665
 31
0.0
  0
LINE
  5
185
330
1F
100
AcDbEntity
  8
0
  6
Continuous
 62
     7
370
    15
100
AcDbLine
 10
86.2932900841
 20
234.3929260175
 30
0.0
 11
61.6527329974
 21
248.6191582846
 31
0.0
  0
LINE
  5
186
330
1F
100
AcDbEntity
  8
0
  6
Continuous
 62
     7
370
    15
100
AcDbLine
 10
86.2932900841
 20
213.1114625008
 30
0.0
 11
86.2932900841
 21
212.2418208098
 31
0.0
  0
LINE
  5
187
330
1F
100
AcDbEntity
  8
0
  6
Continuous
 62
     7
370
    15
100
AcDbLine
 10
86.2932900841
 20
206.3759420749
 30
0.0
 11
86.2932900841
 21
177.9234775408
 31
0.0
  0
LINE
  5
188
330
1F
100
AcDbEntity
  8
0
  6
Continuous
 62
     7
370
    15
100
AcDbLine
 10
91.3732900841
 20
177.9234775408
 30
0.0
 11
91.3732900841
 21
209.3088814423
 31
0.0
  0
LINE
  5
189
330
1F
100
AcDbEntity
  8
0
  6
Continuous
 62
     7
370
    15
100
AcDbLine
 10
135.2501836693
 20
234.519011958
 30
0.0
 11
135.5115978897
 21
234.6699395285
 31
0.0
  0
LINE
  5
18A
330
1F
100
AcDbEntity
  8
0
  6
Continuous
 62
     7
370
    15
100
AcDbLine
 10
132.8657645564
 20
239.2526572902
 30
0.0
 11
132.604350336
 21
239.1017297197
 31
0.0
  0
LINE
  5
18B
330
1F
100
AcDbEntity
  8
0
  6
Continuous
 62
     7
370
    15
100
AcDbLine
 10
61.705649664
 20
248.7108126398
 30
0.0
 11
61.4442354436
 21
248.8617402103
 31
0.0
  0
LINE
  5
18C
330
1F
100
AcDbEntity
  8
0
  6
Continuous
 62
     7
370
    15
100
AcDbLine
 10
58.7984021103
 20
244.2790224486
 30
0.0
 11
59.0598163307
 21
244.1280948781
 31
0.0
  0
ARC
  5
18D
330
1F
100
AcDbEntity
  8
0
  6
Continuous
 62
     7
370
    15
100
AcDbCircle
 10
95.4706881981
 20
220.5401821338
 30
0.0
 40
0.158750000000018
100
AcDbArc
 50
98.1348515021
 51
278.1348515021
  0
LINE
  5
18E
330
1F
100
AcDbEntity
  8
0
  6
Continuous
 62
     7
370
    15
100
AcDbLine
 10
95.4931518646
 20
220.3830295132
 30
0.0
 11
97.6723348714
 21
220.6945256885
 31
0.0
  0
ARC
  5
18F
330
1F
100
AcDbEntity
  8
0
  6
Continuous
 62
     7
370
    15
100
AcDbCircle
 10
97.6498712049
 20
220.8516783091
 30
0.0
 40
0.158750000000018
100
AcDbArc
 50
278.1348515021
 51
98.1348515021
  0
LINE
  5
190
330
1F
100
AcDbEntity
  8
0
  6
Continuous
 62
     7
370
    15
100
AcDbLine
 10
97.6274075384
 20
221.0088309298
 30
0.0
 11
95.4482245316
 21
220.6973347545
 31
0.0
  0
ARC
  5
191
330
1F
100
AcDbEntity
  8
0
  6
Continuous
 62
     7
370
    15
100
AcDbCircle
 10
93.2915051913
 20
220.2286859585
 30
0.0
 40
0.158750000000018
100
AcDbArc
 50
278.1348515021
 51
98.1348515021
  0
LINE
  5
192
330
1F
100
AcDbEntity
  8
0
  6
Continuous
 62
     7
370
    15
100
AcDbLine
 10
93.2690415248
 20
220.3858385792
 30
0.0
 11
91.089858518
 21
220.0743424039
 31
0.0
  0
ARC
  5
193
330
1F
100
AcDbEntity
  8
0
  6
Continuous
 62
     7
370
    15
100
AcDbCircle
 10
91.1123221845
 20
219.9171897832
 30
0.0
 40
0.1587499999999899
100
AcDbArc
 50
98.1348515021
 51
278.1348515021
  0
LINE
  5
194
330
1F
100
AcDbEntity
  8
0
  6
Continuous
 62
     7
370
    15
100
AcDbLine
 10
91.134785851
 20
219.7600371625
 30
0.0
 11
93.3139688578
 21
220.0715333379
 31
0.0
  0
CIRCLE
  5
195
330
1F
100
AcDbEntity
  8
0
  6
Continuous
 62
     7
370
    15
100
AcDbCircle
 10
94.3810966947
 20
220.3844340462
 30
0.0
 40
0.4233333333333077
  0
CIRCLE
  5
196
330
1F
100
AcDbEntity
  8
0
  6
Continuous
 62
     7
370
    15
100
AcDbCircle
 10
93.3778575674
 20
220.8212501537
 30
0.0
 40
0.135466666666667
  0
CIRCLE
  5
197
330
1F
100
AcDbEntity
  8
0
  6
Continuous
 62
     7
370
    15
100
AcDbCircle
 10
94.3810966947
 20
220.3844340462
 30
0.0
 40
4.233333333333344
  0
ARC
  5
198
330
1F
100
AcDbEntity
  8
0
  6
Continuous
 62
     7
370
    15
100
AcDbCircle
 10
96.1365862806
 20
224.7558305662
 30
0.0
 40
0.2105212764307522
100
AcDbArc
 50
339.3761077893
 51
89.8395468095
  0
ARC
  5
199
330
1F
100
AcDbEntity
  8
0
  6
Continuous
 62
     7
370
    15
100
AcDbCircle
 10
96.1302399519
 20
224.7616636304
 30
0.0
 40
0.2048048649757041
100
AcDbArc
 50
88.0592618457
 51
157.7122878556
  0
LWPOLYLINE
  5
19A
330
1F
100
AcDbEntity
  8
0
  6
Continuous
 62
     7
370
    15
100
AcDbPolyline
 90
       12
 70
   128
 43
0.0
 10
132.5986711398
 20
203.0175847753
 10
132.5381740633
 20
202.8194577548
 10
132.4902568276
 20
202.6316460524
 10
132.4553533785
 20
202.4558505199
 10
132.4337798072
 20
202.293663189
 10
132.4257314872
 20
202.1465528531
 10
132.4312813053
 20
202.0158517663
 10
132.4503790015
 20
201.9027435779
 10
132.4828516242
 20
201.8082526131
 10
132.5284050962
 20
201.7332345967
 10
132.5866268783
 20
201.6783689036
 10
132.604350336
 20
201.6671383727
  0
LWPOLYLINE
  5
19B
330
1F
100
AcDbEntity
  8
0
  6
Continuous
 62
     7
370
    15
100
AcDbPolyline
 90
       24
 70
   128
 43
0.0
 10
135.2501836693
 20
206.2498561344
 10
135.1975443003
 20
206.2728421013
 10
135.1156776458
 20
206.2860995337
 10
135.0230485604
 20
206.2782778394
 10
134.9204959076
 20
206.2494478529
 10
134.80894842
 20
206.199870663
 10
134.6894162889
 20
206.1299952484
 10
134.5629820159
 20
206.0404544117
 10
134.4307906093
 20
205.9320590486
 10
134.2940392149
 20
205.8057908043
 10
134.1539662746
 20
205.6627931835
 10
134.0118403105
 20
205.5043611949
 10
133.8689484375
 20
205.331929623
 10
133.7265847065
 20
205.1470600349
 10
133.5860383854
 20
204.9514266382
 10
133.4485822835
 20
204.7468011192
 10
133.3154612245
 20
204.5350365984
 10
133.1878807734
 20
204.318050848
 10
133.0669963185
 20
204.0978089245
 10
132.9539026081
 20
203.876305373
 10
132.8496238364
 20
203.6555461638
 10
132.7551043682
 20
203.4375305267
 10
132.6712001862
 20
203.2242328449
 10
132.5986711398
 20
203.0175847753
  0
LWPOLYLINE
  5
19C
330
1F
100
AcDbEntity
  8
0
  6
Continuous
 62
     7
370
    15
100
AcDbPolyline
 90
       17
 70
   128
 43
0.0
 10
132.8600853602
 20
202.8666572048
 10
132.7995882837
 20
202.6685301843
 10
132.751671048
 20
202.4807184819
 10
132.7167675989
 20
202.3049229494
 10
132.6951940276
 20
202.1427356184
 10
132.6871457076
 20
201.9956252826
 10
132.6926955257
 20
201.8649241958
 10
132.7117932219
 20
201.7518160074
 10
132.7442658446
 20
201.6573250426
 10
132.7898193166
 20
201.5823070262
 10
132.8480410987
 20
201.527441333
 10
132.9184039253
 20
201.4932248353
 10
133.0002705799
 20
201.4799674029
 10
133.0928996653
 20
201.4877890972
 10
133.1954523181
 20
201.5166190837
 10
133.3069998057
 20
201.5661962736
 10
133.3162162408
 20
201.571011601
  0
LWPOLYLINE
  5
19D
330
1F
100
AcDbEntity
  8
0
  6
Continuous
 62
     7
370
    15
100
AcDbPolyline
 90
       29
 70
   128
 43
0.0
 10
135.689364848
 20
205.6814255626
 10
135.6846669204
 20
205.7502151703
 10
135.6655692242
 20
205.8633233587
 10
135.6330966015
 20
205.9578143235
 10
135.5875431294
 20
206.0328323399
 10
135.5293213474
 20
206.087698033
 10
135.4589585207
 20
206.1219145308
 10
135.3770918662
 20
206.1351719632
 10
135.2844627808
 20
206.1273502689
 10
135.181910128
 20
206.0985202824
 10
135.0703626404
 20
206.0489430925
 10
134.9508305093
 20
205.9790676779
 10
134.8243962363
 20
205.8895268412
 10
134.6922048297
 20
205.7811314781
 10
134.5554534353
 20
205.6548632338
 10
134.415380495
 20
205.511865613
 10
134.2732545309
 20
205.3534336244
 10
134.1303626579
 20
205.1810020525
 10
133.9879989269
 20
204.9961324644
 10
133.8474526058
 20
204.8004990677
 10
133.7099965039
 20
204.5958735487
 10
133.5768754449
 20
204.3841090279
 10
133.4492949938
 20
204.1671232774
 10
133.3284105389
 20
203.946881354
 10
133.2153168285
 20
203.7253778025
 10
133.1110380568
 20
203.5046185933
 10
133.0165185886
 20
203.2866029562
 10
132.9326144066
 20
203.0733052744
 10
132.8600853602
 20
202.8666572048
  0
ARC
  5
19E
330
1F
100
AcDbEntity
  8
0
  6
Continuous
 62
     7
370
    15
100
AcDbCircle
 10
133.1749461479
 20
202.0144661713
 30
0.0
 40
0.3220486617998754
100
AcDbArc
 50
186.9236629101
 51
236.6834248971
  0
LWPOLYLINE
  5
19F
330
1F
100
AcDbEntity
  8
0
  6
Continuous
 62
     7
370
    15
100
AcDbPolyline
 90
       30
 70
   128
 43
0.0
 10
135.379306223
 20
205.8697926758
 10
135.3665154843
 20
205.8766467285
 10
135.2946858401
 20
205.8990781102
 10
135.2118642252
 20
205.9007231415
 10
135.1188737578
 20
205.8815654734
 10
135.0166386192
 20
205.8417955033
 10
134.906174868
 20
205.7818084831
 10
134.7885803426
 20
205.7022005907
 10
134.6650237502
 20
205.6037630052
 10
134.5367330518
 20
205.4874740435
 10
134.404983258
 20
205.3544894374
 10
134.2710837573
 20
205.2061308479
 10
134.1363653033
 20
205.0438727292
 10
134.0021667883
 20
204.8693276754
 10
133.8698219376
 20
204.6842303937
 10
133.7406460538
 20
204.490420464
 10
133.6159229447
 20
204.2898240564
 10
133.4968921647
 20
204.0844347882
 10
133.3847366952
 20
203.8762939101
 10
133.2805711876
 20
203.6674700199
 10
133.1854308855
 20
203.460038503
 10
133.100261336
 20
203.2560609072
 10
133.0259089924
 20
203.0575644533
 10
132.9631128015
 20
202.8665218884
 10
132.9124968602
 20
202.6848318792
 10
132.8745642125
 20
202.5143001427
 10
132.8496918501
 20
202.3566215
 10
132.8381269655
 20
202.2133630321
 10
132.839984496
 20
202.0859485062
 10
132.8552459804
 20
201.975644225
  0
LWPOLYLINE
  5
1A0
330
1F
100
AcDbEntity
  8
0
  6
Continuous
 62
     7
370
    15
100
AcDbPolyline
 90
       35
 70
   128
 43
0.0
 10
61.705649664
 20
192.0580554526
 10
61.7587532786
 20
192.0987158507
 10
61.809663001
 20
192.1653760967
 10
61.8476502244
 20
192.2518153311
 10
61.8723709306
 20
192.357250747
 10
61.8836012449
 20
192.4807275048
 10
61.881239464
 20
192.6211273799
 10
61.8653069765
 20
192.7771788892
 10
61.8359480694
 20
192.9474688063
 10
61.7934286216
 20
193.1304549591
 10
61.7381336958
 20
193.3244801967
 10
61.6705640513
 20
193.5277873966
 10
61.5913316094
 20
193.7385353773
 10
61.5011539114
 20
193.9548155724
 10
61.4008476203
 20
194.174669315
 10
61.2913211255
 20
194.3961055756
 10
61.173566316
 20
194.617118993
 10
61.0486495975
 20
194.8357080356
 10
60.9177022351
 20
195.0498931271
 10
60.7819101084
 20
195.2577345742
 10
60.6425029721
 20
195.4573501325
 10
60.5007433186
 20
195.6469320527
 10
60.3579149453
 20
195.8247634514
 10
60.2153113282
 20
195.9892338601
 10
60.0742239077
 20
196.1388538092
 10
59.9359303932
 20
196.2722683174
 10
59.8016831923
 20
196.388269162
 10
59.6726980684
 20
196.4858058217
 10
59.5501431308
 20
196.5639949892
 10
59.435128256
 20
196.6221285713
 10
59.3286950364
 20
196.6596801014
 10
59.2318073478
 20
196.6763095069
 10
59.1453426202
 20
196.6718661894
 10
59.0700838914
 20
196.6463903882
 10
59.0598163307
 20
196.6407732143
  0
LWPOLYLINE
  5
1A1
330
1F
100
AcDbEntity
  8
0
  6
Continuous
 62
     7
370
    15
100
AcDbPolyline
 90
       44
 70
   128
 43
0.0
 10
60.9937837586
 20
191.9619286812
 10
61.0689235183
 20
191.9257725251
 10
61.1753567379
 20
191.888220995
 10
61.2722444265
 20
191.8715915895
 10
61.3587091541
 20
191.876034907
 10
61.4339678829
 20
191.9015107082
 10
61.4973390582
 20
191.9477882802
 10
61.5482487806
 20
192.0144485262
 10
61.586236004
 20
192.1008877606
 10
61.6109567102
 20
192.2063231765
 10
61.6221870245
 20
192.3297999343
 10
61.6198252436
 20
192.4701998094
 10
61.6038927561
 20
192.6262513187
 10
61.574533849
 20
192.7965412357
 10
61.5320144012
 20
192.9795273885
 10
61.4767194754
 20
193.1735526262
 10
61.4091498309
 20
193.3768598261
 10
61.329917389
 20
193.5876078068
 10
61.239739691
 20
193.8038880019
 10
61.1394333999
 20
194.0237417445
 10
61.0299069052
 20
194.2451780051
 10
60.9121520956
 20
194.4661914225
 10
60.7872353771
 20
194.6847804651
 10
60.6562880147
 20
194.8989655566
 10
60.5204958881
 20
195.1068070037
 10
60.3810887517
 20
195.306422562
 10
60.2393290982
 20
195.4960044821
 10
60.0965007249
 20
195.6738358809
 10
59.9538971078
 20
195.8383062896
 10
59.8128096873
 20
195.9879262387
 10
59.6745161728
 20
196.1213407468
 10
59.5402689719
 20
196.2373415915
 10
59.411283848
 20
196.3348782512
 10
59.2887289104
 20
196.4130674187
 10
59.1737140356
 20
196.4712010008
 10
59.067280816
 20
196.5087525309
 10
58.9703931274
 20
196.5253819364
 10
58.8839283998
 20
196.5209386189
 10
58.808669671
 20
196.4954628177
 10
58.7452984957
 20
196.4491852457
 10
58.6943887733
 20
196.3825249997
 10
58.6564015499
 20
196.2960857652
 10
58.6316808437
 20
196.1906503494
 10
58.620635152
 20
196.072342642
  0
LWPOLYLINE
  5
1A2
330
1F
100
AcDbEntity
  8
0
  6
Continuous
 62
     7
370
    15
100
AcDbPolyline
 90
       34
 70
   128
 43
0.0
 10
61.3119437769
 20
192.1362637702
 10
61.3256444472
 20
192.1448317563
 10
61.380711521
 20
192.1962736108
 10
61.423262184
 20
192.2676143592
 10
61.4528735484
 20
192.3581449851
 10
61.4692513233
 20
192.4669657543
 10
61.4722327389
 20
192.5929951572
 10
61.4617881647
 20
192.734980657
 10
61.4380214035
 20
192.891511138
 10
61.40116866
 20
193.0610309299
 10
61.3515961934
 20
193.2418552689
 10
61.2897966771
 20
193.4321870415
 10
61.2163843025
 20
193.630134645
 10
61.1320886747
 20
193.8337307872
 10
61.0377475615
 20
194.0409520382
 10
60.9342985674
 20
194.24973894
 10
60.8227698148
 20
194.4580164747
 10
60.7042697267
 20
194.6637146865
 10
60.5799760102
 20
194.8647892541
 10
60.451123952
 20
195.0592418083
 10
60.3189941418
 20
195.2451397921
 10
60.184899745
 20
195.4206356679
 10
60.050173452
 20
195.5839852788
 10
59.9161542332
 20
195.7335651829
 10
59.7841740318
 20
195.8678887881
 10
59.6555445264
 20
195.985621126
 10
59.5315440947
 20
196.0855921196
 10
59.4134051088
 20
196.1668082124
 10
59.3023016869
 20
196.2284622423
 10
59.1993380249
 20
196.2699414639
 10
59.1055374218
 20
196.290833638
 10
59.0218321101
 20
196.2909311289
 10
58.949053991
 20
196.2702329675
 10
58.930693777
 20
196.2607097557
  0
LWPOLYLINE
  5
1A3
330
1F
100
AcDbEntity
  8
0
  6
Continuous
 62
     7
370
    15
100
AcDbPolyline
 90
       64
 70
   128
 43
0.0
 10
133.1166602008
 20
201.8247166545
 10
133.1451739638
 20
201.7326188715
 10
133.1866566227
 20
201.6596428959
 10
133.2406959042
 20
201.6065139958
 10
133.3067547417
 20
201.5737601899
 10
133.3841766128
 20
201.5617070003
 10
133.472192064
 20
201.570474217
 10
133.5699263584
 20
201.5999747076
 10
133.6764081686
 20
201.6499152828
 10
133.7905792306
 20
201.7197996108
 10
133.9113048609
 20
201.8089331498
 10
134.0373852341
 20
201.9164300505
 10
134.1675673068
 20
202.0412219606
 10
134.3005572711
 20
202.1820686419
 10
134.4350334129
 20
202.3375702968
 10
134.5696592479
 20
202.50618148
 10
134.7030968041
 20
202.6862264579
 10
134.8340199191
 20
202.8759158625
 10
134.9611274202
 20
203.0733644753
 10
135.083156056
 20
203.2766099634
 10
135.1988930509
 20
203.4836323817
 10
135.3071881588
 20
203.6923742484
 10
135.4069650943
 20
203.9007609931
 10
135.4972322292
 20
204.1067215747
 10
135.5770924483
 20
204.3082090644
 10
135.6457520649
 20
204.503220989
 10
135.7025287088
 20
204.6898192324
 10
135.7468581082
 20
204.8661492973
 10
135.7782996977
 20
205.0304587365
 10
135.7965409966
 20
205.1811145689
 10
135.8014007146
 20
205.3166195091
 10
135.7928305538
 20
205.4356268481
 10
135.7709156882
 20
205.5369538376
 10
135.7358739175
 20
205.6195934445
 10
135.6880535028
 20
205.682724359
 10
135.6279297047
 20
205.725719158
 10
135.5561000605
 20
205.7481505397
 10
135.4732784455
 20
205.749795571
 10
135.3802879782
 20
205.7306379029
 10
135.2780528396
 20
205.6908679328
 10
135.1675890884
 20
205.6308809126
 10
135.049994563
 20
205.5512730202
 10
134.9264379706
 20
205.4528354347
 10
134.7981472722
 20
205.3365464729
 10
134.6663974784
 20
205.2035618669
 10
134.5324979777
 20
205.0552032774
 10
134.3977795237
 20
204.8929451587
 10
134.2635810087
 20
204.7184001049
 10
134.131236158
 20
204.5333028232
 10
134.0020602742
 20
204.3394928934
 10
133.8773371651
 20
204.1388964859
 10
133.7583063851
 20
203.9335072176
 10
133.6461509156
 20
203.7253663396
 10
133.541985408
 20
203.5165424494
 10
133.4468451059
 20
203.3091109325
 10
133.3616755564
 20
203.1051333366
 10
133.2873232128
 20
202.9066368828
 10
133.2245270219
 20
202.7155943178
 10
133.1739110806
 20
202.5339043087
 10
133.1359784329
 20
202.3633725722
 10
133.1111060704
 20
202.2056939294
 10
133.0995411859
 20
202.0624354616
 10
133.1013987164
 20
201.9350209357
 10
133.1166602008
 20
201.8247166545
  0
LWPOLYLINE
  5
1A4
330
1F
100
AcDbEntity
  8
0
  6
Continuous
 62
     7
370
    15
100
AcDbPolyline
 90
       64
 70
   128
 43
0.0
 10
59.7291138069
 20
192.9117463205
 10
59.8636914424
 20
192.7421127092
 10
59.9982314421
 20
192.5854532116
 10
60.1313966871
 20
192.44332478
 10
60.2618637213
 20
192.3171399509
 10
60.3883359048
 20
192.2081528055
 10
60.5095563001
 20
192.1174465072
 10
60.6243201645
 20
192.045922536
 10
60.7314869231
 20
191.9942917291
 10
60.8299915047
 20
191.9630672167
 10
60.9188549263
 20
191.952559322
 10
60.9971940234
 20
191.9628724773
 10
61.0642302268
 20
191.9939041858
 10
61.1192973006
 20
192.0453460403
 10
61.1618479636
 20
192.1166867887
 10
61.191459328
 20
192.2072174145
 10
61.2078371029
 20
192.3160381838
 10
61.2108185185
 20
192.4420675867
 10
61.2003739443
 20
192.5840530865
 10
61.1766071831
 20
192.7405835675
 10
61.1397544396
 20
192.9101033594
 10
61.090181973
 20
193.0909276984
 10
61.0283824567
 20
193.281259471
 10
60.9549700821
 20
193.4792070745
 10
60.8706744543
 20
193.6828032167
 10
60.7763333411
 20
193.8900244677
 10
60.672884347
 20
194.0988113695
 10
60.5613555944
 20
194.3070889042
 10
60.4428555063
 20
194.5127871159
 10
60.3185617898
 20
194.7138616836
 10
60.1897097316
 20
194.9083142378
 10
60.0575799214
 20
195.0942122216
 10
59.9234855246
 20
195.2697080974
 10
59.7887592316
 20
195.4330577083
 10
59.6547400128
 20
195.5826376124
 10
59.5227598114
 20
195.7169612176
 10
59.394130306
 20
195.8346935554
 10
59.2701298743
 20
195.9346645491
 10
59.1519908884
 20
196.0158806419
 10
59.0408874665
 20
196.0775346718
 10
58.9379238045
 20
196.1190138934
 10
58.8441232014
 20
196.1399060675
 10
58.7604178897
 20
196.1400035583
 10
58.6876397706
 20
196.119305397
 10
58.6265121455
 20
196.0780172912
 10
58.5776425283
 20
196.0165495805
 10
58.5415166072
 20
195.9355131587
 10
58.5184934179
 20
195.8357134022
 10
58.5088017752
 20
195.7181421658
 10
58.5125379989
 20
195.5839679253
 10
58.5296649568
 20
195.4345241646
 10
58.5600124334
 20
195.2712961228
 10
58.603278822
 20
195.0959060336
 10
58.6590341217
 20
194.9100970026
 10
58.7267242113
 20
194.7157156832
 10
58.8056763562
 20
194.5146939245
 10
58.8951058947
 20
194.3090295709
 10
58.9941240357
 20
194.1007666073
 10
59.1017466925
 20
193.8919748444
 10
59.2169042627
 20
193.6847293487
 10
59.3384522588
 20
193.481089819
 10
59.465182682
 20
193.2830801164
 10
59.5958360286
 20
193.0926681504
 10
59.7291138069
 20
192.9117463205
  0
LWPOLYLINE
  5
1A5
330
1F
100
AcDbEntity
  8
0
  6
Continuous
 62
     7
370
    15
100
AcDbPolyline
 90
       34
 70
   128
 43
0.0
 10
104.5246651426
 20
223.8670367198
 10
104.4529150457
 20
223.8947696253
 10
104.3699772122
 20
223.9017055476
 10
104.2766260105
 20
223.887779728
 10
104.1737330355
 20
223.8531221879
 10
104.0622589712
 20
223.7980565157
 10
103.9432446209
 20
223.7230968445
 10
103.8178011896
 20
223.6289430527
 10
103.6870999087
 20
223.5164742289
 10
103.5523611009
 20
223.3867404641
 10
103.4148427862
 20
223.2409530475
 10
103.2758289359
 20
223.0804731571
 10
103.1366174851
 20
222.9067991502
 10
102.9985082134
 20
222.7215525743
 10
102.8627906099
 20
222.5264630267
 10
102.7307318334
 20
222.3233520061
 10
102.603564881
 20
222.1141159052
 10
102.4824770763
 20
221.9007083052
 10
102.3685989835
 20
221.6851217353
 10
102.2629938518
 20
221.4693690693
 10
102.1666476876
 20
221.2554647316
 10
102.0804600494
 20
221.0454058894
 10
102.0052356476
 20
220.8411538056
 10
101.9416768325
 20
220.6446155268
 10
101.8903770354
 20
220.457626078
 10
101.8518152288
 20
220.2819313293
 10
101.8263514539
 20
220.1191716951
 10
101.814223459
 20
219.9708668184
 10
101.8155444801
 20
219.8384013818
 10
101.830302183
 20
219.7230121794
 10
101.8583587791
 20
219.6257765692
 10
101.8994523115
 20
219.5476024137
 10
101.9531991009
 20
219.4892196041
 10
101.9846651426
 20
219.4676276686
  0
LWPOLYLINE
  5
1A6
330
1F
100
AcDbEntity
  8
0
  6
Continuous
 62
     7
370
    15
100
AcDbPolyline
 90
       66
 70
   128
 43
0.0
 10
87.6329697002
 20
262.1513787641
 10
87.4225279276
 20
262.1905355866
 10
87.2252580612
 20
262.2358066134
 10
87.0430019564
 20
262.2867691613
 10
86.8774612896
 20
262.3429474065
 10
86.7301816692
 20
262.403816828
 10
86.6025382055
 20
262.4688091044
 10
86.495722671
 20
262.5373174203
 10
86.4107323736
 20
262.608702132
 10
86.3483608449
 20
262.6822967397
 10
86.3091904309
 20
262.7574141104
 10
86.2935868553
 20
262.8333528934
 10
86.3016958045
 20
262.9094040688
 10
86.3334415673
 20
262.9848575672
 10
86.3885277422
 20
263.0590088997
 10
86.4664400044
 20
263.1311657352
 10
86.5664509081
 20
263.2006543649
 10
86.6876266784
 20
263.266825992
 10
86.8288359297
 20
263.32906279
 10
86.9887602295
 20
263.3867836705
 10
87.1659064075
 20
263.4394497095
 10
87.3586204977
 20
263.4865691781
 10
87.5651031805
 20
263.5277021346
 10
87.7834265827
 20
263.5624645317
 10
88.0115522775
 20
263.5905318023
 10
88.2473503168
 20
263.6116418898
 10
88.4886191179
 20
263.625597695
 10
88.7331060189
 20
263.6322689163
 10
88.9785283115
 20
263.6315932663
 10
89.222594554
 20
263.6235770535
 10
89.4630259655
 20
263.6082951229
 10
89.6975777027
 20
263.5858901579
 10
89.9240598193
 20
263.5565713475
 10
90.1403577128
 20
263.5206124338
 10
90.344451868
 20
263.4783491552
 10
90.5344367128
 20
263.4301761127
 10
90.7085384099
 20
263.3765430849
 10
90.8651314186
 20
263.3179508291
 10
91.0027536722
 20
263.2549464053
 10
91.1201202288
 20
263.1881180688
 10
91.2161352686
 20
263.1180897778
 10
91.2899023248
 20
263.0455153677
 10
91.3407326545
 20
262.971072446
 10
91.3681516685
 20
262.8954560664
 10
91.3719033628
 20
262.8193722385
 10
91.351952709
 20
262.7435313366
 10
91.3084859808
 20
262.6686414668
 10
91.2419090155
 20
262.5954018556
 10
91.1528434241
 20
262.5244963214
 10
91.0421207882
 20
262.4565868902
 10
90.9107748952
 20
262.3923076141
 10
90.7600320862
 20
262.3322586512
 10
90.5912998063
 20
262.2770006627
 10
90.4061534633
 20
262.2270495774
 10
90.2063217186
 20
262.1828717751
 10
89.9936703476
 20
262.1448797322
 10
89.7701848187
 20
262.1134281701
 10
89.5379517561
 20
262.0888107435
 10
89.2991394573
 20
262.0712572987
 10
89.0559776484
 20
262.0609317275
 10
88.8107366657
 20
262.057930437
 10
88.5657062583
 20
262.0622814494
 10
88.3231742089
 20
262.0739441406
 10
88.085404974
 20
262.0928096189
 10
87.8546185409
 20
262.1187017427
 10
87.6329697002
 20
262.1513787641
  0
LWPOLYLINE
  5
1A7
330
1F
100
AcDbEntity
  8
0
  6
Continuous
 62
     7
370
    15
100
AcDbPolyline
 90
       34
 70
   128
 43
0.0
 10
86.2932900841
 20
227.4277206703
 10
86.2999622839
 20
227.3706789056
 10
86.3295458385
 20
227.2951409887
 10
86.3825061786
 20
227.2208409326
 10
86.4583488277
 20
227.1484724569
 10
86.5563656634
 20
227.0787112465
 10
86.6756415289
 20
227.012208643
 10
86.8150627776
 20
226.9495855634
 10
86.973327671
 20
226.8914267025
 10
87.1489585322
 20
226.8382750738
 10
87.3403155433
 20
226.7906269399
 10
87.5456120554
 20
226.7489271785
 10
87.7629312704
 20
226.713565129
 10
87.9902441372
 20
226.6848709573
 10
88.2254282968
 20
226.6631125733
 10
88.4662878982
 20
226.6484931291
 10
88.7105741001
 20
226.6411491225
 10
88.9560060681
 20
226.6411491225
 10
89.20029227
 20
226.6484931291
 10
89.4411518714
 20
226.6631125733
 10
89.6763360311
 20
226.6848709573
 10
89.9036488979
 20
226.713565129
 10
90.1209681128
 20
226.7489271785
 10
90.3262646249
 20
226.7906269399
 10
90.517621636
 20
226.8382750738
 10
90.6932524973
 20
226.8914267025
 10
90.8515173906
 20
226.9495855634
 10
90.9909386393
 20
227.012208643
 10
91.1102145048
 20
227.0787112465
 10
91.2082313405
 20
227.1484724569
 10
91.2840739896
 20
227.2208409326
 10
91.3370343297
 20
227.2951409887
 10
91.3666178843
 20
227.3706789056
 10
91.3732900841
 20
227.4277206703
  0
LWPOLYLINE
  5
1A8
330
1F
100
AcDbEntity
  8
0
  6
Continuous
 62
     7
370
    15
100
AcDbPolyline
 90
       34
 70
   128
 43
0.0
 10
92.3253348574
 20
209.8585447485
 10
92.3575568014
 20
209.8807483173
 10
92.4111466366
 20
209.9393849313
 10
92.4520776226
 20
210.0178048107
 10
92.4799675977
 20
210.1152757703
 10
92.4945561608
 20
210.23088775
 10
92.4957071023
 20
210.3635613119
 10
92.4834096763
 20
210.5120577187
 10
92.4577787004
 20
210.6749904994
 10
92.4190534843
 20
210.8508383946
 10
92.3675955948
 20
211.0379595599
 10
92.3038854803
 20
211.2346068953
 10
92.2285179851
 20
211.4389443578
 10
92.1421967951
 20
211.6490641033
 10
92.045727868
 20
211.8630043006
 10
91.9400119083
 20
212.0787674475
 10
91.8260359572
 20
212.2943390218
 10
91.7048641777
 20
212.5077062898
 10
91.5776279179
 20
212.7168770986
 10
91.4455151485
 20
212.919898477
 10
91.3097593709
 20
213.1148748689
 10
91.1716281002
 20
213.2999858323
 10
91.0324110307
 20
213.473503036
 10
90.8934079949
 20
213.6338063967
 10
90.7559168265
 20
213.779399205
 10
90.6212212437
 20
213.9089221002
 10
90.4905788626
 20
214.0211657618
 10
90.3652094562
 20
214.115082201
 10
90.2462835646
 20
214.1897945454
 10
90.134911567
 20
214.244605226
 10
90.0321333137
 20
214.27900249
 10
89.9389084175
 20
214.2926651797
 10
89.8561072941
 20
214.28546573
 10
89.7853348574
 20
214.2579537997
  0
LWPOLYLINE
  5
1A9
330
1F
100
AcDbEntity
  8
0
  6
Continuous
 62
     7
370
    15
100
AcDbPolyline
 90
       35
 70
   128
 43
0.0
 10
104.0547533685
 20
224.2605462161
 10
103.9928043188
 20
224.286255582
 10
103.9098393345
 20
224.296963998
 10
103.816265155
 20
224.2867082531
 10
103.7129245178
 20
224.2555807114
 10
103.6007481176
 20
224.2038617102
 10
103.4807462249
 20
224.1320170355
 10
103.3539995872
 20
224.0406937266
 10
103.2216496961
 20
223.9307142494
 10
103.0848885061
 20
223.8030690886
 10
102.9449477006
 20
223.6589078277
 10
102.8030875987
 20
223.4995287958
 10
102.660585805
 20
223.3263673744
 10
102.5187257031
 20
223.1409830704
 10
102.3787848976
 20
222.9450454711
 10
102.2420237076
 20
222.7403192079
 10
102.1096738164
 20
222.5286480633
 10
101.9829271788
 20
222.3119383662
 10
101.8629252861
 20
222.0921418233
 10
101.7507488858
 20
221.8712379415
 10
101.6474082486
 20
221.6512162006
 10
101.5538340692
 20
221.4340581355
 10
101.4708690849
 20
221.221719491
 10
101.3992604856
 20
221.0161126076
 10
101.3396531847
 20
220.8190891988
 10
101.2925840108
 20
220.6324236747
 10
101.2584768729
 20
220.4577971615
 10
101.237638943
 20
220.2967823609
 10
101.2302578893
 20
220.1508293863
 10
101.2364001861
 20
220.021252703
 10
101.2560105154
 20
219.9092192899
 10
101.288912265
 20
219.8157381299
 10
101.3348091186
 20
219.7416511224
 10
101.3932877253
 20
219.6876255016
 10
101.4089200352
 20
219.6778284544
  0
LWPOLYLINE
  5
1AA
330
1F
100
AcDbEntity
  8
0
  6
Continuous
 62
     7
370
    15
100
AcDbPolyline
 90
       41
 70
   128
 43
0.0
 10
104.7235781194
 20
223.7521942591
 10
104.6939178336
 20
223.828391758
 10
104.6468486597
 20
223.9006648263
 10
104.5872413588
 20
223.9528243049
 10
104.5156327595
 20
223.984400441
 10
104.4326677752
 20
223.995108857
 10
104.3390935958
 20
223.9848531121
 10
104.2357529586
 20
223.9537255704
 10
104.1235765584
 20
223.9020065692
 10
104.0035746657
 20
223.8301618945
 10
103.876828028
 20
223.7388385856
 10
103.7444781369
 20
223.6288591084
 10
103.6077169469
 20
223.5012139476
 10
103.4677761414
 20
223.3570526867
 10
103.3259160395
 20
223.1976736548
 10
103.1834142458
 20
223.0245122334
 10
103.0415541439
 20
222.8391279294
 10
102.9016133383
 20
222.6431903301
 10
102.7648521484
 20
222.4384640668
 10
102.6325022572
 20
222.2267929222
 10
102.5057556196
 20
222.0100832252
 10
102.3857537269
 20
221.7902866823
 10
102.2735773266
 20
221.5693828005
 10
102.1702366894
 20
221.3493610595
 10
102.07666251
 20
221.1322029945
 10
101.9936975257
 20
220.91986435
 10
101.9220889264
 20
220.7142574665
 10
101.8624816255
 20
220.5172340577
 10
101.8154124516
 20
220.3305685337
 10
101.7813053137
 20
220.1559420205
 10
101.7604673838
 20
219.9949272199
 10
101.7530863301
 20
219.8489742453
 10
101.7592286269
 20
219.7193975619
 10
101.7788389562
 20
219.6073641489
 10
101.8117407058
 20
219.5138829889
 10
101.8576375594
 20
219.4397959814
 10
101.9161161661
 20
219.3857703606
 10
101.9866498624
 20
219.3522926859
 10
102.0686034156
 20
219.3396644603
 10
102.1612387448
 20
219.3479994146
 10
102.1835781194
 20
219.3527852079
  0
LWPOLYLINE
  5
1AB
330
1F
100
AcDbEntity
  8
0
  6
Continuous
 62
     7
370
    15
100
AcDbPolyline
 90
       41
 70
   128
 43
0.0
 10
92.1264218806
 20
209.7437022878
 10
92.2072409932
 20
209.7312900993
 10
92.2933658934
 20
209.7359166655
 10
92.3683409773
 20
209.761458363
 10
92.4314910129
 20
209.8076851611
 10
92.4822472654
 20
209.8741807371
 10
92.5201526195
 20
209.960346226
 10
92.5448656962
 20
210.065405614
 10
92.5561639275
 20
210.1884127269
 10
92.5539455604
 20
210.3282597518
 10
92.5382305737
 20
210.4836872143
 10
92.5091604981
 20
210.6532953209
 10
92.4669971412
 20
210.835556566
 10
92.4121202298
 20
211.0288294891
 10
92.3450239903
 20
211.231373457
 10
92.2663126972
 20
211.4413643412
 10
92.1766952315
 20
211.6569109452
 10
92.0769786957
 20
211.8760720375
 10
91.9680611459
 20
212.0968738339
 10
91.850923503
 20
212.3173277741
 10
91.7266207189
 20
212.5354484307
 10
91.5962722755
 20
212.7492713897
 10
91.4610521021
 20
212.9568709429
 10
91.3221780037
 20
213.1563774305
 10
91.1809006925
 20
213.3459940795
 10
91.0384925243
 20
213.5240131858
 10
90.8962360396
 20
213.6888314936
 10
90.7554124129
 20
213.8389646348
 10
90.617289914
 20
213.9730604972
 10
90.4831124864
 20
214.0899114016
 10
90.3540885436
 20
214.1884649786
 10
90.2313800867
 20
214.267833646
 10
90.1160922388
 20
214.3273026026
 10
90.0092632923
 20
214.3663362657
 10
89.9118553582
 20
214.3845830948
 10
89.8247457008
 20
214.3818787573
 10
89.7487188374
 20
214.3582476087
 10
89.6844594726
 20
214.3139024732
 10
89.6325463318
 20
214.2492427271
 10
89.5934469493
 20
214.1648507016
 10
89.5864218806
 20
214.143111339
  0
LWPOLYLINE
  5
1AC
330
1F
100
AcDbEntity
  8
0
  6
Continuous
 62
     7
370
    15
100
AcDbPolyline
 90
       35
 70
   128
 43
0.0
 10
92.9010799648
 20
210.0687455343
 10
92.9543194537
 20
210.1095403021
 10
93.0050757062
 20
210.1760358781
 10
93.0429810603
 20
210.2622013671
 10
93.067694137
 20
210.367260755
 10
93.0789923682
 20
210.4902678679
 10
93.0767740012
 20
210.6301148929
 10
93.0610590145
 20
210.7855423553
 10
93.0319889389
 20
210.9551504619
 10
92.989825582
 20
211.1374117071
 10
92.9349486706
 20
211.3306846301
 10
92.8678524311
 20
211.5332285981
 10
92.789141138
 20
211.7432194822
 10
92.6995236722
 20
211.9587660863
 10
92.5998071365
 20
212.1779271785
 10
92.4908895867
 20
212.3987289749
 10
92.3737519438
 20
212.6191829152
 10
92.2494491597
 20
212.8373035717
 10
92.1191007163
 20
213.0511265307
 10
91.9838805429
 20
213.2587260839
 10
91.8450064445
 20
213.4582325715
 10
91.7037291332
 20
213.6478492205
 10
91.5613209651
 20
213.8258683268
 10
91.4190644804
 20
213.9906866346
 10
91.2782408537
 20
214.1408197759
 10
91.1401183548
 20
214.2749156382
 10
91.0059409272
 20
214.3917665427
 10
90.8769169844
 20
214.4903201197
 10
90.7542085275
 20
214.569688787
 10
90.6389206796
 20
214.6291577436
 10
90.5320917331
 20
214.6681914067
 10
90.434683799
 20
214.6864382358
 10
90.3475741416
 20
214.6837338983
 10
90.2715472782
 20
214.6601027497
 10
90.2552466315
 20
214.651463296
  0
LWPOLYLINE
  5
1AD
330
1F
100
AcDbEntity
  8
0
  6
Continuous
 62
     7
370
    15
100
AcDbPolyline
 90
       41
 70
   128
 43
0.0
 10
91.3732900841
 20
227.6574055916
 10
91.38860439
 20
227.6404520224
 10
91.4421403367
 20
227.5643949512
 10
91.4721807491
 20
227.4871069794
 10
91.4784550805
 20
227.4092841693
 10
91.4609068238
 20
227.3316273999
 10
91.4196940201
 20
227.2548360549
 10
91.3551878355
 20
227.179601724
 10
91.2679692184
 20
227.1066019741
 10
91.1588236673
 20
227.0364942473
 10
91.0287341567
 20
226.9699099401
 10
90.878872284
 20
226.9074487164
 10
90.7105877185
 20
226.8496731077
 10
90.5253960457
 20
226.797103446
 10
90.3249651181
 20
226.7502131784
 10
90.1111000341
 20
226.7094246028
 10
89.8857268817
 20
226.6751050646
 10
89.650875391
 20
226.6475636486
 10
89.4086606553
 20
226.6270483952
 10
89.1612640818
 20
226.6137440666
 10
88.9109137456
 20
226.6077704827
 10
88.6598643239
 20
226.6091814422
 10
88.4103767899
 20
226.6179642378
 10
88.16469805
 20
226.634039771
 10
87.9250407088
 20
226.657263264
 10
87.6935631411
 20
226.687425564
 10
87.4723500543
 20
226.7242550267
 10
87.2633937129
 20
226.7674199628
 10
87.068575996
 20
226.816531625
 10
86.8896514491
 20
226.8711477093
 10
86.7282314823
 20
226.9307763387
 10
86.5857698581
 20
226.9948804922
 10
86.4635495983
 20
227.0628828425
 10
86.3626714293
 20
227.1341709542
 10
86.2840438688
 20
227.2081028004
 10
86.2283750435
 20
227.2840125445
 10
86.1961663116
 20
227.3612165365
 10
86.187707748
 20
227.4390194706
 10
86.203075531
 20
227.5167206468
 10
86.2421312572
 20
227.5936202813
 10
86.2932900841
 20
227.6574055916
  0
LWPOLYLINE
  5
1AE
330
1F
100
AcDbEntity
  8
0
  6
Continuous
 62
     7
370
    15
100
AcDbPolyline
 90
       35
 70
   128
 43
0.0
 10
91.4791234174
 20
226.8240103882
 10
91.4784550805
 20
226.8055738872
 10
91.4609068238
 20
226.7279171178
 10
91.4196940201
 20
226.6511257729
 10
91.3551878355
 20
226.5758914419
 10
91.2679692184
 20
226.502891692
 10
91.1588236673
 20
226.4327839652
 10
91.0287341567
 20
226.366199658
 10
90.878872284
 20
226.3037384344
 10
90.7105877185
 20
226.2459628256
 10
90.5253960457
 20
226.1933931639
 10
90.3249651181
 20
226.1465028964
 10
90.1111000341
 20
226.1057143207
 10
89.8857268817
 20
226.0713947825
 10
89.650875391
 20
226.0438533665
 10
89.4086606553
 20
226.0233381131
 10
89.1612640818
 20
226.0100337845
 10
88.9109137456
 20
226.0040602006
 10
88.6598643239
 20
226.0054711601
 10
88.4103767899
 20
226.0142539558
 10
88.16469805
 20
226.0303294889
 10
87.9250407088
 20
226.0535529819
 10
87.6935631411
 20
226.0837152819
 10
87.4723500543
 20
226.1205447447
 10
87.2633937129
 20
226.1637096807
 10
87.068575996
 20
226.2128213429
 10
86.8896514491
 20
226.2674374273
 10
86.7282314823
 20
226.3270660566
 10
86.5857698581
 20
226.3911702102
 10
86.4635495983
 20
226.4591725604
 10
86.3626714293
 20
226.5304606721
 10
86.2840438688
 20
226.6043925184
 10
86.2283750435
 20
226.6803022624
 10
86.1961663116
 20
226.7575062545
 10
86.1874567508
 20
226.8240103882
  0
SPLINE
  5
1AF
330
1F
100
AcDbEntity
  8
0
  6
Continuous
 62
     7
370
    15
100
AcDbSpline
210
0.0
220
0.0
230
1.0
 70
     8
 71
     3
 72
    19
 73
    15
 74
     0
 42
0.000000001
 43
0.00000001
 40
0.0
 40
0.0
 40
0.0
 40
0.0
 40
0.0773247946469417
 40
0.1713185033557557
 40
0.2637548404646299
 40
0.3539490638405794
 40
0.442472520702562
 40
0.5310265601595634
 40
0.5929424298165344
 40
0.6868145343758371
 40
0.7806556175898536
 40
0.8750968402451139
 40
0.9695471765296694
 40
0.9999999999999999
 40
0.9999999999999999
 40
0.9999999999999999
 40
0.9999999999999999
 10
95.8450452830261
 20
225.1133015759246
 30
0.0
 10
95.87098539743452
 20
225.138398228118
 30
0.0
 10
95.92845753942493
 20
225.1940016204405
 30
0.0
 10
96.04574192814061
 20
225.2382361878022
 30
0.0
 10
96.17592434635807
 20
225.2395996186007
 30
0.0
 10
96.29702237427799
 20
225.1938472054741
 30
0.0
 10
96.39493288725227
 20
225.1088718894403
 30
0.0
 10
96.45447783957478
 20
225.0061910915901
 30
0.0
 10
96.486904904179
 20
224.8889574006416
 30
0.0
 10
96.48946344643353
 20
224.7632139502647
 30
0.0
 10
96.45252381242999
 20
224.629209200406
 30
0.0
 10
96.37938449556604
 20
224.521828267973
 30
0.0
 10
96.30364681916416
 20
224.4571249473907
 30
0.0
 10
96.25113180487249
 20
224.4467537899176
 30
0.0
 10
96.23832804183796
 20
224.4442251827284
 30
0.0
  0
LWPOLYLINE
  5
1B0
330
1F
100
AcDbEntity
  8
0
  6
Continuous
 62
     7
370
    15
100
AcDbPolyline
 90
       11
 70
   128
 43
0.0
 10
92.5537340374
 20
230.6157663577
 10
92.4467535492
 20
230.5716317607
 10
92.3316632678
 20
230.5073030472
 10
92.2095377602
 20
230.423380837
 10
92.0815172793
 20
230.3206486892
 10
91.948797118
 20
230.2000657862
 10
91.8126164486
 20
230.062757978
 10
91.6742467532
 20
229.9100072707
 10
91.5349799525
 20
229.7432398564
 10
91.3961163431
 20
229.5640127976
 10
91.3732900841
 20
229.5332996641
  0
ARC
  5
1B1
330
1F
100
AcDbEntity
  8
0
  6
Continuous
 62
     7
370
    15
100
AcDbCircle
 10
92.6930924737
 20
230.2951750536
 30
0.0
 40
0.3495705336371589
100
AcDbArc
 50
63.6659537981
 51
113.4941935459
  0
LWPOLYLINE
  5
1B2
330
1F
100
AcDbEntity
  8
0
  6
Continuous
 62
     7
370
    15
100
AcDbPolyline
 90
       11
 70
   128
 43
0.0
 10
104.1538519124
 20
216.8441748457
 10
104.1700281992
 20
216.9576876811
 10
104.1727764794
 20
217.0883987096
 10
104.1620710932
 20
217.2350875175
 10
104.1380119938
 20
217.3963845109
 10
104.1008238146
 20
217.5707837032
 10
104.0508537716
 20
217.7566567763
 10
103.9885684216
 20
217.9522682832
 10
103.9145493061
 20
218.155791852
 10
103.8294875217
 20
218.3653272381
 10
103.8081500409
 20
218.4148381717
  0
ARC
  5
1B3
330
1F
100
AcDbEntity
  8
0
  6
Continuous
 62
     7
370
    15
100
AcDbCircle
 10
103.8122488487
 20
216.8874104226
 30
0.0
 40
0.3443282855599823
100
AcDbArc
 50
303.4083245641
 51
352.7866157377
  0
LWPOLYLINE
  5
1B4
330
1F
100
AcDbEntity
  8
0
  6
Continuous
 62
     7
370
    15
100
AcDbPolyline
 90
       14
 70
   128
 43
0.0
 10
87.9618499591
 20
213.2051643028
 10
87.8107741472
 20
213.2239951815
 10
87.5911437063
 20
213.2579569498
 10
87.3831108516
 20
213.2983321253
 10
87.1886179296
 20
213.344743736
 10
87.0094808684
 20
213.3967584491
 10
86.8473722224
 20
213.4538906173
 10
86.7038055564
 20
213.5156068129
 10
86.5801213137
 20
213.5813308084
 10
86.4774743007
 20
213.6504489566
 10
86.396822905
 20
213.7223159199
 10
86.3389201468
 20
213.7962606959
 10
86.3043066487
 20
213.8715928822
 10
86.2932900841
 20
213.9448577041
  0
ARC
  5
1B5
330
1F
100
AcDbEntity
  8
0
  6
Continuous
 62
     7
370
    15
100
AcDbCircle
 10
96.1476226158
 20
224.8549911332
 30
0.0
 40
0.3978408313795099
100
AcDbArc
 50
139.5125952189
 51
158.1277884604
  0
LWPOLYLINE
  5
1B6
330
1F
100
AcDbEntity
  8
0
  6
Continuous
 62
     7
370
    15
100
AcDbPolyline
 90
       18
 70
   128
 43
0.0
 10
103.8029237251
 20
216.4851337709
 10
103.816265155
 20
216.4821598393
 10
103.9098393345
 20
216.4719040943
 10
103.9928043188
 20
216.4826125104
 10
104.064412918
 20
216.5141886464
 10
104.1240202189
 20
216.566348125
 10
104.1710893928
 20
216.6386211933
 10
104.2051965307
 20
216.7303569538
 10
104.2260344606
 20
216.840729226
 10
104.2334155144
 20
216.9687439877
 10
104.2272732176
 20
217.1132483266
 10
104.2076628882
 20
217.2729408241
 10
104.1747611387
 20
217.4463832754
 10
104.128864285
 20
217.6320136425
 10
104.0703856783
 20
217.8281601223
 10
103.999851982
 20
218.0330562021
 10
103.9178984288
 20
218.24485657
 10
103.8587124036
 20
218.3856459779
  0
LWPOLYLINE
  5
1B7
330
1F
100
AcDbEntity
  8
0
  6
Continuous
 62
     7
370
    15
100
AcDbPolyline
 90
       18
 70
   128
 43
0.0
 10
93.0470762749
 20
230.4936257422
 10
93.0429810603
 20
230.5066667253
 10
93.0050757062
 20
230.5928322143
 10
92.9543194537
 20
230.6593277903
 10
92.8911694181
 20
230.7055545883
 10
92.8161943342
 20
230.7310962859
 10
92.730069434
 20
230.7357228521
 10
92.6335703661
 20
230.7193926197
 10
92.5275662095
 20
230.6822526602
 10
92.413011647
 20
230.6246374595
 10
92.2909383669
 20
230.5470659049
 10
92.162445772
 20
230.4502366128
 10
92.0286910779
 20
230.3350216362
 10
91.890878891
 20
230.2024586114
 10
91.75025036
 20
230.0537414126
 10
91.6080719979
 20
229.8902093998
 10
91.4656242754
 20
229.7133353569
 10
91.3732900841
 20
229.5916840516
  0
LWPOLYLINE
  5
1B8
330
1F
100
AcDbEntity
  8
0
  6
Continuous
 62
     7
370
    15
100
AcDbPolyline
 90
       18
 70
   128
 43
0.0
 10
86.2932900841
 20
214.1745426255
 10
86.2840438688
 20
214.164475574
 10
86.2283750435
 20
214.08856583
 10
86.1961663116
 20
214.0113618379
 10
86.187707748
 20
213.9335589038
 10
86.203075531
 20
213.8558577277
 10
86.2421312572
 20
213.7789580932
 10
86.3045231873
 20
213.7035525651
 10
86.389689414
 20
213.6303202523
 10
86.4968629228
 20
213.5599206914
 10
86.6250784996
 20
213.492987907
 10
86.7731814239
 20
213.4301247017
 10
86.9398378676
 20
213.371897227
 10
87.1235469081
 20
213.3188298846
 10
87.3226540458
 20
213.2714006037
 10
87.5353661042
 20
213.2300365366
 10
87.7597673799
 20
213.1951102117
 10
87.9112875963
 20
213.1759721091
  0
LWPOLYLINE
  5
1B9
330
1F
100
AcDbEntity
  8
0
  6
Continuous
 62
     7
370
    15
100
AcDbPolyline
 90
       11
 70
   128
 43
0.0
 10
104.5775818093
 20
216.8101770173
 10
104.5872413588
 20
216.8160437874
 10
104.6468486597
 20
216.868203266
 10
104.6939178336
 20
216.9404763344
 10
104.7280249715
 20
217.0322120948
 10
104.7488629014
 20
217.142584367
 10
104.7562439552
 20
217.2705991287
 10
104.7501016584
 20
217.4151034677
 10
104.730491329
 20
217.5747959651
 10
104.6975895795
 20
217.7482384164
 10
104.6536486886
 20
217.9266892998
  0
LWPOLYLINE
  5
1BA
330
1F
100
AcDbEntity
  8
0
  6
Continuous
 62
     7
370
    15
100
AcDbPolyline
 90
       11
 70
   128
 43
0.0
 10
92.378251524
 20
231.0019776991
 10
92.3683409773
 20
231.0074097294
 10
92.2933658934
 20
231.0329514269
 10
92.2072409932
 20
231.0375779931
 10
92.1107419253
 20
231.0212477607
 10
92.0047377687
 20
230.9841078013
 10
91.8901832062
 20
230.9264926005
 10
91.7681099261
 20
230.8489210459
 10
91.6396173312
 20
230.7520917538
 10
91.5058626371
 20
230.6368767773
 10
91.3732900841
 20
230.5095974078
  0
LWPOLYLINE
  5
1BB
330
1F
100
AcDbEntity
  8
0
  6
Continuous
 62
     7
370
    15
100
AcDbPolyline
 90
       11
 70
   128
 43
0.0
 10
86.1874567508
 20
213.3411474221
 10
86.187707748
 20
213.3298486217
 10
86.203075531
 20
213.2521474456
 10
86.2421312572
 20
213.1752478111
 10
86.3045231873
 20
213.099842283
 10
86.389689414
 20
213.0266099702
 10
86.4968629228
 20
212.9562104093
 10
86.6250784996
 20
212.889277625
 10
86.7731814239
 20
212.8264144196
 10
86.9398378676
 20
212.7681869449
 10
87.1163513114
 20
212.7170154309
  0
LWPOLYLINE
  5
1BC
330
1F
100
AcDbEntity
  8
0
  6
Continuous
 62
     7
370
    15
100
AcDbPolyline
 90
       34
 70
   128
 43
0.0
 10
132.6572670027
 20
239.0100753644
 10
132.7290170996
 20
239.0378082699
 10
132.8119549331
 20
239.0447441922
 10
132.9053061348
 20
239.0308183726
 10
133.0081991098
 20
238.9961608326
 10
133.1196731741
 20
238.9410951603
 10
133.2386875244
 20
238.8661354892
 10
133.3641309557
 20
238.7719816974
 10
133.4948322366
 20
238.6595128735
 10
133.6295710444
 20
238.5297791087
 10
133.7670893591
 20
238.3839916922
 10
133.9061032093
 20
238.2235118017
 10
134.0453146602
 20
238.0498377948
 10
134.1834239319
 20
237.8645912189
 10
134.3191415354
 20
237.6695016713
 10
134.4512003119
 20
237.4663906507
 10
134.5783672643
 20
237.2571545498
 10
134.699455069
 20
237.0437469498
 10
134.8133331617
 20
236.8281603799
 10
134.9189382935
 20
236.6124077139
 10
135.0152844576
 20
236.3985033762
 10
135.1014720959
 20
236.1884445341
 10
135.1766964976
 20
235.9841924503
 10
135.2402553128
 20
235.7876541715
 10
135.2915551099
 20
235.6006647226
 10
135.3301169164
 20
235.4249699739
 10
135.3555806914
 20
235.2622103397
 10
135.3677086862
 20
235.113905463
 10
135.3663876652
 20
234.9814400264
 10
135.3516299623
 20
234.8660508241
 10
135.3235733662
 20
234.7688152138
 10
135.2824798338
 20
234.6906410584
 10
135.2287330443
 20
234.6322582487
 10
135.1972670027
 20
234.6106663132
  0
LWPOLYLINE
  5
1BD
330
1F
100
AcDbEntity
  8
0
  6
Continuous
 62
     7
370
    15
100
AcDbPolyline
 90
       34
 70
   128
 43
0.0
 10
59.1127329974
 20
244.2197492333
 10
59.0528405482
 20
244.2680201873
 10
59.0053649466
 20
244.3363784968
 10
58.9707494593
 20
244.4241859188
 10
58.9493172819
 20
244.5306226191
 10
58.9412685208
 20
244.6546948267
 10
58.9466783251
 20
244.7952441131
 10
58.965496185
 20
244.9509582072
 10
58.9975464031
 20
245.1203832487
 10
59.0425297353
 20
245.3019373615
 10
59.1000261842
 20
245.4939254238
 10
59.169498921
 20
245.6945548949
 10
59.2502992976
 20
245.9019525512
 10
59.3416729024
 20
246.114181977
 10
59.4427666049
 20
246.3292616431
 10
59.5526365203
 20
246.5451834087
 10
59.6702568228
 20
246.7599312704
 10
59.7945293234
 20
246.9715001854
 10
59.9242937233
 20
247.1779147916
 10
60.0583384471
 20
247.3772478515
 10
60.1954119555
 20
247.567638246
 10
60.3342344299
 20
247.7473083513
 10
60.4735097224
 20
247.9145806361
 10
60.6119374571
 20
248.0678933241
 10
60.7482251715
 20
248.2058149759
 10
60.8811003839
 20
248.3270578545
 10
61.0093224743
 20
248.4304899475
 10
61.1316942677
 20
248.5151455375
 10
61.2470732114
 20
248.580234218
 10
61.3543820434
 20
248.6251482736
 10
61.4526188501
 20
248.6494683537
 10
61.5408664208
 20
248.6529673885
 10
61.6183008118
 20
248.6356127082
 10
61.6527329974
 20
248.6191582846
  0
LWPOLYLINE
  5
1BE
330
1F
100
AcDbEntity
  8
0
  6
Continuous
 62
     7
370
    15
100
AcDbPolyline
 90
       34
 70
   128
 43
0.0
 10
91.3732900841
 20
177.9234775408
 10
91.3699049842
 20
177.882834628
 10
91.3454110335
 20
177.8071217961
 10
91.2974620863
 20
177.7324953465
 10
91.2265058291
 20
177.6596520462
 10
91.1332047612
 20
177.5892720134
 10
91.0184300097
 20
177.5220123676
 10
90.8832531955
 20
177.4585010939
 10
90.7289364281
 20
177.3993311801
 10
90.5569205214
 20
177.3450550796
 10
90.3688115418
 20
177.2961795537
 10
90.1663658121
 20
177.2531609402
 10
89.9514735135
 20
177.2164008921
 10
89.7261410375
 20
177.1862426282
 10
89.4924722526
 20
177.1629677281
 10
89.2526488615
 20
177.1467935031
 10
89.0089100305
 20
177.1378709678
 10
88.7635314834
 20
177.1362834293
 10
88.5188042535
 20
177.1420457102
 10
88.277013293
 20
177.1551040096
 10
88.0404161391
 20
177.1753364055
 10
87.8112218356
 20
177.2025539937
 10
87.591570308
 20
177.2365026508
 10
87.3835123833
 20
177.2768654073
 10
87.1889906424
 20
177.3232654071
 10
87.0098212824
 20
177.3752694259
 10
86.8476771592
 20
177.4323919162
 10
86.7040721689
 20
177.4940995406
 10
86.5803471127
 20
177.5598161517
 10
86.4776571779
 20
177.6289281712
 10
86.3969611529
 20
177.7007903188
 10
86.3390124747
 20
177.774731637
 10
86.3043521944
 20
177.8500617557
 10
86.2932900841
 20
177.9234775408
  0
LWPOLYLINE
  5
1BF
330
1F
100
AcDbEntity
  8
0
  6
Continuous
 62
     7
370
    15
100
AcDbPolyline
 90
       21
 70
   128
 43
0.0
 10
134.5957163414
 20
237.2923777529
 10
134.7205021877
 20
237.0737214743
 10
134.8381043733
 20
236.8526802515
 10
134.9474578747
 20
236.6312558681
 10
135.0475723695
 20
236.4114535776
 10
135.1375412054
 20
236.1952639437
 10
135.2165496108
 20
235.984644813
 10
135.2838820732
 20
235.7815035851
 10
135.3389288194
 20
235.5876799383
 10
135.3811913376
 20
235.4049291697
 10
135.4102868919
 20
235.2349062985
 10
135.4259519885
 20
235.0791510781
 10
135.4280447617
 20
234.9390740519
 10
135.4165462591
 20
234.8159437793
 10
135.391560613
 20
234.7108753469
 10
135.3533140972
 20
234.6248202708
 10
135.302153078
 20
234.5585578792
 10
135.2385408777
 20
234.5126882543
 10
135.1630535781
 20
234.4876267988
 10
135.0763748039
 20
234.483600473
 10
134.9983540259
 20
234.4958238525
  0
LWPOLYLINE
  5
1C0
330
1F
100
AcDbEntity
  8
0
  6
Continuous
 62
     7
370
    15
100
AcDbPolyline
 90
       21
 70
   128
 43
0.0
 10
132.4583540259
 20
238.8952329038
 10
132.4629733923
 20
238.9098663307
 10
132.5012199081
 20
238.9959214068
 10
132.5523809273
 20
239.0621837985
 10
132.6159931276
 20
239.1080534233
 10
132.6914804272
 20
239.1331148788
 10
132.7781592014
 20
239.1371412047
 10
132.8752444738
 20
239.1200959377
 10
132.9818570251
 20
239.0821334427
 10
133.0970313556
 20
239.0235975136
 10
133.2197244287
 20
238.9450182611
 10
133.3488251169
 20
238.847107311
 10
133.4831642643
 20
238.73075136
 10
133.621525275
 20
238.5970041456
 10
133.7626551301
 20
238.4470769033
 10
133.9052757357
 20
238.2823273975
 10
134.0480954977
 20
238.1042476251
 10
134.1898210182
 20
237.9144503041
 10
134.3291688088
 20
237.7146542686
 10
134.4648769144
 20
237.5066689023
 10
134.5957163414
 20
237.2923777529
  0
LWPOLYLINE
  5
1C1
330
1F
100
AcDbEntity
  8
0
  6
Continuous
 62
     7
370
    15
100
AcDbPolyline
 90
       18
 70
   128
 43
0.0
 10
134.8571305618
 20
237.4433053234
 10
134.9819164081
 20
237.2246490448
 10
135.0995185937
 20
237.003607822
 10
135.2088720951
 20
236.7821834386
 10
135.3089865899
 20
236.5623811481
 10
135.3989554258
 20
236.3461915142
 10
135.4779638312
 20
236.1355723835
 10
135.5452962936
 20
235.9324311556
 10
135.6003430398
 20
235.7386075088
 10
135.642605558
 20
235.5558567402
 10
135.6717011123
 20
235.385833869
 10
135.6873662088
 20
235.2300786486
 10
135.6894589821
 20
235.0900016225
 10
135.6779604795
 20
234.9668713498
 10
135.6529748334
 20
234.8618029174
 10
135.6147283176
 20
234.7757478414
 10
135.5635672984
 20
234.7094854497
 10
135.5115978897
 20
234.6699395285
  0
LWPOLYLINE
  5
1C2
330
1F
100
AcDbEntity
  8
0
  6
Continuous
 62
     7
370
    15
100
AcDbPolyline
 90
       18
 70
   128
 43
0.0
 10
132.8657645564
 20
239.2526572902
 10
132.877407348
 20
239.2589809938
 10
132.9528946476
 20
239.2840424494
 10
133.0395734218
 20
239.2880687752
 10
133.1366586942
 20
239.2710235083
 10
133.2432712455
 20
239.2330610132
 10
133.358445576
 20
239.1745250842
 10
133.4811386491
 20
239.0959458317
 10
133.6102393373
 20
238.9980348815
 10
133.7445784847
 20
238.8816789305
 10
133.8829394954
 20
238.7479317161
 10
134.0240693505
 20
238.5980044738
 10
134.1666899561
 20
238.433254968
 10
134.3095097181
 20
238.2551751956
 10
134.4512352386
 20
238.0653778747
 10
134.5905830292
 20
237.8655818391
 10
134.7262911348
 20
237.6575964728
 10
134.8571305618
 20
237.4433053234
  0
LWPOLYLINE
  5
1C3
330
1F
100
AcDbEntity
  8
0
  6
Continuous
 62
     7
370
    15
100
AcDbPolyline
 90
        8
 70
   128
 43
0.0
 10
61.3838637402
 20
248.713250412
 10
61.4857134537
 20
248.7405338077
 10
61.5775744053
 20
248.746797143
 10
61.6586146881
 20
248.7319836963
 10
61.7281003887
 20
248.6962276203
 10
61.7854022339
 20
248.6398527277
 10
61.8300012893
 20
248.5633695582
 10
61.8516459741
 20
248.5043158239
  0
LWPOLYLINE
  5
1C4
330
1F
100
AcDbEntity
  8
0
  6
Continuous
 62
     7
370
    15
100
AcDbPolyline
 90
       34
 70
   128
 43
0.0
 10
59.3116459741
 20
244.1049067727
 10
59.2797525411
 20
244.0983737102
 10
59.1878915894
 20
244.0921103749
 10
59.1068513066
 20
244.1069238216
 10
59.037365606
 20
244.1426798976
 10
58.9800637608
 20
244.1990547902
 10
58.9354647054
 20
244.2755379597
 10
58.9039723358
 20
244.3714367627
 10
58.8858718517
 20
244.4858827248
 10
58.881327174
 20
244.6178394055
 10
58.8903794599
 20
244.7661117848
 10
58.9129467305
 20
244.9293570851
 10
58.9488246132
 20
245.1060969316
 10
58.9976881922
 20
245.2947307409
 10
59.0590949515
 20
245.493550216
 10
59.1324887818
 20
245.700754817
 10
59.2172050174
 20
245.9144680669
 10
59.3124764549
 20
246.1327545454
 10
59.4174403014
 20
246.3536374164
 10
59.5311459879
 20
246.5751163304
 10
59.6525637784
 20
246.79518554
 10
59.7805940943
 20
247.0118520645
 10
59.9140774734
 20
247.2231537381
 10
60.0518050695
 20
247.4271769803
 10
60.1925296001
 20
247.6220741249
 10
60.3349766422
 20
247.8060801533
 10
60.4778561732
 20
247.9775286783
 10
60.619874254
 20
248.1348670356
 10
60.7597447468
 20
248.2766703446
 10
60.8962009629
 20
248.4016544126
 10
61.0280071336
 20
248.5086873646
 10
61.1539696017
 20
248.5967998935
 10
61.2729476318
 20
248.6651940386
 10
61.3838637402
 20
248.713250412
  0
ARC
  5
1C5
330
1F
100
AcDbEntity
  8
0
  6
Continuous
 62
     7
370
    15
100
AcDbCircle
 10
61.2807598764
 20
248.5220551986
 30
0.0
 40
0.3769750234020182
100
AcDbArc
 50
64.3005188994
 51
114.8313798257
  0
LWPOLYLINE
  5
1C6
330
1F
100
AcDbEntity
  8
0
  6
Continuous
 62
     7
370
    15
100
AcDbPolyline
 90
       31
 70
   128
 43
0.0
 10
58.7984021103
 20
244.2790224486
 10
58.7759513856
 20
244.2936074681
 10
58.7186495404
 20
244.3499823607
 10
58.674050485
 20
244.4264655302
 10
58.6425581154
 20
244.5223643332
 10
58.6244576313
 20
244.6368102953
 10
58.6199129536
 20
244.768766976
 10
58.6289652395
 20
244.9170393553
 10
58.6515325101
 20
245.0802846556
 10
58.6874103928
 20
245.2570245021
 10
58.7362739718
 20
245.4456583114
 10
58.7976807311
 20
245.6444777865
 10
58.8710745614
 20
245.8516823875
 10
58.955790797
 20
246.0653956374
 10
59.0510622345
 20
246.2836821159
 10
59.156026081
 20
246.5045649869
 10
59.2697317676
 20
246.7260439009
 10
59.391149558
 20
246.9461131106
 10
59.5191798739
 20
247.162779635
 10
59.652663253
 20
247.3740813086
 10
59.7903908491
 20
247.5781045508
 10
59.9311153797
 20
247.7730016955
 10
60.0735624218
 20
247.9570077238
 10
60.2164419528
 20
248.1284562489
 10
60.3584600336
 20
248.2857946061
 10
60.4983305264
 20
248.4275979152
 10
60.6347867425
 20
248.5525819832
 10
60.7665929132
 20
248.6596149351
 10
60.8925553813
 20
248.747727464
 10
61.0115334114
 20
248.8161216091
 10
61.1224495199
 20
248.8641779825
  0
LWPOLYLINE
  5
1C7
330
1F
100
AcDbEntity
  8
0
  6
Continuous
 62
     7
370
    15
100
AcDbPolyline
 90
       10
 70
   128
 43
0.0
 10
135.6602672771
 20
236.2207125918
 10
135.7141482729
 20
236.036377491
 10
135.7554665439
 20
235.8627346558
 10
135.7838114503
 20
235.7015098267
 10
135.7989012879
 20
235.5543053285
 10
135.800586087
 20
235.4225841457
 10
135.7888491034
 20
235.3076553826
 10
135.7638069844
 20
235.2106612528
 10
135.7257086099
 20
235.1325657275
 10
135.689364848
 20
235.0874425298
  0
LWPOLYLINE
  5
1C8
330
1F
100
AcDbEntity
  8
0
  6
Continuous
 62
     7
370
    15
100
AcDbPolyline
 90
       23
 70
   128
 43
0.0
 10
133.3162162408
 20
239.1978564914
 10
133.3240556555
 20
239.1998328403
 10
133.4040549356
 20
239.2069679984
 10
133.4944502363
 20
239.1932846691
 10
133.5943431683
 20
239.1589188436
 10
133.702740951
 20
239.104212065
 10
133.8185662783
 20
239.0297080336
 10
133.9406680262
 20
238.9361472042
 10
134.0678326927
 20
238.8244594262
 10
134.1987964581
 20
238.695754703
 10
134.3322577457
 20
238.5513121598
 10
134.4668901573
 20
238.3925673317
 10
134.6013556555
 20
238.221097896
 10
134.7343178618
 20
238.0386079931
 10
134.8644553379
 20
237.8469112895
 10
134.9904747193
 20
237.6479129532
 10
135.1111235687
 20
237.4435907191
 10
135.2252028235
 20
237.2359752333
 10
135.331578713
 20
237.0271298719
 10
135.4291940258
 20
236.8191302338
 10
135.5170786169
 20
236.6140435129
 10
135.5943590499
 20
236.4139079532
 10
135.6602672771
 20
236.2207125918
  0
LWPOLYLINE
  5
1C9
330
1F
100
AcDbEntity
  8
0
  6
Continuous
 62
     7
370
    15
100
AcDbPolyline
 90
       32
 70
   128
 43
0.0
 10
58.6206351522
 20
244.6965254497
 10
58.5869503851
 20
244.7376330193
 10
58.5480892007
 20
244.8145827837
 10
58.5222654267
 20
244.9104824489
 10
58.5097357112
 20
245.024378921
 10
58.5106245804
 20
245.1551402455
 10
58.5249232001
 20
245.3014668578
 10
58.5524894644
 20
245.4619044981
 10
58.5930494072
 20
245.6348586652
 10
58.6461999256
 20
245.8186104629
 10
58.7114127859
 20
246.0113336832
 10
58.7880398735
 20
246.2111129561
 10
58.8753196338
 20
246.4159627856
 10
58.9723846414
 20
246.6238472819
 10
59.0782702207
 20
246.8327003956
 10
59.1919240331
 20
247.0404464505
 10
59.3122165361
 20
247.2450207731
 10
59.4379522087
 20
247.4443902118
 10
59.5678814334
 20
247.6365733436
 10
59.700712915
 20
247.8196601661
 10
59.8351265146
 20
247.9918310803
 10
59.9697863696
 20
248.1513749743
 10
60.1033541698
 20
248.2967062291
 10
60.2345024583
 20
248.4263804775
 10
60.3619278246
 20
248.5391089585
 10
60.4843638581
 20
248.6337713259
 10
60.6005937345
 20
248.7094267824
 10
60.7094623091
 20
248.7653234303
 10
60.8098875971
 20
248.8009057434
 10
60.9008715268
 20
248.8158200888
 10
60.9815098591
 20
248.809918241
 10
60.9937837595
 20
248.8069394114
  0
INSERT
  5
1D5
330
1F
100
AcDbEntity
  8
0
  6
Continuous
 62
     7
370
     0
100
AcDbBlockReference
  2
SW_CENTERMARKSYMBOL_0
 10
94.3810966947
 20
220.3844340462
 30
0.0
  0
INSERT
  5
1E1
330
1F
100
AcDbEntity
  8
0
  6
Continuous
 62
     7
370
     0
100
AcDbBlockReference
  2
SW_CENTERMARKSYMBOL_1
 10
93.3778575674
 20
220.8212501537
 30
0.0
  0
LINE
  5
1E2
330
1F
100
AcDbEntity
  8
0
  6
Continuous
 62
     7
370
    15
100
AcDbLine
 10
263.5610144169
 20
57.629596094
 30
0.0
 11
263.7119419874
 21
57.5311596991
 31
0.0
  0
LINE
  5
1E3
330
1F
100
AcDbEntity
  8
0
  6
Continuous
 62
     7
370
    15
100
AcDbLine
 10
266.3136418799
 20
61.5202152164
 30
0.0
 11
266.1627143094
 21
61.6186516112
 31
0.0
  0
LINE
  5
1E4
330
1F
100
AcDbEntity
  8
0
  6
Continuous
 62
     7
370
    15
100
AcDbLine
 10
233.0089855831
 20
89.5089634862
 30
0.0
 11
232.8580580126
 21
89.6073998811
 31
0.0
  0
LINE
  5
1E5
330
1F
100
AcDbEntity
  8
0
  6
Continuous
 62
     7
370
    15
100
AcDbLine
 10
230.2563581201
 20
85.6183443639
 30
0.0
 11
230.4072856906
 21
85.519907969
 31
0.0
  0
LINE
  5
1E6
330
1F
100
AcDbEntity
  8
0
  6
Continuous
 62
     7
370
    15
100
AcDbLine
 10
263.2655479635
 20
57.5064182935
 30
0.0
 11
263.416475534
 21
57.4079818986
 31
0.0
  0
LINE
  5
1E7
330
1F
100
AcDbEntity
  8
0
  6
Continuous
 62
     7
370
    15
100
AcDbLine
 10
266.3072531923
 20
61.8402658066
 30
0.0
 11
266.1563256218
 21
61.9387022015
 31
0.0
  0
LINE
  5
1E8
330
1F
100
AcDbEntity
  8
0
  6
Continuous
 62
     7
370
    15
100
AcDbLine
 10
233.3044520365
 20
89.6321412868
 30
0.0
 11
233.153524466
 21
89.7305776816
 31
0.0
  0
LINE
  5
1E9
330
1F
100
AcDbEntity
  8
0
  6
Continuous
 62
     7
370
    15
100
AcDbLine
 10
230.2627468077
 20
85.2982937736
 30
0.0
 11
230.4136743782
 21
85.1998573788
 31
0.0
  0
LINE
  5
1EA
330
1F
100
AcDbEntity
  8
0
  6
Continuous
 62
     7
370
    15
100
AcDbLine
 10
265.5876039712
 20
62.1832743322
 30
0.0
 11
248.389675128
 21
73.3999268527
 31
0.0
  0
LINE
  5
1EB
330
1F
100
AcDbEntity
  8
0
  6
Continuous
 62
     7
370
    15
100
AcDbLine
 10
245.614528576
 20
69.144934301
 30
0.0
 11
262.8124574192
 21
57.9282817804
 31
0.0
  0
LINE
  5
1EC
330
1F
100
AcDbEntity
  8
0
  6
Continuous
 62
     7
370
    15
100
AcDbLine
 10
250.955471424
 20
77.9936252792
 30
0.0
 11
233.7575425808
 21
89.2102777998
 31
0.0
  0
LINE
  5
1ED
330
1F
100
AcDbEntity
  8
0
  6
Continuous
 62
     7
370
    15
100
AcDbLine
 10
230.9823960288
 20
84.9552852481
 30
0.0
 11
248.180324872
 21
73.7386327275
 31
0.0
  0
LINE
  5
1EE
330
1F
100
AcDbEntity
  8
0
  6
Continuous
 62
     7
370
    15
100
AcDbLine
 10
245.2548578818
 20
69.2531614126
 30
0.0
 11
245.5567130228
 21
69.0562886229
 31
0.0
  0
LINE
  5
1EF
330
1F
100
AcDbEntity
  8
0
  6
Continuous
 62
     7
370
    15
100
AcDbLine
 10
251.3151421182
 20
77.8853981677
 30
0.0
 11
251.0132869771
 21
78.0822709574
 31
0.0
  0
LINE
  5
1F0
330
1F
100
AcDbEntity
  8
0
  6
Continuous
 62
     7
370
    15
100
AcDbLine
 10
244.3071745019
 20
76.0625725327
 30
0.0
 11
241.6482436449
 21
77.7967524895
 31
0.0
  0
LINE
  5
1F1
330
1F
100
AcDbEntity
  8
0
  6
Continuous
 62
     7
370
    15
100
AcDbLine
 10
247.5217125279
 20
73.9660203035
 30
0.0
 11
244.8615701534
 21
75.7009904236
 31
0.0
  0
LINE
  5
1F2
330
1F
100
AcDbEntity
  8
0
  6
Continuous
 62
     7
370
    15
100
AcDbLine
 10
238.8730970929
 20
73.5417599378
 30
0.0
 11
244.8017673375
 21
69.6750248996
 31
0.0
  0
LINE
  5
1F3
330
1F
100
AcDbEntity
  8
0
  6
Continuous
 62
     7
370
    15
100
AcDbLine
 10
257.6969029071
 20
73.5967996424
 30
0.0
 11
251.7682326625
 21
77.4635346807
 31
0.0
  0
LINE
  5
1F4
330
1F
100
AcDbEntity
  8
0
  6
Continuous
 62
     7
370
    15
100
AcDbLine
 10
249.0482874721
 20
73.1725392767
 30
0.0
 11
254.9217563551
 21
69.3418070907
 31
0.0
  0
LINE
  5
1F5
330
1F
100
AcDbEntity
  8
0
  6
Continuous
 62
     7
370
    15
100
AcDbLine
 10
244.0516666667
 20
153.711335656
 30
0.0
 11
244.0516666667
 21
153.076335656
 31
0.0
  0
LINE
  5
1F6
330
1F
100
AcDbEntity
  8
0
  6
Continuous
 62
     7
370
    15
100
AcDbLine
 10
252.5183333333
 20
153.076335656
 30
0.0
 11
252.5183333333
 21
153.711335656
 31
0.0
  0
ARC
  5
1F7
330
1F
100
AcDbEntity
  8
0
  6
Continuous
 62
     7
370
    15
100
AcDbCircle
 10
252.3066666667
 20
153.076335656
 30
0.0
 40
0.2116666666666731
100
AcDbArc
 50
270.0
 51
0.0
  0
ARC
  5
1F8
330
1F
100
AcDbEntity
  8
0
  6
Continuous
 62
     7
370
    15
100
AcDbCircle
 10
244.2633333333
 20
153.076335656
 30
0.0
 40
0.2116666666666731
100
AcDbArc
 50
180.0
 51
270.0
  0
ARC
  5
1F9
330
1F
100
AcDbEntity
  8
0
  6
Continuous
 62
     7
370
    15
100
AcDbCircle
 10
244.4921011351
 20
75.6817664778
 30
0.0
 40
0.4233333333333272
100
AcDbArc
 50
107.2974728207
 51
130.6163287234
  0
ARC
  5
1FA
330
1F
100
AcDbEntity
  8
0
  6
Continuous
 62
     7
370
    15
100
AcDbCircle
 10
244.4921011351
 20
75.6817664778
 30
0.0
 40
0.4233333333333462
100
AcDbArc
 50
0.0
 51
33.0668014801
  0
LINE
  5
1FB
330
1F
100
AcDbEntity
  8
0
  6
Continuous
 62
     7
370
    15
100
AcDbLine
 10
245.8530682369
 20
81.3214610954
 30
0.0
 11
247.95620894
 21
91.680635924
 31
0.0
  0
LINE
  5
1FC
330
1F
100
AcDbEntity
  8
0
  6
Continuous
 62
     7
370
    15
100
AcDbLine
 10
247.5413393099
 20
91.7648635985
 30
0.0
 11
245.4716086959
 21
81.5702526308
 31
0.0
  0
LINE
  5
1FD
330
1F
100
AcDbEntity
  8
0
  6
Continuous
 62
     7
370
    15
100
AcDbLine
 10
244.3842646522
 20
76.2144592541
 30
0.0
 11
244.3576096259
 21
76.083167954
 31
0.0
  0
LINE
  5
1FE
330
1F
100
AcDbEntity
  8
0
  6
Continuous
 62
     7
370
    15
100
AcDbLine
 10
252.696042977
 20
76.8584079821
 30
0.0
 11
249.1093977219
 21
91.8310839567
 31
0.0
  0
LINE
  5
1FF
330
1F
100
AcDbEntity
  8
0
  6
Continuous
 62
     7
370
    15
100
AcDbLine
 10
248.6977113915
 20
91.7324661261
 30
0.0
 11
252.1801298613
 21
77.1948914158
 31
0.0
  0
LINE
  5
200
330
1F
100
AcDbEntity
  8
0
  6
Continuous
 62
     7
370
    15
100
AcDbLine
 10
246.8710666667
 20
93.1738166182
 30
0.0
 11
246.8710666667
 21
91.9038166182
 31
0.0
  0
LINE
  5
201
330
1F
100
AcDbEntity
  8
0
  6
Continuous
 62
     7
370
    15
100
AcDbLine
 10
249.6989333333
 20
91.9038166182
 30
0.0
 11
249.6989333333
 21
93.1738166182
 31
0.0
  0
ARC
  5
202
330
1F
100
AcDbEntity
  8
0
  6
Continuous
 62
     7
370
    15
100
AcDbCircle
 10
247.8208435115
 20
92.0777328461
 30
0.0
 40
0.4233333333333242
100
AcDbArc
 50
288.5236747273
 51
335.7432832489
  0
ARC
  5
203
330
1F
100
AcDbEntity
  8
0
  6
Continuous
 62
     7
370
    15
100
AcDbCircle
 10
247.8208435115
 20
92.0777328461
 30
0.0
 40
0.4233333333333419
100
AcDbArc
 50
204.2567167511
 51
228.5236747273
  0
LINE
  5
204
330
1F
100
AcDbEntity
  8
0
  6
Continuous
 62
     7
370
    15
100
AcDbLine
 10
247.5441666667
 20
152.8646689894
 30
0.0
 11
247.5441666667
 21
152.6106689894
 31
0.0
  0
LINE
  5
205
330
1F
100
AcDbEntity
  8
0
  6
Continuous
 62
     7
370
    15
100
AcDbLine
 10
249.0258333333
 20
152.6106689894
 30
0.0
 11
249.0258333333
 21
152.8646689894
 31
0.0
  0
LINE
  5
206
330
1F
100
AcDbEntity
  8
0
  6
Continuous
 62
     7
370
    15
100
AcDbLine
 10
247.5441666667
 20
152.6106689894
 30
0.0
 11
247.6288333333
 21
152.5260023227
 31
0.0
  0
LINE
  5
207
330
1F
100
AcDbEntity
  8
0
  6
Continuous
 62
     7
370
    15
100
AcDbLine
 10
248.9411666667
 20
152.5260023227
 30
0.0
 11
249.0258333333
 21
152.6106689894
 31
0.0
  0
ARC
  5
208
330
1F
100
AcDbEntity
  8
0
  6
Continuous
 62
     7
370
    15
100
AcDbCircle
 10
248.818519764
 20
92.1367581262
 30
0.0
 40
0.4233333333333355
100
AcDbArc
 50
313.0355802189
 51
326.6154547905
  0
ARC
  5
209
330
1F
100
AcDbEntity
  8
0
  6
Continuous
 62
     7
370
    15
100
AcDbCircle
 10
248.818519764
 20
92.1367581262
 30
0.0
 40
0.42333333333334
100
AcDbArc
 50
213.3845452095
 51
253.9066945796
  0
LINE
  5
20A
330
1F
100
AcDbEntity
  8
0
  6
Continuous
 62
     7
370
    15
100
AcDbLine
 10
248.7083333333
 20
93.1738166182
 30
0.0
 11
248.7083333333
 21
152.5260023227
 31
0.0
  0
LINE
  5
20B
330
1F
100
AcDbEntity
  8
0
  6
Continuous
 62
     7
370
    15
100
AcDbLine
 10
247.8616666667
 20
152.5260023227
 30
0.0
 11
247.8616666667
 21
93.1738166182
 31
0.0
  0
ARC
  5
20C
330
1F
100
AcDbEntity
  8
0
  6
Continuous
 62
     7
370
    15
100
AcDbCircle
 10
248.2018905167
 20
92.0884946536
 30
0.0
 40
0.4233333333333351
100
AcDbArc
 50
294.5519106757
 51
321.4062268826
  0
LINE
  5
20D
330
1F
100
AcDbEntity
  8
0
  6
Continuous
 62
     7
370
    15
100
AcDbLine
 10
247.970014635
 20
79.9407685499
 30
0.0
 11
248.4000347261
 21
91.7143957584
 31
0.0
  0
LINE
  5
20E
330
1F
100
AcDbEntity
  8
0
  6
Continuous
 62
     7
370
    15
100
AcDbLine
 10
247.9752936165
 20
91.6835802409
 30
0.0
 11
247.5562553194
 21
80.2106263051
 31
0.0
  0
LINE
  5
20F
330
1F
100
AcDbEntity
  8
0
  6
Continuous
 62
     7
370
    15
100
AcDbLine
 10
258.0565736013
 20
73.4885725309
 30
0.0
 11
257.7547184602
 21
73.6854453206
 31
0.0
  0
LINE
  5
210
330
1F
100
AcDbEntity
  8
0
  6
Continuous
 62
     7
370
    15
100
AcDbLine
 10
254.8639408019
 20
69.2531614126
 30
0.0
 11
255.165795943
 21
69.0562886229
 31
0.0
  0
LINE
  5
211
330
1F
100
AcDbEntity
  8
0
  6
Continuous
 62
     7
370
    15
100
AcDbLine
 10
241.7060591981
 20
77.8853981676
 30
0.0
 11
241.404204057
 21
78.0822709574
 31
0.0
  0
LINE
  5
212
330
1F
100
AcDbEntity
  8
0
  6
Continuous
 62
     7
370
    15
100
AcDbLine
 10
238.5134263987
 20
73.6499870493
 30
0.0
 11
238.8152815398
 21
73.4531142596
 31
0.0
  0
LINE
  5
213
330
1F
100
AcDbEntity
  8
0
  6
Continuous
 62
     7
370
    15
100
AcDbLine
 10
275.7075929887
 20
61.8500565233
 30
0.0
 11
258.5096641455
 21
73.0667090439
 31
0.0
  0
LINE
  5
214
330
1F
100
AcDbEntity
  8
0
  6
Continuous
 62
     7
370
    15
100
AcDbLine
 10
255.7345175936
 20
68.8117164922
 30
0.0
 11
272.9324464368
 21
57.5950639716
 31
0.0
  0
LINE
  5
215
330
1F
100
AcDbEntity
  8
0
  6
Continuous
 62
     7
370
    15
100
AcDbLine
 10
240.8354824064
 20
78.326843088
 30
0.0
 11
223.6375535632
 21
89.5434956086
 31
0.0
  0
LINE
  5
216
330
1F
100
AcDbEntity
  8
0
  6
Continuous
 62
     7
370
    15
100
AcDbLine
 10
220.8624070113
 20
85.2885030569
 30
0.0
 11
238.0603358545
 21
74.0718505363
 31
0.0
  0
LINE
  5
217
330
1F
100
AcDbEntity
  8
0
  6
Continuous
 62
     7
370
    15
100
AcDbLine
 10
242.0620166663
 20
68.7569710683
 30
0.0
 11
242.6657269484
 21
68.953843858
 31
0.0
  0
LINE
  5
218
330
1F
100
AcDbEntity
  8
0
  6
Continuous
 62
     7
370
    15
100
AcDbLine
 10
254.5079833337
 20
78.3815885119
 30
0.0
 11
253.9042730516
 21
78.1847157222
 31
0.0
  0
LINE
  5
219
330
1F
100
AcDbEntity
  8
0
  6
Continuous
 62
     7
370
    15
100
AcDbLine
 10
289.9584653466
 20
89.830840461
 30
0.0
 11
254.5407954653
 21
78.2809701316
 31
0.0
  0
LINE
  5
21A
330
1F
100
AcDbEntity
  8
0
  6
Continuous
 62
     7
370
    15
100
AcDbLine
 10
257.3919411134
 20
73.867450797
 30
0.0
 11
291.5334476642
 21
85.0011582045
 31
0.0
  0
LINE
  5
21B
330
1F
100
AcDbEntity
  8
0
  6
Continuous
 62
     7
370
    15
100
AcDbLine
 10
253.9370851832
 20
78.0840973419
 30
0.0
 11
252.5136301264
 21
77.6199018886
 31
0.0
  0
LINE
  5
21C
330
1F
100
AcDbEntity
  8
0
  6
Continuous
 62
     7
370
    15
100
AcDbLine
 10
252.1098615184
 20
77.4882310282
 30
0.0
 11
251.8568651698
 21
77.4057277176
 31
0.0
  0
LINE
  5
21D
330
1F
100
AcDbEntity
  8
0
  6
Continuous
 62
     7
370
    15
100
AcDbLine
 10
245.6574568343
 20
75.3840712214
 30
0.0
 11
245.4508098898
 21
75.3166826715
 31
0.0
  0
LINE
  5
21E
330
1F
100
AcDbEntity
  8
0
  6
Continuous
 62
     7
370
    15
100
AcDbLine
 10
242.6329148168
 20
69.0544622383
 30
0.0
 11
244.7131348302
 21
69.7328318626
 31
0.0
  0
LINE
  5
21F
330
1F
100
AcDbEntity
  8
0
  6
Continuous
 62
     7
370
    15
100
AcDbLine
 10
250.9125431657
 20
71.7544883588
 30
0.0
 11
251.1191901102
 21
71.8218769087
 31
0.0
  0
LINE
  5
220
330
1F
100
AcDbEntity
  8
0
  6
Continuous
 62
     7
370
    15
100
AcDbLine
 10
239.1780588867
 20
73.2711087832
 30
0.0
 11
205.0365523358
 21
62.1374013757
 31
0.0
  0
LINE
  5
221
330
1F
100
AcDbEntity
  8
0
  6
Continuous
 62
     7
370
    15
100
AcDbLine
 10
206.6115346534
 20
57.3077191192
 30
0.0
 11
242.0292045347
 21
68.8575894486
 31
0.0
  0
LINE
  5
222
330
1F
100
AcDbEntity
  8
0
  6
Continuous
 62
     7
370
    15
100
AcDbLine
 10
272.8746308836
 20
57.5064182934
 30
0.0
 11
273.0255584541
 21
57.4079818986
 31
0.0
  0
LINE
  5
223
330
1F
100
AcDbEntity
  8
0
  6
Continuous
 62
     7
370
    15
100
AcDbLine
 10
275.9163361124
 20
61.8402658066
 30
0.0
 11
275.7654085419
 21
61.9387022015
 31
0.0
  0
LINE
  5
224
330
1F
100
AcDbEntity
  8
0
  6
Continuous
 62
     7
370
    15
100
AcDbLine
 10
223.6953691164
 20
89.6321412868
 30
0.0
 11
223.5444415459
 21
89.7305776816
 31
0.0
  0
LINE
  5
225
330
1F
100
AcDbEntity
  8
0
  6
Continuous
 62
     7
370
    15
100
AcDbLine
 10
220.6536638876
 20
85.2982937736
 30
0.0
 11
220.8045914581
 21
85.1998573787
 31
0.0
  0
LWPOLYLINE
  5
226
330
1F
100
AcDbEntity
  8
0
  6
Continuous
 62
     7
370
    15
100
AcDbPolyline
 90
       22
 70
   128
 43
0.0
 10
263.9703509751
 20
61.471023843
 10
263.7860158743
 20
61.3314820563
 10
263.612373039
 20
61.1749717767
 10
263.45114821
 20
61.0030484737
 10
263.3039437118
 20
60.8174207984
 10
263.172222529
 20
60.6199336018
 10
263.0572937659
 20
60.4125496006
 10
262.9602996361
 20
60.1973298701
 10
262.8822041108
 20
59.9764133607
 10
262.8237833386
 20
59.7519956398
 10
262.7856179312
 20
59.5263070717
 10
262.7680871937
 20
59.3015906507
 10
262.7713653543
 20
59.0800797096
 10
262.7954198333
 20
58.8639757235
 10
262.8400115664
 20
58.6554264311
 10
262.9046973809
 20
58.4565044889
 10
262.9888344003
 20
58.2691868725
 10
263.0915864329
 20
58.0953352285
 10
263.2119322828
 20
57.9366773728
 10
263.3486758991
 20
57.7947901182
 10
263.5004582622
 20
57.6710836042
 10
263.5610144169
 20
57.629596094
  0
LWPOLYLINE
  5
227
330
1F
100
AcDbEntity
  8
0
  6
Continuous
 62
     7
370
    15
100
AcDbPolyline
 90
       13
 70
   128
 43
0.0
 10
266.1627143094
 20
61.6186516112
 10
266.142205715
 20
61.6318079719
 10
265.9707362793
 20
61.7259980126
 10
265.7882463764
 20
61.7992986835
 10
265.5965496727
 20
61.8509814898
 10
265.3975513365
 20
61.8805327844
 10
265.1932291024
 20
61.8876588733
 10
264.9856136166
 20
61.8722889342
 10
264.7767682552
 20
61.8345757205
 10
264.5687686171
 20
61.7748940431
 10
264.3636818962
 20
61.6938370452
 10
264.1635463365
 20
61.5922103078
 10
263.9703509751
 20
61.471023843
  0
LWPOLYLINE
  5
228
330
1F
100
AcDbEntity
  8
0
  6
Continuous
 62
     7
370
    15
100
AcDbPolyline
 90
       64
 70
   128
 43
0.0
 10
264.1212785456
 20
61.3725874481
 10
263.9369434448
 20
61.2330456615
 10
263.7633006096
 20
61.0765353819
 10
263.6020757805
 20
60.9046120789
 10
263.4548712823
 20
60.7189844035
 10
263.3231500995
 20
60.521497207
 10
263.2082213364
 20
60.3141132058
 10
263.1112272066
 20
60.0988934752
 10
263.0331316814
 20
59.8779769658
 10
262.9747109091
 20
59.653559245
 10
262.9365455017
 20
59.4278706768
 10
262.9190147642
 20
59.2031542558
 10
262.9222929248
 20
58.9816433147
 10
262.9463474038
 20
58.7655393287
 10
262.9909391369
 20
58.5569900363
 10
263.0556249515
 20
58.3580680941
 10
263.1397619708
 20
58.1707504777
 10
263.2425140034
 20
57.9968988337
 10
263.3628598534
 20
57.8382409779
 10
263.4996034696
 20
57.6963537234
 10
263.6513858327
 20
57.5726472093
 10
263.8166984612
 20
57.4683508867
 10
263.993898404
 20
57.3845012993
 10
264.1812245685
 20
57.3219317818
 10
264.376815223
 20
57.2812641783
 10
264.5787264999
 20
57.2629026618
 10
264.784951714
 20
57.2670297171
 10
264.9934413066
 20
57.2936043278
 10
265.2021232144
 20
57.3423623835
 10
265.4089234628
 20
57.4128193046
 10
265.6117867782
 20
57.5042748587
 10
265.8086970137
 20
57.6158201194
 10
265.9976971869
 20
57.7463464997
 10
266.1769089293
 20
57.8945567699
 10
266.3445511539
 20
58.0589779497
 10
266.4989577571
 20
58.2379759475
 10
266.6385941766
 20
58.4297718008
 10
266.7620726431
 20
58.6324593563
 10
266.8681659719
 20
58.8440242139
 10
266.95581976
 20
59.0623637471
 10
267.0241628646
 20
59.2853079995
 10
267.0725160613
 20
59.510641251
 10
267.1003987942
 20
59.7361240384
 10
267.1075339522
 20
59.9595154126
 10
267.0938506229
 20
60.1785952096
 10
267.0594847974
 20
60.3911861161
 10
267.0047780188
 20
60.595175308
 10
266.9302739874
 20
60.7885354492
 10
266.836713158
 20
60.9693448397
 10
266.72502538
 20
61.1358065146
 10
266.5963206568
 20
61.2862661028
 10
266.4518781137
 20
61.4192282696
 10
266.2931332855
 20
61.533371577
 10
266.1216638499
 20
61.6275616177
 10
265.9391739469
 20
61.7008622887
 10
265.7474772433
 20
61.7525450949
 10
265.548478907
 20
61.7820963895
 10
265.3441566729
 20
61.7892224784
 10
265.1365411871
 20
61.7738525394
 10
264.9276958257
 20
61.7361393257
 10
264.7196961876
 20
61.6764576482
 10
264.5146094667
 20
61.5954006504
 10
264.314473907
 20
61.493773913
 10
264.1212785456
 20
61.3725874481
  0
LWPOLYLINE
  5
229
330
1F
100
AcDbEntity
  8
0
  6
Continuous
 62
     7
370
    15
100
AcDbPolyline
 90
       33
 70
   128
 43
0.0
 10
230.4072856906
 20
85.519907969
 10
230.5576750043
 20
85.4329707646
 10
230.7377199822
 20
85.3546590421
 10
230.9274093868
 20
85.2978121507
 10
231.1248579997
 20
85.2629950602
 10
231.3281034877
 20
85.2505537985
 10
231.535125906
 20
85.2606120126
 10
231.7438677727
 20
85.2930697393
 10
231.9522545174
 20
85.3476043992
 10
232.158215099
 20
85.4236740023
 10
232.3597025887
 20
85.5205225348
 10
232.5547145133
 20
85.6371874723
 10
232.7413127567
 20
85.7725093465
 10
232.9176428217
 20
85.9251432676
 10
233.0819522609
 20
86.0935722912
 10
233.2326080932
 20
86.2761224939
 10
233.3681130334
 20
86.47097961
 10
233.4871203725
 20
86.6762070617
 10
233.588447362
 20
86.8897652065
 10
233.6710869688
 20
87.1095316075
 10
233.7342178834
 20
87.3333221277
 10
233.7772126823
 20
87.5589126361
 10
233.799644064
 20
87.7840611131
 10
233.8012890954
 20
88.0065299318
 10
233.7821314272
 20
88.2241080973
 10
233.7423614571
 20
88.4346332199
 10
233.6823744369
 20
88.6360130064
 10
233.6027665445
 20
88.826246054
 10
233.504328959
 20
89.0034417413
 10
233.3880399973
 20
89.1658390178
 10
233.2550553913
 20
89.3118239065
 10
233.1066968018
 20
89.439945544
 10
233.0089855831
 20
89.5089634862
  0
LWPOLYLINE
  5
22A
330
1F
100
AcDbEntity
  8
0
  6
Continuous
 62
     7
370
    15
100
AcDbPolyline
 90
       64
 70
   128
 43
0.0
 10
229.7252826083
 20
88.3452320972
 10
229.6331848253
 20
88.1283001608
 10
229.5602088497
 20
87.9062456689
 10
229.5070799496
 20
87.681275499
 10
229.4743261437
 20
87.4556255056
 10
229.4622729541
 20
87.2315382997
 10
229.4710401709
 20
87.0112409606
 10
229.5005406614
 20
86.7969229024
 10
229.5504812366
 20
86.590714114
 10
229.6203655646
 20
86.3946639912
 10
229.7094991036
 20
86.2107209681
 10
229.8169960044
 20
86.0407131531
 10
229.9417879144
 20
85.8863301603
 10
230.0826345957
 20
85.7491063171
 10
230.2381362506
 20
85.6304054159
 10
230.4067474338
 20
85.5314071595
 10
230.5867924117
 20
85.453095437
 10
230.7764818163
 20
85.3962485455
 10
230.9739304291
 20
85.361431455
 10
231.1771759172
 20
85.3489901934
 10
231.3841983355
 20
85.3590484074
 10
231.5929402022
 20
85.3915061341
 10
231.8013269469
 20
85.446040794
 10
232.0072875285
 20
85.5221103971
 10
232.2087750182
 20
85.6189589296
 10
232.4037869428
 20
85.7356238672
 10
232.5903851862
 20
85.8709457413
 10
232.7667152511
 20
86.0235796624
 10
232.9310246903
 20
86.192008686
 10
233.0816805227
 20
86.3745588888
 10
233.2171854629
 20
86.5694160048
 10
233.3361928019
 20
86.7746434565
 10
233.4375197915
 20
86.9882016013
 10
233.5201593983
 20
87.2079680024
 10
233.5832903129
 20
87.4317585225
 10
233.6262851118
 20
87.657349031
 10
233.6487164935
 20
87.8824975079
 10
233.6503615248
 20
88.1049663267
 10
233.6312038567
 20
88.3225444921
 10
233.5914338866
 20
88.5330696147
 10
233.5314468664
 20
88.7344494013
 10
233.451838974
 20
88.9246824489
 10
233.3534013885
 20
89.1018781361
 10
233.2371124267
 20
89.2642754127
 10
233.1041278207
 20
89.4102603014
 10
232.9557692312
 20
89.5383819388
 10
232.7935111125
 20
89.6473669947
 10
232.6189660587
 20
89.7361323264
 10
232.433868777
 20
89.8037957444
 10
232.2400588473
 20
89.849684779
 10
232.0394624397
 20
89.8733433646
 10
231.8340731715
 20
89.8745363714
 10
231.6259322934
 20
89.8532519428
 10
231.4171084032
 20
89.809701613
 10
231.2096768863
 20
89.7443182048
 10
231.0056992905
 20
89.6577515278
 10
230.8072028366
 20
89.5508619205
 10
230.6161602716
 20
89.4247117
 10
230.4344702625
 20
89.2805546038
 10
230.263938526
 20
89.1198233298
 10
230.1062598832
 20
88.9441152977
 10
229.9630014154
 20
88.7551767728
 10
229.8355868895
 20
88.5548855111
 10
229.7252826083
 20
88.3452320972
  0
LWPOLYLINE
  5
22B
330
1F
100
AcDbEntity
  8
0
  6
Continuous
 62
     7
370
    15
100
AcDbPolyline
 90
       30
 70
   128
 43
0.0
 10
265.1929437067
 20
62.236775601
 10
264.9742874281
 20
62.2329105043
 10
264.7532462053
 20
62.2063112868
 10
264.5318218219
 20
62.1572188354
 10
264.3120195314
 20
62.0860777387
 10
264.0958298975
 20
61.9935322617
 10
263.8852107668
 20
61.8804205104
 10
263.6820695389
 20
61.7477668425
 10
263.4882458921
 20
61.59677259
 10
263.3054951235
 20
61.4288051802
 10
263.1354722523
 20
61.2453857522
 10
262.9797170319
 20
61.0481753806
 10
262.8396400058
 20
60.838960033
 10
262.7165097331
 20
60.6196343962
 10
262.6114413007
 20
60.3921847169
 10
262.5253862247
 20
60.1586708147
 10
262.459123833
 20
59.9212074277
 10
262.4132542081
 20
59.6819450611
 10
262.3881927526
 20
59.4430505119
 10
262.3841664268
 20
59.2066872461
 10
262.4012116937
 20
58.9749958061
 10
262.4391741888
 20
58.7500744255
 10
262.4977101178
 20
58.533960027
 10
262.5762893703
 20
58.3286097763
 10
262.6742003204
 20
58.1358833568
 10
262.7905562714
 20
57.957526129
 10
262.9243034858
 20
57.7951533234
 10
263.0742307281
 20
57.6502354135
 10
263.238980234
 20
57.5240847981
 10
263.2655479635
 20
57.5064182935
  0
ARC
  5
22C
330
1F
100
AcDbEntity
  8
0
  6
Continuous
 62
     7
370
    15
100
AcDbCircle
 10
265.1409002689
 20
60.3626937789
 30
0.0
 40
1.874804308521452
100
AcDbArc
 50
57.2062363251
 51
88.4092993473
  0
LWPOLYLINE
  5
22D
330
1F
100
AcDbEntity
  8
0
  6
Continuous
 62
     7
370
    15
100
AcDbPolyline
 90
       67
 70
   128
 43
0.0
 10
265.3438712772
 20
62.1383392062
 10
265.1252149986
 20
62.1344741094
 10
264.9041737758
 20
62.107874892
 10
264.6827493924
 20
62.0587824405
 10
264.462947102
 20
61.9876413439
 10
264.246757468
 20
61.8950958668
 10
264.0361383373
 20
61.7819841156
 10
263.8329971094
 20
61.6493304476
 10
263.6391734626
 20
61.4983361951
 10
263.456422694
 20
61.3303687854
 10
263.2863998228
 20
61.1469493574
 10
263.1306446024
 20
60.9497389857
 10
262.9905675763
 20
60.7405236382
 10
262.8674373036
 20
60.5211980013
 10
262.7623688712
 20
60.293748322
 10
262.6763137952
 20
60.0602344199
 10
262.6100514035
 20
59.8227710328
 10
262.5641817787
 20
59.5835086662
 10
262.5391203231
 20
59.344614117
 10
262.5350939973
 20
59.1082508512
 10
262.5521392642
 20
58.8765594113
 10
262.5901017593
 20
58.6516380306
 10
262.6486376883
 20
58.4355236322
 10
262.7272169408
 20
58.2301733814
 10
262.8251278909
 20
58.0374469619
 10
262.941483842
 20
57.8590897341
 10
263.0752310564
 20
57.6967169286
 10
263.2251582986
 20
57.5517990186
 10
263.3899078045
 20
57.4256484033
 10
263.5679875769
 20
57.319407522
 10
263.7577848978
 20
57.2340385088
 10
263.9575809333
 20
57.1703144785
 10
264.1655662997
 20
57.1288125259
 10
264.379857449
 20
57.1099084991
 10
264.5985137277
 20
57.1137735958
 10
264.8195549505
 20
57.1403728132
 10
265.0409793339
 20
57.1894652647
 10
265.2607816243
 20
57.2606063613
 10
265.4769712583
 20
57.3531518384
 10
265.687590389
 20
57.4662635897
 10
265.8907316169
 20
57.5989172576
 10
266.0845552637
 20
57.7499115101
 10
266.2673060323
 20
57.9178789198
 10
266.4373289035
 20
58.1012983479
 10
266.5930841239
 20
58.2985087195
 10
266.73316115
 20
58.507724067
 10
266.8562914227
 20
58.7270497039
 10
266.961359855
 20
58.9544993832
 10
267.0474149311
 20
59.1880132854
 10
267.1136773228
 20
59.4254766724
 10
267.1595469476
 20
59.664739039
 10
267.1846084032
 20
59.9036335882
 10
267.188634729
 20
60.139996854
 10
267.1715894621
 20
60.371688294
 10
267.133626967
 20
60.5966096746
 10
267.075091038
 20
60.812724073
 10
266.9965117855
 20
61.0180743238
 10
266.8986008353
 20
61.2108007433
 10
266.7822448843
 20
61.3891579711
 10
266.6484976699
 20
61.5515307766
 10
266.4985704276
 20
61.6964486866
 10
266.3338209218
 20
61.822599302
 10
266.1557411494
 20
61.9288401832
 10
265.9659438285
 20
62.0142091965
 10
265.7661477929
 20
62.0779332268
 10
265.5581624266
 20
62.1194351794
 10
265.3438712772
 20
62.1383392062
  0
LWPOLYLINE
  5
22E
330
1F
100
AcDbEntity
  8
0
  6
Continuous
 62
     7
370
    15
100
AcDbPolyline
 90
       67
 70
   128
 43
0.0
 10
230.7672231586
 20
89.6000892869
 10
230.5690961381
 20
89.4569711466
 10
230.3812844357
 20
89.2962611047
 10
230.2054889032
 20
89.1194145763
 10
230.0433015722
 20
88.9280331109
 10
229.8961912364
 20
88.7238498888
 10
229.7654901496
 20
88.5087140246
 10
229.6523819612
 20
88.2845738223
 10
229.5578909964
 20
88.0534591301
 10
229.48287298
 20
87.8174629585
 10
229.4280072869
 20
87.5787225254
 10
229.3937907891
 20
87.3393999011
 10
229.3805333567
 20
87.1016624283
 10
229.388355051
 20
86.8676630944
 10
229.4171850375
 20
86.6395210337
 10
229.4667622274
 20
86.4193023359
 10
229.536637642
 20
86.2090013357
 10
229.6261784787
 20
86.0105225516
 10
229.7345738418
 20
85.825663438
 10
229.8608420861
 20
85.6560981078
 10
230.0038397069
 20
85.5033621708
 10
230.1622716955
 20
85.3688388274
 10
230.3347032674
 20
85.2537463418
 10
230.5195728555
 20
85.1591270093
 10
230.7152062522
 20
85.0858377173
 10
230.9198317712
 20
85.034542185
 10
231.131596292
 20
85.0057049526
 10
231.3485820424
 20
84.9995871746
 10
231.5688239659
 20
85.0162442545
 10
231.7903275174
 20
85.0555253433
 10
232.0110867266
 20
85.1170747053
 10
232.2291023637
 20
85.2003349399
 10
232.4424000455
 20
85.3045520296
 10
232.6490481151
 20
85.4287821683
 10
232.8471751356
 20
85.5719003086
 10
233.034986838
 20
85.7326103505
 10
233.2107823705
 20
85.9094568789
 10
233.3729697015
 20
86.1008383443
 10
233.5200800373
 20
86.3050215665
 10
233.6507811241
 20
86.5201574306
 10
233.7638893125
 20
86.744297633
 10
233.8583802773
 20
86.9754123252
 10
233.9333982937
 20
87.2114084968
 10
233.9882639868
 20
87.4501489299
 10
234.0224804846
 20
87.6894715542
 10
234.035737917
 20
87.927209027
 10
234.0279162227
 20
88.1612083608
 10
233.9990862362
 20
88.3893504215
 10
233.9495090463
 20
88.6095691193
 10
233.8796336317
 20
88.8198701195
 10
233.790092795
 20
89.0183489037
 10
233.6816974319
 20
89.2032080173
 10
233.5554291876
 20
89.3727733475
 10
233.4124315668
 20
89.5255092844
 10
233.2539995782
 20
89.6600326278
 10
233.0815680063
 20
89.7751251135
 10
232.8966984182
 20
89.8697444459
 10
232.7010650215
 20
89.9430337379
 10
232.4964395025
 20
89.9943292702
 10
232.2846749817
 20
90.0231665026
 10
232.0676892313
 20
90.0292842806
 10
231.8474473078
 20
90.0126272007
 10
231.6259437563
 20
89.9733461119
 10
231.4051845471
 20
89.91179675
 10
231.18716891
 20
89.8285365153
 10
230.9738712282
 20
89.7243194256
 10
230.7672231586
 20
89.6000892869
  0
LWPOLYLINE
  5
22F
330
1F
100
AcDbEntity
  8
0
  6
Continuous
 62
     7
370
    15
100
AcDbPolyline
 90
       35
 70
   128
 43
0.0
 10
230.4136743782
 20
85.1998573788
 10
230.4856308379
 20
85.1553099469
 10
230.670500426
 20
85.0606906145
 10
230.8661338227
 20
84.9874013225
 10
231.0707593417
 20
84.9361057901
 10
231.2825238625
 20
84.9072685578
 10
231.499509613
 20
84.9011507798
 10
231.7197515364
 20
84.9178078597
 10
231.941255088
 20
84.9570889485
 10
232.1620142971
 20
85.0186383104
 10
232.3800299342
 20
85.1018985451
 10
232.593327616
 20
85.2061156348
 10
232.7999756856
 20
85.3303457735
 10
232.9981027061
 20
85.4734639138
 10
233.1859144085
 20
85.6341739557
 10
233.361709941
 20
85.8110204841
 10
233.523897272
 20
86.0024019494
 10
233.6710076078
 20
86.2065851716
 10
233.8017086946
 20
86.4217210358
 10
233.914816883
 20
86.6458612381
 10
234.0093078478
 20
86.8769759303
 10
234.0843258642
 20
87.1129721019
 10
234.1391915574
 20
87.351712535
 10
234.1734080551
 20
87.5910351593
 10
234.1866654875
 20
87.8287726321
 10
234.1788437932
 20
88.062771966
 10
234.1500138067
 20
88.2909140267
 10
234.1004366168
 20
88.5111327245
 10
234.0305612022
 20
88.7214337247
 10
233.9410203656
 20
88.9199125088
 10
233.8326250025
 20
89.1047716224
 10
233.7063567581
 20
89.2743369526
 10
233.5633591373
 20
89.4270728896
 10
233.4049271487
 20
89.561596233
 10
233.3044520365
 20
89.6321412868
  0
LWPOLYLINE
  5
230
330
1F
100
AcDbEntity
  8
0
  6
Continuous
 62
     7
370
    15
100
AcDbPolyline
 90
       13
 70
   128
 43
0.0
 10
244.8023973264
 20
71.2724305769
 10
244.7746644209
 20
71.0393647912
 10
244.7677284986
 20
70.808475078
 10
244.7816543182
 20
70.5819171922
 10
244.8163118582
 20
70.3618064439
 10
244.8713775305
 20
70.1501979478
 10
244.9463372016
 20
69.9490674353
 10
245.0404909934
 20
69.7602928079
 10
245.1529598173
 20
69.5856366035
 10
245.2826935821
 20
69.4267295399
 10
245.4284809987
 20
69.2850552896
 10
245.5889608891
 20
69.1619366269
 10
245.614528576
 20
69.144934301
  0
LWPOLYLINE
  5
231
330
1F
100
AcDbEntity
  8
0
  6
Continuous
 62
     7
370
    15
100
AcDbPolyline
 90
       23
 70
   128
 43
0.0
 10
248.389675128
 20
73.3999268527
 10
248.3299564444
 20
73.4371592135
 10
248.1502863391
 20
73.5303462553
 10
247.9598959445
 20
73.6024517467
 10
247.7605628846
 20
73.6528024583
 10
247.5541482784
 20
73.680928279
 10
247.3425793635
 20
73.6865666055
 10
247.1278315018
 20
73.6696647944
 10
246.9119097362
 20
73.6303806534
 10
246.69683007
 20
73.5690809677
 10
246.4846006443
 20
73.4863380762
 10
246.2772029879
 20
73.3829245268
 10
246.0765735169
 20
73.2598058641
 10
245.8845854546
 20
73.1181316138
 10
245.7030313418
 20
72.9592245502
 10
245.5336063003
 20
72.7845683458
 10
245.3778922061
 20
72.5957937184
 10
245.2373429198
 20
72.394663206
 10
245.1132707121
 20
72.1830547098
 10
245.0068340119
 20
71.9629439615
 10
244.9190265899
 20
71.7363860758
 10
244.8506682803
 20
71.5054963625
 10
244.8023973264
 20
71.2724305769
  0
LWPOLYLINE
  5
232
330
1F
100
AcDbEntity
  8
0
  6
Continuous
 62
     7
370
    15
100
AcDbPolyline
 90
       13
 70
   128
 43
0.0
 10
251.7676026736
 20
75.8661290033
 10
251.7953355791
 20
76.099194789
 10
251.8022715014
 20
76.3300845022
 10
251.7883456818
 20
76.556642388
 10
251.7536881418
 20
76.7767531363
 10
251.6986224695
 20
76.9883616325
 10
251.6236627984
 20
77.1894921449
 10
251.5295090066
 20
77.3782667723
 10
251.4170401827
 20
77.5529229767
 10
251.2873064179
 20
77.7118300403
 10
251.1415190013
 20
77.8535042906
 10
250.9810391109
 20
77.9766229533
 10
250.955471424
 20
77.9936252792
  0
LWPOLYLINE
  5
233
330
1F
100
AcDbEntity
  8
0
  6
Continuous
 62
     7
370
    15
100
AcDbPolyline
 90
       23
 70
   128
 43
0.0
 10
248.180324872
 20
73.7386327275
 10
248.2400435556
 20
73.7014003667
 10
248.4197136609
 20
73.6082133249
 10
248.6101040555
 20
73.5361078335
 10
248.8094371154
 20
73.4857571219
 10
249.0158517216
 20
73.4576313012
 10
249.2274206365
 20
73.4519929747
 10
249.4421684982
 20
73.4688947858
 10
249.6580902638
 20
73.5081789269
 10
249.87316993
 20
73.5694786125
 10
250.0853993557
 20
73.652221504
 10
250.2927970121
 20
73.7556350534
 10
250.4934264831
 20
73.8787537161
 10
250.6854145454
 20
74.0204279664
 10
250.8669686582
 20
74.17933503
 10
251.0363936997
 20
74.3539912344
 10
251.1921077939
 20
74.5427658618
 10
251.3326570802
 20
74.7438963742
 10
251.4567292879
 20
74.9555048704
 10
251.5631659881
 20
75.1756156187
 10
251.6509734101
 20
75.4021735044
 10
251.7193317197
 20
75.6330632177
 10
251.7676026736
 20
75.8661290033
  0
LWPOLYLINE
  5
234
330
1F
100
AcDbEntity
  8
0
  6
Continuous
 62
     7
370
    15
100
AcDbPolyline
 90
       34
 70
   128
 43
0.0
 10
246.1254346735
 20
68.8117164922
 10
246.0262437161
 20
68.8386086134
 10
245.8303061168
 20
68.9098234396
 10
245.6449218128
 20
69.0023161131
 10
245.4717603914
 20
69.1152536366
 10
245.3123813595
 20
69.2476188851
 10
245.1682200986
 20
69.3982197654
 10
245.0405749378
 20
69.5656999527
 10
244.9305954606
 20
69.7485511059
 10
244.8392721517
 20
69.9451264513
 10
244.767427477
 20
70.1536556142
 10
244.7157084758
 20
70.3722605626
 10
244.6845809341
 20
70.5989725212
 10
244.6743251892
 20
70.8317497022
 10
244.6850336052
 20
71.0684956937
 10
244.7166097413
 20
71.3070783408
 10
244.7687692199
 20
71.545348947
 10
244.8410422882
 20
71.7811616264
 10
244.9327780486
 20
72.0123926294
 10
245.0431503209
 20
72.2369594691
 10
245.1711650825
 20
72.452839677
 10
245.3156694215
 20
72.6580890169
 10
245.4753619189
 20
72.8508589953
 10
245.6488043702
 20
73.0294135088
 10
245.8344347374
 20
73.1921444798
 10
246.0305812171
 20
73.3375863389
 10
246.2354772969
 20
73.4644292239
 10
246.4472776648
 20
73.5715307767
 10
246.664074828
 20
73.6579264313
 10
246.8839162922
 20
73.7228381008
 10
247.104822146
 20
73.7656811851
 10
247.3248028918
 20
73.7860698356
 10
247.5418773637
 20
73.7838204303
 10
247.75409057
 20
73.7589532275
  0
LWPOLYLINE
  5
235
330
1F
100
AcDbEntity
  8
0
  6
Continuous
 62
     7
370
    15
100
AcDbPolyline
 90
       31
 70
   128
 43
0.0
 10
245.2548578818
 20
69.2531614126
 10
245.1699052504
 20
69.3121264264
 10
245.0105262184
 20
69.4444916748
 10
244.8663649576
 20
69.5950925551
 10
244.7387197968
 20
69.7625727424
 10
244.6287403195
 20
69.9454238956
 10
244.5374170107
 20
70.141999241
 10
244.465572336
 20
70.3505284039
 10
244.4138533348
 20
70.5691333523
 10
244.3827257931
 20
70.7958453109
 10
244.3724700481
 20
71.0286224919
 10
244.3831784642
 20
71.2653684834
 10
244.4147546002
 20
71.5039511305
 10
244.4669140788
 20
71.7422217367
 10
244.5391871471
 20
71.9780344161
 10
244.6309229076
 20
72.2092654191
 10
244.7412951798
 20
72.4338322588
 10
244.8693099415
 20
72.6497124667
 10
245.0138142804
 20
72.8549618066
 10
245.1735067779
 20
73.047731785
 10
245.3469492292
 20
73.2262862985
 10
245.5325795964
 20
73.3890172695
 10
245.7287260761
 20
73.5344591286
 10
245.9336221559
 20
73.6613020136
 10
246.1454225238
 20
73.7684035664
 10
246.362219687
 20
73.854799221
 10
246.5820611512
 20
73.9197108905
 10
246.802967005
 20
73.9625539748
 10
247.0229477508
 20
73.9829426253
 10
247.2400222227
 20
73.98069322
 10
247.4522354289
 20
73.9558260172
  0
LINE
  5
236
330
1F
100
AcDbEntity
  8
0
  6
Continuous
 62
     7
370
    15
100
AcDbLine
 10
247.75409057
 20
73.7589532275
 30
0.0
 11
247.4522354289
 21
73.9558260172
 31
0.0
  0
LINE
  5
237
330
1F
100
AcDbEntity
  8
0
  6
Continuous
 62
     7
370
    15
100
AcDbLine
 10
248.285
 20
73.5692797901
 30
0.0
 11
247.8896240539
 21
73.827147737
 31
0.0
  0
ARC
  5
238
330
1F
100
AcDbEntity
  8
0
  6
Continuous
 62
     7
370
    15
100
AcDbCircle
 10
249.1143357222
 20
73.0267726904
 30
0.0
 40
0.1586019202818569
100
AcDbArc
 50
146.4011273477
 51
178.5788562334
  0
ARC
  5
239
330
1F
100
AcDbEntity
  8
0
  6
Continuous
 62
     7
370
    15
100
AcDbCircle
 10
247.7689179291
 20
73.8982650961
 30
0.0
 40
0.1400987056794575
100
AcDbArc
 50
263.9247181819
 51
329.4943556555
  0
ARC
  5
23A
330
1F
100
AcDbEntity
  8
0
  6
Continuous
 62
     7
370
    15
100
AcDbCircle
 10
248.8010820709
 20
73.2402944841
 30
0.0
 40
0.1400987056796273
100
AcDbArc
 50
83.9247181819
 51
149.4943556555
  0
LINE
  5
23B
330
1F
100
AcDbEntity
  8
0
  6
Continuous
 62
     7
370
    15
100
AcDbLine
 10
248.6803759461
 20
73.3114118432
 30
0.0
 11
248.285
 21
73.5692797901
 31
0.0
  0
ARC
  5
23C
330
1F
100
AcDbEntity
  8
0
  6
Continuous
 62
     7
370
    15
100
AcDbCircle
 10
247.4556642778
 20
74.1117868898
 30
0.0
 40
0.1586019202809721
100
AcDbArc
 50
326.4011273476
 51
358.5788562342
  0
LWPOLYLINE
  5
23D
330
1F
100
AcDbEntity
  8
0
  6
Continuous
 62
     7
370
    15
100
AcDbPolyline
 90
       34
 70
   128
 43
0.0
 10
248.81590943
 20
73.3796063527
 10
249.0281226363
 20
73.35473915
 10
249.2451971082
 20
73.3524897446
 10
249.465177854
 20
73.3728783951
 10
249.6860837077
 20
73.4157214794
 10
249.905925172
 20
73.4806331489
 10
250.1227223352
 20
73.5670288035
 10
250.3345227031
 20
73.6741303563
 10
250.5394187829
 20
73.8009732413
 10
250.7355652626
 20
73.9464151004
 10
250.9211956298
 20
74.1091460714
 10
251.0946380811
 20
74.2877005849
 10
251.2543305785
 20
74.4804705633
 10
251.3988349175
 20
74.6857199032
 10
251.5268496791
 20
74.9016001111
 10
251.6372219514
 20
75.1261669508
 10
251.7289577118
 20
75.3573979538
 10
251.8012307801
 20
75.5932106332
 10
251.8533902587
 20
75.8314812395
 10
251.8849663948
 20
76.0700638865
 10
251.8956748108
 20
76.3068098781
 10
251.8854190659
 20
76.539587059
 10
251.8542915242
 20
76.7662990176
 10
251.802572523
 20
76.984903966
 10
251.7307278483
 20
77.1934331289
 10
251.6394045394
 20
77.3900084743
 10
251.5294250622
 20
77.5728596275
 10
251.4017799014
 20
77.7403398148
 10
251.2576186405
 20
77.8909406951
 10
251.0982396086
 20
78.0233059436
 10
250.9250781872
 20
78.1362434671
 10
250.7396938832
 20
78.2287361406
 10
250.5437562839
 20
78.2999509668
 10
250.4445653266
 20
78.326843088
  0
LWPOLYLINE
  5
23E
330
1F
100
AcDbEntity
  8
0
  6
Continuous
 62
     7
370
    15
100
AcDbPolyline
 90
       31
 70
   128
 43
0.0
 10
249.1177645711
 20
73.182733563
 10
249.3299777773
 20
73.1578663602
 10
249.5470522492
 20
73.1556169549
 10
249.767032995
 20
73.1760056054
 10
249.9879388488
 20
73.2188486897
 10
250.207780313
 20
73.2837603592
 10
250.4245774762
 20
73.3701560138
 10
250.6363778441
 20
73.4772575666
 10
250.8412739239
 20
73.6041004516
 10
251.0374204036
 20
73.7495423107
 10
251.2230507708
 20
73.9122732817
 10
251.3964932221
 20
74.0908277952
 10
251.5561857196
 20
74.2835977736
 10
251.7006900585
 20
74.4888471135
 10
251.8287048202
 20
74.7047273214
 10
251.9390770924
 20
74.9292941611
 10
252.0308128529
 20
75.1605251641
 10
252.1030859212
 20
75.3963378435
 10
252.1552453998
 20
75.6346084498
 10
252.1868215358
 20
75.8731910968
 10
252.1975299518
 20
76.1099370884
 10
252.1872742069
 20
76.3427142693
 10
252.1561466652
 20
76.5694262279
 10
252.104427664
 20
76.7880311763
 10
252.0325829893
 20
76.9965603392
 10
251.9412596805
 20
77.1931356846
 10
251.8312802032
 20
77.3759868378
 10
251.7036350424
 20
77.5434670251
 10
251.5594737816
 20
77.6940679054
 10
251.4000947496
 20
77.8264331539
 10
251.3151421182
 20
77.8853981677
  0
LINE
  5
23F
330
1F
100
AcDbEntity
  8
0
  6
Continuous
 62
     7
370
    15
100
AcDbLine
 10
249.1177645711
 20
73.182733563
 30
0.0
 11
248.81590943
 21
73.3796063527
 31
0.0
  0
SPLINE
  5
240
330
1F
100
AcDbEntity
  8
0
  6
Continuous
 62
     7
370
    15
100
AcDbSpline
210
0.0
220
0.0
230
1.0
 70
     8
 71
     3
 72
    17
 73
    13
 74
     0
 42
0.000000001
 43
0.00000001
 40
0.0
 40
0.0
 40
0.0
 40
0.0
 40
0.0605161503130269
 40
0.1632806281504236
 40
0.269578385190334
 40
0.3783783583361641
 40
0.4879571763522221
 40
0.5964239043199987
 40
0.7019462290740104
 40
0.8036628984289266
 40
0.9027245062732685
 40
1.0
 40
1.0
 40
1.0
 40
1.0
 10
244.9108741614895
 20
75.66729145066405
 30
0.0
 10
244.911241387929
 20
75.6666453331814
 30
0.0
 10
244.9122322137403
 20
75.66490202221597
 30
0.0
 10
244.8723710454752
 20
75.68368685582405
 30
0.0
 10
244.7965964576181
 20
75.71659776825011
 30
0.0
 10
244.6890230058525
 20
75.76026255152459
 30
0.0
 10
244.5641216442962
 20
75.80867486216576
 30
0.0
 10
244.4384066091336
 20
75.85831423414606
 30
0.0
 10
244.3296408384154
 20
75.90618761111112
 30
0.0
 10
244.2524983136047
 20
75.94884131613559
 30
0.0
 10
244.2103992110748
 20
75.98423202897611
 30
0.0
 10
244.2147071253737
 20
75.99676780233452
 30
0.0
 10
244.2168414875855
 20
76.00297866891513
 30
0.0
  0
LWPOLYLINE
  5
241
330
1F
100
AcDbEntity
  8
0
  6
Continuous
 62
     7
370
    15
100
AcDbPolyline
 90
       13
 70
   128
 43
0.0
 10
238.0609658433
 20
75.6692562136
 10
238.0332329378
 20
75.436190428
 10
238.0262970155
 20
75.2053007147
 10
238.0402228352
 20
74.978742829
 10
238.0748803752
 20
74.7586320807
 10
238.1299460474
 20
74.5470235845
 10
238.2049057186
 20
74.3458930721
 10
238.2990595104
 20
74.1571184447
 10
238.4115283342
 20
73.9824622403
 10
238.541262099
 20
73.8235551767
 10
238.6870495156
 20
73.6818809264
 10
238.847529406
 20
73.5587622637
 10
238.8730970929
 20
73.5417599378
  0
LWPOLYLINE
  5
242
330
1F
100
AcDbEntity
  8
0
  6
Continuous
 62
     7
370
    15
100
AcDbPolyline
 90
       23
 70
   128
 43
0.0
 10
241.6482436449
 20
77.7967524895
 10
241.5885249613
 20
77.8339848503
 10
241.408854856
 20
77.9271718921
 10
241.2184644615
 20
77.9992773835
 10
241.0191314016
 20
78.0496280951
 10
240.8127167954
 20
78.0777539157
 10
240.6011478804
 20
78.0833922423
 10
240.3864000187
 20
78.0664904312
 10
240.1704782531
 20
78.0272062901
 10
239.955398587
 20
77.9659066045
 10
239.7431691612
 20
77.883163713
 10
239.5357715048
 20
77.7797501636
 10
239.3351420338
 20
77.6566315009
 10
239.1431539715
 20
77.5149572506
 10
238.9615998587
 20
77.356050187
 10
238.7921748172
 20
77.1813939826
 10
238.636460723
 20
76.9926193552
 10
238.4959114367
 20
76.7914888427
 10
238.371839229
 20
76.5798803466
 10
238.2654025288
 20
76.3597695983
 10
238.1775951068
 20
76.1332117125
 10
238.1092367973
 20
75.9023219993
 10
238.0609658433
 20
75.6692562136
  0
ARC
  5
243
330
1F
100
AcDbEntity
  8
0
  6
Continuous
 62
     7
370
    15
100
AcDbCircle
 10
256.6273331727
 20
72.0211995803
 30
0.0
 40
1.904335835008415
100
AcDbArc
 50
7.2765190067
 51
55.8300345134
  0
LWPOLYLINE
  5
244
330
1F
100
AcDbEntity
  8
0
  6
Continuous
 62
     7
370
    15
100
AcDbPolyline
 90
       26
 70
   128
 43
0.0
 10
254.9217563551
 20
69.3418070907
 10
255.0630115645
 20
69.2589686785
 10
255.2478475948
 20
69.1754214869
 10
255.4425943968
 20
69.1132916524
 10
255.6454336721
 20
69.0731592645
 10
255.8544715652
 20
69.0553990284
 10
256.0677563455
 20
69.0601767667
 10
256.2832966304
 20
69.087447871
 10
256.4990799784
 20
69.1369577183
 10
256.7130916786
 20
69.2082440486
 10
256.9233335614
 20
69.3006412804
 10
257.1278426548
 20
69.4132867258
 10
257.3247095127
 20
69.5451286447
 10
257.5120960423
 20
69.6949360645
 10
257.6882526659
 20
69.8613102737
 10
257.8515346567
 20
70.0426978811
 10
258.0004174946
 20
70.2374053196
 10
258.1335111009
 20
70.4436146583
 10
258.2495728162
 20
70.6594005761
 10
258.3475190037
 20
70.882748338
 10
258.4264351662
 20
71.1115726061
 10
258.4855844847
 20
71.34373691
 10
258.524414698
 20
71.5770735941
 10
258.5425632589
 20
71.8094040566
 10
258.5398607191
 20
72.0385590906
 10
258.5163323115
 20
72.2623991372
  0
LINE
  5
245
330
1F
100
AcDbEntity
  8
0
  6
Continuous
 62
     7
370
    15
100
AcDbLine
 10
247.8896240539
 20
73.827147737
 30
0.0
 11
247.5877689129
 21
74.0240205267
 31
0.0
  0
ARC
  5
246
330
1F
100
AcDbEntity
  8
0
  6
Continuous
 62
     7
370
    15
100
AcDbCircle
 10
247.4670627881
 20
74.0951378859
 30
0.0
 40
0.1400987056795393
100
AcDbArc
 50
263.9247181819
 51
329.4943556555
  0
LINE
  5
247
330
1F
100
AcDbEntity
  8
0
  6
Continuous
 62
     7
370
    15
100
AcDbLine
 10
248.9822310871
 20
73.1145390535
 30
0.0
 11
248.6803759461
 21
73.3114118432
 31
0.0
  0
ARC
  5
248
330
1F
100
AcDbEntity
  8
0
  6
Continuous
 62
     7
370
    15
100
AcDbCircle
 10
249.1029372119
 20
73.0434216944
 30
0.0
 40
0.140098705679724
100
AcDbArc
 50
83.9247181819
 51
149.4943556555
  0
LINE
  5
249
330
1F
100
AcDbEntity
  8
0
  6
Continuous
 62
     7
370
    15
100
AcDbLine
 10
248.8840311064
 20
153.711335656
 30
0.0
 11
244.0516666667
 21
153.711335656
 31
0.0
  0
LINE
  5
24A
330
1F
100
AcDbEntity
  8
0
  6
Continuous
 62
     7
370
    15
100
AcDbLine
 10
252.5183333333
 20
153.711335656
 30
0.0
 11
248.8840311064
 21
153.711335656
 31
0.0
  0
LINE
  5
24B
330
1F
100
AcDbEntity
  8
0
  6
Continuous
 62
     7
370
    15
100
AcDbLine
 10
248.854079551
 20
152.8646689894
 30
0.0
 11
244.2633333333
 21
152.8646689894
 31
0.0
  0
LINE
  5
24C
330
1F
100
AcDbEntity
  8
0
  6
Continuous
 62
     7
370
    15
100
AcDbLine
 10
252.3066666667
 20
152.8646689894
 30
0.0
 11
248.854079551
 21
152.8646689894
 31
0.0
  0
ARC
  5
24D
330
1F
100
AcDbEntity
  8
0
  6
Continuous
 62
     7
370
    15
100
AcDbCircle
 10
244.4183398379
 20
75.3878439592
 30
0.0
 40
0.7000522685889311
100
AcDbArc
 50
72.6412684352
 51
94.2688563951
  0
LWPOLYLINE
  5
24E
330
1F
100
AcDbEntity
  8
0
  6
Continuous
 62
     7
370
    15
100
AcDbPolyline
 90
       11
 70
   128
 43
0.0
 10
247.5413393099
 20
91.7648635985
 10
247.5560721102
 20
91.7732731286
 10
247.5940476174
 20
91.775588795
 10
247.6506854249
 20
91.7715312941
 10
247.7191541773
 20
91.7615900204
 10
247.7911955325
 20
91.7469640382
 10
247.8581202399
 20
91.7294174568
 10
247.9118561921
 20
91.711066653
 10
247.9459220401
 20
91.6941250044
 10
247.95620894
 20
91.680635924
 10
247.95620894
 20
91.680635924
  0
LWPOLYLINE
  5
24F
330
1F
100
AcDbEntity
  8
0
  6
Continuous
 62
     7
370
    15
100
AcDbPolyline
 90
       11
 70
   128
 43
0.0
 10
248.6977113915
 20
91.7324661261
 10
248.7085555408
 20
91.7419926813
 10
248.7429194492
 20
91.7563175763
 10
248.7966583223
 20
91.7737130173
 10
248.863290459
 20
91.7920808574
 10
248.93477904
 20
91.8092056639
 10
249.0025014875
 20
91.8230219326
 10
249.0582894749
 20
91.8318632174
 10
249.0954141475
 20
91.834663129
 10
249.1093977219
 20
91.8310839567
 10
249.1093977219
 20
91.8310839567
  0
LINE
  5
250
330
1F
100
AcDbEntity
  8
0
  6
Continuous
 62
     7
370
    15
100
AcDbLine
 10
246.8710666667
 20
93.1738166182
 30
0.0
 11
249.6989333333
 21
93.1738166182
 31
0.0
  0
LINE
  5
251
330
1F
100
AcDbEntity
  8
0
  6
Continuous
 62
     7
370
    15
100
AcDbLine
 10
246.8710666667
 20
91.9038166182
 30
0.0
 11
249.6989333333
 21
91.9038166182
 31
0.0
  0
LINE
  5
252
330
1F
100
AcDbEntity
  8
0
  6
Continuous
 62
     7
370
    15
100
AcDbLine
 10
247.5516211035
 20
152.6106689894
 30
0.0
 11
247.5441666667
 21
152.6106689894
 31
0.0
  0
LINE
  5
253
330
1F
100
AcDbEntity
  8
0
  6
Continuous
 62
     7
370
    15
100
AcDbLine
 10
249.0258333333
 20
152.6106689894
 30
0.0
 11
247.5516211035
 21
152.6106689894
 31
0.0
  0
LINE
  5
254
330
1F
100
AcDbEntity
  8
0
  6
Continuous
 62
     7
370
    15
100
AcDbLine
 10
247.6354358345
 20
152.5260023227
 30
0.0
 11
247.6288333333
 21
152.5260023227
 31
0.0
  0
LINE
  5
255
330
1F
100
AcDbEntity
  8
0
  6
Continuous
 62
     7
370
    15
100
AcDbLine
 10
248.9411666667
 20
152.5260023227
 30
0.0
 11
247.6354358345
 21
152.5260023227
 31
0.0
  0
ARC
  5
256
330
1F
100
AcDbEntity
  8
0
  6
Continuous
 62
     7
370
    15
100
AcDbCircle
 10
248.2056635315
 20
92.2834579716
 30
0.0
 40
0.6050230914169885
100
AcDbArc
 50
252.5291480957
 51
286.528995862
  0
LWPOLYLINE
  5
257
330
1F
100
AcDbEntity
  8
0
  6
Continuous
 62
     7
370
    15
100
AcDbPolyline
 90
       35
 70
   128
 43
0.0
 10
255.165795943
 20
69.0562886229
 10
255.3234399667
 20
68.9645353095
 10
255.5130566157
 20
68.8800795752
 10
255.7125631033
 20
68.817169564
 10
255.9201626565
 20
68.7763718489
 10
256.1339856155
 20
68.7580538579
 10
256.3521062721
 20
68.7623805643
 10
256.5725602123
 20
68.7893130014
 10
256.7933620087
 20
68.8386086134
 10
257.012523101
 20
68.9098234396
 10
257.228069705
 20
69.0023161131
 10
257.4380605891
 20
69.1152536366
 10
257.6406045571
 20
69.2476188851
 10
257.8338774802
 20
69.3982197654
 10
258.0161387253
 20
69.5656999527
 10
258.1857468319
 20
69.7485511059
 10
258.3411742943
 20
69.9451264513
 10
258.4810213193
 20
70.1536556142
 10
258.6040284322
 20
70.3722605626
 10
258.7090878201
 20
70.5989725212
 10
258.7952533091
 20
70.8317497021
 10
258.8617488851
 20
71.0684956937
 10
258.9079756832
 20
71.3070783408
 10
258.9335173807
 20
71.545348947
 10
258.9381439469
 20
71.7811616264
 10
258.9218137145
 20
72.0123926294
 10
258.8846737551
 20
72.2369594691
 10
258.8270585543
 20
72.452839677
 10
258.7494869997
 20
72.6580890169
 10
258.6526577076
 20
72.8508589953
 10
258.5374427311
 20
73.0294135088
 10
258.4048797062
 20
73.1921444798
 10
258.2561625074
 20
73.3375863389
 10
258.0926304947
 20
73.4644292239
 10
258.0565736013
 20
73.4885725309
  0
LWPOLYLINE
  5
258
330
1F
100
AcDbEntity
  8
0
  6
Continuous
 62
     7
370
    15
100
AcDbPolyline
 90
       41
 70
   128
 43
0.0
 10
254.4108502577
 20
69.6750248996
 10
254.5286142703
 20
69.5355160569
 10
254.6787474116
 20
69.3917270817
 10
254.8435657194
 20
69.2666489409
 10
255.0215848256
 20
69.1614080993
 10
255.2112014747
 20
69.0769523649
 10
255.4107079623
 20
69.0140423537
 10
255.6183075155
 20
68.9732446387
 10
255.8321304745
 20
68.9549266476
 10
256.050251131
 20
68.959253354
 10
256.2707050713
 20
68.9861857911
 10
256.4915068677
 20
69.0354814031
 10
256.7106679599
 20
69.1066962293
 10
256.9262145639
 20
69.1991889028
 10
257.1362054481
 20
69.3121264264
 10
257.3387494161
 20
69.4444916748
 10
257.5320223391
 20
69.5950925551
 10
257.7142835843
 20
69.7625727424
 10
257.8838916909
 20
69.9454238956
 10
258.0393191533
 20
70.141999241
 10
258.1791661783
 20
70.3505284039
 10
258.3021732911
 20
70.5691333523
 10
258.4072326791
 20
70.7958453109
 10
258.4933981681
 20
71.0286224919
 10
258.5598937441
 20
71.2653684834
 10
258.6061205422
 20
71.5039511305
 10
258.6316622397
 20
71.7422217367
 10
258.6362888059
 20
71.9780344161
 10
258.6199585735
 20
72.2092654191
 10
258.5828186141
 20
72.4338322588
 10
258.5252034133
 20
72.6497124667
 10
258.4476318587
 20
72.8549618066
 10
258.3508025666
 20
73.047731785
 10
258.23558759
 20
73.2262862985
 10
258.1030245652
 20
73.3890172695
 10
257.9543073664
 20
73.5344591286
 10
257.7907753537
 20
73.6613020136
 10
257.6139013107
 20
73.7684035664
 10
257.4252781807
 20
73.854799221
 10
257.2266047202
 20
73.9197108905
 10
257.1859968096
 20
73.9300174513
  0
LWPOLYLINE
  5
259
330
1F
100
AcDbEntity
  8
0
  6
Continuous
 62
     7
370
    15
100
AcDbPolyline
 90
       41
 70
   128
 43
0.0
 10
239.3840031904
 20
73.2085421289
 10
239.3433952798
 20
73.2188486897
 10
239.1447218193
 20
73.2837603592
 10
238.9560986893
 20
73.3701560138
 10
238.7792246463
 20
73.4772575666
 10
238.6156926336
 20
73.6041004516
 10
238.4669754348
 20
73.7495423107
 10
238.33441241
 20
73.9122732817
 10
238.2191974334
 20
74.0908277952
 10
238.1223681413
 20
74.2835977736
 10
238.0447965867
 20
74.4888471135
 10
237.9871813859
 20
74.7047273214
 10
237.9500414265
 20
74.9292941611
 10
237.9337111941
 20
75.1605251641
 10
237.9383377603
 20
75.3963378435
 10
237.9638794578
 20
75.6346084497
 10
238.0101062559
 20
75.8731910968
 10
238.0766018319
 20
76.1099370884
 10
238.1627673209
 20
76.3427142693
 10
238.2678267089
 20
76.5694262279
 10
238.3908338217
 20
76.7880311763
 10
238.5306808467
 20
76.9965603392
 10
238.6861083091
 20
77.1931356846
 10
238.8557164157
 20
77.3759868378
 10
239.0379776609
 20
77.5434670251
 10
239.2312505839
 20
77.6940679054
 10
239.4337945519
 20
77.8264331539
 10
239.6437854361
 20
77.9393706774
 10
239.8593320401
 20
78.0318633509
 10
240.0784931323
 20
78.1030781771
 10
240.2992949287
 20
78.1523737891
 10
240.519748869
 20
78.1793062262
 10
240.7378695255
 20
78.1836329326
 10
240.9516924845
 20
78.1653149416
 10
241.1592920377
 20
78.1245172265
 10
241.3587985253
 20
78.0616072153
 10
241.5484151744
 20
77.977151481
 10
241.7264342806
 20
77.8719106393
 10
241.8912525884
 20
77.7468324985
 10
242.0413857297
 20
77.6030435233
 10
242.1591497423
 20
77.4635346807
  0
LWPOLYLINE
  5
25A
330
1F
100
AcDbEntity
  8
0
  6
Continuous
 62
     7
370
    15
100
AcDbPolyline
 90
       35
 70
   128
 43
0.0
 10
238.5134263987
 20
73.6499870493
 10
238.4773695053
 20
73.6741303563
 10
238.3138374926
 20
73.8009732413
 10
238.1651202938
 20
73.9464151004
 10
238.0325572689
 20
74.1091460714
 10
237.9173422924
 20
74.2877005849
 10
237.8205130003
 20
74.4804705633
 10
237.7429414457
 20
74.6857199032
 10
237.6853262449
 20
74.9016001111
 10
237.6481862855
 20
75.1261669508
 10
237.6318560531
 20
75.3573979538
 10
237.6364826193
 20
75.5932106332
 10
237.6620243168
 20
75.8314812395
 10
237.7082511149
 20
76.0700638865
 10
237.7747466909
 20
76.3068098781
 10
237.8609121799
 20
76.539587059
 10
237.9659715678
 20
76.7662990176
 10
238.0889786807
 20
76.984903966
 10
238.2288257057
 20
77.1934331289
 10
238.3842531681
 20
77.3900084743
 10
238.5538612747
 20
77.5728596275
 10
238.7361225198
 20
77.7403398148
 10
238.9293954429
 20
77.8909406951
 10
239.1319394109
 20
78.0233059436
 10
239.341930295
 20
78.1362434671
 10
239.557476899
 20
78.2287361406
 10
239.7766379913
 20
78.2999509668
 10
239.9974397877
 20
78.3492465788
 10
240.2178937279
 20
78.3761790159
 10
240.4360143845
 20
78.3805057223
 10
240.6498373435
 20
78.3621877313
 10
240.8574368967
 20
78.3213900162
 10
241.0569433843
 20
78.258480005
 10
241.2465600333
 20
78.1740242707
 10
241.404204057
 20
78.0822709574
  0
LWPOLYLINE
  5
25B
330
1F
100
AcDbEntity
  8
0
  6
Continuous
 62
     7
370
    15
100
AcDbPolyline
 90
       34
 70
   128
 43
0.0
 10
275.7075929887
 20
61.8500565233
 10
275.8151465899
 20
61.7738903543
 10
275.9684592779
 20
61.641339108
 10
276.1063809298
 20
61.4908727405
 10
276.2276238083
 20
61.3238961156
 10
276.3310559013
 20
61.1419682493
 10
276.4157114913
 20
60.9467877528
 10
276.4808001718
 20
60.740176974
 10
276.5257142274
 20
60.524064982
 10
276.5500343075
 20
60.3004695562
 10
276.5535333423
 20
60.0714783469
 10
276.5361786621
 20
59.8392293834
 10
276.4981323028
 20
59.6058911115
 10
276.4397494932
 20
59.373642148
 10
276.3615753378
 20
59.1446509387
 10
276.2643397275
 20
58.9210555129
 10
276.1489505251
 20
58.7049435209
 10
276.0164850885
 20
58.4983327421
 10
275.8681802118
 20
58.3031522456
 10
275.7054205777
 20
58.1212243792
 10
275.5297258289
 20
57.9542477544
 10
275.3427363801
 20
57.8037813869
 10
275.1461981013
 20
57.6712301406
 10
274.9419460175
 20
57.5578316108
 10
274.7318871753
 20
57.464644569
 10
274.5179828377
 20
57.3925390776
 10
274.3022301716
 20
57.342188366
 10
274.0866436018
 20
57.3140625453
 10
273.8732360018
 20
57.3084242188
 10
273.6639999009
 20
57.3253260299
 10
273.4608888802
 20
57.364610171
 10
273.2657993327
 20
57.4259098566
 10
273.0805527568
 20
57.5086527481
 10
272.9324464368
 20
57.5950639716
  0
LWPOLYLINE
  5
25C
330
1F
100
AcDbEntity
  8
0
  6
Continuous
 62
     7
370
    15
100
AcDbPolyline
 90
       27
 70
   128
 43
0.0
 10
220.0885055634
 20
86.4010575028
 10
220.0438494429
 20
86.6172767784
 10
220.0197913717
 20
86.8409535112
 10
220.0165559735
 20
87.0699992919
 10
220.0341734563
 20
87.3022755817
 10
220.0724793305
 20
87.5356136796
 10
220.1311159445
 20
87.7678349706
 10
220.2095358239
 20
87.996771267
 10
220.3070067835
 20
88.2202850523
 10
220.4226187632
 20
88.4362894386
 10
220.5552923251
 20
88.642767651
 10
220.7037887318
 20
88.8377918583
 10
220.8667215126
 20
89.0195411717
 10
221.0425694078
 20
89.1863186471
 10
221.2296905731
 20
89.336567128
 10
221.4263379085
 20
89.4688837849
 10
221.6306753709
 20
89.5820332128
 10
221.8407951165
 20
89.6749589659
 10
222.0547353137
 20
89.7467934216
 10
222.2704984607
 20
89.7968658809
 10
222.486070035
 20
89.8247088307
 10
222.6994373029
 20
89.8300623089
 10
222.9086081118
 20
89.8128763316
 10
223.1116294902
 20
89.7733113595
 10
223.306605882
 20
89.7117368002
 10
223.4917168455
 20
89.6287275586
 10
223.6375535632
 20
89.5434956086
  0
ARC
  5
25D
330
1F
100
AcDbEntity
  8
0
  6
Continuous
 62
     7
370
    15
100
AcDbCircle
 10
221.9091558759
 20
86.8420727642
 30
0.0
 40
1.87330243717509
100
AcDbArc
 50
193.6164571999
 51
236.0290872912
  0
LINE
  5
25E
330
1F
100
AcDbEntity
  8
0
  6
Continuous
 62
     7
370
    15
100
AcDbLine
 10
240.941627069
 20
72.1926450425
 30
0.0
 11
242.0620166663
 21
68.7569710683
 31
0.0
  0
LINE
  5
25F
330
1F
100
AcDbEntity
  8
0
  6
Continuous
 62
     7
370
    15
100
AcDbLine
 10
241.7899717589
 20
71.639346579
 30
0.0
 11
242.6657269484
 21
68.953843858
 31
0.0
  0
LINE
  5
260
330
1F
100
AcDbEntity
  8
0
  6
Continuous
 62
     7
370
    15
100
AcDbLine
 10
255.628372931
 20
74.9459145377
 30
0.0
 11
254.5079833337
 21
78.3815885119
 31
0.0
  0
LINE
  5
261
330
1F
100
AcDbEntity
  8
0
  6
Continuous
 62
     7
370
    15
100
AcDbLine
 10
254.7800282411
 20
75.4992130012
 30
0.0
 11
253.9042730516
 21
78.1847157222
 31
0.0
  0
LINE
  5
262
330
1F
100
AcDbEntity
  8
0
  6
Continuous
 62
     7
370
    15
100
AcDbLine
 10
291.5334476642
 20
85.0011582045
 30
0.0
 11
289.9584653466
 21
89.830840461
 31
0.0
  0
LINE
  5
263
330
1F
100
AcDbEntity
  8
0
  6
Continuous
 62
     7
370
    15
100
AcDbLine
 10
206.6115346534
 20
57.3077191192
 30
0.0
 11
205.0365523358
 21
62.1374013757
 31
0.0
  0
LWPOLYLINE
  5
264
330
1F
100
AcDbEntity
  8
0
  6
Continuous
 62
     7
370
    15
100
AcDbPolyline
 90
       30
 70
   128
 43
0.0
 10
276.6138163658
 20
60.5808540072
 10
276.6410997615
 20
60.3522074091
 10
276.6473630968
 20
60.1178586289
 10
276.6325496501
 20
59.8799299653
 10
276.5967935741
 20
59.6405761372
 10
276.5404186815
 20
59.4019647698
 10
276.463935512
 20
59.1662567648
 10
276.368036709
 20
58.9355867303
 10
276.2535907469
 20
58.7120436497
 10
276.1216340662
 20
58.497651964
 10
275.9733616869
 20
58.2943532374
 10
275.8101163866
 20
58.1039885746
 10
275.6333765401
 20
57.9282819475
 10
275.4447427308
 20
57.7688245826
 10
275.2459232557
 20
57.6270605504
 10
275.0387186547
 20
57.5042736879
 10
274.8250054048
 20
57.4015759721
 10
274.6067189263
 20
57.3198974492
 10
274.3858360553
 20
57.2599778127
 10
274.1643571413
 20
57.2223597041
 10
273.9442879317
 20
57.2073837987
 10
273.7276214072
 20
57.2151857208
 10
273.5163197336
 20
57.2456948149
 10
273.3122964914
 20
57.2986347858
 10
273.1173993467
 20
57.3735262011
 10
272.9333933184
 20
57.4696908325
 10
272.7619447933
 20
57.5862577982
 10
272.6046064361
 20
57.7221714496
 10
272.4628031271
 20
57.8762009318
 10
272.4215403393
 20
57.9282817804
  0
ARC
  5
265
330
1F
100
AcDbEntity
  8
0
  6
Continuous
 62
     7
370
    15
100
AcDbCircle
 10
274.7138000875
 20
60.3283823922
 30
0.0
 40
1.916716925903319
100
AcDbArc
 50
7.5690459581
 51
75.4079942727
  0
LWPOLYLINE
  5
266
330
1F
100
AcDbEntity
  8
0
  6
Continuous
 62
     7
370
    15
100
AcDbPolyline
 90
       27
 70
   128
 43
0.0
 10
276.7647439363
 20
60.4824176123
 10
276.792027332
 20
60.2537710143
 10
276.7982906673
 20
60.019422234
 10
276.7834772206
 20
59.7814935705
 10
276.7477211446
 20
59.5421397423
 10
276.691346252
 20
59.303528375
 10
276.6148630825
 20
59.06782037
 10
276.5189642795
 20
58.8371503354
 10
276.4045183175
 20
58.6136072549
 10
276.2725616367
 20
58.3992155692
 10
276.1242892574
 20
58.1959168425
 10
275.9610439571
 20
58.0055521797
 10
275.7843041106
 20
57.8298455527
 10
275.5956703013
 20
57.6703881877
 10
275.3968508262
 20
57.5286241555
 10
275.1896462252
 20
57.4058372931
 10
274.9759329753
 20
57.3031395772
 10
274.7576464968
 20
57.2214610543
 10
274.5367636258
 20
57.1615414179
 10
274.3152847118
 20
57.1239233092
 10
274.0952155022
 20
57.1089474039
 10
273.8785489777
 20
57.116749326
 10
273.6672473041
 20
57.14725842
 10
273.4632240619
 20
57.200198391
 10
273.2683269173
 20
57.2750898063
 10
273.0843208889
 20
57.3712544377
 10
273.0255584541
 20
57.4079818986
  0
ARC
  5
267
330
1F
100
AcDbEntity
  8
0
  6
Continuous
 62
     7
370
    15
100
AcDbCircle
 10
274.8074571807
 20
60.2034441443
 30
0.0
 40
1.977067940011687
100
AcDbArc
 50
8.1117722733
 51
55.8839853163
  0
LWPOLYLINE
  5
268
330
1F
100
AcDbEntity
  8
0
  6
Continuous
 62
     7
370
    15
100
AcDbPolyline
 90
       41
 70
   128
 43
0.0
 10
221.3733131087
 20
84.9552852481
 10
221.3416600465
 20
84.9632364004
 10
221.1420444882
 20
85.0273947499
 10
220.9524625681
 20
85.1131846723
 10
220.7746311693
 20
85.2198292409
 10
220.6101607606
 20
85.346362666
 10
220.4605408115
 20
85.4916390411
 10
220.3271263033
 20
85.6543427211
 10
220.2111254587
 20
85.8330002362
 10
220.113588799
 20
86.0259936362
 10
220.0353996315
 20
86.231575143
 10
219.9772660494
 20
86.4478829787
 10
219.9397145193
 20
86.6729582261
 10
219.9230851138
 20
86.9047625687
 10
219.9275284313
 20
87.1411967507
 10
219.9530042325
 20
87.3801195874
 10
219.9992818045
 20
87.6193673566
 10
220.0659420505
 20
87.8567733935
 10
220.152381285
 20
88.0901877123
 10
220.2578167008
 20
88.3174964766
 10
220.3812934586
 20
88.5366411433
 10
220.5216933337
 20
88.7456371042
 10
220.677744843
 20
88.9425916595
 10
220.8480347601
 20
89.1257211583
 10
221.0310209129
 20
89.2933671516
 10
221.2250461505
 20
89.4440114111
 10
221.4283533505
 20
89.5762896792
 10
221.6391013311
 20
89.6890040234
 10
221.8553815263
 20
89.7811336851
 10
222.0752352689
 20
89.8518443239
 10
222.2966715294
 20
89.9004955732
 10
222.5176849468
 20
89.9266468399
 10
222.7362739894
 20
89.9300612939
 10
222.9504590809
 20
89.9107080135
 10
223.158300528
 20
89.868762265
 10
223.3579160863
 20
89.8046039156
 10
223.5474980065
 20
89.7188139932
 10
223.7253294052
 20
89.6121694246
 10
223.8897998139
 20
89.4856359995
 10
224.039419763
 20
89.3403596243
 10
224.1484596607
 20
89.2102777998
  0
LWPOLYLINE
  5
269
330
1F
100
AcDbEntity
  8
0
  6
Continuous
 62
     7
370
    15
100
AcDbPolyline
 90
       35
 70
   128
 43
0.0
 10
220.6536638876
 20
85.2982937736
 10
220.6237035988
 20
85.3182656358
 10
220.4592331901
 20
85.4447990608
 10
220.309613241
 20
85.590075436
 10
220.1761987328
 20
85.752779116
 10
220.0601978881
 20
85.931436631
 10
219.9626612285
 20
86.124430031
 10
219.884472061
 20
86.3300115379
 10
219.8263384789
 20
86.5463193736
 10
219.7887869488
 20
86.7713946209
 10
219.7721575433
 20
87.0031989636
 10
219.7766008608
 20
87.2396331455
 10
219.802076662
 20
87.4785559822
 10
219.848354234
 20
87.7178037514
 10
219.91501448
 20
87.9552097883
 10
220.0014537144
 20
88.1886241071
 10
220.1068891303
 20
88.4159328715
 10
220.2303658881
 20
88.6350775382
 10
220.3707657632
 20
88.844073499
 10
220.5268172725
 20
89.0410280544
 10
220.6971071895
 20
89.2241575532
 10
220.8800933424
 20
89.3918035464
 10
221.07411858
 20
89.5424478059
 10
221.2774257799
 20
89.674726074
 10
221.4881737606
 20
89.7874404182
 10
221.7044539557
 20
89.8795700799
 10
221.9243076983
 20
89.9502807187
 10
222.1457439589
 20
89.9989319681
 10
222.3667573763
 20
90.0250832347
 10
222.5853464189
 20
90.0284976888
 10
222.7995315104
 20
90.0091444084
 10
223.0073729575
 20
89.9671986599
 10
223.2069885158
 20
89.9030403104
 10
223.3965704359
 20
89.817250388
 10
223.5444415459
 20
89.7305776816
  0
LINE
  5
26A
330
1F
100
AcDbEntity
  8
0
  6
Continuous
 62
     8
370
    15
100
AcDbLine
 10
248.8840311064
 20
153.076335656
 30
0.0
 11
252.5183333333
 21
153.076335656
 31
0.0
  0
LINE
  5
26B
330
1F
100
AcDbEntity
  8
0
  6
Continuous
 62
     8
370
    15
100
AcDbLine
 10
244.0516666667
 20
153.076335656
 30
0.0
 11
248.8840311064
 21
153.076335656
 31
0.0
  0
ENDSEC
  0
SECTION
  2
OBJECTS
  0
DICTIONARY
  5
C
330
0
100
AcDbDictionary
281
     1
  3
ACAD_GROUP
350
D
  3
ACAD_LAYOUT
350
1A
  3
ACAD_MLINESTYLE
350
17
  3
ACAD_PLOTSETTINGS
350
19
  3
ACAD_PLOTSTYLENAME
350
E
  3
ACAD_SCALELIST
350
47
  0
DICTIONARY
  5
D
102
{ACAD_REACTORS
330
C
102
}
330
C
100
AcDbDictionary
281
     1
  0
DICTIONARY
  5
1A
102
{ACAD_REACTORS
330
C
102
}
330
C
100
AcDbDictionary
281
     1
  3
Layout1
350
1E
  3
Layout2
350
26
  3
Model
350
22
  0
DICTIONARY
  5
17
102
{ACAD_REACTORS
330
C
102
}
330
C
100
AcDbDictionary
281
     1
  3
Standard
350
18
  0
DICTIONARY
  5
19
102
{ACAD_REACTORS
330
C
102
}
330
C
100
AcDbDictionary
281
     1
  0
ACDBDICTIONARYWDFLT
  5
E
102
{ACAD_REACTORS
330
C
102
}
330
C
100
AcDbDictionary
281
     1
  3
Normal
350
F
100
AcDbDictionaryWithDefault
340
F
  0
DICTIONARY
  5
47
102
{ACAD_REACTORS
330
C
102
}
330
C
100
AcDbDictionary
281
     1
  3
A0
350
48
  3
A1
350
49
  3
A2
350
4A
  3
A3
350
4B
  3
A4
350
4C
  3
A5
350
4D
  3
A6
350
4E
  3
A7
350
4F
  3
A8
350
50
  3
A9
350
51
  3
B0
350
52
  3
B1
350
53
  3
B2
350
54
  3
B3
350
55
  3
B4
350
56
  3
B5
350
57
  3
B6
350
58
  3
B7
350
59
  3
B8
350
5A
  3
B9
350
5B
  3
C0
350
5C
  3
C1
350
5D
  3
C2
350
5E
  3
C3
350
5F
  3
C4
350
60
  3
C5
350
61
  3
C6
350
62
  3
C7
350
63
  3
C8
350
64
  3
C9
350
65
  3
D0
350
66
  3
D1
350
67
  3
D2
350
68
  0
LAYOUT
  5
1E
102
{ACAD_REACTORS
330
1A
102
}
330
1A
100
AcDbPlotSettings
  1

  2
none_device
  4

  6

 40
0.0
 41
0.0
 42
0.0
 43
0.0
 44
0.0
 45
0.0
 46
0.0
 47
0.0
 48
0.0
 49
0.0
140
0.0
141
0.0
142
1.0
143
1.0
 70
   688
 72
     1
 73
     0
 74
     5
  7

 75
    16
147
1.0
148
0.0
149
0.0
100
AcDbLayout
  1
Layout1
 70
     1
 71
     1
 10
0.0
 20
0.0
 11
420.0
 21
297.0
 12
0.0
 22
0.0
 32
0.0
 14
1.0000000000E+20
 24
1.0000000000E+20
 34
1.0000000000E+20
 15
-1.0000000000E+20
 25
-1.0000000000E+20
 35
-1.0000000000E+20
146
0.0
 13
0.0
 23
0.0
 33
0.0
 16
1.0
 26
0.0
 36
0.0
 17
0.0
 27
1.0
 37
0.0
 76
     0
330
1B
  0
LAYOUT
  5
26
102
{ACAD_REACTORS
330
1A
102
}
330
1A
100
AcDbPlotSettings
  1

  2
none_device
  4

  6

 40
0.0
 41
0.0
 42
0.0
 43
0.0
 44
0.0
 45
0.0
 46
0.0
 47
0.0
 48
0.0
 49
0.0
140
0.0
141
0.0
142
1.0
143
1.0
 70
   688
 72
     1
 73
     0
 74
     5
  7

 75
    16
147
1.0
148
0.0
149
0.0
100
AcDbLayout
  1
Layout2
 70
     1
 71
     2
 10
0.0
 20
0.0
 11
0.0
 21
0.0
 12
0.0
 22
0.0
 32
0.0
 14
0.0
 24
0.0
 34
0.0
 15
0.0
 25
0.0
 35
0.0
146
0.0
 13
0.0
 23
0.0
 33
0.0
 16
1.0
 26
0.0
 36
0.0
 17
0.0
 27
1.0
 37
0.0
 76
     0
330
23
  0
LAYOUT
  5
22
102
{ACAD_REACTORS
330
1A
102
}
330
1A
100
AcDbPlotSettings
  1

  2
none_device
  4
Letter_(8.50_x_11.00_Inches)
  6

 40
6.35
 41
6.35
 42
6.35000508
 43
6.35000508
 44
215.9
 45
279.4
 46
0.0
 47
0.0
 48
0.0
 49
0.0
140
0.0
141
0.0
142
1.0
143
1.0
 70
  1712
 72
     1
 73
     0
 74
     0
  7

 75
     0
147
1.0
148
0.0
149
0.0
100
AcDbLayout
  1
Model
 70
     1
 71
     0
 10
0.0
 20
0.0
 11
431.8
 21
279.4
 12
0.0
 22
0.0
 32
0.0
 14
0.0
 24
0.0
 34
0.0
 15
431.8
 25
279.4
 35
0.0
146
0.0
 13
0.0
 23
0.0
 33
0.0
 16
1.0
 26
0.0
 36
0.0
 17
0.0
 27
1.0
 37
0.0
 76
     0
330
1F
331
29
  0
MLINESTYLE
  5
18
102
{ACAD_REACTORS
330
17
102
}
330
17
100
AcDbMlineStyle
  2
Standard
 70
     0
  3

 62
   256
 51
90.0
 52
90.0
 71
     2
 49
0.5
 62
   256
  6
BYLAYER
 49
-0.5
 62
   256
  6
BYLAYER
  0
ACDBPLACEHOLDER
  5
F
102
{ACAD_REACTORS
330
E
102
}
330
E
  0
SCALE
  5
48
102
{ACAD_REACTORS
330
47
102
}
330
47
100
AcDbScale
 70
     0
300
1:1
140
1.0
141
1.0
290
     1
  0
SCALE
  5
49
102
{ACAD_REACTORS
330
47
102
}
330
47
100
AcDbScale
 70
     0
300
1:2
140
1.0
141
2.0
290
     0
  0
SCALE
  5
4A
102
{ACAD_REACTORS
330
47
102
}
330
47
100
AcDbScale
 70
     0
300
1:4
140
1.0
141
4.0
290
     0
  0
SCALE
  5
4B
102
{ACAD_REACTORS
330
47
102
}
330
47
100
AcDbScale
 70
     0
300
1:5
140
1.0
141
5.0
290
     0
  0
SCALE
  5
4C
102
{ACAD_REACTORS
330
47
102
}
330
47
100
AcDbScale
 70
     0
300
1:8
140
1.0
141
8.0
290
     0
  0
SCALE
  5
4D
102
{ACAD_REACTORS
330
47
102
}
330
47
100
AcDbScale
 70
     0
300
1:10
140
1.0
141
10.0
290
     0
  0
SCALE
  5
4E
102
{ACAD_REACTORS
330
47
102
}
330
47
100
AcDbScale
 70
     0
300
1:16
140
1.0
141
16.0
290
     0
  0
SCALE
  5
4F
102
{ACAD_REACTORS
330
47
102
}
330
47
100
AcDbScale
 70
     0
300
1:20
140
1.0
141
20.0
290
     0
  0
SCALE
  5
50
102
{ACAD_REACTORS
330
47
102
}
330
47
100
AcDbScale
 70
     0
300
1:30
140
1.0
141
30.0
290
     0
  0
SCALE
  5
51
102
{ACAD_REACTORS
330
47
102
}
330
47
100
AcDbScale
 70
     0
300
1:40
140
1.0
141
40.0
290
     0
  0
SCALE
  5
52
102
{ACAD_REACTORS
330
47
102
}
330
47
100
AcDbScale
 70
     0
300
1:50
140
1.0
141
50.0
290
     0
  0
SCALE
  5
53
102
{ACAD_REACTORS
330
47
102
}
330
47
100
AcDbScale
 70
     0
300
1:100
140
1.0
141
100.0
290
     0
  0
SCALE
  5
54
102
{ACAD_REACTORS
330
47
102
}
330
47
100
AcDbScale
 70
     0
300
2:1
140
2.0
141
1.0
290
     0
  0
SCALE
  5
55
102
{ACAD_REACTORS
330
47
102
}
330
47
100
AcDbScale
 70
     0
300
4:1
140
4.0
141
1.0
290
     0
  0
SCALE
  5
56
102
{ACAD_REACTORS
330
47
102
}
330
47
100
AcDbScale
 70
     0
300
8:1
140
8.0
141
1.0
290
     0
  0
SCALE
  5
57
102
{ACAD_REACTORS
330
47
102
}
330
47
100
AcDbScale
 70
     0
300
10:1
140
10.0
141
1.0
290
     0
  0
SCALE
  5
58
102
{ACAD_REACTORS
330
47
102
}
330
47
100
AcDbScale
 70
     0
300
100:1
140
100.0
141
1.0
290
     0
  0
SCALE
  5
59
102
{ACAD_REACTORS
330
47
102
}
330
47
100
AcDbScale
 70
     0
300
1/128" = 1'-0"
140
0.0078125
141
12.0
290
     0
  0
SCALE
  5
5A
102
{ACAD_REACTORS
330
47
102
}
330
47
100
AcDbScale
 70
     0
300
1/64" = 1'-0"
140
0.015625
141
12.0
290
     0
  0
SCALE
  5
5B
102
{ACAD_REACTORS
330
47
102
}
330
47
100
AcDbScale
 70
     0
300
1/32" = 1'-0"
140
0.03125
141
12.0
290
     0
  0
SCALE
  5
5C
102
{ACAD_REACTORS
330
47
102
}
330
47
100
AcDbScale
 70
     0
300
1/16" = 1'-0"
140
0.0625
141
12.0
290
     0
  0
SCALE
  5
5D
102
{ACAD_REACTORS
330
47
102
}
330
47
100
AcDbScale
 70
     0
300
3/32" = 1'-0"
140
0.09375
141
12.0
290
     0
  0
SCALE
  5
5E
102
{ACAD_REACTORS
330
47
102
}
330
47
100
AcDbScale
 70
     0
300
1/8" = 1'-0"
140
0.125
141
12.0
290
     0
  0
SCALE
  5
5F
102
{ACAD_REACTORS
330
47
102
}
330
47
100
AcDbScale
 70
     0
300
3/16" = 1'-0"
140
0.1875
141
12.0
290
     0
  0
SCALE
  5
60
102
{ACAD_REACTORS
330
47
102
}
330
47
100
AcDbScale
 70
     0
300
1/4" = 1'-0"
140
0.25
141
12.0
290
     0
  0
SCALE
  5
61
102
{ACAD_REACTORS
330
47
102
}
330
47
100
AcDbScale
 70
     0
300
3/8" = 1'-0"
140
0.375
141
12.0
290
     0
  0
SCALE
  5
62
102
{ACAD_REACTORS
330
47
102
}
330
47
100
AcDbScale
 70
     0
300
1/2" = 1'-0"
140
0.5
141
12.0
290
     0
  0
SCALE
  5
63
102
{ACAD_REACTORS
330
47
102
}
330
47
100
AcDbScale
 70
     0
300
3/4" = 1'-0"
140
0.75
141
12.0
290
     0
  0
SCALE
  5
64
102
{ACAD_REACTORS
330
47
102
}
330
47
100
AcDbScale
 70
     0
300
1" = 1'-0"
140
1.0
141
12.0
290
     0
  0
SCALE
  5
65
102
{ACAD_REACTORS
330
47
102
}
330
47
100
AcDbScale
 70
     0
300
1-1/2" = 1'-0"
140
1.5
141
12.0
290
     0
  0
SCALE
  5
66
102
{ACAD_REACTORS
330
47
102
}
330
47
100
AcDbScale
 70
     0
300
3" = 1'-0"
140
3.0
141
12.0
290
     0
  0
SCALE
  5
67
102
{ACAD_REACTORS
330
47
102
}
330
47
100
AcDbScale
 70
     0
300
6" = 1'-0"
140
6.0
141
12.0
290
     0
  0
SCALE
  5
68
102
{ACAD_REACTORS
330
47
102
}
330
47
100
AcDbScale
 70
     0
300
1'-0" = 1'-0"
140
12.0
141
12.0
290
     0
  0
ENDSEC
  0
EOF
