  0
SECTION
  2
HEADER
  9
$ACADVER
  1
AC1015
  9
$ACADMAINTVER
 70
     6
  9
$DWGCODEPAGE
  3
ANSI_1252
  9
$INSBASE
 10
0.0
 20
0.0
 30
0.0
  9
$EXTMIN
 10
0.0
 20
0.0
 30
0.0
  9
$EXTMAX
 10
431.8
 20
279.4
 30
0.0
  9
$LIMMIN
 10
0.0
 20
0.0
  9
$LIMMAX
 10
431.8
 20
279.4
  9
$ORTHOMODE
 70
     0
  9
$REGENMODE
 70
     1
  9
$FILLMODE
 70
     1
  9
$QTEXTMODE
 70
     0
  9
$MIRRTEXT
 70
     1
  9
$LTSCALE
 40
1.0
  9
$ATTMODE
 70
     1
  9
$TEXTSIZE
 40
3.175
  9
$TRACEWID
 40
1.0
  9
$TEXTSTYLE
  7
Standard
  9
$CLAYER
  8
0
  9
$CELTYPE
  6
ByLayer
  9
$CECOLOR
 62
   256
  9
$CELTSCALE
 40
1.0
  9
$DISPSILH
 70
     0
  9
$DIMSCALE
 40
1.0
  9
$DIMASZ
 40
3.302
  9
$DIMEXO
 40
1.27
  9
$DIMDLI
 40
3.75
  9
$DIMRND
 40
0.0
  9
$DIMDLE
 40
0.0
  9
$DIMEXE
 40
3.175
  9
$DIMTP
 40
0.0
  9
$DIMTM
 40
0.0
  9
$DIMTXT
 40
3.175
  9
$DIMCEN
 40
2.5
  9
$DIMTSZ
 40
0.0
  9
$DIMTOL
 70
     0
  9
$DIMLIM
 70
     0
  9
$DIMTIH
 70
     1
  9
$DIMTOH
 70
     1
  9
$DIMSE1
 70
     0
  9
$DIMSE2
 70
     0
  9
$DIMTAD
 70
     0
  9
$DIMZIN
 70
     0
  9
$DIMBLK
  1

  9
$DIMASO
 70
     1
  9
$DIMSHO
 70
     1
  9
$DIMPOST
  1

  9
$DIMAPOST
  1

  9
$DIMALT
 70
     0
  9
$DIMALTD
 70
     3
  9
$DIMALTF
 40
0.0393700787
  9
$DIMLFAC
 40
20.0
  9
$DIMTOFL
 70
     1
  9
$DIMTVP
 40
0.0
  9
$DIMTIX
 70
     0
  9
$DIMSOXD
 70
     0
  9
$DIMSAH
 70
     0
  9
$DIMBLK1
  1

  9
$DIMBLK2
  1

  9
$DIMSTYLE
  2
ISO-25
  9
$DIMCLRD
 70
     0
  9
$DIMCLRE
 70
     0
  9
$DIMCLRT
 70
     0
  9
$DIMTFAC
 40
1.0
  9
$DIMGAP
 40
1.524
  9
$DIMJUST
 70
     0
  9
$DIMSD1
 70
     0
  9
$DIMSD2
 70
     0
  9
$DIMTOLJ
 70
     0
  9
$DIMTZIN
 70
     0
  9
$DIMALTZ
 70
     0
  9
$DIMALTTZ
 70
     0
  9
$DIMUPT
 70
     0
  9
$DIMDEC
 70
     0
  9
$DIMTDEC
 70
     0
  9
$DIMALTU
 70
     2
  9
$DIMALTTD
 70
     3
  9
$DIMTXSTY
  7
Standard
  9
$DIMAUNIT
 70
     0
  9
$DIMADEC
 70
     0
  9
$DIMALTRND
 40
0.0
  9
$DIMAZIN
 70
     0
  9
$DIMDSEP
 70
    44
  9
$DIMATFIT
 70
     3
  9
$DIMFRAC
 70
     0
  9
$DIMLDRBLK
  1

  9
$DIMLUNIT
 70
     2
  9
$DIMLWD
 70
    -2
  9
$DIMLWE
 70
    -2
  9
$DIMTMOVE
 70
     0
  9
$LUNITS
 70
     2
  9
$LUPREC
 70
     2
  9
$SKETCHINC
 40
1.0
  9
$FILLETRAD
 40
10.0
  9
$AUNITS
 70
     0
  9
$AUPREC
 70
     2
  9
$MENU
  1
.
  9
$ELEVATION
 40
0.0
  9
$PELEVATION
 40
0.0
  9
$THICKNESS
 40
0.0
  9
$LIMCHECK
 70
     0
  9
$CHAMFERA
 40
0.0
  9
$CHAMFERB
 40
0.0
  9
$CHAMFERC
 40
0.0
  9
$CHAMFERD
 40
0.0
  9
$SKPOLY
 70
     0
  9
$TDCREATE
 40
2458655.422808773
  9
$TDUCREATE
 40
2458655.58947544
  9
$TDUPDATE
 40
2458655.422810035
  9
$TDUUPDATE
 40
2458655.589476701
  9
$TDINDWG
 40
0.0000000116
  9
$TDUSRTIMER
 40
0.0000000116
  9
$USRTIMER
 70
     1
  9
$ANGBASE
 50
0.0
  9
$ANGDIR
 70
     0
  9
$PDMODE
 70
     0
  9
$PDSIZE
 40
-1.0
  9
$PLINEWID
 40
0.0
  9
$SPLFRAME
 70
     0
  9
$SPLINETYPE
 70
     6
  9
$SPLINESEGS
 70
     8
  9
$HANDSEED
  5
420
  9
$SURFTAB1
 70
     6
  9
$SURFTAB2
 70
     6
  9
$SURFTYPE
 70
     6
  9
$SURFU
 70
     6
  9
$SURFV
 70
     6
  9
$UCSBASE
  2

  9
$UCSNAME
  2

  9
$UCSORG
 10
0.0
 20
0.0
 30
0.0
  9
$UCSXDIR
 10
1.0
 20
0.0
 30
0.0
  9
$UCSYDIR
 10
0.0
 20
1.0
 30
0.0
  9
$UCSORTHOREF
  2

  9
$UCSORTHOVIEW
 70
     0
  9
$UCSORGTOP
 10
0.0
 20
0.0
 30
0.0
  9
$UCSORGBOTTOM
 10
0.0
 20
0.0
 30
0.0
  9
$UCSORGLEFT
 10
0.0
 20
0.0
 30
0.0
  9
$UCSORGRIGHT
 10
0.0
 20
0.0
 30
0.0
  9
$UCSORGFRONT
 10
0.0
 20
0.0
 30
0.0
  9
$UCSORGBACK
 10
0.0
 20
0.0
 30
0.0
  9
$PUCSBASE
  2

  9
$PUCSNAME
  2

  9
$PUCSORG
 10
0.0
 20
0.0
 30
0.0
  9
$PUCSXDIR
 10
1.0
 20
0.0
 30
0.0
  9
$PUCSYDIR
 10
0.0
 20
1.0
 30
0.0
  9
$PUCSORTHOREF
  2

  9
$PUCSORTHOVIEW
 70
     0
  9
$PUCSORGTOP
 10
0.0
 20
0.0
 30
0.0
  9
$PUCSORGBOTTOM
 10
0.0
 20
0.0
 30
0.0
  9
$PUCSORGLEFT
 10
0.0
 20
0.0
 30
0.0
  9
$PUCSORGRIGHT
 10
0.0
 20
0.0
 30
0.0
  9
$PUCSORGFRONT
 10
0.0
 20
0.0
 30
0.0
  9
$PUCSORGBACK
 10
0.0
 20
0.0
 30
0.0
  9
$USERI1
 70
     0
  9
$USERI2
 70
     0
  9
$USERI3
 70
     0
  9
$USERI4
 70
     0
  9
$USERI5
 70
     0
  9
$USERR1
 40
0.0
  9
$USERR2
 40
0.0
  9
$USERR3
 40
0.0
  9
$USERR4
 40
0.0
  9
$USERR5
 40
0.0
  9
$WORLDVIEW
 70
     1
  9
$SHADEDGE
 70
     3
  9
$SHADEDIF
 70
    70
  9
$TILEMODE
 70
     1
  9
$MAXACTVP
 70
    64
  9
$PINSBASE
 10
0.0
 20
0.0
 30
0.0
  9
$PLIMCHECK
 70
     0
  9
$PEXTMIN
 10
1.0000000000E+20
 20
1.0000000000E+20
 30
1.0000000000E+20
  9
$PEXTMAX
 10
-1.0000000000E+20
 20
-1.0000000000E+20
 30
-1.0000000000E+20
  9
$PLIMMIN
 10
0.0
 20
0.0
  9
$PLIMMAX
 10
420.0
 20
297.0
  9
$UNITMODE
 70
     0
  9
$VISRETAIN
 70
     1
  9
$PLINEGEN
 70
     0
  9
$PSLTSCALE
 70
     1
  9
$TREEDEPTH
 70
  3020
  9
$CMLSTYLE
  2
Standard
  9
$CMLJUST
 70
     0
  9
$CMLSCALE
 40
20.0
  9
$PROXYGRAPHICS
 70
     1
  9
$MEASUREMENT
 70
     1
  9
$CELWEIGHT
370
    -1
  9
$ENDCAPS
280
     0
  9
$JOINSTYLE
280
     0
  9
$LWDISPLAY
290
     1
  9
$INSUNITS
 70
     4
  9
$HYPERLINKBASE
  1

  9
$STYLESHEET
  1

  9
$XEDIT
290
     1
  9
$CEPSNTYPE
380
     0
  9
$PSTYLEMODE
290
     1
  9
$FINGERPRINTGUID
  2
{46BF9707-BC28-46E2-B8E1-F03DEA63173B}
  9
$VERSIONGUID
  2
{FAEB1C32-E019-11D5-929B-00C0DF256EC4}
  9
$EXTNAMES
290
     1
  9
$PSVPSCALE
 40
0.0
  9
$OLESTARTUP
290
     0
  0
ENDSEC
  0
SECTION
  2
CLASSES
  0
CLASS
  1
ACDBDICTIONARYWDFLT
  2
AcDbDictionaryWithDefault
  3
ObjectDBX Classes
 90
        0
280
     0
281
     0
  0
CLASS
  1
VISUALSTYLE
  2
AcDbVisualStyle
  3
ObjectDBX Classes
 90
     4095
280
     0
281
     0
  0
CLASS
  1
MATERIAL
  2
AcDbMaterial
  3
ObjectDBX Classes
 90
     1153
280
     0
281
     0
  0
CLASS
  1
SCALE
  2
AcDbScale
  3
ObjectDBX Classes
 90
     1153
280
     0
281
     0
  0
CLASS
  1
TABLESTYLE
  2
AcDbTableStyle
  3
ObjectDBX Classes
 90
     4095
280
     0
281
     0
  0
CLASS
  1
MLEADERSTYLE
  2
AcDbMLeaderStyle
  3
ACDB_MLEADERSTYLE_CLASS
 90
     4095
280
     0
281
     0
  0
CLASS
  1
SUN
  2
AcDbSun
  3
SCENEOE
 90
     1153
280
     0
281
     0
  0
CLASS
  1
ACDBPLACEHOLDER
  2
AcDbPlaceHolder
  3
ObjectDBX Classes
 90
        0
280
     0
281
     0
  0
CLASS
  1
LAYOUT
  2
AcDbLayout
  3
ObjectDBX Classes
 90
        0
280
     0
281
     0
  0
ENDSEC
  0
SECTION
  2
TABLES
  0
TABLE
  2
VPORT
  5
8
330
0
100
AcDbSymbolTable
 70
     1
  0
VPORT
  5
29
330
8
100
AcDbSymbolTableRecord
100
AcDbViewportTableRecord
  2
*Active
 70
     0
 10
0.0
 20
0.0
 11
1.0
 21
1.0
 12
215.9
 22
139.7
 13
0.0
 23
0.0
 14
10.0
 24
10.0
 15
10.0
 25
10.0
 16
0.0
 26
0.0
 36
1.0
 17
0.0
 27
0.0
 37
0.0
 40
279.4
 41
1.5454545455
 42
50.0
 43
0.0
 44
0.0
 50
0.0
 51
0.0
 71
     0
 72
  2000
 73
     1
 74
     3
 75
     0
 76
     0
 77
     0
 78
     0
281
     0
 65
     1
110
0.0
120
0.0
130
0.0
111
1.0
121
0.0
131
0.0
112
0.0
122
1.0
132
0.0
 79
     0
146
0.0
  0
ENDTAB
  0
TABLE
  2
LTYPE
  5
5
330
0
100
AcDbSymbolTable
 70
     6
  0
LTYPE
  5
14
330
5
100
AcDbSymbolTableRecord
100
AcDbLinetypeTableRecord
  2
ByBlock
 70
     0
  3

 72
    65
 73
     0
 40
0.0
  0
LTYPE
  5
15
330
5
100
AcDbSymbolTableRecord
100
AcDbLinetypeTableRecord
  2
ByLayer
 70
     0
  3

 72
    65
 73
     0
 40
0.0
  0
LTYPE
  5
16
330
5
100
AcDbSymbolTableRecord
100
AcDbLinetypeTableRecord
  2
Continuous
 70
     0
  3
Solid line
 72
    65
 73
     0
 40
0.0
  0
LTYPE
  5
6E
330
5
100
AcDbSymbolTableRecord
100
AcDbLinetypeTableRecord
  2
HIDDEN
 70
     0
  3
Hidden __ __ __ __ __ __ __ __ __ __ __ __ __ __
 72
    65
 73
     2
 40
1.905
 49
1.27
 74
     0
 49
-0.635
 74
     0
  0
LTYPE
  5
6F
330
5
100
AcDbSymbolTableRecord
100
AcDbLinetypeTableRecord
  2
PHANTOM
 70
     0
  3
Phantom ______  __  __  ______  __  __  ______
 72
    65
 73
     6
 40
12.7
 49
6.35
 74
     0
 49
-1.27
 74
     0
 49
1.27
 74
     0
 49
-1.27
 74
     0
 49
1.27
 74
     0
 49
-1.27
 74
     0
  0
LTYPE
  5
70
330
5
100
AcDbSymbolTableRecord
100
AcDbLinetypeTableRecord
  2
CENTER
 70
     0
  3
Center ____ _ ____ _ ____ _ ____ _ ____ _ ____
 72
    65
 73
     4
 40
10.16
 49
6.35
 74
     0
 49
-1.27
 74
     0
 49
1.27
 74
     0
 49
-1.27
 74
     0
  0
LTYPE
  5
71
330
5
100
AcDbSymbolTableRecord
100
AcDbLinetypeTableRecord
  2
CENTERX2
 70
     0
  3
Center (2x) ________  __  ________  __  _____
 72
    65
 73
     4
 40
20.32
 49
12.7
 74
     0
 49
-2.54
 74
     0
 49
2.54
 74
     0
 49
-2.54
 74
     0
  0
LTYPE
  5
72
330
5
100
AcDbSymbolTableRecord
100
AcDbLinetypeTableRecord
  2
DOT2
 70
     0
  3
Dot (.5x) ........................................
 72
    65
 73
     2
 40
0.635
 49
0.0
 74
     0
 49
-0.635
 74
     0
  0
ENDTAB
  0
TABLE
  2
LAYER
  5
2
330
0
100
AcDbSymbolTable
 70
     2
  0
LAYER
  5
10
330
2
100
AcDbSymbolTableRecord
100
AcDbLayerTableRecord
  2
0
 70
     0
 62
     7
  6
Continuous
370
    -3
390
F
  0
LAYER
  5
73
330
2
100
AcDbSymbolTableRecord
100
AcDbLayerTableRecord
  2
FORMAT
 70
     0
 62
     7
  6
Continuous
370
    -3
390
F
  0
ENDTAB
  0
TABLE
  2
STYLE
  5
3
330
0
100
AcDbSymbolTable
 70
     2
  0
STYLE
  5
11
330
3
100
AcDbSymbolTableRecord
100
AcDbTextStyleTableRecord
  2
Standard
 70
     0
 40
0.0
 41
1.0
 50
0.0
 71
     0
 42
3.175
  3
txt
  4

  0
STYLE
  5
B8
330
3
100
AcDbSymbolTableRecord
100
AcDbTextStyleTableRecord
  2
SLDTEXTSTYLE0
 70
     0
 40
0.0
 41
0.7
 50
0.0
 71
     0
 42
3.175
  3
TXT
  4

  0
ENDTAB
  0
TABLE
  2
VIEW
  5
6
330
0
100
AcDbSymbolTable
 70
     0
  0
ENDTAB
  0
TABLE
  2
UCS
  5
7
330
0
100
AcDbSymbolTable
 70
     0
  0
ENDTAB
  0
TABLE
  2
APPID
  5
9
330
0
100
AcDbSymbolTable
 70
     1
  0
APPID
  5
12
330
9
100
AcDbSymbolTableRecord
100
AcDbRegAppTableRecord
  2
ACAD
 70
     0
  0
ENDTAB
  0
TABLE
  2
DIMSTYLE
  5
A
330
0
100
AcDbSymbolTable
 70
     1
100
AcDbDimStyleTable
  0
DIMSTYLE
105
27
330
A
100
AcDbSymbolTableRecord
100
AcDbDimStyleTableRecord
  2
ISO-25
 70
     0
 41
2.5
 42
0.625
 43
3.75
 44
1.25
 73
     0
 74
     0
 77
     1
 78
     8
140
2.5
141
2.5
143
0.0393700787
147
0.625
171
     3
172
     1
178
     0
271
     2
272
     2
274
     3
278
    44
283
     0
284
     8
340
11
  0
ENDTAB
  0
TABLE
  2
BLOCK_RECORD
  5
1
330
0
100
AcDbSymbolTable
 70
     7
  0
BLOCK_RECORD
  5
1F
330
1
100
AcDbSymbolTableRecord
100
AcDbBlockTableRecord
  2
*Model_Space
340
22
  0
BLOCK_RECORD
  5
1B
330
1
100
AcDbSymbolTableRecord
100
AcDbBlockTableRecord
  2
*Paper_Space
340
1E
  0
BLOCK_RECORD
  5
23
330
1
100
AcDbSymbolTableRecord
100
AcDbBlockTableRecord
  2
*Paper_Space0
340
26
  0
BLOCK_RECORD
  5
BB
330
1
100
AcDbSymbolTableRecord
100
AcDbBlockTableRecord
  2
SW_NOTE_0
340
0
102
{BLKREFS
331
C1
102
}
  0
BLOCK_RECORD
  5
C6
330
1
100
AcDbSymbolTableRecord
100
AcDbBlockTableRecord
  2
SW_NOTE_1
340
0
102
{BLKREFS
331
CC
102
}
  0
BLOCK_RECORD
  5
25C
330
1
100
AcDbSymbolTableRecord
100
AcDbBlockTableRecord
  2
SW_CENTERMARKSYMBOL_0
340
0
102
{BLKREFS
331
267
102
}
  0
BLOCK_RECORD
  5
268
330
1
100
AcDbSymbolTableRecord
100
AcDbBlockTableRecord
  2
SW_CENTERMARKSYMBOL_1
340
0
102
{BLKREFS
331
273
102
}
  0
BLOCK_RECORD
  5
274
330
1
100
AcDbSymbolTableRecord
100
AcDbBlockTableRecord
  2
SW_CENTERMARKSYMBOL_2
340
0
102
{BLKREFS
331
27F
102
}
  0
BLOCK_RECORD
  5
280
330
1
100
AcDbSymbolTableRecord
100
AcDbBlockTableRecord
  2
SW_CENTERMARKSYMBOL_3
340
0
102
{BLKREFS
331
28B
102
}
  0
ENDTAB
  0
ENDSEC
  0
SECTION
  2
BLOCKS
  0
BLOCK
  5
20
330
1F
100
AcDbEntity
  8
0
100
AcDbBlockBegin
  2
*Model_Space
 70
     0
 10
0.0
 20
0.0
 30
0.0
  3
*Model_Space
  1

  0
ENDBLK
  5
21
330
1F
100
AcDbEntity
  8
0
100
AcDbBlockEnd
  0
BLOCK
  5
1C
330
1B
100
AcDbEntity
 67
     1
  8
0
100
AcDbBlockBegin
  2
*Paper_Space
 70
     0
 10
0.0
 20
0.0
 30
0.0
  3
*Paper_Space
  1

  0
ENDBLK
  5
1D
330
1B
100
AcDbEntity
 67
     1
  8
0
100
AcDbBlockEnd
  0
BLOCK
  5
24
330
23
100
AcDbEntity
  8
0
100
AcDbBlockBegin
  2
*Paper_Space0
 70
     0
 10
0.0
 20
0.0
 30
0.0
  3
*Paper_Space0
  1

  0
ENDBLK
  5
25
330
23
100
AcDbEntity
  8
0
100
AcDbBlockEnd
  0
BLOCK
  5
BC
330
BB
100
AcDbEntity
  8
0
100
AcDbBlockBegin
  2
SW_NOTE_0
 70
     0
 10
0.0
 20
0.0
 30
0.0
  3
SW_NOTE_0
  1

  0
MTEXT
  5
BE
330
BB
100
AcDbEntity
  8
0
  6
Continuous
 62
     0
370
     0
100
AcDbMText
 10
0.0
 20
2.0463950369
 30
0.0
 40
1.5875
 41
0.0
 71
     1
 72
     1
  1
87 34th Street, Unit 11, Brooklyn, NY 11232
  7
SLDTEXTSTYLE0
 73
     1
 44
1.0
  0
MTEXT
  5
BF
330
BB
100
AcDbEntity
  8
0
  6
Continuous
 62
     0
370
     0
100
AcDbMText
 10
0.0
 20
-0.0702716042
 30
0.0
 40
1.5875
 41
0.0
 71
     1
 72
     1
  1
T +1 718-387-6132
  7
SLDTEXTSTYLE0
 73
     1
 44
1.0
  0
MTEXT
  5
C0
330
BB
100
AcDbEntity
  8
0
  6
Continuous
 62
     0
370
     0
100
AcDbMText
 10
0.0
 20
-2.1869382453
 30
0.0
 40
1.5875
 41
0.0
 71
     1
 72
     1
  1
www.rollandhill.com
  7
SLDTEXTSTYLE0
 73
     1
 44
1.0
  0
ENDBLK
  5
BD
330
BB
100
AcDbEntity
  8
0
100
AcDbBlockEnd
  0
BLOCK
  5
C7
330
C6
100
AcDbEntity
  8
0
100
AcDbBlockBegin
  2
SW_NOTE_1
 70
     0
 10
0.0
 20
0.0
 30
0.0
  3
SW_NOTE_1
  1

  0
MTEXT
  5
C9
330
C6
100
AcDbEntity
  8
0
  6
Continuous
 62
     0
370
     0
100
AcDbMText
 10
0.0
 20
2.0463950369
 30
0.0
 40
1.5875
 41
0.0
 71
     1
 72
     1
  1
\LPROPRIETARY AND CONFIDENTIAL
  7
SLDTEXTSTYLE0
 73
     1
 44
1.0
  0
MTEXT
  5
CA
330
C6
100
AcDbEntity
  8
0
  6
Continuous
 62
     0
370
     0
100
AcDbMText
 10
37.3117625713
 20
2.0463950369
 30
0.0
 40
1.5875
 41
0.0
 71
     1
 72
     1
  1
THE INFORMATION CONTAINED IN THIS DRAWING IS THE SOLE PROPERTY OF ROLL & HILL LLC. ANY REPRODUCTION IN
  7
SLDTEXTSTYLE0
 73
     1
 44
1.0
  0
MTEXT
  5
CB
330
C6
100
AcDbEntity
  8
0
  6
Continuous
 62
     0
370
     0
100
AcDbMText
 10
0.0
 20
-0.0702716042
 30
0.0
 40
1.5875
 41
0.0
 71
     1
 72
     1
  1
PART OR AS A WHOLE WITHOUT THE WRITTEN PERMISSION OF ROLL & HILL LLC. IS PROHIBITED.
  7
SLDTEXTSTYLE0
 73
     1
 44
1.0
  0
ENDBLK
  5
C8
330
C6
100
AcDbEntity
  8
0
100
AcDbBlockEnd
  0
BLOCK
  5
25D
330
25C
100
AcDbEntity
  8
0
100
AcDbBlockBegin
  2
SW_CENTERMARKSYMBOL_0
 70
     0
 10
0.0
 20
0.0
 30
0.0
  3
SW_CENTERMARKSYMBOL_0
  1

  0
LINE
  5
25F
330
25C
100
AcDbEntity
  8
0
  6
Continuous
 62
     0
370
     0
100
AcDbLine
 10
0.0
 20
0.0
 30
0.0
 11
0.0
 21
0.127
 31
0.0
  0
LINE
  5
260
330
25C
100
AcDbEntity
  8
0
  6
Continuous
 62
     0
370
     0
100
AcDbLine
 10
0.0
 20
0.0
 30
0.0
 11
-0.127
 21
0.0
 31
0.0
  0
LINE
  5
261
330
25C
100
AcDbEntity
  8
0
  6
Continuous
 62
     0
370
     0
100
AcDbLine
 10
0.0
 20
0.0
 30
0.0
 11
0.0
 21
-0.127
 31
0.0
  0
LINE
  5
262
330
25C
100
AcDbEntity
  8
0
  6
Continuous
 62
     0
370
     0
100
AcDbLine
 10
0.0
 20
0.0
 30
0.0
 11
0.127
 21
0.0
 31
0.0
  0
LINE
  5
263
330
25C
100
AcDbEntity
  8
0
  6
Continuous
 62
     0
370
     0
100
AcDbLine
 10
0.0
 20
0.254
 30
0.0
 11
0.0
 21
6.556375
 31
0.0
  0
LINE
  5
264
330
25C
100
AcDbEntity
  8
0
  6
Continuous
 62
     0
370
     0
100
AcDbLine
 10
-0.254
 20
0.0
 30
0.0
 11
-6.556375
 21
0.0
 31
0.0
  0
LINE
  5
265
330
25C
100
AcDbEntity
  8
0
  6
Continuous
 62
     0
370
     0
100
AcDbLine
 10
0.0
 20
-0.254
 30
0.0
 11
0.0
 21
-6.556375
 31
0.0
  0
LINE
  5
266
330
25C
100
AcDbEntity
  8
0
  6
Continuous
 62
     0
370
     0
100
AcDbLine
 10
0.254
 20
0.0
 30
0.0
 11
6.556375
 21
0.0
 31
0.0
  0
ENDBLK
  5
25E
330
25C
100
AcDbEntity
  8
0
100
AcDbBlockEnd
  0
BLOCK
  5
269
330
268
100
AcDbEntity
  8
0
100
AcDbBlockBegin
  2
SW_CENTERMARKSYMBOL_1
 70
     0
 10
0.0
 20
0.0
 30
0.0
  3
SW_CENTERMARKSYMBOL_1
  1

  0
LINE
  5
26B
330
268
100
AcDbEntity
  8
0
  6
Continuous
 62
     0
370
     0
100
AcDbLine
 10
0.0
 20
0.0
 30
0.0
 11
0.0
 21
0.127
 31
0.0
  0
LINE
  5
26C
330
268
100
AcDbEntity
  8
0
  6
Continuous
 62
     0
370
     0
100
AcDbLine
 10
0.0
 20
0.0
 30
0.0
 11
-0.127
 21
0.0
 31
0.0
  0
LINE
  5
26D
330
268
100
AcDbEntity
  8
0
  6
Continuous
 62
     0
370
     0
100
AcDbLine
 10
0.0
 20
0.0
 30
0.0
 11
0.0
 21
-0.127
 31
0.0
  0
LINE
  5
26E
330
268
100
AcDbEntity
  8
0
  6
Continuous
 62
     0
370
     0
100
AcDbLine
 10
0.0
 20
0.0
 30
0.0
 11
0.127
 21
0.0
 31
0.0
  0
LINE
  5
26F
330
268
100
AcDbEntity
  8
0
  6
Continuous
 62
     0
370
     0
100
AcDbLine
 10
0.0
 20
0.254
 30
0.0
 11
0.0
 21
1.158875
 31
0.0
  0
LINE
  5
270
330
268
100
AcDbEntity
  8
0
  6
Continuous
 62
     0
370
     0
100
AcDbLine
 10
-0.254
 20
0.0
 30
0.0
 11
-1.158875
 21
0.0
 31
0.0
  0
LINE
  5
271
330
268
100
AcDbEntity
  8
0
  6
Continuous
 62
     0
370
     0
100
AcDbLine
 10
0.0
 20
-0.254
 30
0.0
 11
0.0
 21
-1.158875
 31
0.0
  0
LINE
  5
272
330
268
100
AcDbEntity
  8
0
  6
Continuous
 62
     0
370
     0
100
AcDbLine
 10
0.254
 20
0.0
 30
0.0
 11
1.158875
 21
0.0
 31
0.0
  0
ENDBLK
  5
26A
330
268
100
AcDbEntity
  8
0
100
AcDbBlockEnd
  0
BLOCK
  5
275
330
274
100
AcDbEntity
  8
0
100
AcDbBlockBegin
  2
SW_CENTERMARKSYMBOL_2
 70
     0
 10
0.0
 20
0.0
 30
0.0
  3
SW_CENTERMARKSYMBOL_2
  1

  0
LINE
  5
277
330
274
100
AcDbEntity
  8
0
  6
Continuous
 62
     0
370
     0
100
AcDbLine
 10
0.0
 20
0.0
 30
0.0
 11
0.0
 21
0.127
 31
0.0
  0
LINE
  5
278
330
274
100
AcDbEntity
  8
0
  6
Continuous
 62
     0
370
     0
100
AcDbLine
 10
0.0
 20
0.0
 30
0.0
 11
-0.127
 21
0.0
 31
0.0
  0
LINE
  5
279
330
274
100
AcDbEntity
  8
0
  6
Continuous
 62
     0
370
     0
100
AcDbLine
 10
0.0
 20
0.0
 30
0.0
 11
0.0
 21
-0.127
 31
0.0
  0
LINE
  5
27A
330
274
100
AcDbEntity
  8
0
  6
Continuous
 62
     0
370
     0
100
AcDbLine
 10
0.0
 20
0.0
 30
0.0
 11
0.127
 21
0.0
 31
0.0
  0
LINE
  5
27B
330
274
100
AcDbEntity
  8
0
  6
Continuous
 62
     0
370
     0
100
AcDbLine
 10
0.0
 20
0.254
 30
0.0
 11
0.0
 21
2.19075
 31
0.0
  0
LINE
  5
27C
330
274
100
AcDbEntity
  8
0
  6
Continuous
 62
     0
370
     0
100
AcDbLine
 10
-0.254
 20
0.0
 30
0.0
 11
-2.19075
 21
0.0
 31
0.0
  0
LINE
  5
27D
330
274
100
AcDbEntity
  8
0
  6
Continuous
 62
     0
370
     0
100
AcDbLine
 10
0.0
 20
-0.254
 30
0.0
 11
0.0
 21
-2.19075
 31
0.0
  0
LINE
  5
27E
330
274
100
AcDbEntity
  8
0
  6
Continuous
 62
     0
370
     0
100
AcDbLine
 10
0.254
 20
0.0
 30
0.0
 11
2.19075
 21
0.0
 31
0.0
  0
ENDBLK
  5
276
330
274
100
AcDbEntity
  8
0
100
AcDbBlockEnd
  0
BLOCK
  5
281
330
280
100
AcDbEntity
  8
0
100
AcDbBlockBegin
  2
SW_CENTERMARKSYMBOL_3
 70
     0
 10
0.0
 20
0.0
 30
0.0
  3
SW_CENTERMARKSYMBOL_3
  1

  0
LINE
  5
283
330
280
100
AcDbEntity
  8
0
  6
Continuous
 62
     0
370
     0
100
AcDbLine
 10
0.0
 20
0.0
 30
0.0
 11
0.0
 21
0.127
 31
0.0
  0
LINE
  5
284
330
280
100
AcDbEntity
  8
0
  6
Continuous
 62
     0
370
     0
100
AcDbLine
 10
0.0
 20
0.0
 30
0.0
 11
-0.127
 21
0.0
 31
0.0
  0
LINE
  5
285
330
280
100
AcDbEntity
  8
0
  6
Continuous
 62
     0
370
     0
100
AcDbLine
 10
0.0
 20
0.0
 30
0.0
 11
0.0
 21
-0.127
 31
0.0
  0
LINE
  5
286
330
280
100
AcDbEntity
  8
0
  6
Continuous
 62
     0
370
     0
100
AcDbLine
 10
0.0
 20
0.0
 30
0.0
 11
0.127
 21
0.0
 31
0.0
  0
LINE
  5
287
330
280
100
AcDbEntity
  8
0
  6
Continuous
 62
     0
370
     0
100
AcDbLine
 10
0.0
 20
0.254
 30
0.0
 11
0.0
 21
3.302
 31
0.0
  0
LINE
  5
288
330
280
100
AcDbEntity
  8
0
  6
Continuous
 62
     0
370
     0
100
AcDbLine
 10
-0.254
 20
0.0
 30
0.0
 11
-3.302
 21
0.0
 31
0.0
  0
LINE
  5
289
330
280
100
AcDbEntity
  8
0
  6
Continuous
 62
     0
370
     0
100
AcDbLine
 10
0.0
 20
-0.254
 30
0.0
 11
0.0
 21
-3.302
 31
0.0
  0
LINE
  5
28A
330
280
100
AcDbEntity
  8
0
  6
Continuous
 62
     0
370
     0
100
AcDbLine
 10
0.254
 20
0.0
 30
0.0
 11
3.302
 21
0.0
 31
0.0
  0
ENDBLK
  5
282
330
280
100
AcDbEntity
  8
0
100
AcDbBlockEnd
  0
ENDSEC
  0
SECTION
  2
ENTITIES
  0
HATCH
  5
74
330
1F
100
AcDbEntity
  8
0
  6
Continuous
 62
     7
100
AcDbHatch
 10
0.0
 20
0.0
 30
0.0
210
0.0
220
0.0
230
1.0
  2
SOLID
 70
     1
 71
     0
 91
        2
 92
        0
 93
        6
 72
     4
 94
        3
 73
     1
 74
     0
 95
       20
 96
       16
 40
0.0
 40
0.0
 40
0.0
 40
0.0
 40
1.0
 40
1.0
 40
1.0
 40
2.0
 40
2.0
 40
2.0
 40
3.0
 40
3.0
 40
3.0
 40
4.0
 40
4.0
 40
4.0
 40
5.0
 40
5.0
 40
5.0
 40
5.0
 10
261.0219043336847
 20
23.63056361828031
 42
1.0
 10
261.2341319795987
 20
23.68742184709604
 42
1.0
 10
261.3945785321864
 20
23.72473719781129
 42
1.0
 10
261.5515161764629
 20
23.77337299628437
 42
1.0
 10
262.5617362220245
 20
24.08644572151765
 42
1.0
 10
262.9966382899503
 20
24.76217905347502
 42
1.0
 10
262.9131259646454
 20
25.88395655371281
 42
1.0
 10
262.8488620904764
 20
26.74717259793779
 42
1.0
 10
262.3071445332423
 20
27.30037799580671
 42
1.0
 10
261.2989762515715
 20
27.40941936834727
 42
1.0
 10
260.5093946232761
 20
27.49481913962259
 42
1.0
 10
259.7094699986221
 20
27.48819126576296
 42
1.0
 10
258.913837050576
 20
27.51251762112626
 42
1.0
 10
258.5159962651877
 20
27.52468175973202
 42
1.0
 10
258.1174764912431
 20
27.51463645747964
 42
1.0
 10
257.7192638284546
 20
27.51463645747964
 42
1.0
 72
     4
 94
        3
 73
     1
 74
     0
 95
       14
 96
       10
 40
17.0
 40
17.0
 40
17.0
 40
17.0
 40
18.0
 40
18.0
 40
18.0
 40
19.0
 40
19.0
 40
19.0
 40
20.0
 40
20.0
 40
20.0
 40
20.0
 10
257.7192638284546
 20
27.51463645747964
 42
1.0
 10
258.2057453879524
 20
27.36893835120056
 42
1.0
 10
258.4151924094879
 20
27.04153921726714
 42
1.0
 10
258.4151320634913
 20
26.55729487989966
 42
1.0
 10
258.4149081683119
 20
24.76100595804667
 42
1.0
 10
258.4191609275175
 20
22.96470127704905
 42
1.0
 10
258.4124688639662
 20
21.16843695483816
 42
1.0
 10
258.4104423723632
 20
20.62446660851326
 42
1.0
 10
258.2139995287706
 20
20.39587059142628
 42
1.0
 10
257.7053577757453
 20
20.25910042553502
 42
1.0
 72
     1
 10
257.7053577757453
 20
20.25910042553502
 11
260.1134120717832
 21
20.25910042553502
 72
     4
 94
        3
 73
     1
 74
     0
 95
       14
 96
       10
 40
13.0
 40
13.0
 40
13.0
 40
13.0
 40
14.0
 40
14.0
 40
14.0
 40
15.0
 40
15.0
 40
15.0
 40
16.0
 40
16.0
 40
16.0
 40
16.0
 10
260.1134120717832
 20
20.25910042553502
 42
1.0
 10
259.6377614656041
 20
20.40079128856704
 42
1.0
 10
259.4435911100346
 20
20.64162793377141
 42
1.0
 10
259.4408326829897
 20
21.14221143023692
 42
1.0
 10
259.4366701545022
 20
21.89763799307775
 42
1.0
 10
259.4392191002215
 20
22.65310606781492
 42
1.0
 10
259.4405559370167
 20
23.40855338660287
 42
1.0
 10
259.4406539512153
 20
23.46398560492077
 42
1.0
 10
259.4539911852495
 20
23.51939476107442
 42
1.0
 10
259.4607286043899
 20
23.57138302951071
 42
1.0
 72
     4
 94
        3
 73
     1
 74
     0
 95
       20
 96
       16
 40
8.0
 40
8.0
 40
8.0
 40
8.0
 40
9.0
 40
9.0
 40
9.0
 40
10.0
 40
10.0
 40
10.0
 40
11.0
 40
11.0
 40
11.0
 40
12.0
 40
12.0
 40
12.0
 40
13.0
 40
13.0
 40
13.0
 40
13.0
 10
259.4607286043899
 20
23.57138302951071
 42
1.0
 10
260.3725694925604
 20
23.65083910446931
 42
1.0
 10
260.6054131759577
 20
23.52556773374194
 42
1.0
 10
261.0037355762117
 20
22.71920223094413
 42
1.0
 10
261.378026816807
 20
21.9614848264415
 42
1.0
 10
261.7451764738302
 20
21.200166649339
 42
1.0
 10
262.1067370153144
 20
20.43629933433309
 42
1.0
 10
262.1765046750147
 20
20.28890135435546
 42
1.0
 10
262.2549406335689
 20
20.22203337745712
 42
1.0
 10
262.427398730108
 20
20.22724465786873
 42
1.0
 10
262.8718696744063
 20
20.24067529366942
 42
1.0
 10
263.3170171088603
 20
20.2311736819415
 42
1.0
 10
263.7618904879274
 20
20.2323936704376
 42
1.0
 10
263.8264337986554
 20
20.23257048036439
 42
1.0
 10
263.8909540472192
 20
20.24131411562171
 42
1.0
 10
263.9554858268652
 20
20.24609336482204
 42
1.0
 72
     4
 94
        3
 73
     1
 74
     0
 95
       14
 96
       10
 40
5.0
 40
5.0
 40
5.0
 40
5.0
 40
6.0
 40
6.0
 40
6.0
 40
7.0
 40
7.0
 40
7.0
 40
8.0
 40
8.0
 40
8.0
 40
8.0
 10
263.9554858268652
 20
20.24609336482204
 42
1.0
 10
263.5606000734738
 20
20.32757122285868
 42
1.0
 10
263.3178377375433
 20
20.57267359973515
 42
1.0
 10
263.1292772534607
 20
20.88520667032095
 42
1.0
 10
262.8739775562312
 20
21.30835818112304
 42
1.0
 10
262.6276890153665
 20
21.7369354504649
 42
1.0
 10
262.3739921385617
 20
22.16106556577572
 42
1.0
 10
262.033208300972
 20
22.73079019980925
 42
1.0
 10
261.7521543160346
 20
23.35408286053947
 42
1.0
 10
261.0219043336847
 20
23.63056361828031
 42
1.0
 97
        0
 92
        0
 93
        2
 72
     1
 10
259.4558811296203
 20
23.74052094311722
 11
259.4558811296203
 21
27.35855230546976
 72
     4
 94
        3
 73
     1
 74
     0
 95
       20
 96
       16
 40
1.0
 40
1.0
 40
1.0
 40
1.0
 40
2.0
 40
2.0
 40
2.0
 40
3.0
 40
3.0
 40
3.0
 40
4.0
 40
4.0
 40
4.0
 40
5.0
 40
5.0
 40
5.0
 40
6.0
 40
6.0
 40
6.0
 40
6.0
 10
259.4558811296203
 20
27.35855230546976
 42
1.0
 10
259.8103733099057
 20
27.35855230546976
 42
1.0
 10
260.1467440101549
 20
27.38072599997261
 42
1.0
 10
260.4792308497364
 20
27.35420547185249
 42
1.0
 10
261.3230227860075
 20
27.28690123567825
 42
1.0
 10
261.7108519014664
 20
26.95476897687368
 42
1.0
 10
261.8164781518313
 20
26.10478869315943
 42
1.0
 10
261.8719876284001
 20
25.65810454981779
 42
1.0
 10
261.8389787525148
 20
25.18024881635489
 42
1.0
 10
261.7413862071132
 20
24.73962656292206
 42
1.0
 10
261.608259863196
 20
24.13857044109259
 42
1.0
 10
261.1506181168165
 20
23.81517009427841
 42
1.0
 10
260.5489927438957
 20
23.74778168120397
 42
1.0
 10
260.1942113256325
 20
23.70804326575078
 42
1.0
 10
259.8313410453958
 20
23.74052094311722
 42
1.0
 10
259.4558811296203
 20
23.74052094311722
 42
1.0
 97
        0
 75
     0
 76
     1
 98
        1
 10
0.0
 20
0.0
  0
HATCH
  5
75
330
1F
100
AcDbEntity
  8
0
  6
Continuous
 62
     7
100
AcDbHatch
 10
0.0
 20
0.0
 30
0.0
210
0.0
220
0.0
230
1.0
  2
SOLID
 70
     1
 71
     0
 91
        2
 92
        0
 93
        2
 72
     4
 94
        3
 73
     1
 74
     0
 95
       14
 96
       10
 40
0.0
 40
0.0
 40
0.0
 40
0.0
 40
1.0
 40
1.0
 40
1.0
 40
2.0
 40
2.0
 40
2.0
 40
3.0
 40
3.0
 40
3.0
 40
3.0
 10
267.2336118279071
 20
20.23490821509466
 42
1.0
 10
268.1650050112285
 20
19.98240211471103
 42
1.0
 10
269.1482911393735
 20
20.33660467264827
 42
1.0
 10
269.7215189161771
 20
21.13111084177937
 42
1.0
 10
270.3723808569537
 20
22.03321892002499
 42
1.0
 10
270.372934348899
 20
23.32205720159637
 42
1.0
 10
269.7103360726668
 20
24.21398909980579
 42
1.0
 10
269.2464106552308
 20
24.83848445240961
 42
1.0
 10
268.6216197225536
 20
25.16033694362372
 42
1.0
 10
267.7758432870376
 20
25.16748813643033
 42
1.0
 72
     4
 94
        3
 73
     1
 74
     0
 95
       14
 96
       10
 40
3.0
 40
3.0
 40
3.0
 40
3.0
 40
4.0
 40
4.0
 40
4.0
 40
5.0
 40
5.0
 40
5.0
 40
6.0
 40
6.0
 40
6.0
 40
6.0
 10
267.7758432870376
 20
25.16748813643033
 42
1.0
 10
266.9062728477855
 20
25.1505801106106
 42
1.0
 10
266.225828300013
 20
24.723612195973
 42
1.0
 10
265.7739382574312
 20
23.92202056120339
 42
1.0
 10
265.4879189885011
 20
23.41465794151554
 42
1.0
 10
265.4259332718035
 20
22.86561853145873
 42
1.0
 10
265.4837047623288
 20
22.29272284982232
 42
1.0
 10
265.5792320909092
 20
21.34541139190241
 42
1.0
 10
266.3034040398354
 20
20.48709452013179
 42
1.0
 10
267.2336118279071
 20
20.23490821509466
 42
1.0
 97
        0
 92
        0
 93
        2
 72
     4
 94
        3
 73
     1
 74
     0
 95
       17
 96
       13
 40
0.0
 40
0.0
 40
0.0
 40
0.0
 40
1.0
 40
1.0
 40
1.0
 40
2.0
 40
2.0
 40
2.0
 40
3.0
 40
3.0
 40
3.0
 40
4.0
 40
4.0
 40
4.0
 40
4.0
 10
266.4699528411193
 20
22.82140374989816
 42
1.0
 10
266.4968487059656
 20
23.23360918874381
 42
1.0
 10
266.5993976948625
 20
23.64490674705059
 42
1.0
 10
266.7072125446274
 20
24.04607386528146
 42
1.0
 10
266.7597204805012
 20
24.2414496033099
 42
1.0
 10
266.882078331128
 20
24.42789874624283
 42
1.0
 10
267.0072628343699
 20
24.59213287496141
 42
1.0
 10
267.4640605055332
 20
25.19142205062979
 42
1.0
 10
268.2143234497673
 20
25.18405330473933
 42
1.0
 10
268.6683621173312
 20
24.58056604641373
 42
1.0
 10
269.0963628325642
 20
24.01168817818241
 42
1.0
 10
269.195680043492
 20
23.34551372899321
 42
1.0
 10
269.218762963826
 20
22.68351122534059
 42
1.0
 72
     4
 94
        3
 73
     1
 74
     0
 95
       17
 96
       13
 40
4.0
 40
4.0
 40
4.0
 40
4.0
 40
5.0
 40
5.0
 40
5.0
 40
6.0
 40
6.0
 40
6.0
 40
7.0
 40
7.0
 40
7.0
 40
8.0
 40
8.0
 40
8.0
 40
8.0
 10
269.218762963826
 20
22.68351122534059
 42
1.0
 10
269.202432645224
 20
22.05765558940843
 42
1.0
 10
269.1208448575376
 20
21.47214721006825
 42
1.0
 10
268.810867074766
 20
20.94311038392242
 42
1.0
 10
268.6078393105943
 20
20.5966013640246
 42
1.0
 10
268.3388937306983
 20
20.33416469565678
 42
1.0
 10
267.9076604687568
 20
20.30531315927085
 42
1.0
 10
267.4153070900211
 20
20.27237193240103
 42
1.0
 10
267.1048165584612
 20
20.54785025472892
 42
1.0
 10
266.8746830637486
 20
20.93428603108956
 42
1.0
 10
266.5287029361534
 20
21.51524885782822
 42
1.0
 10
266.4269741915698
 20
22.16270989809668
 42
1.0
 10
266.4699528411193
 20
22.82140374989816
 42
1.0
 97
        0
 75
     0
 76
     1
 98
        1
 10
0.0
 20
0.0
  0
HATCH
  5
76
330
1F
100
AcDbEntity
  8
0
  6
Continuous
 62
     7
100
AcDbHatch
 10
0.0
 20
0.0
 30
0.0
210
0.0
220
0.0
230
1.0
  2
SOLID
 70
     1
 71
     0
 91
        1
 92
        0
 93
        4
 72
     1
 10
273.9540333846496
 20
27.87257450949275
 11
272.4594267850394
 21
27.32510813123116
 72
     4
 94
        3
 73
     1
 74
     0
 95
       14
 96
       10
 40
6.0
 40
6.0
 40
6.0
 40
6.0
 40
7.0
 40
7.0
 40
7.0
 40
8.0
 40
8.0
 40
8.0
 40
9.0
 40
9.0
 40
9.0
 40
9.0
 10
272.4594267850394
 20
27.32510813123116
 42
1.0
 10
272.9826104338649
 20
27.28380667758701
 42
1.0
 10
273.0476395875227
 20
27.23250104921648
 42
1.0
 10
273.0527409382852
 20
26.65700799131587
 42
1.0
 10
273.0685846452182
 20
24.86961337752774
 42
1.0
 10
273.0702866329497
 20
23.08209538116094
 42
1.0
 10
273.0783845276048
 20
21.29462927466367
 42
1.0
 10
273.0805785081768
 20
20.81042375860576
 42
1.0
 10
273.0059923935969
 20
20.37668517687364
 42
1.0
 10
272.426404840594
 20
20.2590796695872
 42
1.0
 72
     1
 10
272.426404840594
 20
20.2590796695872
 11
274.6224502449564
 21
20.2590796695872
 72
     4
 94
        3
 73
     1
 74
     0
 95
       17
 96
       13
 40
1.0
 40
1.0
 40
1.0
 40
1.0
 40
2.0
 40
2.0
 40
2.0
 40
3.0
 40
3.0
 40
3.0
 40
4.0
 40
4.0
 40
4.0
 40
5.0
 40
5.0
 40
5.0
 40
5.0
 10
274.6224502449564
 20
20.2590796695872
 42
1.0
 10
274.1836818051716
 20
20.38260600321025
 42
1.0
 10
274.0006220316647
 20
20.58964274029083
 42
1.0
 10
273.9590578615309
 20
21.04279505200226
 42
1.0
 10
273.9506540088286
 20
21.13443409966764
 42
1.0
 10
273.954217881965
 20
21.22727776105204
 42
1.0
 10
273.9542086570993
 20
21.31956562427539
 42
1.0
 10
273.9539872603212
 20
23.41776441505853
 42
1.0
 10
273.9540349221275
 20
25.51596282147274
 42
1.0
 10
273.9540333846496
 20
27.61416161225588
 42
1.0
 10
273.9540333846496
 20
27.71082379150879
 42
1.0
 10
273.9540333846496
 20
27.8074859707617
 42
1.0
 10
273.9540333846496
 20
27.87257450949275
 42
1.0
 97
        0
 75
     0
 76
     1
 98
        1
 10
0.0
 20
0.0
  0
HATCH
  5
77
330
1F
100
AcDbEntity
  8
0
  6
Continuous
 62
     7
100
AcDbHatch
 10
0.0
 20
0.0
 30
0.0
210
0.0
220
0.0
230
1.0
  2
SOLID
 70
     1
 71
     0
 91
        1
 92
        0
 93
        4
 72
     1
 10
276.9460186560295
 20
20.2549177176549
 11
279.1055120673172
 21
20.2549177176549
 72
     4
 94
        3
 73
     1
 74
     0
 95
       14
 96
       10
 40
6.0
 40
6.0
 40
6.0
 40
6.0
 40
7.0
 40
7.0
 40
7.0
 40
8.0
 40
8.0
 40
8.0
 40
9.0
 40
9.0
 40
9.0
 40
9.0
 10
279.1055120673172
 20
20.2549177176549
 42
1.0
 10
278.6550987719953
 20
20.40793364087759
 42
1.0
 10
278.4823339486704
 20
20.63637283524633
 42
1.0
 10
278.4822124879378
 20
21.11904779232805
 42
1.0
 10
278.4816605334703
 20
23.30086999117493
 42
1.0
 10
278.4819664915176
 20
25.48269219002111
 42
1.0
 10
278.4819649540404
 20
27.66451419668386
 42
1.0
 10
278.4819649540404
 20
27.75219577693941
 42
1.0
 10
278.4819664915176
 20
27.83987735719566
 42
1.0
 10
278.4819664915176
 20
27.88441039662488
 42
1.0
 72
     1
 10
278.4819664915176
 20
27.88441039662488
 11
276.9846800684063
 21
27.3296354262854
 72
     4
 94
        3
 73
     1
 74
     0
 95
       17
 96
       13
 40
1.0
 40
1.0
 40
1.0
 40
1.0
 40
2.0
 40
2.0
 40
2.0
 40
3.0
 40
3.0
 40
3.0
 40
4.0
 40
4.0
 40
4.0
 40
5.0
 40
5.0
 40
5.0
 40
5.0
 10
276.9846800684063
 20
27.3296354262854
 42
1.0
 10
277.5366914227135
 20
27.25167954511983
 42
1.0
 10
277.5738092075535
 20
27.20775573119973
 42
1.0
 10
277.5772915943764
 20
26.57154691311976
 42
1.0
 10
277.5773838430334
 20
26.55476419172763
 42
1.0
 10
277.577359243392
 20
26.53798031722657
 42
1.0
 10
277.577359243392
 20
26.52119721146337
 42
1.0
 10
277.5773700057348
 20
24.72538990447762
 42
1.0
 10
277.5776652014392
 20
22.92958298186009
 42
1.0
 10
277.5771993457187
 20
21.13377529050539
 42
1.0
 10
277.5770686601204
 20
20.6342380475635
 42
1.0
 10
277.4179566381115
 20
20.4199152040148
 42
1.0
 10
276.9460186560295
 20
20.2549177176549
 42
1.0
 97
        0
 75
     0
 76
     1
 98
        1
 10
0.0
 20
0.0
  0
HATCH
  5
78
330
1F
100
AcDbEntity
  8
0
  6
Continuous
 62
     7
100
AcDbHatch
 10
0.0
 20
0.0
 30
0.0
210
0.0
220
0.0
230
1.0
  2
SOLID
 70
     1
 71
     0
 91
        3
 92
        0
 93
        9
 72
     4
 94
        3
 73
     1
 74
     0
 95
       14
 96
       10
 40
0.0
 40
0.0
 40
0.0
 40
0.0
 40
1.0
 40
1.0
 40
1.0
 40
2.0
 40
2.0
 40
2.0
 40
3.0
 40
3.0
 40
3.0
 40
3.0
 10
287.0539854214827
 20
21.61211917311517
 42
1.0
 10
287.2972697310664
 20
21.3082559388604
 42
1.0
 10
287.5152010346028
 20
21.01001756649998
 42
1.0
 10
287.7601488949774
 20
20.73592220529573
 42
1.0
 10
288.1784811821614
 20
20.26780485511384
 42
1.0
 10
288.7048673968812
 20
20.09831485913089
 42
1.0
 10
289.3271645408483
 20
20.20870037148624
 42
1.0
 10
289.9739444785289
 20
20.32342848939635
 42
1.0
 10
290.7160910783766
 20
21.04182259740494
 42
1.0
 10
290.8103661314317
 20
21.70506046432864
 42
1.0
 72
     4
 94
        3
 73
     1
 74
     0
 95
       14
 96
       10
 40
24.0
 40
24.0
 40
24.0
 40
24.0
 40
25.0
 40
25.0
 40
25.0
 40
26.0
 40
26.0
 40
26.0
 40
27.0
 40
27.0
 40
27.0
 40
27.0
 10
290.8103661314317
 20
21.70506046432864
 42
1.0
 10
290.6825002672103
 20
21.49939669476813
 42
1.0
 10
290.5884281612034
 20
21.32571784099438
 42
1.0
 10
290.4735170834558
 20
21.16713932372221
 42
1.0
 10
289.9836367374808
 20
20.49110656799653
 42
1.0
 10
289.3841588364346
 20
20.43289382139212
 42
1.0
 10
288.8166481701822
 20
21.05011190802389
 42
1.0
 10
288.4270667146001
 20
21.47381844824843
 42
1.0
 10
288.0996055050067
 20
21.95463920731319
 42
1.0
 10
287.7314564875268
 20
22.4264857094768
 42
1.0
 72
     4
 94
        3
 73
     1
 74
     0
 95
       11
 96
        7
 40
22.0
 40
22.0
 40
22.0
 40
22.0
 40
23.0
 40
23.0
 40
23.0
 40
24.0
 40
24.0
 40
24.0
 40
24.0
 10
287.7314564875268
 20
22.4264857094768
 42
1.0
 10
288.1508588591387
 20
23.00030157147278
 42
1.0
 10
288.5466855488353
 20
23.55949371503118
 42
1.0
 10
288.9612633156569
 20
24.10441845059237
 42
1.0
 10
289.4290162836425
 20
24.71923384406366
 42
1.0
 10
289.9536528488242
 20
25.26443186627322
 42
1.0
 10
290.7742138825406
 20
25.39867403457779
 42
1.0
 72
     1
 10
290.7742138825406
 20
25.39867403457779
 11
287.7715077796773
 21
25.39867403457779
 72
     4
 94
        3
 73
     1
 74
     0
 95
       17
 96
       13
 40
16.0
 40
16.0
 40
16.0
 40
16.0
 40
17.0
 40
17.0
 40
17.0
 40
18.0
 40
18.0
 40
18.0
 40
19.0
 40
19.0
 40
19.0
 40
20.0
 40
20.0
 40
20.0
 40
20.0
 10
287.7715077796773
 20
25.39867403457779
 42
1.0
 10
287.9710693005408
 20
25.34310267453518
 42
1.0
 10
288.1718392788191
 20
25.32949945687163
 42
1.0
 10
288.3670435880915
 20
25.28904726743022
 42
1.0
 10
288.7601181928394
 20
25.20759054971102
 42
1.0
 10
288.9174636530569
 20
24.97387165717582
 42
1.0
 10
288.8543009972361
 20
24.57697987985169
 42
1.0
 10
288.8373887433532
 20
24.47070865762303
 42
1.0
 10
288.8131334963293
 20
24.35736772890119
 42
1.0
 10
288.7595985254019
 20
24.26650702928458
 42
1.0
 10
288.4211781752921
 20
23.692108847638
 42
1.0
 10
288.0735790837579
 20
23.12311989664797
 42
1.0
 10
287.7233847299918
 20
22.54303496963325
 42
1.0
 72
     1
 10
287.7233847299918
 20
22.54303496963325
 11
285.8065406500284
 21
24.86455968857224
 72
     4
 94
        3
 73
     1
 74
     0
 95
       20
 96
       16
 40
10.0
 40
10.0
 40
10.0
 40
10.0
 40
11.0
 40
11.0
 40
11.0
 40
12.0
 40
12.0
 40
12.0
 40
13.0
 40
13.0
 40
13.0
 40
14.0
 40
14.0
 40
14.0
 40
15.0
 40
15.0
 40
15.0
 40
15.0
 10
285.8065406500283
 20
24.86455968857225
 42
1.0
 10
285.9002991106001
 20
24.9215528310502
 42
1.0
 10
286.0025259979348
 20
24.975621306713
 42
1.0
 10
286.0959738880259
 20
25.04203380586477
 42
1.0
 10
286.361711520857
 20
25.23088333574105
 42
1.0
 10
286.6551698752792
 20
25.39378370261948
 42
1.0
 10
286.8815726805328
 20
25.62247811827483
 42
1.0
 10
287.5614237619422
 20
26.30921056516709
 42
1.0
 10
287.361321048954
 20
27.32558686332681
 42
1.0
 10
286.4793408590448
 20
27.71426216803416
 42
1.0
 10
285.840402057257
 20
27.99583274545401
 42
1.0
 10
285.1912113546599
 20
27.99239110178883
 42
1.0
 10
284.558084218296
 20
27.68711127408746
 42
1.0
 10
283.9109291360762
 20
27.37506654483262
 42
1.0
 10
283.6309452355653
 20
26.8393466878164
 42
1.0
 10
283.7149530130354
 20
26.1296866058298
 42
1.0
 72
     4
 94
        3
 73
     1
 74
     0
 95
       11
 96
        7
 40
8.0
 40
8.0
 40
8.0
 40
8.0
 40
9.0
 40
9.0
 40
9.0
 40
10.0
 40
10.0
 40
10.0
 40
10.0
 10
283.7149530130354
 20
26.1296866058298
 42
1.0
 10
283.7707819005811
 20
25.65802498535045
 42
1.0
 10
284.0198409761273
 20
25.28515591156022
 42
1.0
 10
284.3077767109179
 20
24.93075271279267
 42
1.0
 10
284.4323277733789
 20
24.77744812814591
 42
1.0
 10
284.5641388051866
 20
24.6300390014551
 42
1.0
 10
284.7027239634148
 20
24.46818604120849
 42
1.0
 72
     4
 94
        3
 73
     1
 74
     0
 95
       20
 96
       16
 40
3.0
 40
3.0
 40
3.0
 40
3.0
 40
4.0
 40
4.0
 40
4.0
 40
5.0
 40
5.0
 40
5.0
 40
6.0
 40
6.0
 40
6.0
 40
7.0
 40
7.0
 40
7.0
 40
8.0
 40
8.0
 40
8.0
 40
8.0
 10
284.7027239634148
 20
24.46818604120849
 42
1.0
 10
284.5513685160267
 20
24.38851087568819
 42
1.0
 10
284.4255536469583
 20
24.32317807019961
 42
1.0
 10
284.3005597909425
 20
24.25632085564481
 42
1.0
 10
283.8607304915963
 20
24.02105948868024
 42
1.0
 10
283.460866385652
 20
23.73663343094009
 42
1.0
 10
283.1417229300147
 20
23.34576433784628
 42
1.0
 10
282.3522343191156
 20
22.37884389028816
 42
1.0
 10
282.6109241545095
 20
20.5355588898502
 42
1.0
 10
284.198169930981
 20
20.23446388406056
 42
1.0
 10
285.1515567317372
 20
20.05360962220845
 42
1.0
 10
285.9488126796034
 20
20.36759637788916
 42
1.0
 10
286.5896302790503
 20
21.09003174583673
 42
1.0
 10
286.7443651022574
 20
21.26447318851251
 42
1.0
 10
286.8995550188436
 20
21.43851181205056
 42
1.0
 10
287.0539854214827
 20
21.61211917311517
 42
1.0
 97
        0
 92
        0
 93
        2
 72
     4
 94
        3
 73
     1
 74
     0
 95
       14
 96
       10
 40
0.0
 40
0.0
 40
0.0
 40
0.0
 40
1.0
 40
1.0
 40
1.0
 40
2.0
 40
2.0
 40
2.0
 40
3.0
 40
3.0
 40
3.0
 40
3.0
 10
284.688382372121
 20
27.15085253116304
 42
1.0
 10
284.8337724063213
 20
27.5710895609412
 42
1.0
 10
285.1818973152029
 20
27.79269159230804
 42
1.0
 10
285.6158934244382
 20
27.76810636414938
 42
1.0
 10
285.9916529561654
 20
27.74682017860581
 42
1.0
 10
286.2400293916459
 20
27.5110460628537
 42
1.0
 10
286.3549927436335
 20
27.06650131962916
 42
1.0
 10
286.5713650448558
 20
26.2298440482801
 42
1.0
 10
286.3259713159692
 20
25.4295804098103
 42
1.0
 10
285.6520579731507
 20
24.9254318870995
 42
1.0
 72
     4
 94
        3
 73
     1
 74
     0
 95
       11
 96
        7
 40
3.0
 40
3.0
 40
3.0
 40
3.0
 40
4.0
 40
4.0
 40
4.0
 40
5.0
 40
5.0
 40
5.0
 40
5.0
 10
285.6520579731507
 20
24.9254318870995
 42
1.0
 10
285.3510444536752
 20
25.31853032275095
 42
1.0
 10
285.0380140090768
 20
25.68714980838475
 42
1.0
 10
284.7721626029031
 20
26.08712768767229
 42
1.0
 10
284.5571094574822
 20
26.41068293535724
 42
1.0
 10
284.5630810205802
 20
26.788679112661
 42
1.0
 10
284.688382372121
 20
27.15085253116304
 42
1.0
 97
        0
 92
        0
 93
        2
 72
     1
 10
284.845288113738
 20
24.3712657578988
 11
287.0009947176327
 21
21.77781006188367
 72
     4
 94
        3
 73
     1
 74
     0
 95
       14
 96
       10
 40
1.0
 40
1.0
 40
1.0
 40
1.0
 40
2.0
 40
2.0
 40
2.0
 40
3.0
 40
3.0
 40
3.0
 40
4.0
 40
4.0
 40
4.0
 40
4.0
 10
287.0009947176327
 20
21.77781006188367
 42
1.0
 10
286.5509442670314
 20
21.22618922689351
 42
1.0
 10
286.0339581905155
 20
20.90925282038733
 42
1.0
 10
285.3603677179978
 20
20.87638462370451
 42
1.0
 10
284.4974276510072
 20
20.83427541775252
 42
1.0
 10
283.8665083325146
 20
21.39392726712143
 42
1.0
 10
283.7780264951535
 20
22.28619625730053
 42
1.0
 10
283.6988925217564
 20
23.08417174469389
 42
1.0
 10
284.1054815548355
 20
23.90423117633508
 42
1.0
 10
284.845288113738
 20
24.3712657578988
 42
1.0
 97
        0
 75
     0
 76
     1
 98
        1
 10
0.0
 20
0.0
  0
HATCH
  5
79
330
1F
100
AcDbEntity
  8
0
  6
Continuous
 62
     7
100
AcDbHatch
 10
0.0
 20
0.0
 30
0.0
210
0.0
220
0.0
230
1.0
  2
SOLID
 70
     1
 71
     0
 91
        1
 92
        0
 93
        2
 72
     4
 94
        3
 73
     1
 74
     0
 95
       11
 96
        7
 40
0.0
 40
0.0
 40
0.0
 40
0.0
 40
1.0
 40
1.0
 40
1.0
 40
2.0
 40
2.0
 40
2.0
 40
2.0
 10
303.0570519104932
 20
26.35430478392947
 42
1.0
 10
303.0628482011429
 20
25.96449808787493
 42
1.0
 10
303.3259905717408
 20
25.69768229885988
 42
1.0
 10
303.6993639381942
 20
25.70301926806731
 42
1.0
 10
304.0680572227529
 20
25.70828897263022
 42
1.0
 10
304.3293945946187
 20
25.98752450590587
 42
1.0
 10
304.327448147944
 20
26.37412133304796
 42
1.0
 72
     4
 94
        3
 73
     1
 74
     0
 95
       11
 96
        7
 40
2.0
 40
2.0
 40
2.0
 40
2.0
 40
3.0
 40
3.0
 40
3.0
 40
4.0
 40
4.0
 40
4.0
 40
4.0
 10
304.327448147944
 20
26.37412133304796
 42
1.0
 10
304.3255386007336
 20
26.75299425696746
 42
1.0
 10
304.0507636744179
 20
27.04560238626284
 42
1.0
 10
303.6924299141011
 20
27.05034857969325
 42
1.0
 10
303.3266947364936
 20
27.05519259513757
 42
1.0
 10
303.0511172468595
 20
26.75330175249256
 42
1.0
 10
303.0570519104932
 20
26.35430478392947
 42
1.0
 97
        0
 75
     0
 76
     1
 98
        1
 10
0.0
 20
0.0
  0
HATCH
  5
7A
330
1F
100
AcDbEntity
  8
0
  6
Continuous
 62
     7
100
AcDbHatch
 10
0.0
 20
0.0
 30
0.0
210
0.0
220
0.0
230
1.0
  2
SOLID
 70
     1
 71
     0
 91
        1
 92
        0
 93
        4
 72
     1
 10
302.6973344203136
 20
20.2539775500868
 11
304.8038079156778
 21
20.2539775500868
 72
     4
 94
        3
 73
     1
 74
     0
 95
       17
 96
       13
 40
6.0
 40
6.0
 40
6.0
 40
6.0
 40
7.0
 40
7.0
 40
7.0
 40
8.0
 40
8.0
 40
8.0
 40
9.0
 40
9.0
 40
9.0
 40
10.0
 40
10.0
 40
10.0
 40
10.0
 10
304.8038079156778
 20
20.2539775500868
 42
1.0
 10
304.4578262506061
 20
20.33981031349822
 42
1.0
 10
304.2621822227331
 20
20.55023795748124
 42
1.0
 10
304.2107535961514
 20
20.89393877449616
 42
1.0
 10
304.1922454404932
 20
21.01764883669525
 42
1.0
 10
304.1821011631179
 20
21.14380579453512
 42
1.0
 10
304.1818797663412
 20
21.26887114326077
 42
1.0
 10
304.1797703470369
 20
22.46084295323946
 42
1.0
 10
304.1808527312862
 20
23.65282014439031
 42
1.0
 10
304.1800932173391
 20
24.84479541369365
 42
1.0
 10
304.1800409430993
 20
24.93136078519359
 42
1.0
 10
304.1727133247369
 20
25.01792115989102
 42
1.0
 10
304.1706223551654
 20
25.06377258638473
 42
1.0
 72
     1
 10
304.1706223551654
 20
25.06377258638473
 11
302.7125031745686
 21
24.50968064047992
 72
     4
 94
        3
 73
     1
 74
     0
 95
       17
 96
       13
 40
1.0
 40
1.0
 40
1.0
 40
1.0
 40
2.0
 40
2.0
 40
2.0
 40
3.0
 40
3.0
 40
3.0
 40
4.0
 40
4.0
 40
4.0
 40
5.0
 40
5.0
 40
5.0
 40
5.0
 10
302.7125031745686
 20
24.50968064047994
 42
1.0
 10
302.7604109773859
 20
24.50557288463289
 42
1.0
 10
302.8224697242704
 20
24.49650561033552
 42
1.0
 10
302.8846514693661
 20
24.49557889569631
 42
1.0
 10
303.1332831261333
 20
24.4918735746181
 42
1.0
 10
303.2632153602819
 20
24.35030186610297
 42
1.0
 10
303.2668591822546
 20
24.11891186780057
 42
1.0
 10
303.2829750227277
 20
23.09531768874206
 42
1.0
 10
303.296603224403
 20
22.071496731734
 42
1.0
 10
303.2916556214044
 20
21.04785181591346
 42
1.0
 10
303.2897768237453
 20
20.65853557522151
 42
1.0
 10
303.1321361678242
 20
20.3494649042487
 42
1.0
 10
302.6973344203136
 20
20.2539775500868
 42
1.0
 97
        0
 75
     0
 76
     1
 98
        1
 10
0.0
 20
0.0
  0
HATCH
  5
7B
330
1F
100
AcDbEntity
  8
0
  6
Continuous
 62
     7
100
AcDbHatch
 10
0.0
 20
0.0
 30
0.0
210
0.0
220
0.0
230
1.0
  2
SOLID
 70
     1
 71
     0
 91
        1
 92
        0
 93
        4
 72
     1
 10
308.65963267846
 20
27.88697759989075
 11
307.1608133901539
 21
27.32540717062984
 72
     4
 94
        3
 73
     1
 74
     0
 95
       20
 96
       16
 40
5.0
 40
5.0
 40
5.0
 40
5.0
 40
6.0
 40
6.0
 40
6.0
 40
7.0
 40
7.0
 40
7.0
 40
8.0
 40
8.0
 40
8.0
 40
9.0
 40
9.0
 40
9.0
 40
10.0
 40
10.0
 40
10.0
 40
10.0
 10
307.1608133901539
 20
27.32540717062984
 42
1.0
 10
307.6774858212348
 20
27.28280885460759
 42
1.0
 10
307.7501131893193
 20
27.20350460556406
 42
1.0
 10
307.7547502218385
 20
26.63215658734291
 42
1.0
 10
307.7552944889174
 20
26.56503146731187
 42
1.0
 10
307.7550361926765
 20
26.49789904426262
 42
1.0
 10
307.7550361926765
 20
26.43077008053731
 42
1.0
 10
307.7550484924979
 20
24.69380511724257
 42
1.0
 10
307.7587445887104
 20
22.95682170421714
 42
1.0
 10
307.7500732149022
 20
21.21990094340409
 42
1.0
 10
307.7490584796685
 20
21.01681475508336
 42
1.0
 10
307.7285516030971
 20
20.78446498637255
 42
1.0
 10
307.6283941606454
 20
20.61954360515536
 42
1.0
 10
307.5293898264143
 20
20.45652254628292
 42
1.0
 10
307.3179589782804
 20
20.36177625633667
 42
1.0
 10
307.178408284104
 20
20.25443648715803
 42
1.0
 72
     1
 10
307.178408284104
 20
20.25443648715803
 11
309.3620693061908
 21
20.25443648715802
 72
     4
 94
        3
 73
     1
 74
     0
 95
       14
 96
       10
 40
1.0
 40
1.0
 40
1.0
 40
1.0
 40
2.0
 40
2.0
 40
2.0
 40
3.0
 40
3.0
 40
3.0
 40
4.0
 40
4.0
 40
4.0
 40
4.0
 10
309.3620693061908
 20
20.25443648715802
 42
1.0
 10
308.807415027844
 20
20.43200746554105
 42
1.0
 10
308.6597679764911
 20
20.6374237012035
 42
1.0
 10
308.6597187772069
 20
21.15880542625192
 42
1.0
 10
308.6595035303402
 20
23.32371921490944
 42
1.0
 10
308.65963267846
 20
25.48863300356693
 42
1.0
 10
308.65963267846
 20
27.65354698440997
 42
1.0
 10
308.65963267846
 20
27.74275854708867
 42
1.0
 10
308.65963267846
 20
27.83196991758182
 42
1.0
 10
308.65963267846
 20
27.88697759989075
 42
1.0
 97
        0
 75
     0
 76
     1
 98
        1
 10
0.0
 20
0.0
  0
HATCH
  5
7C
330
1F
100
AcDbEntity
  8
0
  6
Continuous
 62
     7
100
AcDbHatch
 10
0.0
 20
0.0
 30
0.0
210
0.0
220
0.0
230
1.0
  2
SOLID
 70
     1
 71
     0
 91
        1
 92
        0
 93
        4
 72
     1
 10
313.1781318226163
 20
27.87703492426926
 11
311.6691528821608
 21
27.32445797038016
 72
     4
 94
        3
 73
     1
 74
     0
 95
       17
 96
       13
 40
6.0
 40
6.0
 40
6.0
 40
6.0
 40
7.0
 40
7.0
 40
7.0
 40
8.0
 40
8.0
 40
8.0
 40
9.0
 40
9.0
 40
9.0
 40
10.0
 40
10.0
 40
10.0
 40
10.0
 10
311.6691528821608
 20
27.32445797038016
 42
1.0
 10
312.2096131670664
 20
27.27631108979181
 42
1.0
 10
312.2683694120104
 20
27.21300429544448
 42
1.0
 10
312.2823973578678
 20
26.60716642601487
 42
1.0
 10
312.2845313768121
 20
26.51487279724974
 42
1.0
 10
312.2871512386867
 20
26.42255802816857
 42
1.0
 10
312.2871819882395
 20
26.33025248395311
 42
1.0
 10
312.2877662297369
 20
24.60974045310045
 42
1.0
 10
312.2890700107628
 20
22.88922803787955
 42
1.0
 10
312.2876555313485
 20
21.16871754450475
 42
1.0
 10
312.2872188877024
 20
20.63608302071405
 42
1.0
 10
312.1185268426077
 20
20.41647125413319
 42
1.0
 10
311.6156486607861
 20
20.25320881127337
 42
1.0
 72
     1
 10
311.6156486607861
 20
20.25320881127337
 11
313.8867245107604
 21
20.25320881127337
 72
     4
 94
        3
 73
     1
 74
     0
 95
       17
 96
       13
 40
1.0
 40
1.0
 40
1.0
 40
1.0
 40
2.0
 40
2.0
 40
2.0
 40
3.0
 40
3.0
 40
3.0
 40
4.0
 40
4.0
 40
4.0
 40
5.0
 40
5.0
 40
5.0
 40
5.0
 10
313.8867245107604
 20
20.25320881127337
 42
1.0
 10
313.3266152617988
 20
20.4348325806782
 42
1.0
 10
313.1888880160859
 20
20.62648762285203
 42
1.0
 10
313.1786115156352
 20
21.17082388885262
 42
1.0
 10
313.1771847363981
 20
21.24633325874564
 42
1.0
 10
313.1781441224363
 20
21.32188875296783
 42
1.0
 10
313.1781441224363
 20
21.39742349124222
 42
1.0
 10
313.1781256727049
 20
23.48721689184593
 42
1.0
 10
313.1781318226163
 20
25.57700952371036
 42
1.0
 10
313.1781318226163
 20
27.66680273212925
 42
1.0
 10
313.1781318226163
 20
27.75161518695077
 42
1.0
 10
313.1781318226163
 20
27.83642744958889
 42
1.0
 10
313.1781318226163
 20
27.87703492426926
 42
1.0
 97
        0
 75
     0
 76
     1
 98
        1
 10
0.0
 20
0.0
  0
HATCH
  5
7D
330
1F
100
AcDbEntity
  8
0
  6
Continuous
 62
     7
100
AcDbHatch
 10
0.0
 20
0.0
 30
0.0
210
0.0
220
0.0
230
1.0
  2
SOLID
 70
     1
 71
     0
 91
        1
 92
        0
 93
       12
 72
     1
 10
296.2715297073844
 20
27.50458020069891
 11
293.841527870193
 21
27.50458020069891
 72
     4
 94
        3
 73
     1
 74
     0
 95
       17
 96
       13
 40
21.0
 40
21.0
 40
21.0
 40
21.0
 40
22.0
 40
22.0
 40
22.0
 40
23.0
 40
23.0
 40
23.0
 40
24.0
 40
24.0
 40
24.0
 40
25.0
 40
25.0
 40
25.0
 40
25.0
 10
293.841527870193
 20
27.50458020069891
 42
1.0
 10
294.4654639653083
 20
27.35271373418588
 42
1.0
 10
294.541848928711
 20
26.88863860486635
 42
1.0
 10
294.5396718603926
 20
26.35648992400541
 42
1.0
 10
294.5326947869268
 20
24.65236702027423
 42
1.0
 10
294.54232862173
 20
22.9481603240125
 42
1.0
 10
294.5304592944584
 20
21.24409084762873
 42
1.0
 10
294.52894334152
 20
21.02641399663968
 42
1.0
 10
294.4888489999954
 20
20.77588586122133
 42
1.0
 10
294.3739502220706
 20
20.60171040217499
 42
1.0
 10
294.2655211499942
 20
20.43733713173098
 42
1.0
 10
294.0348564567621
 20
20.35359533789035
 42
1.0
 10
293.8906841048422
 20
20.25643828302682
 42
1.0
 72
     1
 10
293.8906841048422
 20
20.25643828302682
 11
296.2880237673525
 21
20.25643828302682
 72
     4
 94
        3
 73
     1
 74
     0
 95
       14
 96
       10
 40
17.0
 40
17.0
 40
17.0
 40
17.0
 40
18.0
 40
18.0
 40
18.0
 40
19.0
 40
19.0
 40
19.0
 40
20.0
 40
20.0
 40
20.0
 40
20.0
 10
296.2880237673525
 20
20.25643828302682
 42
1.0
 10
295.7413366980624
 20
20.4024294709773
 42
1.0
 10
295.5628078711177
 20
20.63015527572819
 42
1.0
 10
295.5619960829322
 20
21.2138824872384
 42
1.0
 10
295.560827599936
 20
22.05336910178782
 42
1.0
 10
295.561359567195
 20
22.89285956003151
 42
1.0
 10
295.5621928800676
 20
23.73234771205876
 42
1.0
 10
295.5622759038603
 20
23.81306182808445
 42
1.0
 10
295.5696219719554
 20
23.89376787235267
 42
1.0
 10
295.5733857171835
 20
23.97022240661697
 42
1.0
 72
     1
 10
295.5733857171835
 20
23.97022240661697
 11
298.4851131190222
 21
23.97022240661697
 72
     4
 94
        3
 73
     1
 74
     0
 95
       11
 96
        7
 40
14.0
 40
14.0
 40
14.0
 40
14.0
 40
15.0
 40
15.0
 40
15.0
 40
16.0
 40
16.0
 40
16.0
 40
16.0
 10
298.4851131190222
 20
23.97022240661697
 42
1.0
 10
298.4851131190222
 20
23.04419117651474
 42
1.0
 10
298.4852207424561
 20
22.13796342697173
 42
1.0
 10
298.485073144605
 20
21.23173567742801
 42
1.0
 10
298.4849747460367
 20
20.62384393007452
 42
1.0
 10
298.3307257657572
 20
20.41986831094703
 42
1.0
 10
297.7632396991476
 20
20.25412130424438
 42
1.0
 72
     1
 10
297.7632396991476
 20
20.25412130424438
 11
300.2193725060648
 21
20.25412130424438
 72
     4
 94
        3
 73
     1
 74
     0
 95
       17
 96
       13
 40
9.0
 40
9.0
 40
9.0
 40
9.0
 40
10.0
 40
10.0
 40
10.0
 40
11.0
 40
11.0
 40
11.0
 40
12.0
 40
12.0
 40
12.0
 40
13.0
 40
13.0
 40
13.0
 40
13.0
 10
300.2193725060648
 20
20.25412130424438
 42
1.0
 10
299.739442715284
 20
20.41422423058344
 42
1.0
 10
299.5427163031618
 20
20.62720562490344
 42
1.0
 10
299.542119761843
 20
21.03839632851544
 42
1.0
 10
299.5393769017586
 20
22.92724217217554
 42
1.0
 10
299.5395583241182
 20
24.8160968563317
 42
1.0
 10
299.5421628112159
 20
26.70494346873036
 42
1.0
 10
299.5426363543262
 20
27.0468754177367
 42
1.0
 10
299.7248336028849
 20
27.28837413924314
 42
1.0
 10
300.049118383702
 20
27.40930924651266
 42
1.0
 10
300.1052670665942
 20
27.43024796211264
 42
1.0
 10
300.1600043450263
 20
27.45496618208605
 42
1.0
 10
300.2549312885929
 20
27.49433829349534
 42
1.0
 72
     1
 10
300.2549312885929
 20
27.49433829349534
 11
297.7186989723292
 21
27.49433829349534
 72
     4
 94
        3
 73
     1
 74
     0
 95
       14
 96
       10
 40
5.0
 40
5.0
 40
5.0
 40
5.0
 40
6.0
 40
6.0
 40
6.0
 40
7.0
 40
7.0
 40
7.0
 40
8.0
 40
8.0
 40
8.0
 40
8.0
 10
297.7186989723292
 20
27.49433829349534
 42
1.0
 10
298.3648823686909
 20
27.26685790861022
 42
1.0
 10
298.4850762195593
 20
27.0944786077999
 42
1.0
 10
298.4851069691121
 20
26.45733654080182
 42
1.0
 10
298.4851377186649
 20
25.7773505457302
 42
1.0
 10
298.4851131190222
 20
25.09736416629037
 42
1.0
 10
298.4851131190222
 20
24.41737817121947
 42
1.0
 10
298.4851131190222
 20
24.32893553953832
 42
1.0
 10
298.4851131190222
 20
24.24049329222682
 42
1.0
 10
298.4851131190222
 20
24.16049564077468
 42
1.0
 72
     1
 10
298.4851131190222
 20
24.16049564077468
 11
295.5632814142282
 21
24.16049564077468
 72
     4
 94
        3
 73
     1
 74
     0
 95
       14
 96
       10
 40
1.0
 40
1.0
 40
1.0
 40
1.0
 40
2.0
 40
2.0
 40
2.0
 40
3.0
 40
3.0
 40
3.0
 40
4.0
 40
4.0
 40
4.0
 40
4.0
 10
295.5632814142282
 20
24.16049564077468
 42
1.0
 10
295.5632814142282
 20
25.01272602299438
 42
1.0
 10
295.5627432970579
 20
25.84365465270932
 42
1.0
 10
295.5644406723573
 20
26.67457866999212
 42
1.0
 10
295.5645605956114
 20
26.73240397223375
 42
1.0
 10
295.5792681065788
 20
26.79059327230427
 42
1.0
 10
295.5906023916358
 20
26.8479388815276
 42
1.0
 10
295.6648994604227
 20
27.22384581892186
 42
1.0
 10
295.9411319155254
 20
27.38780204855992
 42
1.0
 10
296.2715297073844
 20
27.50458020069891
 42
1.0
 97
        0
 75
     0
 76
     1
 98
        1
 10
0.0
 20
0.0
  0
SPLINE
  5
7E
330
1F
100
AcDbEntity
  8
0
  6
Continuous
 62
   179
370
     0
100
AcDbSpline
210
0.0
220
0.0
230
1.0
 70
     8
 71
     3
 72
    14
 73
    10
 74
     0
 42
0.000000001
 43
0.00000001
 40
24.0
 40
24.0
 40
24.0
 40
24.0
 40
25.0
 40
25.0
 40
25.0
 40
26.0
 40
26.0
 40
26.0
 40
27.0
 40
27.0
 40
27.0
 40
27.0
 10
287.7314564875268
 20
22.42648570947681
 30
0.0
 10
288.0996055050067
 20
21.95463920731319
 30
0.0
 10
288.4270667146001
 20
21.47381844824843
 30
0.0
 10
288.8166481701822
 20
21.05011190802389
 30
0.0
 10
289.3841588364346
 20
20.43289382139212
 30
0.0
 10
289.9836367374808
 20
20.49110656799654
 30
0.0
 10
290.4735170834558
 20
21.16713932372222
 30
0.0
 10
290.5884281612034
 20
21.32571784099438
 30
0.0
 10
290.6825002672103
 20
21.49939669476814
 30
0.0
 10
290.8103661314317
 20
21.70506046432864
 30
0.0
  0
SPLINE
  5
7F
330
1F
100
AcDbEntity
  8
0
  6
Continuous
 62
   179
370
     0
100
AcDbSpline
210
0.0
220
0.0
230
1.0
 70
     8
 71
     3
 72
    11
 73
     7
 74
     0
 42
0.000000001
 43
0.00000001
 40
22.0
 40
22.0
 40
22.0
 40
22.0
 40
23.0
 40
23.0
 40
23.0
 40
24.0
 40
24.0
 40
24.0
 40
24.0
 10
290.7742138825406
 20
25.39867403457779
 30
0.0
 10
289.9536528488242
 20
25.26443186627322
 30
0.0
 10
289.4290162836425
 20
24.71923384406366
 30
0.0
 10
288.9612633156569
 20
24.10441845059237
 30
0.0
 10
288.5466855488353
 20
23.55949371503119
 30
0.0
 10
288.1508588591388
 20
23.00030157147279
 30
0.0
 10
287.7314564875268
 20
22.42648570947681
 30
0.0
  0
SPLINE
  5
80
330
1F
100
AcDbEntity
  8
0
  6
Continuous
 62
   179
370
     0
100
AcDbSpline
210
0.0
220
0.0
230
1.0
 70
     8
 71
     3
 72
    11
 73
     7
 74
     0
 42
0.000000001
 43
0.00000001
 40
20.0
 40
20.0
 40
20.0
 40
20.0
 40
21.0
 40
21.0
 40
21.0
 40
22.0
 40
22.0
 40
22.0
 40
22.0
 10
287.7715077796773
 20
25.39867403457779
 30
0.0
 10
288.2706160663608
 20
25.39867403457779
 30
0.0
 10
288.76972127809
 20
25.39867441894744
 30
0.0
 10
289.2688295647749
 20
25.39867441894744
 30
0.0
 10
289.7706253623487
 20
25.39867441894744
 30
0.0
 10
290.2724180849667
 20
25.39867403457779
 30
0.0
 10
290.7742138825406
 20
25.39867403457779
 30
0.0
  0
SPLINE
  5
81
330
1F
100
AcDbEntity
  8
0
  6
Continuous
 62
   179
370
     0
100
AcDbSpline
210
0.0
220
0.0
230
1.0
 70
     8
 71
     3
 72
    17
 73
    13
 74
     0
 42
0.000000001
 43
0.00000001
 40
16.0
 40
16.0
 40
16.0
 40
16.0
 40
17.0
 40
17.0
 40
17.0
 40
18.0
 40
18.0
 40
18.0
 40
19.0
 40
19.0
 40
19.0
 40
20.0
 40
20.0
 40
20.0
 40
20.0
 10
287.7233847299918
 20
22.54303496963325
 30
0.0
 10
288.0735790837579
 20
23.12311989664797
 30
0.0
 10
288.4211781752921
 20
23.692108847638
 30
0.0
 10
288.7595985254019
 20
24.26650702928458
 30
0.0
 10
288.8131334963293
 20
24.3573677289012
 30
0.0
 10
288.8373887433532
 20
24.47070865762303
 30
0.0
 10
288.8543009972361
 20
24.57697987985169
 30
0.0
 10
288.9174636530569
 20
24.97387165717582
 30
0.0
 10
288.7601181928394
 20
25.20759054971102
 30
0.0
 10
288.3670435880915
 20
25.28904726743022
 30
0.0
 10
288.1718392788191
 20
25.32949945687163
 30
0.0
 10
287.9710693005408
 20
25.34310267453518
 30
0.0
 10
287.7715077796773
 20
25.39867403457779
 30
0.0
  0
SPLINE
  5
82
330
1F
100
AcDbEntity
  8
0
  6
Continuous
 62
   179
370
     0
100
AcDbSpline
210
0.0
220
0.0
230
1.0
 70
     8
 71
     3
 72
     8
 73
     4
 74
     0
 42
0.000000001
 43
0.00000001
 40
15.0
 40
15.0
 40
15.0
 40
15.0
 40
16.0
 40
16.0
 40
16.0
 40
16.0
 10
285.8065406500283
 20
24.86455968857225
 30
0.0
 10
286.4380688096612
 20
24.09970377545334
 30
0.0
 10
287.0596648638312
 20
23.34687900912474
 30
0.0
 10
287.7233847299918
 20
22.54303496963325
 30
0.0
  0
SPLINE
  5
83
330
1F
100
AcDbEntity
  8
0
  6
Continuous
 62
   179
370
     0
100
AcDbSpline
210
0.0
220
0.0
230
1.0
 70
     8
 71
     3
 72
    26
 73
    22
 74
     0
 42
0.000000001
 43
0.00000001
 40
8.0
 40
8.0
 40
8.0
 40
8.0
 40
9.0
 40
9.0
 40
9.0
 40
10.0
 40
10.0
 40
10.0
 40
11.0
 40
11.0
 40
11.0
 40
12.0
 40
12.0
 40
12.0
 40
13.0
 40
13.0
 40
13.0
 40
14.0
 40
14.0
 40
14.0
 40
15.0
 40
15.0
 40
15.0
 40
15.0
 10
284.7027239634148
 20
24.4681860412085
 30
0.0
 10
284.5641388051866
 20
24.63003900145511
 30
0.0
 10
284.4323277733789
 20
24.77744812814592
 30
0.0
 10
284.3077767109179
 20
24.93075271279267
 30
0.0
 10
284.0198409761273
 20
25.28515591156022
 30
0.0
 10
283.7707819005811
 20
25.65802498535045
 30
0.0
 10
283.7149530130354
 20
26.1296866058298
 30
0.0
 10
283.6309452355654
 20
26.8393466878164
 30
0.0
 10
283.9109291360762
 20
27.37506654483262
 30
0.0
 10
284.558084218296
 20
27.68711127408746
 30
0.0
 10
285.1912113546599
 20
27.99239110178883
 30
0.0
 10
285.840402057257
 20
27.99583274545402
 30
0.0
 10
286.4793408590448
 20
27.71426216803416
 30
0.0
 10
287.361321048954
 20
27.32558686332681
 30
0.0
 10
287.5614237619422
 20
26.30921056516709
 30
0.0
 10
286.8815726805328
 20
25.62247811827483
 30
0.0
 10
286.6551698752792
 20
25.39378370261948
 30
0.0
 10
286.361711520857
 20
25.23088333574105
 30
0.0
 10
286.0959738880259
 20
25.04203380586477
 30
0.0
 10
286.0025259979348
 20
24.97562130671301
 30
0.0
 10
285.9002991106001
 20
24.9215528310502
 30
0.0
 10
285.8065406500283
 20
24.86455968857225
 30
0.0
  0
SPLINE
  5
84
330
1F
100
AcDbEntity
  8
0
  6
Continuous
 62
   179
370
     0
100
AcDbSpline
210
0.0
220
0.0
230
1.0
 70
     8
 71
     3
 72
    20
 73
    16
 74
     0
 42
0.000000001
 43
0.00000001
 40
3.0
 40
3.0
 40
3.0
 40
3.0
 40
4.0
 40
4.0
 40
4.0
 40
5.0
 40
5.0
 40
5.0
 40
6.0
 40
6.0
 40
6.0
 40
7.0
 40
7.0
 40
7.0
 40
8.0
 40
8.0
 40
8.0
 40
8.0
 10
287.0539854214827
 20
21.61211917311518
 30
0.0
 10
286.8995550188436
 20
21.43851181205056
 30
0.0
 10
286.7443651022574
 20
21.26447318851252
 30
0.0
 10
286.5896302790503
 20
21.09003174583674
 30
0.0
 10
285.9488126796034
 20
20.36759637788917
 30
0.0
 10
285.1515567317372
 20
20.05360962220845
 30
0.0
 10
284.198169930981
 20
20.23446388406056
 30
0.0
 10
282.6109241545095
 20
20.5355588898502
 30
0.0
 10
282.3522343191156
 20
22.37884389028816
 30
0.0
 10
283.1417229300147
 20
23.34576433784628
 30
0.0
 10
283.460866385652
 20
23.7366334309401
 30
0.0
 10
283.8607304915963
 20
24.02105948868025
 30
0.0
 10
284.3005597909425
 20
24.25632085564482
 30
0.0
 10
284.4255536469583
 20
24.32317807019961
 30
0.0
 10
284.5513685160267
 20
24.38851087568819
 30
0.0
 10
284.7027239634148
 20
24.4681860412085
 30
0.0
  0
SPLINE
  5
85
330
1F
100
AcDbEntity
  8
0
  6
Continuous
 62
   179
370
     0
100
AcDbSpline
210
0.0
220
0.0
230
1.0
 70
     8
 71
     3
 72
    14
 73
    10
 74
     0
 42
0.000000001
 43
0.00000001
 40
0.0
 40
0.0
 40
0.0
 40
0.0
 40
1.0
 40
1.0
 40
1.0
 40
2.0
 40
2.0
 40
2.0
 40
3.0
 40
3.0
 40
3.0
 40
3.0
 10
290.8103661314317
 20
21.70506046432864
 30
0.0
 10
290.7160910783766
 20
21.04182259740494
 30
0.0
 10
289.9739444785289
 20
20.32342848939635
 30
0.0
 10
289.3271645408483
 20
20.20870037148624
 30
0.0
 10
288.7048673968812
 20
20.0983148591309
 30
0.0
 10
288.1784811821614
 20
20.26780485511384
 30
0.0
 10
287.7601488949774
 20
20.73592220529573
 30
0.0
 10
287.5152010346028
 20
21.01001756649998
 30
0.0
 10
287.2972697310665
 20
21.30825593886041
 30
0.0
 10
287.0539854214827
 20
21.61211917311518
 30
0.0
  0
SPLINE
  5
86
330
1F
100
AcDbEntity
  8
0
  6
Continuous
 62
   179
370
     0
100
AcDbSpline
210
0.0
220
0.0
230
1.0
 70
     8
 71
     3
 72
    14
 73
    10
 74
     0
 42
0.000000001
 43
0.00000001
 40
1.0
 40
1.0
 40
1.0
 40
1.0
 40
2.0
 40
2.0
 40
2.0
 40
3.0
 40
3.0
 40
3.0
 40
4.0
 40
4.0
 40
4.0
 40
4.0
 10
284.845288113738
 20
24.3712657578988
 30
0.0
 10
284.1054815548355
 20
23.90423117633508
 30
0.0
 10
283.6988925217564
 20
23.08417174469389
 30
0.0
 10
283.7780264951535
 20
22.28619625730053
 30
0.0
 10
283.8665083325146
 20
21.39392726712143
 30
0.0
 10
284.4974276510072
 20
20.83427541775253
 30
0.0
 10
285.3603677179978
 20
20.87638462370452
 30
0.0
 10
286.0339581905155
 20
20.90925282038733
 30
0.0
 10
286.5509442670314
 20
21.22618922689351
 30
0.0
 10
287.0009947176327
 20
21.77781006188367
 30
0.0
  0
SPLINE
  5
87
330
1F
100
AcDbEntity
  8
0
  6
Continuous
 62
   179
370
     0
100
AcDbSpline
210
0.0
220
0.0
230
1.0
 70
     8
 71
     3
 72
     8
 73
     4
 74
     0
 42
0.000000001
 43
0.00000001
 40
0.0
 40
0.0
 40
0.0
 40
0.0
 40
1.0
 40
1.0
 40
1.0
 40
1.0
 10
287.0009947176327
 20
21.77781006188367
 30
0.0
 10
286.2819902310068
 20
22.64282111123716
 30
0.0
 10
285.5612360948443
 20
23.50993158628786
 30
0.0
 10
284.845288113738
 20
24.3712657578988
 30
0.0
  0
SPLINE
  5
88
330
1F
100
AcDbEntity
  8
0
  6
Continuous
 62
   179
370
     0
100
AcDbSpline
210
0.0
220
0.0
230
1.0
 70
     8
 71
     3
 72
    11
 73
     7
 74
     0
 42
0.000000001
 43
0.00000001
 40
3.0
 40
3.0
 40
3.0
 40
3.0
 40
4.0
 40
4.0
 40
4.0
 40
5.0
 40
5.0
 40
5.0
 40
5.0
 10
284.6883823721211
 20
27.15085253116305
 30
0.0
 10
284.5630810205802
 20
26.788679112661
 30
0.0
 10
284.5571094574822
 20
26.41068293535724
 30
0.0
 10
284.7721626029031
 20
26.08712768767229
 30
0.0
 10
285.0380140090768
 20
25.68714980838475
 30
0.0
 10
285.3510444536753
 20
25.31853032275096
 30
0.0
 10
285.6520579731507
 20
24.9254318870995
 30
0.0
  0
SPLINE
  5
89
330
1F
100
AcDbEntity
  8
0
  6
Continuous
 62
   179
370
     0
100
AcDbSpline
210
0.0
220
0.0
230
1.0
 70
     8
 71
     3
 72
    14
 73
    10
 74
     0
 42
0.000000001
 43
0.00000001
 40
0.0
 40
0.0
 40
0.0
 40
0.0
 40
1.0
 40
1.0
 40
1.0
 40
2.0
 40
2.0
 40
2.0
 40
3.0
 40
3.0
 40
3.0
 40
3.0
 10
285.6520579731507
 20
24.9254318870995
 30
0.0
 10
286.3259713159692
 20
25.4295804098103
 30
0.0
 10
286.5713650448558
 20
26.2298440482801
 30
0.0
 10
286.3549927436335
 20
27.06650131962916
 30
0.0
 10
286.2400293916459
 20
27.5110460628537
 30
0.0
 10
285.9916529561654
 20
27.74682017860582
 30
0.0
 10
285.6158934244382
 20
27.76810636414938
 30
0.0
 10
285.1818973152029
 20
27.79269159230804
 30
0.0
 10
284.8337724063213
 20
27.5710895609412
 30
0.0
 10
284.6883823721211
 20
27.15085253116305
 30
0.0
  0
SPLINE
  5
8A
330
1F
100
AcDbEntity
  8
0
  6
Continuous
 62
   179
370
     0
100
AcDbSpline
210
0.0
220
0.0
230
1.0
 70
     8
 71
     3
 72
    17
 73
    13
 74
     0
 42
0.000000001
 43
0.00000001
 40
21.0
 40
21.0
 40
21.0
 40
21.0
 40
22.0
 40
22.0
 40
22.0
 40
23.0
 40
23.0
 40
23.0
 40
24.0
 40
24.0
 40
24.0
 40
25.0
 40
25.0
 40
25.0
 40
25.0
 10
293.8906841048423
 20
20.25643828302682
 30
0.0
 10
294.0348564567621
 20
20.35359533789035
 30
0.0
 10
294.2655211499942
 20
20.43733713173099
 30
0.0
 10
294.3739502220706
 20
20.601710402175
 30
0.0
 10
294.4888489999955
 20
20.77588586122134
 30
0.0
 10
294.5289433415201
 20
21.02641399663968
 30
0.0
 10
294.5304592944584
 20
21.24409084762874
 30
0.0
 10
294.5423286217301
 20
22.94816032401251
 30
0.0
 10
294.5326947869268
 20
24.65236702027423
 30
0.0
 10
294.5396718603926
 20
26.35648992400541
 30
0.0
 10
294.541848928711
 20
26.88863860486636
 30
0.0
 10
294.4654639653083
 20
27.35271373418588
 30
0.0
 10
293.841527870193
 20
27.50458020069892
 30
0.0
  0
SPLINE
  5
8B
330
1F
100
AcDbEntity
  8
0
  6
Continuous
 62
   179
370
     0
100
AcDbSpline
210
0.0
220
0.0
230
1.0
 70
    24
 71
     3
 72
     8
 73
     4
 74
     0
 42
0.000000001
 43
0.00000001
 40
20.0
 40
20.0
 40
20.0
 40
20.0
 40
21.0
 40
21.0
 40
21.0
 40
21.0
 10
296.2880237673526
 20
20.25643828302682
 30
0.0
 10
295.4693261565182
 20
20.25643828302682
 30
0.0
 10
294.6506254707311
 20
20.25643828302682
 30
0.0
 10
293.8906841048423
 20
20.25643828302682
 30
0.0
  0
SPLINE
  5
8C
330
1F
100
AcDbEntity
  8
0
  6
Continuous
 62
   179
370
     0
100
AcDbSpline
210
0.0
220
0.0
230
1.0
 70
     8
 71
     3
 72
    14
 73
    10
 74
     0
 42
0.000000001
 43
0.00000001
 40
17.0
 40
17.0
 40
17.0
 40
17.0
 40
18.0
 40
18.0
 40
18.0
 40
19.0
 40
19.0
 40
19.0
 40
20.0
 40
20.0
 40
20.0
 40
20.0
 10
295.5733857171836
 20
23.97022240661698
 30
0.0
 10
295.5696219719554
 20
23.89376787235267
 30
0.0
 10
295.5622759038603
 20
23.81306182808446
 30
0.0
 10
295.5621928800676
 20
23.73234771205876
 30
0.0
 10
295.561359567195
 20
22.89285956003151
 30
0.0
 10
295.560827599936
 20
22.05336910178782
 30
0.0
 10
295.5619960829322
 20
21.2138824872384
 30
0.0
 10
295.5628078711177
 20
20.63015527572819
 30
0.0
 10
295.7413366980624
 20
20.4024294709773
 30
0.0
 10
296.2880237673526
 20
20.25643828302682
 30
0.0
  0
SPLINE
  5
8D
330
1F
100
AcDbEntity
  8
0
  6
Continuous
 62
   179
370
     0
100
AcDbSpline
210
0.0
220
0.0
230
1.0
 70
    24
 71
     3
 72
     8
 73
     4
 74
     0
 42
0.000000001
 43
0.00000001
 40
16.0
 40
16.0
 40
16.0
 40
16.0
 40
17.0
 40
17.0
 40
17.0
 40
17.0
 10
298.4851131190222
 20
23.97022240661698
 30
0.0
 10
297.5154382802974
 20
23.97022240661698
 30
0.0
 10
296.5557754958725
 20
23.97022240661698
 30
0.0
 10
295.5733857171836
 20
23.97022240661698
 30
0.0
  0
SPLINE
  5
8E
330
1F
100
AcDbEntity
  8
0
  6
Continuous
 62
   179
370
     0
100
AcDbSpline
210
0.0
220
0.0
230
1.0
 70
     8
 71
     3
 72
    11
 73
     7
 74
     0
 42
0.000000001
 43
0.00000001
 40
14.0
 40
14.0
 40
14.0
 40
14.0
 40
15.0
 40
15.0
 40
15.0
 40
16.0
 40
16.0
 40
16.0
 40
16.0
 10
297.7632396991476
 20
20.25412130424438
 30
0.0
 10
298.3307257657572
 20
20.41986831094704
 30
0.0
 10
298.4849747460367
 20
20.62384393007452
 30
0.0
 10
298.485073144605
 20
21.23173567742802
 30
0.0
 10
298.4852207424561
 20
22.13796342697173
 30
0.0
 10
298.4851131190222
 20
23.04419117651474
 30
0.0
 10
298.4851131190222
 20
23.97022240661698
 30
0.0
  0
SPLINE
  5
8F
330
1F
100
AcDbEntity
  8
0
  6
Continuous
 62
   179
370
     0
100
AcDbSpline
210
0.0
220
0.0
230
1.0
 70
    24
 71
     3
 72
     8
 73
     4
 74
     0
 42
0.000000001
 43
0.00000001
 40
13.0
 40
13.0
 40
13.0
 40
13.0
 40
14.0
 40
14.0
 40
14.0
 40
14.0
 10
300.2193725060649
 20
20.25412130424438
 30
0.0
 10
299.4006625954106
 20
20.25412130424438
 30
0.0
 10
298.5819526847563
 20
20.25412130424438
 30
0.0
 10
297.7632396991476
 20
20.25412130424438
 30
0.0
  0
SPLINE
  5
90
330
1F
100
AcDbEntity
  8
0
  6
Continuous
 62
   179
370
     0
100
AcDbSpline
210
0.0
220
0.0
230
1.0
 70
     8
 71
     3
 72
    17
 73
    13
 74
     0
 42
0.000000001
 43
0.00000001
 40
9.0
 40
9.0
 40
9.0
 40
9.0
 40
10.0
 40
10.0
 40
10.0
 40
11.0
 40
11.0
 40
11.0
 40
12.0
 40
12.0
 40
12.0
 40
13.0
 40
13.0
 40
13.0
 40
13.0
 10
300.254931288593
 20
27.49433829349534
 30
0.0
 10
300.1600043450263
 20
27.45496618208605
 30
0.0
 10
300.1052670665943
 20
27.43024796211265
 30
0.0
 10
300.049118383702
 20
27.40930924651266
 30
0.0
 10
299.7248336028849
 20
27.28837413924314
 30
0.0
 10
299.5426363543262
 20
27.0468754177367
 30
0.0
 10
299.5421628112159
 20
26.70494346873036
 30
0.0
 10
299.5395583241182
 20
24.8160968563317
 30
0.0
 10
299.5393769017586
 20
22.92724217217554
 30
0.0
 10
299.542119761843
 20
21.03839632851544
 30
0.0
 10
299.5427163031618
 20
20.62720562490344
 30
0.0
 10
299.739442715284
 20
20.41422423058345
 30
0.0
 10
300.2193725060649
 20
20.25412130424438
 30
0.0
  0
SPLINE
  5
91
330
1F
100
AcDbEntity
  8
0
  6
Continuous
 62
   179
370
     0
100
AcDbSpline
210
0.0
220
0.0
230
1.0
 70
    24
 71
     3
 72
     8
 73
     4
 74
     0
 42
0.000000001
 43
0.00000001
 40
8.0
 40
8.0
 40
8.0
 40
8.0
 40
9.0
 40
9.0
 40
9.0
 40
9.0
 10
297.7186989723292
 20
27.49433829349534
 30
0.0
 10
298.5854396840106
 20
27.49433829349534
 30
0.0
 10
299.3949493285535
 20
27.49433829349534
 30
0.0
 10
300.254931288593
 20
27.49433829349534
 30
0.0
  0
SPLINE
  5
92
330
1F
100
AcDbEntity
  8
0
  6
Continuous
 62
   179
370
     0
100
AcDbSpline
210
0.0
220
0.0
230
1.0
 70
     8
 71
     3
 72
    14
 73
    10
 74
     0
 42
0.000000001
 43
0.00000001
 40
5.0
 40
5.0
 40
5.0
 40
5.0
 40
6.0
 40
6.0
 40
6.0
 40
7.0
 40
7.0
 40
7.0
 40
8.0
 40
8.0
 40
8.0
 40
8.0
 10
298.4851131190222
 20
24.16049564077469
 30
0.0
 10
298.4851131190222
 20
24.24049329222683
 30
0.0
 10
298.4851131190222
 20
24.32893553953833
 30
0.0
 10
298.4851131190222
 20
24.41737817121947
 30
0.0
 10
298.4851131190222
 20
25.09736416629037
 30
0.0
 10
298.4851377186649
 20
25.7773505457302
 30
0.0
 10
298.4851069691121
 20
26.45733654080182
 30
0.0
 10
298.4850762195594
 20
27.0944786077999
 30
0.0
 10
298.3648823686909
 20
27.26685790861022
 30
0.0
 10
297.7186989723292
 20
27.49433829349534
 30
0.0
  0
SPLINE
  5
93
330
1F
100
AcDbEntity
  8
0
  6
Continuous
 62
   179
370
     0
100
AcDbSpline
210
0.0
220
0.0
230
1.0
 70
    24
 71
     3
 72
     8
 73
     4
 74
     0
 42
0.000000001
 43
0.00000001
 40
4.0
 40
4.0
 40
4.0
 40
4.0
 40
5.0
 40
5.0
 40
5.0
 40
5.0
 10
295.5632814142282
 20
24.16049564077469
 30
0.0
 10
296.5292663066504
 20
24.16049564077469
 30
0.0
 10
297.4889290910767
 20
24.16049564077469
 30
0.0
 10
298.4851131190222
 20
24.16049564077469
 30
0.0
  0
SPLINE
  5
94
330
1F
100
AcDbEntity
  8
0
  6
Continuous
 62
   179
370
     0
100
AcDbSpline
210
0.0
220
0.0
230
1.0
 70
     8
 71
     3
 72
    14
 73
    10
 74
     0
 42
0.000000001
 43
0.00000001
 40
1.0
 40
1.0
 40
1.0
 40
1.0
 40
2.0
 40
2.0
 40
2.0
 40
3.0
 40
3.0
 40
3.0
 40
4.0
 40
4.0
 40
4.0
 40
4.0
 10
296.2715297073845
 20
27.50458020069892
 30
0.0
 10
295.9411319155254
 20
27.38780204855992
 30
0.0
 10
295.6648994604227
 20
27.22384581892186
 30
0.0
 10
295.5906023916359
 20
26.8479388815276
 30
0.0
 10
295.5792681065788
 20
26.79059327230428
 30
0.0
 10
295.5645605956114
 20
26.73240397223375
 30
0.0
 10
295.5644406723574
 20
26.67457866999212
 30
0.0
 10
295.562743297058
 20
25.84365465270932
 30
0.0
 10
295.5632814142282
 20
25.01272602299438
 30
0.0
 10
295.5632814142282
 20
24.16049564077469
 30
0.0
  0
SPLINE
  5
95
330
1F
100
AcDbEntity
  8
0
  6
Continuous
 62
   179
370
     0
100
AcDbSpline
210
0.0
220
0.0
230
1.0
 70
    24
 71
     3
 72
     8
 73
     4
 74
     0
 42
0.000000001
 43
0.00000001
 40
0.0
 40
0.0
 40
0.0
 40
0.0
 40
1.0
 40
1.0
 40
1.0
 40
1.0
 10
293.841527870193
 20
27.50458020069892
 30
0.0
 10
294.6515264326192
 20
27.50458020069892
 30
0.0
 10
295.4615280700011
 20
27.50458020069892
 30
0.0
 10
296.2715297073845
 20
27.50458020069892
 30
0.0
  0
SPLINE
  5
96
330
1F
100
AcDbEntity
  8
0
  6
Continuous
 62
   179
370
     0
100
AcDbSpline
210
0.0
220
0.0
230
1.0
 70
     8
 71
     3
 72
    14
 73
    10
 74
     0
 42
0.000000001
 43
0.00000001
 40
17.0
 40
17.0
 40
17.0
 40
17.0
 40
18.0
 40
18.0
 40
18.0
 40
19.0
 40
19.0
 40
19.0
 40
20.0
 40
20.0
 40
20.0
 40
20.0
 10
257.7053577757453
 20
20.25910042553502
 30
0.0
 10
258.2139995287706
 20
20.39587059142628
 30
0.0
 10
258.4104423723632
 20
20.62446660851326
 30
0.0
 10
258.4124688639662
 20
21.16843695483816
 30
0.0
 10
258.4191609275175
 20
22.96470127704906
 30
0.0
 10
258.4149081683119
 20
24.76100595804667
 30
0.0
 10
258.4151320634913
 20
26.55729487989966
 30
0.0
 10
258.4151924094879
 20
27.04153921726714
 30
0.0
 10
258.2057453879524
 20
27.36893835120057
 30
0.0
 10
257.7192638284546
 20
27.51463645747964
 30
0.0
  0
SPLINE
  5
97
330
1F
100
AcDbEntity
  8
0
  6
Continuous
 62
   179
370
     0
100
AcDbSpline
210
0.0
220
0.0
230
1.0
 70
    24
 71
     3
 72
     8
 73
     4
 74
     0
 42
0.000000001
 43
0.00000001
 40
16.0
 40
16.0
 40
16.0
 40
16.0
 40
17.0
 40
17.0
 40
17.0
 40
17.0
 10
260.1134120717832
 20
20.25910042553502
 30
0.0
 10
259.3107272904223
 20
20.25910042553502
 30
0.0
 10
258.5080426051526
 20
20.25910042553502
 30
0.0
 10
257.7053577757453
 20
20.25910042553502
 30
0.0
  0
SPLINE
  5
98
330
1F
100
AcDbEntity
  8
0
  6
Continuous
 62
   179
370
     0
100
AcDbSpline
210
0.0
220
0.0
230
1.0
 70
     8
 71
     3
 72
    14
 73
    10
 74
     0
 42
0.000000001
 43
0.00000001
 40
13.0
 40
13.0
 40
13.0
 40
13.0
 40
14.0
 40
14.0
 40
14.0
 40
15.0
 40
15.0
 40
15.0
 40
16.0
 40
16.0
 40
16.0
 40
16.0
 10
259.4607286043899
 20
23.57138302951071
 30
0.0
 10
259.4539911852495
 20
23.51939476107442
 30
0.0
 10
259.4406539512153
 20
23.46398560492077
 30
0.0
 10
259.4405559370167
 20
23.40855338660287
 30
0.0
 10
259.4392191002215
 20
22.65310606781493
 30
0.0
 10
259.4366701545022
 20
21.89763799307776
 30
0.0
 10
259.4408326829897
 20
21.14221143023692
 30
0.0
 10
259.4435911100346
 20
20.64162793377142
 30
0.0
 10
259.6377614656041
 20
20.40079128856705
 30
0.0
 10
260.1134120717832
 20
20.25910042553502
 30
0.0
  0
SPLINE
  5
99
330
1F
100
AcDbEntity
  8
0
  6
Continuous
 62
   179
370
     0
100
AcDbSpline
210
0.0
220
0.0
230
1.0
 70
     8
 71
     3
 72
    20
 73
    16
 74
     0
 42
0.000000001
 43
0.00000001
 40
8.0
 40
8.0
 40
8.0
 40
8.0
 40
9.0
 40
9.0
 40
9.0
 40
10.0
 40
10.0
 40
10.0
 40
11.0
 40
11.0
 40
11.0
 40
12.0
 40
12.0
 40
12.0
 40
13.0
 40
13.0
 40
13.0
 40
13.0
 10
263.9554858268652
 20
20.24609336482204
 30
0.0
 10
263.8909540472192
 20
20.24131411562172
 30
0.0
 10
263.8264337986555
 20
20.23257048036439
 30
0.0
 10
263.7618904879275
 20
20.2323936704376
 30
0.0
 10
263.3170171088603
 20
20.2311736819415
 30
0.0
 10
262.8718696744063
 20
20.24067529366942
 30
0.0
 10
262.427398730108
 20
20.22724465786874
 30
0.0
 10
262.2549406335689
 20
20.22203337745712
 30
0.0
 10
262.1765046750147
 20
20.28890135435546
 30
0.0
 10
262.1067370153144
 20
20.43629933433309
 30
0.0
 10
261.7451764738302
 20
21.20016664933901
 30
0.0
 10
261.3780268168071
 20
21.9614848264415
 30
0.0
 10
261.0037355762117
 20
22.71920223094413
 30
0.0
 10
260.6054131759577
 20
23.52556773374194
 30
0.0
 10
260.3725694925604
 20
23.65083910446932
 30
0.0
 10
259.4607286043899
 20
23.57138302951071
 30
0.0
  0
SPLINE
  5
9A
330
1F
100
AcDbEntity
  8
0
  6
Continuous
 62
   179
370
     0
100
AcDbSpline
210
0.0
220
0.0
230
1.0
 70
     8
 71
     3
 72
    14
 73
    10
 74
     0
 42
0.000000001
 43
0.00000001
 40
5.0
 40
5.0
 40
5.0
 40
5.0
 40
6.0
 40
6.0
 40
6.0
 40
7.0
 40
7.0
 40
7.0
 40
8.0
 40
8.0
 40
8.0
 40
8.0
 10
261.0219043336847
 20
23.63056361828031
 30
0.0
 10
261.7521543160346
 20
23.35408286053947
 30
0.0
 10
262.033208300972
 20
22.73079019980925
 30
0.0
 10
262.3739921385617
 20
22.16106556577573
 30
0.0
 10
262.6276890153665
 20
21.7369354504649
 30
0.0
 10
262.8739775562312
 20
21.30835818112305
 30
0.0
 10
263.1292772534608
 20
20.88520667032095
 30
0.0
 10
263.3178377375433
 20
20.57267359973515
 30
0.0
 10
263.5606000734738
 20
20.32757122285868
 30
0.0
 10
263.9554858268652
 20
20.24609336482204
 30
0.0
  0
SPLINE
  5
9B
330
1F
100
AcDbEntity
  8
0
  6
Continuous
 62
   179
370
     0
100
AcDbSpline
210
0.0
220
0.0
230
1.0
 70
     8
 71
     3
 72
    20
 73
    16
 74
     0
 42
0.000000001
 43
0.00000001
 40
0.0
 40
0.0
 40
0.0
 40
0.0
 40
1.0
 40
1.0
 40
1.0
 40
2.0
 40
2.0
 40
2.0
 40
3.0
 40
3.0
 40
3.0
 40
4.0
 40
4.0
 40
4.0
 40
5.0
 40
5.0
 40
5.0
 40
5.0
 10
257.7192638284546
 20
27.51463645747964
 30
0.0
 10
258.1174764912431
 20
27.51463645747964
 30
0.0
 10
258.5159962651877
 20
27.52468175973202
 30
0.0
 10
258.913837050576
 20
27.51251762112626
 30
0.0
 10
259.7094699986222
 20
27.48819126576296
 30
0.0
 10
260.5093946232761
 20
27.49481913962259
 30
0.0
 10
261.2989762515716
 20
27.40941936834727
 30
0.0
 10
262.3071445332423
 20
27.30037799580672
 30
0.0
 10
262.8488620904764
 20
26.74717259793779
 30
0.0
 10
262.9131259646454
 20
25.88395655371281
 30
0.0
 10
262.9966382899504
 20
24.76217905347503
 30
0.0
 10
262.5617362220245
 20
24.08644572151765
 30
0.0
 10
261.5515161764629
 20
23.77337299628438
 30
0.0
 10
261.3945785321864
 20
23.72473719781129
 30
0.0
 10
261.2341319795987
 20
23.68742184709605
 30
0.0
 10
261.0219043336847
 20
23.63056361828031
 30
0.0
  0
SPLINE
  5
9C
330
1F
100
AcDbEntity
  8
0
  6
Continuous
 62
   179
370
     0
100
AcDbSpline
210
0.0
220
0.0
230
1.0
 70
     8
 71
     3
 72
    20
 73
    16
 74
     0
 42
0.000000001
 43
0.00000001
 40
1.0
 40
1.0
 40
1.0
 40
1.0
 40
2.0
 40
2.0
 40
2.0
 40
3.0
 40
3.0
 40
3.0
 40
4.0
 40
4.0
 40
4.0
 40
5.0
 40
5.0
 40
5.0
 40
6.0
 40
6.0
 40
6.0
 40
6.0
 10
259.4558811296203
 20
23.74052094311723
 30
0.0
 10
259.8313410453958
 20
23.74052094311723
 30
0.0
 10
260.1942113256325
 20
23.70804326575078
 30
0.0
 10
260.5489927438957
 20
23.74778168120398
 30
0.0
 10
261.1506181168165
 20
23.81517009427841
 30
0.0
 10
261.6082598631961
 20
24.13857044109259
 30
0.0
 10
261.7413862071132
 20
24.73962656292206
 30
0.0
 10
261.8389787525148
 20
25.18024881635489
 30
0.0
 10
261.8719876284001
 20
25.65810454981779
 30
0.0
 10
261.8164781518313
 20
26.10478869315943
 30
0.0
 10
261.7108519014664
 20
26.95476897687368
 30
0.0
 10
261.3230227860075
 20
27.28690123567825
 30
0.0
 10
260.4792308497364
 20
27.35420547185249
 30
0.0
 10
260.146744010155
 20
27.38072599997261
 30
0.0
 10
259.8103733099057
 20
27.35855230546976
 30
0.0
 10
259.4558811296203
 20
27.35855230546976
 30
0.0
  0
SPLINE
  5
9D
330
1F
100
AcDbEntity
  8
0
  6
Continuous
 62
   179
370
     0
100
AcDbSpline
210
0.0
220
0.0
230
1.0
 70
    24
 71
     3
 72
     8
 73
     4
 74
     0
 42
0.000000001
 43
0.00000001
 40
0.0
 40
0.0
 40
0.0
 40
0.0
 40
1.0
 40
1.0
 40
1.0
 40
1.0
 10
259.4558811296203
 20
27.35855230546976
 30
0.0
 10
259.4558811296203
 20
26.13864548795524
 30
0.0
 10
259.4558811296203
 20
24.94385548148867
 30
0.0
 10
259.4558811296203
 20
23.74052094311723
 30
0.0
  0
SPLINE
  5
9E
330
1F
100
AcDbEntity
  8
0
  6
Continuous
 62
   179
370
     0
100
AcDbSpline
210
0.0
220
0.0
230
1.0
 70
     8
 71
     3
 72
    14
 73
    10
 74
     0
 42
0.000000001
 43
0.00000001
 40
3.0
 40
3.0
 40
3.0
 40
3.0
 40
4.0
 40
4.0
 40
4.0
 40
5.0
 40
5.0
 40
5.0
 40
6.0
 40
6.0
 40
6.0
 40
6.0
 10
267.2336118279071
 20
20.23490821509466
 30
0.0
 10
266.3034040398355
 20
20.48709452013179
 30
0.0
 10
265.5792320909092
 20
21.34541139190241
 30
0.0
 10
265.4837047623288
 20
22.29272284982233
 30
0.0
 10
265.4259332718035
 20
22.86561853145873
 30
0.0
 10
265.4879189885011
 20
23.41465794151554
 30
0.0
 10
265.7739382574312
 20
23.92202056120339
 30
0.0
 10
266.225828300013
 20
24.72361219597301
 30
0.0
 10
266.9062728477855
 20
25.1505801106106
 30
0.0
 10
267.7758432870376
 20
25.16748813643033
 30
0.0
  0
SPLINE
  5
9F
330
1F
100
AcDbEntity
  8
0
  6
Continuous
 62
   179
370
     0
100
AcDbSpline
210
0.0
220
0.0
230
1.0
 70
     8
 71
     3
 72
    14
 73
    10
 74
     0
 42
0.000000001
 43
0.00000001
 40
0.0
 40
0.0
 40
0.0
 40
0.0
 40
1.0
 40
1.0
 40
1.0
 40
2.0
 40
2.0
 40
2.0
 40
3.0
 40
3.0
 40
3.0
 40
3.0
 10
267.7758432870376
 20
25.16748813643033
 30
0.0
 10
268.6216197225536
 20
25.16033694362373
 30
0.0
 10
269.2464106552308
 20
24.83848445240962
 30
0.0
 10
269.7103360726668
 20
24.21398909980579
 30
0.0
 10
270.372934348899
 20
23.32205720159637
 30
0.0
 10
270.3723808569537
 20
22.03321892002499
 30
0.0
 10
269.7215189161772
 20
21.13111084177938
 30
0.0
 10
269.1482911393735
 20
20.33660467264828
 30
0.0
 10
268.1650050112285
 20
19.98240211471103
 30
0.0
 10
267.2336118279071
 20
20.23490821509466
 30
0.0
  0
SPLINE
  5
A0
330
1F
100
AcDbEntity
  8
0
  6
Continuous
 62
   179
370
     0
100
AcDbSpline
210
0.0
220
0.0
230
1.0
 70
     8
 71
     3
 72
    17
 73
    13
 74
     0
 42
0.000000001
 43
0.00000001
 40
4.0
 40
4.0
 40
4.0
 40
4.0
 40
5.0
 40
5.0
 40
5.0
 40
6.0
 40
6.0
 40
6.0
 40
7.0
 40
7.0
 40
7.0
 40
8.0
 40
8.0
 40
8.0
 40
8.0
 10
266.4699528411193
 20
22.82140374989816
 30
0.0
 10
266.4269741915698
 20
22.16270989809668
 30
0.0
 10
266.5287029361534
 20
21.51524885782823
 30
0.0
 10
266.8746830637486
 20
20.93428603108956
 30
0.0
 10
267.1048165584612
 20
20.54785025472892
 30
0.0
 10
267.4153070900211
 20
20.27237193240103
 30
0.0
 10
267.9076604687568
 20
20.30531315927085
 30
0.0
 10
268.3388937306983
 20
20.33416469565678
 30
0.0
 10
268.6078393105943
 20
20.59660136402461
 30
0.0
 10
268.810867074766
 20
20.94311038392242
 30
0.0
 10
269.1208448575376
 20
21.47214721006825
 30
0.0
 10
269.202432645224
 20
22.05765558940843
 30
0.0
 10
269.218762963826
 20
22.6835112253406
 30
0.0
  0
SPLINE
  5
A1
330
1F
100
AcDbEntity
  8
0
  6
Continuous
 62
   179
370
     0
100
AcDbSpline
210
0.0
220
0.0
230
1.0
 70
     8
 71
     3
 72
    17
 73
    13
 74
     0
 42
0.000000001
 43
0.00000001
 40
0.0
 40
0.0
 40
0.0
 40
0.0
 40
1.0
 40
1.0
 40
1.0
 40
2.0
 40
2.0
 40
2.0
 40
3.0
 40
3.0
 40
3.0
 40
4.0
 40
4.0
 40
4.0
 40
4.0
 10
269.218762963826
 20
22.6835112253406
 30
0.0
 10
269.195680043492
 20
23.34551372899321
 30
0.0
 10
269.0963628325642
 20
24.01168817818242
 30
0.0
 10
268.6683621173312
 20
24.58056604641373
 30
0.0
 10
268.2143234497673
 20
25.18405330473933
 30
0.0
 10
267.4640605055332
 20
25.19142205062979
 30
0.0
 10
267.0072628343699
 20
24.59213287496141
 30
0.0
 10
266.882078331128
 20
24.42789874624284
 30
0.0
 10
266.7597204805012
 20
24.2414496033099
 30
0.0
 10
266.7072125446275
 20
24.04607386528146
 30
0.0
 10
266.5993976948625
 20
23.64490674705059
 30
0.0
 10
266.4968487059656
 20
23.23360918874381
 30
0.0
 10
266.4699528411193
 20
22.82140374989816
 30
0.0
  0
SPLINE
  5
A2
330
1F
100
AcDbEntity
  8
0
  6
Continuous
 62
   179
370
     0
100
AcDbSpline
210
0.0
220
0.0
230
1.0
 70
     8
 71
     3
 72
    17
 73
    13
 74
     0
 42
0.000000001
 43
0.00000001
 40
6.0
 40
6.0
 40
6.0
 40
6.0
 40
7.0
 40
7.0
 40
7.0
 40
8.0
 40
8.0
 40
8.0
 40
9.0
 40
9.0
 40
9.0
 40
10.0
 40
10.0
 40
10.0
 40
10.0
 10
311.6156486607862
 20
20.25320881127337
 30
0.0
 10
312.1185268426077
 20
20.41647125413319
 30
0.0
 10
312.2872188877024
 20
20.63608302071405
 30
0.0
 10
312.2876555313485
 20
21.16871754450475
 30
0.0
 10
312.2890700107628
 20
22.88922803787956
 30
0.0
 10
312.287766229737
 20
24.60974045310045
 30
0.0
 10
312.2871819882396
 20
26.33025248395311
 30
0.0
 10
312.2871512386867
 20
26.42255802816858
 30
0.0
 10
312.2845313768121
 20
26.51487279724975
 30
0.0
 10
312.2823973578678
 20
26.60716642601487
 30
0.0
 10
312.2683694120104
 20
27.21300429544448
 30
0.0
 10
312.2096131670664
 20
27.27631108979181
 30
0.0
 10
311.6691528821609
 20
27.32445797038016
 30
0.0
  0
SPLINE
  5
A3
330
1F
100
AcDbEntity
  8
0
  6
Continuous
 62
   179
370
     0
100
AcDbSpline
210
0.0
220
0.0
230
1.0
 70
    24
 71
     3
 72
     8
 73
     4
 74
     0
 42
0.000000001
 43
0.00000001
 40
5.0
 40
5.0
 40
5.0
 40
5.0
 40
6.0
 40
6.0
 40
6.0
 40
6.0
 10
313.8867245107604
 20
20.25320881127337
 30
0.0
 10
313.0865658051385
 20
20.25320881127337
 30
0.0
 10
312.3511103079175
 20
20.25320881127337
 30
0.0
 10
311.6156486607862
 20
20.25320881127337
 30
0.0
  0
SPLINE
  5
A4
330
1F
100
AcDbEntity
  8
0
  6
Continuous
 62
   179
370
     0
100
AcDbSpline
210
0.0
220
0.0
230
1.0
 70
     8
 71
     3
 72
    17
 73
    13
 74
     0
 42
0.000000001
 43
0.00000001
 40
1.0
 40
1.0
 40
1.0
 40
1.0
 40
2.0
 40
2.0
 40
2.0
 40
3.0
 40
3.0
 40
3.0
 40
4.0
 40
4.0
 40
4.0
 40
5.0
 40
5.0
 40
5.0
 40
5.0
 10
313.1781318226163
 20
27.87703492426926
 30
0.0
 10
313.1781318226163
 20
27.83642744958889
 30
0.0
 10
313.1781318226163
 20
27.75161518695077
 30
0.0
 10
313.1781318226163
 20
27.66680273212925
 30
0.0
 10
313.1781318226163
 20
25.57700952371036
 30
0.0
 10
313.1781256727049
 20
23.48721689184594
 30
0.0
 10
313.1781441224363
 20
21.39742349124223
 30
0.0
 10
313.1781441224363
 20
21.32188875296784
 30
0.0
 10
313.1771847363982
 20
21.24633325874564
 30
0.0
 10
313.1786115156352
 20
21.17082388885262
 30
0.0
 10
313.1888880160859
 20
20.62648762285203
 30
0.0
 10
313.3266152617988
 20
20.4348325806782
 30
0.0
 10
313.8867245107604
 20
20.25320881127337
 30
0.0
  0
SPLINE
  5
A5
330
1F
100
AcDbEntity
  8
0
  6
Continuous
 62
   179
370
     0
100
AcDbSpline
210
0.0
220
0.0
230
1.0
 70
     8
 71
     3
 72
     8
 73
     4
 74
     0
 42
0.000000001
 43
0.00000001
 40
0.0
 40
0.0
 40
0.0
 40
0.0
 40
1.0
 40
1.0
 40
1.0
 40
1.0
 10
311.6691528821609
 20
27.32445797038016
 30
0.0
 10
312.1410908642435
 20
27.49727756634619
 30
0.0
 10
312.6458878181427
 20
27.68213176842718
 30
0.0
 10
313.1781318226163
 20
27.87703492426926
 30
0.0
  0
SPLINE
  5
A6
330
1F
100
AcDbEntity
  8
0
  6
Continuous
 62
   179
370
     0
100
AcDbSpline
210
0.0
220
0.0
230
1.0
 70
     8
 71
     3
 72
    14
 73
    10
 74
     0
 42
0.000000001
 43
0.00000001
 40
6.0
 40
6.0
 40
6.0
 40
6.0
 40
7.0
 40
7.0
 40
7.0
 40
8.0
 40
8.0
 40
8.0
 40
9.0
 40
9.0
 40
9.0
 40
9.0
 10
278.4819664915177
 20
27.88441039662488
 30
0.0
 10
278.4819664915177
 20
27.83987735719566
 30
0.0
 10
278.4819649540404
 20
27.75219577693941
 30
0.0
 10
278.4819649540404
 20
27.66451419668386
 30
0.0
 10
278.4819664915177
 20
25.48269219002111
 30
0.0
 10
278.4816605334703
 20
23.30086999117493
 30
0.0
 10
278.4822124879378
 20
21.11904779232805
 30
0.0
 10
278.4823339486704
 20
20.63637283524633
 30
0.0
 10
278.6550987719953
 20
20.40793364087759
 30
0.0
 10
279.1055120673173
 20
20.25491771765491
 30
0.0
  0
SPLINE
  5
A7
330
1F
100
AcDbEntity
  8
0
  6
Continuous
 62
   179
370
     0
100
AcDbSpline
210
0.0
220
0.0
230
1.0
 70
     8
 71
     3
 72
     8
 73
     4
 74
     0
 42
0.000000001
 43
0.00000001
 40
5.0
 40
5.0
 40
5.0
 40
5.0
 40
6.0
 40
6.0
 40
6.0
 40
6.0
 10
276.9846800684063
 20
27.3296354262854
 30
0.0
 10
277.4478728777531
 20
27.5012575193644
 30
0.0
 10
277.9568994326009
 20
27.68986239811422
 30
0.0
 10
278.4819664915177
 20
27.88441039662488
 30
0.0
  0
SPLINE
  5
A8
330
1F
100
AcDbEntity
  8
0
  6
Continuous
 62
   179
370
     0
100
AcDbSpline
210
0.0
220
0.0
230
1.0
 70
     8
 71
     3
 72
    17
 73
    13
 74
     0
 42
0.000000001
 43
0.00000001
 40
1.0
 40
1.0
 40
1.0
 40
1.0
 40
2.0
 40
2.0
 40
2.0
 40
3.0
 40
3.0
 40
3.0
 40
4.0
 40
4.0
 40
4.0
 40
5.0
 40
5.0
 40
5.0
 40
5.0
 10
276.9460186560295
 20
20.25491771765491
 30
0.0
 10
277.4179566381115
 20
20.4199152040148
 30
0.0
 10
277.5770686601204
 20
20.6342380475635
 30
0.0
 10
277.5771993457187
 20
21.13377529050539
 30
0.0
 10
277.5776652014392
 20
22.92958298186009
 30
0.0
 10
277.5773700057348
 20
24.72538990447762
 30
0.0
 10
277.577359243392
 20
26.52119721146338
 30
0.0
 10
277.577359243392
 20
26.53798031722657
 30
0.0
 10
277.5773838430334
 20
26.55476419172763
 30
0.0
 10
277.5772915943764
 20
26.57154691311976
 30
0.0
 10
277.5738092075535
 20
27.20775573119973
 30
0.0
 10
277.5366914227135
 20
27.25167954511983
 30
0.0
 10
276.9846800684063
 20
27.3296354262854
 30
0.0
  0
SPLINE
  5
A9
330
1F
100
AcDbEntity
  8
0
  6
Continuous
 62
   179
370
     0
100
AcDbSpline
210
0.0
220
0.0
230
1.0
 70
    24
 71
     3
 72
     8
 73
     4
 74
     0
 42
0.000000001
 43
0.00000001
 40
0.0
 40
0.0
 40
0.0
 40
0.0
 40
1.0
 40
1.0
 40
1.0
 40
1.0
 10
279.1055120673173
 20
20.25491771765491
 30
0.0
 10
278.3856819552066
 20
20.25491771765491
 30
0.0
 10
277.6658503056181
 20
20.25491771765491
 30
0.0
 10
276.9460186560295
 20
20.25491771765491
 30
0.0
  0
SPLINE
  5
AA
330
1F
100
AcDbEntity
  8
0
  6
Continuous
 62
   179
370
     0
100
AcDbSpline
210
0.0
220
0.0
230
1.0
 70
     8
 71
     3
 72
    20
 73
    16
 74
     0
 42
0.000000001
 43
0.00000001
 40
5.0
 40
5.0
 40
5.0
 40
5.0
 40
6.0
 40
6.0
 40
6.0
 40
7.0
 40
7.0
 40
7.0
 40
8.0
 40
8.0
 40
8.0
 40
9.0
 40
9.0
 40
9.0
 40
10.0
 40
10.0
 40
10.0
 40
10.0
 10
307.178408284104
 20
20.25443648715803
 30
0.0
 10
307.3179589782804
 20
20.36177625633667
 30
0.0
 10
307.5293898264143
 20
20.45652254628292
 30
0.0
 10
307.6283941606455
 20
20.61954360515536
 30
0.0
 10
307.7285516030972
 20
20.78446498637256
 30
0.0
 10
307.7490584796685
 20
21.01681475508337
 30
0.0
 10
307.7500732149022
 20
21.21990094340409
 30
0.0
 10
307.7587445887104
 20
22.95682170421714
 30
0.0
 10
307.7550484924979
 20
24.69380511724258
 30
0.0
 10
307.7550361926766
 20
26.43077008053731
 30
0.0
 10
307.7550361926766
 20
26.49789904426263
 30
0.0
 10
307.7552944889175
 20
26.56503146731187
 30
0.0
 10
307.7547502218385
 20
26.63215658734291
 30
0.0
 10
307.7501131893193
 20
27.20350460556406
 30
0.0
 10
307.6774858212348
 20
27.28280885460759
 30
0.0
 10
307.160813390154
 20
27.32540717062984
 30
0.0
  0
SPLINE
  5
AB
330
1F
100
AcDbEntity
  8
0
  6
Continuous
 62
   179
370
     0
100
AcDbSpline
210
0.0
220
0.0
230
1.0
 70
    24
 71
     3
 72
     8
 73
     4
 74
     0
 42
0.000000001
 43
0.00000001
 40
4.0
 40
4.0
 40
4.0
 40
4.0
 40
5.0
 40
5.0
 40
5.0
 40
5.0
 10
309.3620693061908
 20
20.25443648715802
 30
0.0
 10
308.5715044609525
 20
20.25443648715802
 30
0.0
 10
307.8517004859625
 20
20.25443648715802
 30
0.0
 10
307.178408284104
 20
20.25443648715803
 30
0.0
  0
SPLINE
  5
AC
330
1F
100
AcDbEntity
  8
0
  6
Continuous
 62
   179
370
     0
100
AcDbSpline
210
0.0
220
0.0
230
1.0
 70
     8
 71
     3
 72
    14
 73
    10
 74
     0
 42
0.000000001
 43
0.00000001
 40
1.0
 40
1.0
 40
1.0
 40
1.0
 40
2.0
 40
2.0
 40
2.0
 40
3.0
 40
3.0
 40
3.0
 40
4.0
 40
4.0
 40
4.0
 40
4.0
 10
308.65963267846
 20
27.88697759989075
 30
0.0
 10
308.65963267846
 20
27.83196991758182
 30
0.0
 10
308.65963267846
 20
27.74275854708867
 30
0.0
 10
308.65963267846
 20
27.65354698440997
 30
0.0
 10
308.65963267846
 20
25.48863300356693
 30
0.0
 10
308.6595035303402
 20
23.32371921490945
 30
0.0
 10
308.6597187772069
 20
21.15880542625192
 30
0.0
 10
308.6597679764911
 20
20.6374237012035
 30
0.0
 10
308.807415027844
 20
20.43200746554105
 30
0.0
 10
309.3620693061909
 20
20.25443648715802
 30
0.0
  0
SPLINE
  5
AD
330
1F
100
AcDbEntity
  8
0
  6
Continuous
 62
   179
370
     0
100
AcDbSpline
210
0.0
220
0.0
230
1.0
 70
     8
 71
     3
 72
     8
 73
     4
 74
     0
 42
0.000000001
 43
0.00000001
 40
0.0
 40
0.0
 40
0.0
 40
0.0
 40
1.0
 40
1.0
 40
1.0
 40
1.0
 10
307.160813390154
 20
27.32540717062984
 30
0.0
 10
307.6336123597078
 20
27.50255342081908
 30
0.0
 10
308.1420254609839
 20
27.69304267058278
 30
0.0
 10
308.65963267846
 20
27.88697759989075
 30
0.0
  0
SPLINE
  5
AE
330
1F
100
AcDbEntity
  8
0
  6
Continuous
 62
   179
370
     0
100
AcDbSpline
210
0.0
220
0.0
230
1.0
 70
     8
 71
     3
 72
    14
 73
    10
 74
     0
 42
0.000000001
 43
0.00000001
 40
6.0
 40
6.0
 40
6.0
 40
6.0
 40
7.0
 40
7.0
 40
7.0
 40
8.0
 40
8.0
 40
8.0
 40
9.0
 40
9.0
 40
9.0
 40
9.0
 10
272.426404840594
 20
20.25907966958721
 30
0.0
 10
273.005992393597
 20
20.37668517687365
 30
0.0
 10
273.0805785081768
 20
20.81042375860577
 30
0.0
 10
273.0783845276048
 20
21.29462927466368
 30
0.0
 10
273.0702866329497
 20
23.08209538116095
 30
0.0
 10
273.0685846452182
 20
24.86961337752775
 30
0.0
 10
273.0527409382852
 20
26.65700799131587
 30
0.0
 10
273.0476395875227
 20
27.23250104921648
 30
0.0
 10
272.9826104338649
 20
27.28380667758701
 30
0.0
 10
272.4594267850394
 20
27.32510813123116
 30
0.0
  0
SPLINE
  5
AF
330
1F
100
AcDbEntity
  8
0
  6
Continuous
 62
   179
370
     0
100
AcDbSpline
210
0.0
220
0.0
230
1.0
 70
    24
 71
     3
 72
     8
 73
     4
 74
     0
 42
0.000000001
 43
0.00000001
 40
5.0
 40
5.0
 40
5.0
 40
5.0
 40
6.0
 40
6.0
 40
6.0
 40
6.0
 10
274.6224502449564
 20
20.25907966958721
 30
0.0
 10
273.8904356226618
 20
20.25907966958721
 30
0.0
 10
273.1584194628893
 20
20.25907966958721
 30
0.0
 10
272.426404840594
 20
20.25907966958721
 30
0.0
  0
SPLINE
  5
B0
330
1F
100
AcDbEntity
  8
0
  6
Continuous
 62
   179
370
     0
100
AcDbSpline
210
0.0
220
0.0
230
1.0
 70
     8
 71
     3
 72
    17
 73
    13
 74
     0
 42
0.000000001
 43
0.00000001
 40
1.0
 40
1.0
 40
1.0
 40
1.0
 40
2.0
 40
2.0
 40
2.0
 40
3.0
 40
3.0
 40
3.0
 40
4.0
 40
4.0
 40
4.0
 40
5.0
 40
5.0
 40
5.0
 40
5.0
 10
273.9540333846496
 20
27.87257450949275
 30
0.0
 10
273.9540333846496
 20
27.8074859707617
 30
0.0
 10
273.9540333846496
 20
27.71082379150879
 30
0.0
 10
273.9540333846496
 20
27.61416161225588
 30
0.0
 10
273.9540349221275
 20
25.51596282147274
 30
0.0
 10
273.9539872603212
 20
23.41776441505854
 30
0.0
 10
273.9542086570993
 20
21.31956562427539
 30
0.0
 10
273.954217881965
 20
21.22727776105204
 30
0.0
 10
273.9506540088286
 20
21.13443409966764
 30
0.0
 10
273.9590578615309
 20
21.04279505200227
 30
0.0
 10
274.0006220316647
 20
20.58964274029083
 30
0.0
 10
274.1836818051717
 20
20.38260600321025
 30
0.0
 10
274.6224502449564
 20
20.25907966958721
 30
0.0
  0
SPLINE
  5
B1
330
1F
100
AcDbEntity
  8
0
  6
Continuous
 62
   179
370
     0
100
AcDbSpline
210
0.0
220
0.0
230
1.0
 70
     8
 71
     3
 72
     8
 73
     4
 74
     0
 42
0.000000001
 43
0.00000001
 40
0.0
 40
0.0
 40
0.0
 40
0.0
 40
1.0
 40
1.0
 40
1.0
 40
1.0
 10
272.4594267850394
 20
27.32510813123116
 30
0.0
 10
272.932774634105
 20
27.49849255803981
 30
0.0
 10
273.4351023989377
 20
27.68249307566929
 30
0.0
 10
273.9540333846496
 20
27.87257450949275
 30
0.0
  0
SPLINE
  5
B2
330
1F
100
AcDbEntity
  8
0
  6
Continuous
 62
   179
370
     0
100
AcDbSpline
210
0.0
220
0.0
230
1.0
 70
     8
 71
     3
 72
    17
 73
    13
 74
     0
 42
0.000000001
 43
0.00000001
 40
6.0
 40
6.0
 40
6.0
 40
6.0
 40
7.0
 40
7.0
 40
7.0
 40
8.0
 40
8.0
 40
8.0
 40
9.0
 40
9.0
 40
9.0
 40
10.0
 40
10.0
 40
10.0
 40
10.0
 10
304.1706223551654
 20
25.06377258638473
 30
0.0
 10
304.1727133247369
 20
25.01792115989103
 30
0.0
 10
304.1800409430993
 20
24.93136078519359
 30
0.0
 10
304.1800932173391
 20
24.84479541369365
 30
0.0
 10
304.1808527312862
 20
23.65282014439031
 30
0.0
 10
304.1797703470369
 20
22.46084295323947
 30
0.0
 10
304.1818797663413
 20
21.26887114326077
 30
0.0
 10
304.1821011631179
 20
21.14380579453512
 30
0.0
 10
304.1922454404933
 20
21.01764883669525
 30
0.0
 10
304.2107535961514
 20
20.89393877449616
 30
0.0
 10
304.2621822227331
 20
20.55023795748125
 30
0.0
 10
304.4578262506062
 20
20.33981031349823
 30
0.0
 10
304.8038079156779
 20
20.2539775500868
 30
0.0
  0
SPLINE
  5
B3
330
1F
100
AcDbEntity
  8
0
  6
Continuous
 62
   179
370
     0
100
AcDbSpline
210
0.0
220
0.0
230
1.0
 70
     8
 71
     3
 72
     8
 73
     4
 74
     0
 42
0.000000001
 43
0.00000001
 40
5.0
 40
5.0
 40
5.0
 40
5.0
 40
6.0
 40
6.0
 40
6.0
 40
6.0
 10
302.7125031745686
 20
24.50968064047994
 30
0.0
 10
303.1898069535648
 20
24.6910587978335
 30
0.0
 10
303.6729961969132
 20
24.87467283202501
 30
0.0
 10
304.1706223551654
 20
25.06377258638473
 30
0.0
  0
SPLINE
  5
B4
330
1F
100
AcDbEntity
  8
0
  6
Continuous
 62
   179
370
     0
100
AcDbSpline
210
0.0
220
0.0
230
1.0
 70
     8
 71
     3
 72
    17
 73
    13
 74
     0
 42
0.000000001
 43
0.00000001
 40
1.0
 40
1.0
 40
1.0
 40
1.0
 40
2.0
 40
2.0
 40
2.0
 40
3.0
 40
3.0
 40
3.0
 40
4.0
 40
4.0
 40
4.0
 40
5.0
 40
5.0
 40
5.0
 40
5.0
 10
302.6973344203136
 20
20.2539775500868
 30
0.0
 10
303.1321361678242
 20
20.3494649042487
 30
0.0
 10
303.2897768237453
 20
20.65853557522151
 30
0.0
 10
303.2916556214045
 20
21.04785181591347
 30
0.0
 10
303.2966032244031
 20
22.071496731734
 30
0.0
 10
303.2829750227277
 20
23.09531768874207
 30
0.0
 10
303.2668591822546
 20
24.11891186780057
 30
0.0
 10
303.2632153602819
 20
24.35030186610297
 30
0.0
 10
303.1332831261333
 20
24.4918735746181
 30
0.0
 10
302.8846514693662
 20
24.49557889569631
 30
0.0
 10
302.8224697242705
 20
24.49650561033552
 30
0.0
 10
302.760410977386
 20
24.5055728846329
 30
0.0
 10
302.7125031745686
 20
24.50968064047994
 30
0.0
  0
SPLINE
  5
B5
330
1F
100
AcDbEntity
  8
0
  6
Continuous
 62
   179
370
     0
100
AcDbSpline
210
0.0
220
0.0
230
1.0
 70
    24
 71
     3
 72
     8
 73
     4
 74
     0
 42
0.000000001
 43
0.00000001
 40
0.0
 40
0.0
 40
0.0
 40
0.0
 40
1.0
 40
1.0
 40
1.0
 40
1.0
 10
304.8038079156779
 20
20.2539775500868
 30
0.0
 10
304.101651108875
 20
20.2539775500868
 30
0.0
 10
303.3994912271164
 20
20.2539775500868
 30
0.0
 10
302.6973344203136
 20
20.2539775500868
 30
0.0
  0
SPLINE
  5
B6
330
1F
100
AcDbEntity
  8
0
  6
Continuous
 62
   179
370
     0
100
AcDbSpline
210
0.0
220
0.0
230
1.0
 70
     8
 71
     3
 72
    11
 73
     7
 74
     0
 42
0.000000001
 43
0.00000001
 40
2.0
 40
2.0
 40
2.0
 40
2.0
 40
3.0
 40
3.0
 40
3.0
 40
4.0
 40
4.0
 40
4.0
 40
4.0
 10
303.0570519104932
 20
26.35430478392947
 30
0.0
 10
303.0511172468595
 20
26.75330175249256
 30
0.0
 10
303.3266947364937
 20
27.05519259513757
 30
0.0
 10
303.6924299141011
 20
27.05034857969325
 30
0.0
 10
304.0507636744179
 20
27.04560238626284
 30
0.0
 10
304.3255386007336
 20
26.75299425696746
 30
0.0
 10
304.327448147944
 20
26.37412133304796
 30
0.0
  0
SPLINE
  5
B7
330
1F
100
AcDbEntity
  8
0
  6
Continuous
 62
   179
370
     0
100
AcDbSpline
210
0.0
220
0.0
230
1.0
 70
     8
 71
     3
 72
    11
 73
     7
 74
     0
 42
0.000000001
 43
0.00000001
 40
0.0
 40
0.0
 40
0.0
 40
0.0
 40
1.0
 40
1.0
 40
1.0
 40
2.0
 40
2.0
 40
2.0
 40
2.0
 10
304.327448147944
 20
26.37412133304796
 30
0.0
 10
304.3293945946187
 20
25.98752450590587
 30
0.0
 10
304.068057222753
 20
25.70828897263022
 30
0.0
 10
303.6993639381942
 20
25.70301926806731
 30
0.0
 10
303.3259905717408
 20
25.69768229885988
 30
0.0
 10
303.0628482011429
 20
25.96449808787493
 30
0.0
 10
303.0570519104932
 20
26.35430478392947
 30
0.0
  0
MTEXT
  5
B9
330
1F
100
AcDbEntity
  8
0
  6
Continuous
 62
     7
370
     0
100
AcDbMText
 10
257.9690483454
 20
40.3166048975
 30
0.0
 40
3.7041666667
 41
0.0
 71
     1
 72
     1
  1
KRNL21 - Krane Small Ceiling Mount
  7
SLDTEXTSTYLE0
 73
     1
 44
1.0
  0
MTEXT
  5
BA
330
1F
100
AcDbEntity
  8
0
  6
Continuous
 62
     7
370
     0
100
AcDbMText
 10
258.6105142387
 20
44.3546043689
 30
0.0
 40
1.5875
 41
0.0
 71
     1
 72
     1
  1
\LDESCRIPTION
  7
SLDTEXTSTYLE0
 73
     1
 44
1.0
  0
INSERT
  5
C1
330
1F
100
AcDbEntity
  8
0
  6
Continuous
 62
     7
370
     0
100
AcDbBlockReference
  2
SW_NOTE_0
 10
317.1049495712
 20
24.1495665419
 30
0.0
  0
MTEXT
  5
C2
330
1F
100
AcDbEntity
  8
0
  6
Continuous
 62
     7
370
     0
100
AcDbMText
 10
273.8792930731
 20
32.371143085
 30
0.0
 40
1.5875
 41
0.0
 71
     2
 72
     1
  1
\LSCALE
  7
SLDTEXTSTYLE0
 73
     1
 44
1.0
  0
MTEXT
  5
C3
330
1F
100
AcDbEntity
  8
0
  6
Continuous
 62
     7
370
     0
100
AcDbMText
 10
278.3960862508
 20
33.4394651033
 30
0.0
 40
2.6458333333
 41
0.0
 71
     1
 72
     1
  1
1:20
  7
SLDTEXTSTYLE0
 73
     1
 44
1.0
  0
MTEXT
  5
C4
330
1F
100
AcDbEntity
  8
0
  6
Continuous
 62
     7
370
     0
100
AcDbMText
 10
261.5657280329
 20
32.371143085
 30
0.0
 40
1.5875
 41
0.0
 71
     2
 72
     1
  1
\LSIZE
  7
SLDTEXTSTYLE0
 73
     1
 44
1.0
  0
MTEXT
  5
C5
330
1F
100
AcDbEntity
  8
0
  6
Continuous
 62
     7
370
     0
100
AcDbMText
 10
264.7495209372
 20
33.4394651033
 30
0.0
 40
2.6458333333
 41
0.0
 71
     1
 72
     1
  1
B
  7
SLDTEXTSTYLE0
 73
     1
 44
1.0
  0
INSERT
  5
CC
330
1F
100
AcDbEntity
  8
0
  6
Continuous
 62
     7
370
     0
100
AcDbBlockReference
  2
SW_NOTE_1
 10
258.0900415808
 20
15.6806800849
 30
0.0
  0
LINE
  5
CD
330
1F
100
AcDbEntity
  8
0
  6
Continuous
 62
     7
370
    15
100
AcDbLine
 10
80.0596377102
 20
147.5746563416
 30
0.0
 11
80.0596377102
 21
148.5271563416
 31
0.0
  0
LINE
  5
CE
330
1F
100
AcDbEntity
  8
0
  6
Continuous
 62
     7
370
    15
100
AcDbLine
 10
67.2008877102
 20
148.5271563416
 30
0.0
 11
67.2008877102
 21
147.5746563416
 31
0.0
  0
ARC
  5
CF
330
1F
100
AcDbEntity
  8
0
  6
Continuous
 62
     7
370
    15
100
AcDbCircle
 10
67.3993252102
 20
147.5058455704
 30
0.0
 40
0.1000000000000128
100
AcDbArc
 50
136.5194960789
 51
245.6587050717
  0
ARC
  5
D0
330
1F
100
AcDbEntity
  8
0
  6
Continuous
 62
     7
370
    15
100
AcDbCircle
 10
79.8612002102
 20
147.5058455704
 30
0.0
 40
0.1000000000000231
100
AcDbArc
 50
294.3412949283
 51
43.480503921
  0
ARC
  5
D1
330
1F
100
AcDbEntity
  8
0
  6
Continuous
 62
     7
370
    15
100
AcDbCircle
 10
67.4102395675
 20
147.3177743147
 30
0.0
 40
0.1000000000000048
100
AcDbArc
 50
120.9839474642
 51
247.3894743023
  0
ARC
  5
D2
330
1F
100
AcDbEntity
  8
0
  6
Continuous
 62
     7
370
    15
100
AcDbCircle
 10
79.8502858529
 20
147.3177743147
 30
0.0
 40
0.1000000000000048
100
AcDbArc
 50
292.6105256977
 51
59.0160525358
  0
ARC
  5
D3
330
1F
100
AcDbEntity
  8
0
  6
Continuous
 62
     7
370
    15
100
AcDbCircle
 10
67.4268292669
 20
147.1301185066
 30
0.0
 40
0.0999999999999923
100
AcDbArc
 50
122.7147166947
 51
249.1202435328
  0
ARC
  5
D4
330
1F
100
AcDbEntity
  8
0
  6
Continuous
 62
     7
370
    15
100
AcDbCircle
 10
79.8336961536
 20
147.1301185066
 30
0.0
 40
0.0999999999999999
100
AcDbArc
 50
290.8797564672
 51
57.2852833052
  0
ARC
  5
D5
330
1F
100
AcDbEntity
  8
0
  6
Continuous
 62
     7
370
    15
100
AcDbCircle
 10
67.4490791714
 20
146.9430493692
 30
0.0
 40
0.1000000000000125
100
AcDbArc
 50
124.4454859253
 51
250.8510127634
  0
ARC
  5
D6
330
1F
100
AcDbEntity
  8
0
  6
Continuous
 62
     7
370
    15
100
AcDbCircle
 10
79.8114462491
 20
146.9430493692
 30
0.0
 40
0.1000000000000125
100
AcDbArc
 50
289.1489872366
 51
55.5545140747
  0
ARC
  5
D7
330
1F
100
AcDbEntity
  8
0
  6
Continuous
 62
     7
370
    15
100
AcDbCircle
 10
67.3554908106
 20
147.4089493996
 30
0.0
 40
0.0063500000000312
100
AcDbArc
 50
300.9839474642
 51
65.6587050715
  0
ARC
  5
D8
330
1F
100
AcDbEntity
  8
0
  6
Continuous
 62
     7
370
    15
100
AcDbCircle
 10
79.9050346099
 20
147.4089493996
 30
0.0
 40
0.0063500000000254
100
AcDbArc
 50
114.3412949283
 51
239.0160525359
  0
ARC
  5
D9
330
1F
100
AcDbEntity
  8
0
  6
Continuous
 62
     7
370
    15
100
AcDbCircle
 10
67.3693517236
 20
147.2195984179
 30
0.0
 40
0.0063500000000146
100
AcDbArc
 50
302.7147166949
 51
67.3894743023
  0
ARC
  5
DA
330
1F
100
AcDbEntity
  8
0
  6
Continuous
 62
     7
370
    15
100
AcDbCircle
 10
79.8911736969
 20
147.2195984179
 30
0.0
 40
0.0063500000000146
100
AcDbArc
 50
112.6105256977
 51
237.2852833051
  0
ARC
  5
DB
330
1F
100
AcDbEntity
  8
0
  6
Continuous
 62
     7
370
    15
100
AcDbCircle
 10
67.4769689794
 20
146.7567375901
 30
0.0
 40
0.1000000000000205
100
AcDbArc
 50
126.1762551559
 51
252.581781994
  0
ARC
  5
DC
330
1F
100
AcDbEntity
  8
0
  6
Continuous
 62
     7
370
    15
100
AcDbCircle
 10
79.783556441
 20
146.7567375901
 30
0.0
 40
0.1000000000000121
100
AcDbArc
 50
287.418218006
 51
53.8237448441
  0
ARC
  5
DD
330
1F
100
AcDbEntity
  8
0
  6
Continuous
 62
     7
370
    15
100
AcDbCircle
 10
67.3889252859
 20
147.0307524625
 30
0.0
 40
0.0063500000000026
100
AcDbArc
 50
304.4454859253
 51
69.1202435329
  0
ARC
  5
DE
330
1F
100
AcDbEntity
  8
0
  6
Continuous
 62
     7
370
    15
100
AcDbCircle
 10
79.8716001345
 20
147.0307524625
 30
0.0
 40
0.0063500000000077
100
AcDbArc
 50
110.8797564672
 51
235.5545140746
  0
ARC
  5
DF
330
1F
100
AcDbEntity
  8
0
  6
Continuous
 62
     7
370
    15
100
AcDbCircle
 10
67.5104732436
 20
146.571353166
 30
0.0
 40
0.1000000000000056
100
AcDbArc
 50
127.9070243865
 51
254.3125512245
  0
ARC
  5
E0
330
1F
100
AcDbEntity
  8
0
  6
Continuous
 62
     7
370
    15
100
AcDbCircle
 10
79.7500521769
 20
146.571353166
 30
0.0
 40
0.1000000000000056
100
AcDbArc
 50
285.6874487755
 51
52.0929756135
  0
ARC
  5
E1
330
1F
100
AcDbEntity
  8
0
  6
Continuous
 62
     7
370
    15
100
AcDbCircle
 10
67.4141936382
 20
146.8425838424
 30
0.0
 40
0.0063500000000214
100
AcDbArc
 50
306.176255156
 51
70.8510127635
  0
ARC
  5
E2
330
1F
100
AcDbEntity
  8
0
  6
Continuous
 62
     7
370
    15
100
AcDbCircle
 10
79.8463317823
 20
146.8425838424
 30
0.0
 40
0.0063500000000214
100
AcDbArc
 50
109.1489872365
 51
233.823744844
  0
ARC
  5
E3
330
1F
100
AcDbEntity
  8
0
  6
Continuous
 62
     7
370
    15
100
AcDbCircle
 10
67.4451337247
 20
146.6552642485
 30
0.0
 40
0.0063500000000118
100
AcDbArc
 50
307.9070243864
 51
72.581781994
  0
ARC
  5
E4
330
1F
100
AcDbEntity
  8
0
  6
Continuous
 62
     7
370
    15
100
AcDbCircle
 10
79.8153916958
 20
146.6552642485
 30
0.0
 40
0.0063500000000118
100
AcDbArc
 50
107.418218006
 51
232.0929756136
  0
ARC
  5
E5
330
1F
100
AcDbEntity
  8
0
  6
Continuous
 62
     7
370
    15
100
AcDbCircle
 10
67.5495613935
 20
146.3870652474
 30
0.0
 40
0.1000000000000197
100
AcDbArc
 50
129.637793617
 51
256.0433204551
  0
ARC
  5
E6
330
1F
100
AcDbEntity
  8
0
  6
Continuous
 62
     7
370
    15
100
AcDbCircle
 10
79.710964027
 20
146.3870652474
 30
0.0
 40
0.1000000000000288
100
AcDbArc
 50
283.9566795449
 51
50.362206383
  0
ARC
  5
E7
330
1F
100
AcDbEntity
  8
0
  6
Continuous
 62
     7
370
    15
100
AcDbCircle
 10
67.4817173147
 20
146.4689645971
 30
0.0
 40
0.0063500000000024
100
AcDbArc
 50
309.6377936171
 51
74.3125512244
  0
ARC
  5
E8
330
1F
100
AcDbEntity
  8
0
  6
Continuous
 62
     7
370
    15
100
AcDbCircle
 10
79.7788081057
 20
146.4689645971
 30
0.0
 40
0.0063500000000024
100
AcDbArc
 50
105.6874487756
 51
230.3622063829
  0
ARC
  5
E9
330
1F
100
AcDbEntity
  8
0
  6
Continuous
 62
     7
370
    15
100
AcDbCircle
 10
67.5941977639
 20
146.2040419842
 30
0.0
 40
0.1000000000000156
100
AcDbArc
 50
131.3685628476
 51
257.7740896857
  0
ARC
  5
EA
330
1F
100
AcDbEntity
  8
0
  6
Continuous
 62
     7
370
    15
100
AcDbCircle
 10
79.6663276565
 20
146.2040419842
 30
0.0
 40
0.1000000000000156
100
AcDbArc
 50
282.2259103143
 51
48.6314371524
  0
ARC
  5
EB
330
1F
100
AcDbEntity
  8
0
  6
Continuous
 62
     7
370
    15
100
AcDbCircle
 10
67.5239110283
 20
146.2838548736
 30
0.0
 40
0.0063499999999993
100
AcDbArc
 50
311.3685628477
 51
76.0433204552
  0
ARC
  5
EC
330
1F
100
AcDbEntity
  8
0
  6
Continuous
 62
     7
370
    15
100
AcDbCircle
 10
79.7366143921
 20
146.2838548736
 30
0.0
 40
0.0063499999999993
100
AcDbArc
 50
103.9566795448
 51
228.6314371523
  0
ARC
  5
ED
330
1F
100
AcDbEntity
  8
0
  6
Continuous
 62
     7
370
    15
100
AcDbCircle
 10
67.6443416272
 20
146.0224503727
 30
0.0
 40
0.1000000000000027
100
AcDbArc
 50
133.0993320782
 51
259.5048589162
  0
ARC
  5
EE
330
1F
100
AcDbEntity
  8
0
  6
Continuous
 62
     7
370
    15
100
AcDbCircle
 10
79.6161837932
 20
146.0224503727
 30
0.0
 40
0.1000000000000001
100
AcDbArc
 50
280.4951410838
 51
46.9006679218
  0
ARC
  5
EF
330
1F
100
AcDbEntity
  8
0
  6
Continuous
 62
     7
370
    15
100
AcDbCircle
 10
67.5716763666
 20
146.1001039779
 30
0.0
 40
0.0063500000000072
100
AcDbArc
 50
313.099332078
 51
77.7740896858
  0
ARC
  5
F0
330
1F
100
AcDbEntity
  8
0
  6
Continuous
 62
     7
370
    15
100
AcDbCircle
 10
79.6888490538
 20
146.1001039779
 30
0.0
 40
0.0063500000000113
100
AcDbArc
 50
102.2259103143
 51
226.9006679219
  0
ARC
  5
F1
330
1F
100
AcDbEntity
  8
0
  6
Continuous
 62
     7
370
    15
100
AcDbCircle
 10
67.6999472306
 20
145.8424561025
 30
0.0
 40
0.1000000000000026
100
AcDbArc
 50
134.8301013088
 51
261.2356281468
  0
ARC
  5
F2
330
1F
100
AcDbEntity
  8
0
  6
Continuous
 62
     7
370
    15
100
AcDbCircle
 10
79.5605781898
 20
145.8424561025
 30
0.0
 40
0.1000000000000048
100
AcDbArc
 50
278.7643718532
 51
45.1698986912
  0
ARC
  5
F3
330
1F
100
AcDbEntity
  8
0
  6
Continuous
 62
     7
370
    15
100
AcDbCircle
 10
67.624969747
 20
145.9178795701
 30
0.0
 40
0.0063500000000021
100
AcDbArc
 50
314.8301013087
 51
79.5048589163
  0
ARC
  5
F4
330
1F
100
AcDbEntity
  8
0
  6
Continuous
 62
     7
370
    15
100
AcDbCircle
 10
79.6355556734
 20
145.9178795701
 30
0.0
 40
0.0063500000000021
100
AcDbArc
 50
100.4951410837
 51
225.1698986913
  0
ARC
  5
F5
330
1F
100
AcDbEntity
  8
0
  6
Continuous
 62
     7
370
    15
100
AcDbCircle
 10
67.7609638378
 20
145.6642234061
 30
0.0
 40
0.1000000000000212
100
AcDbArc
 50
136.5608705393
 51
262.9663973774
  0
ARC
  5
F6
330
1F
100
AcDbEntity
  8
0
  6
Continuous
 62
     7
370
    15
100
AcDbCircle
 10
79.4995615826
 20
145.6642234061
 30
0.0
 40
0.1000000000000212
100
AcDbArc
 50
277.0336026226
 51
43.4391294607
  0
ARC
  5
F7
330
1F
100
AcDbEntity
  8
0
  6
Continuous
 62
     7
370
    15
100
AcDbCircle
 10
67.683742543
 20
145.7373479173
 30
0.0
 40
0.0063500000000312
100
AcDbArc
 50
316.5608705393
 51
81.2356281468
  0
ARC
  5
F8
330
1F
100
AcDbEntity
  8
0
  6
Continuous
 62
     7
370
    15
100
AcDbCircle
 10
79.5767828774
 20
145.7373479173
 30
0.0
 40
0.006350000000029
100
AcDbArc
 50
98.764371853
 51
223.4391294607
  0
ARC
  5
F9
330
1F
100
AcDbEntity
  8
0
  6
Continuous
 62
     7
370
    15
100
AcDbCircle
 10
67.8273357754
 20
145.4879149085
 30
0.0
 40
0.1000000000000063
100
AcDbArc
 50
138.2916397699
 51
264.697166608
  0
ARC
  5
FA
330
1F
100
AcDbEntity
  8
0
  6
Continuous
 62
     7
370
    15
100
AcDbCircle
 10
79.4331896451
 20
145.4879149085
 30
0.0
 40
0.1000000000000063
100
AcDbArc
 50
275.302833392
 51
41.7083602301
  0
ARC
  5
FB
330
1F
100
AcDbEntity
  8
0
  6
Continuous
 62
     7
370
    15
100
AcDbCircle
 10
67.7479411285
 20
145.5586737422
 30
0.0
 40
0.0063500000000057
100
AcDbArc
 50
318.2916397699
 51
82.9663973773
  0
ARC
  5
FC
330
1F
100
AcDbEntity
  8
0
  6
Continuous
 62
     7
370
    15
100
AcDbCircle
 10
79.5125842919
 20
145.5586737422
 30
0.0
 40
0.0063500000000057
100
AcDbArc
 50
97.0336026227
 51
221.7083602301
  0
ARC
  5
FD
330
1F
100
AcDbEntity
  8
0
  6
Continuous
 62
     7
370
    15
100
AcDbCircle
 10
67.8990024835
 20
145.3136914791
 30
0.0
 40
0.1000000000000036
100
AcDbArc
 50
140.0224090005
 51
266.4279358385
  0
ARC
  5
FE
330
1F
100
AcDbEntity
  8
0
  6
Continuous
 62
     7
370
    15
100
AcDbCircle
 10
79.361522937
 20
145.3136914791
 30
0.0
 40
0.1000000000000036
100
AcDbArc
 50
273.5720641615
 51
39.9775909995
  0
ARC
  5
FF
330
1F
100
AcDbEntity
  8
0
  6
Continuous
 62
     7
370
    15
100
AcDbCircle
 10
67.8175069267
 20
145.3820200728
 30
0.0
 40
0.0063499999999995
100
AcDbArc
 50
320.0224090003
 51
84.6971666082
  0
ARC
  5
100
330
1F
100
AcDbEntity
  8
0
  6
Continuous
 62
     7
370
    15
100
AcDbCircle
 10
79.4430184938
 20
145.3820200728
 30
0.0
 40
0.0063500000000104
100
AcDbArc
 50
95.3028333919
 51
219.9775909996
  0
ARC
  5
101
330
1F
100
AcDbEntity
  8
0
  6
Continuous
 62
     7
370
    15
100
AcDbCircle
 10
67.9758985712
 20
145.1417120846
 30
0.0
 40
0.1000000000000053
100
AcDbArc
 50
141.753178231
 51
268.1587050691
  0
ARC
  5
102
330
1F
100
AcDbEntity
  8
0
  6
Continuous
 62
     7
370
    15
100
AcDbCircle
 10
79.2846268492
 20
145.1417120846
 30
0.0
 40
0.1000000000000053
100
AcDbArc
 50
271.8412949309
 51
38.246821769
  0
ARC
  5
103
330
1F
100
AcDbEntity
  8
0
  6
Continuous
 62
     7
370
    15
100
AcDbCircle
 10
67.8923764635
 20
145.2075480932
 30
0.0
 40
0.0063499999999954
100
AcDbArc
 50
321.7531782309
 51
86.4279358385
  0
ARC
  5
104
330
1F
100
AcDbEntity
  8
0
  6
Continuous
 62
     7
370
    15
100
AcDbCircle
 10
79.3681489569
 20
145.2075480932
 30
0.0
 40
0.0063500000000059
100
AcDbArc
 50
93.5720641616
 51
218.246821769
  0
ARC
  5
105
330
1F
100
AcDbEntity
  8
0
  6
Continuous
 62
     7
370
    15
100
AcDbCircle
 10
68.0579538762
 20
144.9721336445
 30
0.0
 40
0.1000000000000315
100
AcDbArc
 50
143.4839474616
 51
269.8894742989
  0
ARC
  5
106
330
1F
100
AcDbEntity
  8
0
  6
Continuous
 62
     7
370
    15
100
AcDbCircle
 10
79.2025715443
 20
144.9721336445
 30
0.0
 40
0.1000000000000315
100
AcDbArc
 50
270.1105257011
 51
36.5160525384
  0
ARC
  5
107
330
1F
100
AcDbEntity
  8
0
  6
Continuous
 62
     7
370
    15
100
AcDbCircle
 10
67.9724814258
 20
145.0354169972
 30
0.0
 40
0.0063500000000171
100
AcDbArc
 50
323.4839474614
 51
88.1587050688
  0
ARC
  5
108
330
1F
100
AcDbEntity
  8
0
  6
Continuous
 62
     7
370
    15
100
AcDbCircle
 10
79.2880439947
 20
145.0354169972
 30
0.0
 40
0.0063500000000056
100
AcDbArc
 50
91.841294931
 51
216.5160525386
  0
ARC
  5
109
330
1F
100
AcDbEntity
  8
0
  6
Continuous
 62
     7
370
    15
100
AcDbCircle
 10
68.1450935286
 20
144.8051108874
 30
0.0
 40
0.1000000000000315
100
AcDbArc
 50
145.2147166922
 51
270.0
  0
ARC
  5
10A
330
1F
100
AcDbEntity
  8
0
  6
Continuous
 62
     7
370
    15
100
AcDbCircle
 10
79.1154318918
 20
144.8051108874
 30
0.0
 40
0.1000000000000198
100
AcDbArc
 50
270.0
 51
34.7852833078
  0
LINE
  5
10B
330
1F
100
AcDbEntity
  8
0
  6
Continuous
 62
     7
370
    15
100
AcDbLine
 10
68.1450935286
 20
144.7051108874
 30
0.0
 11
79.1154318918
 21
144.7051108874
 31
0.0
  0
ARC
  5
10C
330
1F
100
AcDbEntity
  8
0
  6
Continuous
 62
     7
370
    15
100
AcDbCircle
 10
68.0577487232
 20
144.8657838424
 30
0.0
 40
0.0063499999999969
100
AcDbArc
 50
325.2147166921
 51
89.8894743101
  0
ARC
  5
10D
330
1F
100
AcDbEntity
  8
0
  6
Continuous
 62
     7
370
    15
100
AcDbCircle
 10
79.2027766973
 20
144.8657838424
 30
0.0
 40
0.0063499999999969
100
AcDbArc
 50
90.1105256897
 51
214.7852833079
  0
ARC
  5
10E
330
1F
100
AcDbEntity
  8
0
  6
Continuous
 62
     7
370
    15
100
AcDbCircle
 10
68.2372380195
 20
144.64079621
 30
0.0
 40
0.1000000000000087
100
AcDbArc
 50
146.9454859227
 51
270.0
  0
ARC
  5
10F
330
1F
100
AcDbEntity
  8
0
  6
Continuous
 62
     7
370
    15
100
AcDbCircle
 10
79.0232874009
 20
144.64079621
 30
0.0
 40
0.1000000000000087
100
AcDbArc
 50
270.0
 51
33.0545140773
  0
LINE
  5
110
330
1F
100
AcDbEntity
  8
0
  6
Continuous
 62
     7
370
    15
100
AcDbLine
 10
68.2372380195
 20
144.54079621
 30
0.0
 11
79.0232874009
 21
144.54079621
 31
0.0
  0
ARC
  5
111
330
1F
100
AcDbEntity
  8
0
  6
Continuous
 62
     7
370
    15
100
AcDbCircle
 10
68.1481005552
 20
144.6988034075
 30
0.0
 40
0.0063500000000144
100
AcDbArc
 50
326.9454859227
 51
83.3657727067
  0
ARC
  5
112
330
1F
100
AcDbEntity
  8
0
  6
Continuous
 62
     7
370
    15
100
AcDbCircle
 10
79.1124248652
 20
144.6988034075
 30
0.0
 40
0.0063500000000144
100
AcDbArc
 50
96.6342272933
 51
213.0545140773
  0
LINE
  5
113
330
1F
100
AcDbEntity
  8
0
  6
Continuous
 62
     7
370
    15
100
AcDbLine
 10
79.1124248652
 20
144.7051534075
 30
0.0
 11
68.1481005552
 21
144.7051534075
 31
0.0
  0
ARC
  5
114
330
1F
100
AcDbEntity
  8
0
  6
Continuous
 62
     7
370
    15
100
AcDbCircle
 10
68.3343032735
 20
144.4793395381
 30
0.0
 40
0.0999999999999943
100
AcDbArc
 50
148.6762551533
 51
270.0
  0
ARC
  5
115
330
1F
100
AcDbEntity
  8
0
  6
Continuous
 62
     7
370
    15
100
AcDbCircle
 10
78.926222147
 20
144.4793395381
 30
0.0
 40
0.0999999999999943
100
AcDbArc
 50
270.0
 51
31.3237448467
  0
LINE
  5
116
330
1F
100
AcDbEntity
  8
0
  6
Continuous
 62
     7
370
    15
100
AcDbLine
 10
68.3343032735
 20
144.3793395381
 30
0.0
 11
78.926222147
 21
144.3793395381
 31
0.0
  0
ARC
  5
117
330
1F
100
AcDbEntity
  8
0
  6
Continuous
 62
     7
370
    15
100
AcDbCircle
 10
68.2434544821
 20
144.5346280505
 30
0.0
 40
0.0063500000000108
100
AcDbArc
 50
328.6762551532
 51
76.2552155844
  0
ARC
  5
118
330
1F
100
AcDbEntity
  8
0
  6
Continuous
 62
     7
370
    15
100
AcDbCircle
 10
79.0170709384
 20
144.5346280505
 30
0.0
 40
0.0063500000000108
100
AcDbArc
 50
103.7447844156
 51
211.3237448468
  0
LINE
  5
119
330
1F
100
AcDbEntity
  8
0
  6
Continuous
 62
     7
370
    15
100
AcDbLine
 10
79.0170709384
 20
144.5409780505
 30
0.0
 11
68.2434544821
 21
144.5409780505
 31
0.0
  0
ARC
  5
11A
330
1F
100
AcDbEntity
  8
0
  6
Continuous
 62
     7
370
    15
100
AcDbCircle
 10
68.4362007251
 20
144.3208881898
 30
0.0
 40
0.1000000000000227
100
AcDbArc
 50
150.4070243839
 51
270.0
  0
ARC
  5
11B
330
1F
100
AcDbEntity
  8
0
  6
Continuous
 62
     7
370
    15
100
AcDbCircle
 10
78.8243246953
 20
144.3208881898
 30
0.0
 40
0.1000000000000227
100
AcDbArc
 50
270.0
 51
29.5929756161
  0
LINE
  5
11C
330
1F
100
AcDbEntity
  8
0
  6
Continuous
 62
     7
370
    15
100
AcDbLine
 10
68.4362007251
 20
144.2208881898
 30
0.0
 11
78.8243246953
 21
144.2208881898
 31
0.0
  0
ARC
  5
11D
330
1F
100
AcDbEntity
  8
0
  6
Continuous
 62
     7
370
    15
100
AcDbCircle
 10
68.3437234999
 20
144.3734075702
 30
0.0
 40
0.0063500000000086
100
AcDbArc
 50
330.4070243839
 51
69.0941718745
  0
ARC
  5
11E
330
1F
100
AcDbEntity
  8
0
  6
Continuous
 62
     7
370
    15
100
AcDbCircle
 10
78.9168019206
 20
144.3734075702
 30
0.0
 40
0.0063500000000086
100
AcDbArc
 50
110.9058281255
 51
209.5929756161
  0
ARC
  5
11F
330
1F
100
AcDbEntity
  8
0
  6
Continuous
 62
     7
370
    15
100
AcDbCircle
 10
68.5428374
 20
144.1655867411
 30
0.0
 40
0.1000000000000227
100
AcDbArc
 50
152.1377936145
 51
270.0
  0
ARC
  5
120
330
1F
100
AcDbEntity
  8
0
  6
Continuous
 62
     7
370
    15
100
AcDbCircle
 10
78.7176880204
 20
144.1655867411
 30
0.0
 40
0.1000000000000227
100
AcDbArc
 50
270.0
 51
27.8622063855
  0
LINE
  5
121
330
1F
100
AcDbEntity
  8
0
  6
Continuous
 62
     7
370
    15
100
AcDbLine
 10
68.5428374
 20
144.0655867411
 30
0.0
 11
78.7176880204
 21
144.0655867411
 31
0.0
  0
ARC
  5
122
330
1F
100
AcDbEntity
  8
0
  6
Continuous
 62
     7
370
    15
100
AcDbCircle
 10
68.44881612
 20
144.215289069
 30
0.0
 40
0.0063500000000242
100
AcDbArc
 50
332.1377936147
 51
61.8543493757
  0
ARC
  5
123
330
1F
100
AcDbEntity
  8
0
  6
Continuous
 62
     7
370
    15
100
AcDbCircle
 10
78.8117093005
 20
144.215289069
 30
0.0
 40
0.0063500000000242
100
AcDbArc
 50
118.1456506243
 51
207.8622063853
  0
ARC
  5
124
330
1F
100
AcDbEntity
  8
0
  6
Continuous
 62
     7
370
    15
100
AcDbCircle
 10
68.6541159996
 20
144.0135768937
 30
0.0
 40
0.100000000000015
100
AcDbArc
 50
153.868562845
 51
270.0
  0
ARC
  5
125
330
1F
100
AcDbEntity
  8
0
  6
Continuous
 62
     7
370
    15
100
AcDbCircle
 10
78.6064094209
 20
144.0135768937
 30
0.0
 40
0.1000000000000023
100
AcDbArc
 50
270.0
 51
26.131437155
  0
LINE
  5
126
330
1F
100
AcDbEntity
  8
0
  6
Continuous
 62
     7
370
    15
100
AcDbLine
 10
68.6541159996
 20
143.9135768937
 30
0.0
 11
78.6064094209
 21
143.9135768937
 31
0.0
  0
ARC
  5
127
330
1F
100
AcDbEntity
  8
0
  6
Continuous
 62
     7
370
    15
100
AcDbCircle
 10
68.5586364527
 20
144.0604168194
 30
0.0
 40
0.0063499999999889
100
AcDbArc
 50
333.8685628451
 51
54.5044778232
  0
ARC
  5
128
330
1F
100
AcDbEntity
  8
0
  6
Continuous
 62
     7
370
    15
100
AcDbCircle
 10
78.7018889677
 20
144.0604168194
 30
0.0
 40
0.0063499999999971
100
AcDbArc
 50
125.4955221769
 51
206.1314371548
  0
ARC
  5
129
330
1F
100
AcDbEntity
  8
0
  6
Continuous
 62
     7
370
    15
100
AcDbCircle
 10
68.7699349898
 20
143.8649973462
 30
0.0
 40
0.1000000000000045
100
AcDbArc
 50
155.5993320756
 51
270.0
  0
ARC
  5
12A
330
1F
100
AcDbEntity
  8
0
  6
Continuous
 62
     7
370
    15
100
AcDbCircle
 10
78.4905904307
 20
143.8649973462
 30
0.0
 40
0.1000000000000045
100
AcDbArc
 50
270.0
 51
24.4006679244
  0
LINE
  5
12B
330
1F
100
AcDbEntity
  8
0
  6
Continuous
 62
     7
370
    15
100
AcDbLine
 10
68.7699349898
 20
143.7649973462
 30
0.0
 11
78.4905904307
 21
143.7649973462
 31
0.0
  0
ARC
  5
12C
330
1F
100
AcDbEntity
  8
0
  6
Continuous
 62
     7
370
    15
100
AcDbCircle
 10
68.6730842946
 20
143.9089321314
 30
0.0
 40
0.0063500000000049
100
AcDbArc
 50
335.5993320756
 51
47.0088163578
  0
ARC
  5
12D
330
1F
100
AcDbEntity
  8
0
  6
Continuous
 62
     7
370
    15
100
AcDbCircle
 10
78.5874411258
 20
143.9089321314
 30
0.0
 40
0.0063500000000049
100
AcDbArc
 50
132.9911836422
 51
204.4006679244
  0
ARC
  5
12E
330
1F
100
AcDbEntity
  8
0
  6
Continuous
 62
     7
370
    15
100
AcDbCircle
 10
68.8901886937
 20
143.7199836672
 30
0.0
 40
0.0999999999999999
100
AcDbArc
 50
157.3301013062
 51
270.0
  0
ARC
  5
12F
330
1F
100
AcDbEntity
  8
0
  6
Continuous
 62
     7
370
    15
100
AcDbCircle
 10
78.3703367267
 20
143.7199836672
 30
0.0
 40
0.0999999999999999
100
AcDbArc
 50
270.0
 51
22.6698986938
  0
LINE
  5
130
330
1F
100
AcDbEntity
  8
0
  6
Continuous
 62
     7
370
    15
100
AcDbLine
 10
68.8901886937
 20
143.6199836672
 30
0.0
 11
78.3703367267
 21
143.6199836672
 31
0.0
  0
ARC
  5
131
330
1F
100
AcDbEntity
  8
0
  6
Continuous
 62
     7
370
    15
100
AcDbCircle
 10
68.7920552198
 20
143.7609732244
 30
0.0
 40
0.0063500000000081
100
AcDbArc
 50
337.3301013062
 51
39.3251117658
  0
ARC
  5
132
330
1F
100
AcDbEntity
  8
0
  6
Continuous
 62
     7
370
    15
100
AcDbCircle
 10
78.4684702006
 20
143.7609732244
 30
0.0
 40
0.0063500000000081
100
AcDbArc
 50
140.6748882342
 51
202.6698986938
  0
ARC
  5
133
330
1F
100
AcDbEntity
  8
0
  6
Continuous
 62
     7
370
    15
100
AcDbCircle
 10
68.9154406757
 20
143.6166751007
 30
0.0
 40
0.0063499999999912
100
AcDbArc
 50
339.0608705366
 51
31.4016419538
  0
ARC
  5
134
330
1F
100
AcDbEntity
  8
0
  6
Continuous
 62
     7
370
    15
100
AcDbCircle
 10
78.3450847448
 20
143.6166751007
 30
0.0
 40
0.0063499999999912
100
AcDbArc
 50
148.5983580462
 51
200.9391294634
  0
ARC
  5
135
330
1F
100
AcDbEntity
  8
0
  6
Continuous
 62
     7
370
    15
100
AcDbCircle
 10
69.0147673883
 20
143.5786681717
 30
0.0
 40
0.100000000000011
100
AcDbArc
 50
159.0608705367
 51
270.0
  0
ARC
  5
136
330
1F
100
AcDbEntity
  8
0
  6
Continuous
 62
     7
370
    15
100
AcDbCircle
 10
78.2457580322
 20
143.5786681717
 30
0.0
 40
0.100000000000011
100
AcDbArc
 50
270.0
 51
20.9391294633
  0
LINE
  5
137
330
1F
100
AcDbEntity
  8
0
  6
Continuous
 62
     7
370
    15
100
AcDbLine
 10
69.0147673883
 20
143.4786681717
 30
0.0
 11
78.2457580322
 21
143.4786681717
 31
0.0
  0
ARC
  5
138
330
1F
100
AcDbEntity
  8
0
  6
Continuous
 62
     7
370
    15
100
AcDbCircle
 10
69.0431280814
 20
143.4761694225
 30
0.0
 40
0.0063500000000069
100
AcDbArc
 50
340.7916397674
 51
23.1726932461
  0
ARC
  5
139
330
1F
100
AcDbEntity
  8
0
  6
Continuous
 62
     7
370
    15
100
AcDbCircle
 10
78.2173973391
 20
143.4761694225
 30
0.0
 40
0.0063500000000069
100
AcDbArc
 50
156.8273067539
 51
199.2083602326
  0
ARC
  5
13A
330
1F
100
AcDbEntity
  8
0
  6
Continuous
 62
     7
370
    15
100
AcDbCircle
 10
69.143557404
 20
143.4411798002
 30
0.0
 40
0.100000000000016
100
AcDbArc
 50
160.7916397673
 51
270.0
  0
ARC
  5
13B
330
1F
100
AcDbEntity
  8
0
  6
Continuous
 62
     7
370
    15
100
AcDbCircle
 10
78.1169680165
 20
143.4411798002
 30
0.0
 40
0.100000000000016
100
AcDbArc
 50
270.0
 51
19.2083602327
  0
LINE
  5
13C
330
1F
100
AcDbEntity
  8
0
  6
Continuous
 62
     7
370
    15
100
AcDbLine
 10
69.143557404
 20
143.3411798002
 30
0.0
 11
78.1169680165
 21
143.3411798002
 31
0.0
  0
ARC
  5
13D
330
1F
100
AcDbEntity
  8
0
  6
Continuous
 62
     7
370
    15
100
AcDbCircle
 10
69.175000931
 20
143.3395843913
 30
0.0
 40
0.0063500000000004
100
AcDbArc
 50
342.5224089979
 51
14.5512263074
  0
ARC
  5
13E
330
1F
100
AcDbEntity
  8
0
  6
Continuous
 62
     7
370
    15
100
AcDbCircle
 10
78.0855244894
 20
143.3395843913
 30
0.0
 40
0.0063500000000004
100
AcDbArc
 50
165.4487736926
 51
197.4775910021
  0
ARC
  5
13F
330
1F
100
AcDbEntity
  8
0
  6
Continuous
 62
     7
370
    15
100
AcDbCircle
 10
69.2764412287
 20
143.3076440015
 30
0.0
 40
0.1000000000000152
100
AcDbArc
 50
162.5224089979
 51
270.0
  0
ARC
  5
140
330
1F
100
AcDbEntity
  8
0
  6
Continuous
 62
     7
370
    15
100
AcDbCircle
 10
77.9840841917
 20
143.3076440015
 30
0.0
 40
0.1000000000000017
100
AcDbArc
 50
270.0
 51
17.4775910021
  0
LINE
  5
141
330
1F
100
AcDbEntity
  8
0
  6
Continuous
 62
     7
370
    15
100
AcDbLine
 10
69.2764412287
 20
143.2076440015
 30
0.0
 11
77.9840841917
 21
143.2076440015
 31
0.0
  0
LWPOLYLINE
  5
142
330
1F
100
AcDbEntity
  8
0
  6
Continuous
 62
     7
370
    15
100
AcDbPolyline
 90
        3
 70
   128
 43
0.0
 10
69.3172605495
 20
143.2076440015
 10
69.3172827175
 20
143.2067644965
 10
69.3170505861
 20
143.2053213239
  0
LWPOLYLINE
  5
143
330
1F
100
AcDbEntity
  8
0
  6
Continuous
 62
     7
370
    15
100
AcDbPolyline
 90
        3
 70
   128
 43
0.0
 10
77.9434748344
 20
143.2053213239
 10
77.943242703
 20
143.2067644965
 10
77.943264871
 20
143.2076440015
  0
ARC
  5
144
330
1F
100
AcDbEntity
  8
0
  6
Continuous
 62
     7
370
    15
100
AcDbCircle
 10
69.4132976152
 20
143.1781826177
 30
0.0
 40
0.1000000000000049
100
AcDbArc
 50
164.2531782285
 51
270.0
  0
ARC
  5
145
330
1F
100
AcDbEntity
  8
0
  6
Continuous
 62
     7
370
    15
100
AcDbCircle
 10
77.8472278052
 20
143.1781826177
 30
0.0
 40
0.1000000000000049
100
AcDbArc
 50
270.0
 51
15.7468217715
  0
LINE
  5
146
330
1F
100
AcDbEntity
  8
0
  6
Continuous
 62
     7
370
    15
100
AcDbLine
 10
69.4132976152
 20
143.0781826177
 30
0.0
 11
77.8472278052
 21
143.0781826177
 31
0.0
  0
LINE
  5
147
330
1F
100
AcDbEntity
  8
0
  6
Continuous
 62
     7
370
    15
100
AcDbLine
 10
69.4571491387
 20
143.0781826177
 30
0.0
 11
69.4569789007
 21
143.0771331469
 31
0.0
  0
LINE
  5
148
330
1F
100
AcDbEntity
  8
0
  6
Continuous
 62
     7
370
    15
100
AcDbLine
 10
77.8035465198
 20
143.0771331469
 30
0.0
 11
77.8033762817
 21
143.0781826177
 31
0.0
  0
ARC
  5
149
330
1F
100
AcDbEntity
  8
0
  6
Continuous
 62
     7
370
    15
100
AcDbCircle
 10
69.5540016916
 20
143.0529137735
 30
0.0
 40
0.0999999999999945
100
AcDbArc
 50
165.983947459
 51
270.0
  0
ARC
  5
14A
330
1F
100
AcDbEntity
  8
0
  6
Continuous
 62
     7
370
    15
100
AcDbCircle
 10
77.7065237289
 20
143.0529137735
 30
0.0
 40
0.1000000000000083
100
AcDbArc
 50
270.0
 51
14.016052541
  0
LINE
  5
14B
330
1F
100
AcDbEntity
  8
0
  6
Continuous
 62
     7
370
    15
100
AcDbLine
 10
69.5540016916
 20
142.9529137735
 30
0.0
 11
77.7065237289
 21
142.9529137735
 31
0.0
  0
ARC
  5
14C
330
1F
100
AcDbEntity
  8
0
  6
Continuous
 62
     7
370
    15
100
AcDbCircle
 10
69.6984250749
 20
142.931951768
 30
0.0
 40
0.1000000000000111
100
AcDbArc
 50
167.7147166896
 51
270.0
  0
ARC
  5
14D
330
1F
100
AcDbEntity
  8
0
  6
Continuous
 62
     7
370
    15
100
AcDbCircle
 10
77.5621003456
 20
142.931951768
 30
0.0
 40
0.1000000000000111
100
AcDbArc
 50
270.0
 51
12.2852833104
  0
LINE
  5
14E
330
1F
100
AcDbEntity
  8
0
  6
Continuous
 62
     7
370
    15
100
AcDbLine
 10
69.6984250749
 20
142.831951768
 30
0.0
 11
77.5621003456
 21
142.831951768
 31
0.0
  0
ARC
  5
14F
330
1F
100
AcDbEntity
  8
0
  6
Continuous
 62
     7
370
    15
100
AcDbCircle
 10
69.8464359888
 20
142.8154069707
 30
0.0
 40
0.1000000000000137
100
AcDbArc
 50
169.4454859202
 51
270.0
  0
ARC
  5
150
330
1F
100
AcDbEntity
  8
0
  6
Continuous
 62
     7
370
    15
100
AcDbCircle
 10
77.4140894317
 20
142.8154069707
 30
0.0
 40
0.1000000000000137
100
AcDbArc
 50
270.0
 51
10.5545140798
  0
LINE
  5
151
330
1F
100
AcDbEntity
  8
0
  6
Continuous
 62
     7
370
    15
100
AcDbLine
 10
69.8464359888
 20
142.7154069707
 30
0.0
 11
77.4140894317
 21
142.7154069707
 31
0.0
  0
ARC
  5
152
330
1F
100
AcDbEntity
  8
0
  6
Continuous
 62
     7
370
    15
100
AcDbCircle
 10
69.9978993836
 20
142.7033857207
 30
0.0
 40
0.0999999999999981
100
AcDbArc
 50
173.0956332867
 51
270.0
  0
ARC
  5
153
330
1F
100
AcDbEntity
  8
0
  6
Continuous
 62
     7
370
    15
100
AcDbCircle
 10
77.2626260368
 20
142.7033857207
 30
0.0
 40
0.0999999999999981
100
AcDbArc
 50
270.0
 51
6.9043667133
  0
LINE
  5
154
330
1F
100
AcDbEntity
  8
0
  6
Continuous
 62
     7
370
    15
100
AcDbLine
 10
69.9978993836
 20
142.6033857207
 30
0.0
 11
77.2626260368
 21
142.6033857207
 31
0.0
  0
ARC
  5
155
330
1F
100
AcDbEntity
  8
0
  6
Continuous
 62
     7
370
    15
100
AcDbCircle
 10
70.1526770594
 20
142.5959902297
 30
0.0
 40
0.0999999999999936
100
AcDbArc
 50
175.7588236835
 51
270.0
  0
ARC
  5
156
330
1F
100
AcDbEntity
  8
0
  6
Continuous
 62
     7
370
    15
100
AcDbCircle
 10
77.1078483611
 20
142.5959902297
 30
0.0
 40
0.1000000000000077
100
AcDbArc
 50
270.0
 51
4.2411763165
  0
LINE
  5
157
330
1F
100
AcDbEntity
  8
0
  6
Continuous
 62
     7
370
    15
100
AcDbLine
 10
70.1526770594
 20
142.4959902297
 30
0.0
 11
77.1078483611
 21
142.4959902297
 31
0.0
  0
ARC
  5
158
330
1F
100
AcDbEntity
  8
0
  6
Continuous
 62
     7
370
    15
100
AcDbCircle
 10
70.3106277922
 20
142.4933184886
 30
0.0
 40
0.0999999999999979
100
AcDbArc
 50
178.4690229252
 51
270.0
  0
ARC
  5
159
330
1F
100
AcDbEntity
  8
0
  6
Continuous
 62
     7
370
    15
100
AcDbCircle
 10
76.9498976282
 20
142.4933184886
 30
0.0
 40
0.1000000000000121
100
AcDbArc
 50
270.0
 51
1.5309770748
  0
LINE
  5
15A
330
1F
100
AcDbEntity
  8
0
  6
Continuous
 62
     7
370
    15
100
AcDbLine
 10
70.3106277922
 20
142.3933184886
 30
0.0
 11
76.9498976282
 21
142.3933184886
 31
0.0
  0
ARC
  5
15B
330
1F
100
AcDbEntity
  8
0
  6
Continuous
 62
     7
370
    15
100
AcDbCircle
 10
70.4716074629
 20
142.3954641783
 30
0.0
 40
0.0999999999999978
100
AcDbArc
 50
181.2294839945
 51
270.0
  0
ARC
  5
15C
330
1F
100
AcDbEntity
  8
0
  6
Continuous
 62
     7
370
    15
100
AcDbCircle
 10
76.7889179576
 20
142.3954641783
 30
0.0
 40
0.100000000000012
100
AcDbArc
 50
270.0
 51
358.7705160055
  0
LINE
  5
15D
330
1F
100
AcDbEntity
  8
0
  6
Continuous
 62
     7
370
    15
100
AcDbLine
 10
70.4716074629
 20
142.2954641783
 30
0.0
 11
76.7889179576
 21
142.2954641783
 31
0.0
  0
LINE
  5
15E
330
1F
100
AcDbEntity
  8
0
  6
Continuous
 62
     7
370
    15
100
AcDbLine
 10
109.1902627102
 20
62.374847459
 30
0.0
 11
109.1902627102
 21
63.009847459
 31
0.0
  0
LINE
  5
15F
330
1F
100
AcDbEntity
  8
0
  6
Continuous
 62
     7
370
    15
100
AcDbLine
 10
102.8402627102
 20
63.009847459
 30
0.0
 11
102.8402627102
 21
62.374847459
 31
0.0
  0
LINE
  5
160
330
1F
100
AcDbEntity
  8
0
  6
Continuous
 62
     7
370
    15
100
AcDbLine
 10
109.1902627102
 20
65.232347459
 30
0.0
 11
109.1902627102
 21
65.708597459
 31
0.0
  0
LINE
  5
161
330
1F
100
AcDbEntity
  8
0
  6
Continuous
 62
     7
370
    15
100
AcDbLine
 10
102.8402627102
 20
65.708597459
 30
0.0
 11
102.8402627102
 21
65.232347459
 31
0.0
  0
ARC
  5
162
330
1F
100
AcDbEntity
  8
0
  6
Continuous
 62
     7
370
    15
100
AcDbCircle
 10
70.6354691886
 20
142.3025165841
 30
0.0
 40
0.1000000000000023
100
AcDbArc
 50
184.0440879354
 51
270.0
  0
ARC
  5
163
330
1F
100
AcDbEntity
  8
0
  6
Continuous
 62
     7
370
    15
100
AcDbCircle
 10
76.6250562318
 20
142.3025165841
 30
0.0
 40
0.0999999999999881
100
AcDbArc
 50
270.0
 51
355.9559120646
  0
LINE
  5
164
330
1F
100
AcDbEntity
  8
0
  6
Continuous
 62
     7
370
    15
100
AcDbLine
 10
70.6354691886
 20
142.2025165841
 30
0.0
 11
76.6250562318
 21
142.2025165841
 31
0.0
  0
ARC
  5
165
330
1F
100
AcDbEntity
  8
0
  6
Continuous
 62
     7
370
    15
100
AcDbCircle
 10
70.8020634568
 20
142.2145605143
 30
0.0
 40
0.0999999999999982
100
AcDbArc
 50
186.9174566234
 51
270.0
  0
ARC
  5
166
330
1F
100
AcDbEntity
  8
0
  6
Continuous
 62
     7
370
    15
100
AcDbCircle
 10
76.4584619636
 20
142.2145605143
 30
0.0
 40
0.0999999999999982
100
AcDbArc
 50
270.0
 51
353.0825433766
  0
LINE
  5
167
330
1F
100
AcDbEntity
  8
0
  6
Continuous
 62
     7
370
    15
100
AcDbLine
 10
70.8020634568
 20
142.1145605143
 30
0.0
 11
76.4584619636
 21
142.1145605143
 31
0.0
  0
ARC
  5
168
330
1F
100
AcDbEntity
  8
0
  6
Continuous
 62
     7
370
    15
100
AcDbCircle
 10
70.9712382618
 20
142.1316762228
 30
0.0
 40
0.1000000000000227
100
AcDbArc
 50
189.8551012021
 51
270.0
  0
ARC
  5
169
330
1F
100
AcDbEntity
  8
0
  6
Continuous
 62
     7
370
    15
100
AcDbCircle
 10
76.2892871586
 20
142.1316762228
 30
0.0
 40
0.1000000000000227
100
AcDbArc
 50
270.0
 51
350.1448987979
  0
LINE
  5
16A
330
1F
100
AcDbEntity
  8
0
  6
Continuous
 62
     7
370
    15
100
AcDbLine
 10
70.9712382618
 20
142.0316762228
 30
0.0
 11
76.2892871586
 21
142.0316762228
 31
0.0
  0
ARC
  5
16B
330
1F
100
AcDbEntity
  8
0
  6
Continuous
 62
     7
370
    15
100
AcDbCircle
 10
71.1428392432
 20
142.0539393357
 30
0.0
 40
0.1000000000000022
100
AcDbArc
 50
192.8636190137
 51
270.0
  0
ARC
  5
16C
330
1F
100
AcDbEntity
  8
0
  6
Continuous
 62
     7
370
    15
100
AcDbCircle
 10
76.1176861773
 20
142.0539393357
 30
0.0
 40
0.1000000000000161
100
AcDbArc
 50
270.0
 51
347.1363809863
  0
LINE
  5
16D
330
1F
100
AcDbEntity
  8
0
  6
Continuous
 62
     7
370
    15
100
AcDbLine
 10
71.1428392432
 20
141.9539393357
 30
0.0
 11
76.1176861773
 21
141.9539393357
 31
0.0
  0
LINE
  5
16E
330
1F
100
AcDbEntity
  8
0
  6
Continuous
 62
     7
370
    15
100
AcDbLine
 10
108.5552627102
 20
63.4183944214
 30
0.0
 11
108.5552627102
 21
65.232347459
 31
0.0
  0
LINE
  5
16F
330
1F
100
AcDbEntity
  8
0
  6
Continuous
 62
     7
370
    15
100
AcDbLine
 10
108.5552627102
 20
63.009847459
 30
0.0
 11
108.5552627102
 21
63.1031243616
 31
0.0
  0
LINE
  5
170
330
1F
100
AcDbEntity
  8
0
  6
Continuous
 62
     7
370
    15
100
AcDbLine
 10
103.4752627102
 20
63.101097459
 30
0.0
 11
103.4752627102
 21
63.009847459
 31
0.0
  0
LINE
  5
171
330
1F
100
AcDbEntity
  8
0
  6
Continuous
 62
     7
370
    15
100
AcDbLine
 10
103.4752627102
 20
65.232347459
 30
0.0
 11
103.4752627102
 21
63.418597459
 31
0.0
  0
ARC
  5
172
330
1F
100
AcDbEntity
  8
0
  6
Continuous
 62
     7
370
    15
100
AcDbCircle
 10
71.3167098268
 20
141.9814207825
 30
0.0
 40
0.1000000000000227
100
AcDbArc
 50
195.9509580187
 51
270.0
  0
ARC
  5
173
330
1F
100
AcDbEntity
  8
0
  6
Continuous
 62
     7
370
    15
100
AcDbCircle
 10
75.9438155936
 20
141.9814207825
 30
0.0
 40
0.1000000000000227
100
AcDbArc
 50
270.0
 51
344.0490419813
  0
LINE
  5
174
330
1F
100
AcDbEntity
  8
0
  6
Continuous
 62
     7
370
    15
100
AcDbLine
 10
71.3167098268
 20
141.8814207825
 30
0.0
 11
75.9438155936
 21
141.8814207825
 31
0.0
  0
ARC
  5
175
330
1F
100
AcDbEntity
  8
0
  6
Continuous
 62
     7
370
    15
100
AcDbCircle
 10
71.492691368
 20
141.9141867316
 30
0.0
 40
0.0999999999999943
100
AcDbArc
 50
199.1267774996
 51
270.0
  0
ARC
  5
176
330
1F
100
AcDbEntity
  8
0
  6
Continuous
 62
     7
370
    15
100
AcDbCircle
 10
75.7678340525
 20
141.9141867316
 30
0.0
 40
0.0999999999999998
100
AcDbArc
 50
270.0
 51
340.8732225004
  0
LINE
  5
177
330
1F
100
AcDbEntity
  8
0
  6
Continuous
 62
     7
370
    15
100
AcDbLine
 10
71.492691368
 20
141.8141867316
 30
0.0
 11
75.7678340525
 21
141.8141867316
 31
0.0
  0
LINE
  5
178
330
1F
100
AcDbEntity
  8
0
  6
Continuous
 62
     7
370
    15
100
AcDbLine
 10
85.2190127102
 20
183.634447459
 30
0.0
 11
85.2190127102
 21
184.269447459
 31
0.0
  0
LINE
  5
179
330
1F
100
AcDbEntity
  8
0
  6
Continuous
 62
     7
370
    15
100
AcDbLine
 10
81.0915127102
 20
184.269447459
 30
0.0
 11
81.0915127102
 21
183.634447459
 31
0.0
  0
ARC
  5
17A
330
1F
100
AcDbEntity
  8
0
  6
Continuous
 62
     7
370
    15
100
AcDbCircle
 10
71.6706232955
 20
141.8522985292
 30
0.0
 40
0.0999999999999943
100
AcDbArc
 50
202.4029498844
 51
270.0
  0
ARC
  5
17B
330
1F
100
AcDbEntity
  8
0
  6
Continuous
 62
     7
370
    15
100
AcDbCircle
 10
75.589902125
 20
141.8522985292
 30
0.0
 40
0.1000000000000041
100
AcDbArc
 50
270.0
 51
337.5970501156
  0
LINE
  5
17C
330
1F
100
AcDbEntity
  8
0
  6
Continuous
 62
     7
370
    15
100
AcDbLine
 10
71.6706232955
 20
141.7522985292
 30
0.0
 11
75.589902125
 21
141.7522985292
 31
0.0
  0
ARC
  5
17D
330
1F
100
AcDbEntity
  8
0
  6
Continuous
 62
     7
370
    15
100
AcDbCircle
 10
71.8503432588
 20
141.7958126441
 30
0.0
 40
0.1000000000000044
100
AcDbArc
 50
205.7942757715
 51
270.0
  0
ARC
  5
17E
330
1F
100
AcDbEntity
  8
0
  6
Continuous
 62
     7
370
    15
100
AcDbCircle
 10
75.4101821617
 20
141.7958126441
 30
0.0
 40
0.1000000000000044
100
AcDbArc
 50
270.0
 51
334.2057242285
  0
LINE
  5
17F
330
1F
100
AcDbEntity
  8
0
  6
Continuous
 62
     7
370
    15
100
AcDbLine
 10
71.8503432588
 20
141.6958126441
 30
0.0
 11
75.4101821617
 21
141.6958126441
 31
0.0
  0
ARC
  5
180
330
1F
100
AcDbEntity
  8
0
  6
Continuous
 62
     7
370
    15
100
AcDbCircle
 10
72.0316872758
 20
141.7447806158
 30
0.0
 40
0.0999999999999965
100
AcDbArc
 50
209.3195324928
 51
270.0
  0
ARC
  5
181
330
1F
100
AcDbEntity
  8
0
  6
Continuous
 62
     7
370
    15
100
AcDbCircle
 10
75.2288381447
 20
141.7447806158
 30
0.0
 40
0.0999999999999965
100
AcDbArc
 50
270.0
 51
330.6804675072
  0
LINE
  5
182
330
1F
100
AcDbEntity
  8
0
  6
Continuous
 62
     7
370
    15
100
AcDbLine
 10
72.0316872758
 20
141.6447806158
 30
0.0
 11
75.2288381447
 21
141.6447806158
 31
0.0
  0
ARC
  5
183
330
1F
100
AcDbEntity
  8
0
  6
Continuous
 62
     7
370
    15
100
AcDbCircle
 10
72.2144898826
 20
141.6992490076
 30
0.0
 40
0.1000000000000031
100
AcDbArc
 50
213.0030662814
 51
270.0
  0
ARC
  5
184
330
1F
100
AcDbEntity
  8
0
  6
Continuous
 62
     7
370
    15
100
AcDbCircle
 10
75.0460355378
 20
141.6992490076
 30
0.0
 40
0.1000000000000031
100
AcDbArc
 50
270.0
 51
326.9969337186
  0
LINE
  5
185
330
1F
100
AcDbEntity
  8
0
  6
Continuous
 62
     7
370
    15
100
AcDbLine
 10
72.2144898826
 20
141.5992490076
 30
0.0
 11
75.0460355378
 21
141.5992490076
 31
0.0
  0
ARC
  5
186
330
1F
100
AcDbEntity
  8
0
  6
Continuous
 62
     7
370
    15
100
AcDbCircle
 10
72.3985842845
 20
141.6592593637
 30
0.0
 40
0.0999999999999971
100
AcDbArc
 50
216.8773150548
 51
270.0
  0
ARC
  5
187
330
1F
100
AcDbEntity
  8
0
  6
Continuous
 62
     7
370
    15
100
AcDbCircle
 10
74.8619411359
 20
141.6592593637
 30
0.0
 40
0.0999999999999971
100
AcDbArc
 50
270.0
 51
323.1226849452
  0
LINE
  5
188
330
1F
100
AcDbEntity
  8
0
  6
Continuous
 62
     7
370
    15
100
AcDbLine
 10
72.3985842845
 20
141.5592593637
 30
0.0
 11
74.8619411359
 21
141.5592593637
 31
0.0
  0
ARC
  5
189
330
1F
100
AcDbEntity
  8
0
  6
Continuous
 62
     7
370
    15
100
AcDbCircle
 10
72.583802508
 20
141.6248481721
 30
0.0
 40
0.0999999999999943
100
AcDbArc
 50
220.9870235251
 51
270.0
  0
ARC
  5
18A
330
1F
100
AcDbEntity
  8
0
  6
Continuous
 62
     7
370
    15
100
AcDbCircle
 10
74.6767229125
 20
141.6248481721
 30
0.0
 40
0.0999999999999943
100
AcDbArc
 50
270.0
 51
319.0129764749
  0
LINE
  5
18B
330
1F
100
AcDbEntity
  8
0
  6
Continuous
 62
     7
370
    15
100
AcDbLine
 10
72.583802508
 20
141.5248481721
 30
0.0
 11
74.6767229125
 21
141.5248481721
 31
0.0
  0
LINE
  5
18C
330
1F
100
AcDbEntity
  8
0
  6
Continuous
 62
     7
370
    15
100
AcDbLine
 10
91.6483877102
 20
121.0335182627
 30
0.0
 11
91.6483877102
 21
120.7160182627
 31
0.0
  0
LINE
  5
18D
330
1F
100
AcDbEntity
  8
0
  6
Continuous
 62
     7
370
    15
100
AcDbLine
 10
93.7121377102
 20
120.7160182627
 30
0.0
 11
93.7121377102
 21
121.0335182627
 31
0.0
  0
LINE
  5
18E
330
1F
100
AcDbEntity
  8
0
  6
Continuous
 62
     7
370
    15
100
AcDbLine
 10
93.7121377102
 20
111.9551133812
 30
0.0
 11
93.7121377102
 21
120.6863633812
 31
0.0
  0
LINE
  5
18F
330
1F
100
AcDbEntity
  8
0
  6
Continuous
 62
     7
370
    15
100
AcDbLine
 10
91.6483877102
 20
120.6863633812
 30
0.0
 11
91.6483877102
 21
111.9551133812
 31
0.0
  0
ARC
  5
190
330
1F
100
AcDbEntity
  8
0
  6
Continuous
 62
     7
370
    15
100
AcDbCircle
 10
72.7699755542
 20
141.5960468306
 30
0.0
 40
0.1000000000000124
100
AcDbArc
 50
225.3967800363
 51
270.0
  0
ARC
  5
191
330
1F
100
AcDbEntity
  8
0
  6
Continuous
 62
     7
370
    15
100
AcDbCircle
 10
74.4905498662
 20
141.5960468306
 30
0.0
 40
0.1000000000000124
100
AcDbArc
 50
270.0
 51
314.6032199637
  0
LINE
  5
192
330
1F
100
AcDbEntity
  8
0
  6
Continuous
 62
     7
370
    15
100
AcDbLine
 10
72.7699755542
 20
141.4960468306
 30
0.0
 11
74.4905498662
 21
141.4960468306
 31
0.0
  0
ARC
  5
193
330
1F
100
AcDbEntity
  8
0
  6
Continuous
 62
     7
370
    15
100
AcDbCircle
 10
72.9569335532
 20
141.5728816183
 30
0.0
 40
0.1000000000000227
100
AcDbArc
 50
230.2057606379
 51
270.0
  0
ARC
  5
194
330
1F
100
AcDbEntity
  8
0
  6
Continuous
 62
     7
370
    15
100
AcDbCircle
 10
74.3035918673
 20
141.5728816183
 30
0.0
 40
0.1000000000000227
100
AcDbArc
 50
270.0
 51
309.7942393621
  0
LINE
  5
195
330
1F
100
AcDbEntity
  8
0
  6
Continuous
 62
     7
370
    15
100
AcDbLine
 10
72.9569335532
 20
141.4728816183
 30
0.0
 11
74.3035918673
 21
141.4728816183
 31
0.0
  0
LINE
  5
196
330
1F
100
AcDbEntity
  8
0
  6
Continuous
 62
     7
370
    15
100
AcDbLine
 10
92.4004632457
 20
120.6997944121
 30
0.0
 11
92.4004632457
 21
120.7026292335
 31
0.0
  0
LINE
  5
197
330
1F
100
AcDbEntity
  8
0
  6
Continuous
 62
     7
370
    15
100
AcDbLine
 10
92.3894247884
 20
120.6865641591
 30
0.0
 11
92.3857330815
 21
120.6887183505
 31
0.0
  0
SPLINE
  5
198
330
1F
100
AcDbEntity
  8
0
  6
Continuous
 62
     7
370
    15
100
AcDbSpline
210
0.0
220
0.0
230
1.0
 70
     8
 71
     3
 72
     9
 73
     5
 74
     0
 42
0.000000001
 43
0.00000001
 40
0.0
 40
0.0
 40
0.0
 40
0.0
 40
0.5518446539445919
 40
1.0
 40
1.0
 40
1.0
 40
1.0
 10
92.30597766691089
 20
120.6998236254624
 30
0.0
 10
92.30352071505057
 20
120.6983941353131
 30
0.0
 10
92.29906846233277
 20
120.695803750249
 30
0.0
 10
92.29462287322177
 20
120.6932153020892
 30
0.0
 10
92.29263055869531
 20
120.6920552752084
 30
0.0
  0
LINE
  5
199
330
1F
100
AcDbEntity
  8
0
  6
Continuous
 62
     7
370
    15
100
AcDbLine
 10
92.2923296894
 20
120.6918801135
 30
0.0
 11
92.2912440061
 21
120.6912480442
 31
0.0
  0
SPLINE
  5
19A
330
1F
100
AcDbEntity
  8
0
  6
Continuous
 62
     7
370
    15
100
AcDbSpline
210
0.0
220
0.0
230
1.0
 70
     8
 71
     3
 72
     9
 73
     5
 74
     0
 42
0.000000001
 43
0.00000001
 40
0.0
 40
0.0
 40
0.0
 40
0.0
 40
0.5161397321763201
 40
1.0
 40
1.0
 40
1.0
 40
1.0
 10
92.4001142085133
 20
120.7030170841968
 30
0.0
 10
92.3976381004359
 20
120.7044569722977
 30
0.0
 10
92.39284074049047
 20
120.707246697659
 30
0.0
 10
92.3880507618549
 20
120.7100436081142
 30
0.0
 10
92.38573308150944
 20
120.711396921956
 30
0.0
  0
SPLINE
  5
19B
330
1F
100
AcDbEntity
  8
0
  6
Continuous
 62
     7
370
    15
100
AcDbSpline
210
0.0
220
0.0
230
1.0
 70
     8
 71
     3
 72
     9
 73
     5
 74
     0
 42
0.000000001
 43
0.00000001
 40
0.0
 40
0.0
 40
0.0
 40
0.0
 40
0.4998028571175532
 40
1.0
 40
1.0
 40
1.0
 40
1.0
 10
92.38527657653086
 20
120.6907424348502
 30
0.0
 10
92.38773100074866
 20
120.6921741011021
 30
0.0
 10
92.39264178543675
 20
120.6950385630223
 30
0.0
 10
92.39756522885632
 20
120.697900037854
 30
0.0
 10
92.40002792118794
 20
120.6993313393892
 30
0.0
  0
SPLINE
  5
19C
330
1F
100
AcDbEntity
  8
0
  6
Continuous
 62
     7
370
    15
100
AcDbSpline
210
0.0
220
0.0
230
1.0
 70
     8
 71
     3
 72
     9
 73
     5
 74
     0
 42
0.000000001
 43
0.00000001
 40
0.0
 40
0.0
 40
0.0
 40
0.0
 40
0.514308646641078
 40
1.0
 40
1.0
 40
1.0
 40
1.0
 10
92.29152507492691
 20
120.7107547832695
 30
0.0
 10
92.29400272505782
 20
120.7093153141518
 30
0.0
 10
92.29882016327723
 20
120.7065164712253
 30
0.0
 10
92.30363492287319
 20
120.7037102242837
 30
0.0
 10
92.30597340997745
 20
120.7023472544087
 30
0.0
  0
LINE
  5
19D
330
1F
100
AcDbEntity
  8
0
  6
Continuous
 62
     7
370
    15
100
AcDbLine
 10
92.3852765765
 20
120.7134210063
 30
0.0
 11
92.3893314621
 21
120.715784796
 31
0.0
  0
LINE
  5
19E
330
1F
100
AcDbEntity
  8
0
  6
Continuous
 62
     7
370
    15
100
AcDbLine
 10
92.3857330815
 20
120.7111336978
 30
0.0
 11
92.3857330815
 21
120.7136871252
 31
0.0
  0
ARC
  5
19F
330
1F
100
AcDbEntity
  8
0
  6
Continuous
 62
     7
370
    15
100
AcDbCircle
 10
73.1445059185
 20
141.5553736721
 30
0.0
 40
0.1000000000000227
100
AcDbArc
 50
235.5804358654
 51
270.0
  0
ARC
  5
1A0
330
1F
100
AcDbEntity
  8
0
  6
Continuous
 62
     7
370
    15
100
AcDbCircle
 10
74.116019502
 20
141.5553736721
 30
0.0
 40
0.1000000000000227
100
AcDbArc
 50
270.0
 51
304.4195641346
  0
LINE
  5
1A1
330
1F
100
AcDbEntity
  8
0
  6
Continuous
 62
     7
370
    15
100
AcDbLine
 10
73.1445059185
 20
141.4553736721
 30
0.0
 11
74.116019502
 21
141.4553736721
 31
0.0
  0
LINE
  5
1A2
330
1F
100
AcDbEntity
  8
0
  6
Continuous
 62
     7
370
    15
100
AcDbLine
 10
74.1065127102
 20
148.5271563416
 30
0.0
 11
74.1065127102
 21
150.5909063416
 31
0.0
  0
LINE
  5
1A3
330
1F
100
AcDbEntity
  8
0
  6
Continuous
 62
     7
370
    15
100
AcDbLine
 10
73.1540127102
 20
150.5909063416
 30
0.0
 11
73.1540127102
 21
148.5271563416
 31
0.0
  0
LINE
  5
1A4
330
1F
100
AcDbEntity
  8
0
  6
Continuous
 62
     7
370
    15
100
AcDbLine
 10
93.0771377102
 20
153.456072459
 30
0.0
 11
93.0771377102
 21
171.315447459
 31
0.0
  0
LINE
  5
1A5
330
1F
100
AcDbEntity
  8
0
  6
Continuous
 62
     7
370
    15
100
AcDbLine
 10
92.2833877102
 20
171.315447459
 30
0.0
 11
92.2833877102
 21
153.456072459
 31
0.0
  0
ARC
  5
1A6
330
1F
100
AcDbEntity
  8
0
  6
Continuous
 62
     7
370
    15
100
AcDbCircle
 10
83.1552627102
 20
171.315447459
 30
0.0
 40
9.128125000000011
100
AcDbArc
 50
0.0
 51
180.0
  0
ARC
  5
1A7
330
1F
100
AcDbEntity
  8
0
  6
Continuous
 62
     7
370
    15
100
AcDbCircle
 10
83.1552627102
 20
171.315447459
 30
0.0
 40
9.921875000000021
100
AcDbArc
 50
93.6504868047
 51
180.0
  0
ARC
  5
1A8
330
1F
100
AcDbEntity
  8
0
  6
Continuous
 62
     7
370
    15
100
AcDbCircle
 10
83.1552627102
 20
171.315447459
 30
0.0
 40
9.921874999999995
100
AcDbArc
 50
0.0
 51
86.3489910986
  0
LINE
  5
1A9
330
1F
100
AcDbEntity
  8
0
  6
Continuous
 62
     7
370
    15
100
AcDbLine
 10
74.0271377102
 20
171.236072459
 30
0.0
 11
74.0271377102
 21
171.315447459
 31
0.0
  0
LINE
  5
1AA
330
1F
100
AcDbEntity
  8
0
  6
Continuous
 62
     7
370
    15
100
AcDbLine
 10
73.2333877102
 20
171.315447459
 30
0.0
 11
73.2333877102
 21
171.236072459
 31
0.0
  0
ARC
  5
1AB
330
1F
100
AcDbEntity
  8
0
  6
Continuous
 62
     7
370
    15
100
AcDbCircle
 10
73.3325215034
 20
141.5435389666
 30
0.0
 40
0.1000000000000074
100
AcDbArc
 50
241.8424045432
 51
270.0
  0
ARC
  5
1AC
330
1F
100
AcDbEntity
  8
0
  6
Continuous
 62
     7
370
    15
100
AcDbCircle
 10
73.9280039171
 20
141.5435389666
 30
0.0
 40
0.1000000000000007
100
AcDbArc
 50
270.0
 51
298.1575954568
  0
LINE
  5
1AD
330
1F
100
AcDbEntity
  8
0
  6
Continuous
 62
     7
370
    15
100
AcDbLine
 10
73.3325215034
 20
141.4435389666
 30
0.0
 11
73.9280039171
 21
141.4435389666
 31
0.0
  0
LINE
  5
1AE
330
1F
100
AcDbEntity
  8
0
  6
Continuous
 62
     7
370
    15
100
AcDbLine
 10
82.5202627102
 20
183.634447459
 30
0.0
 11
82.5202627102
 21
181.2141498612
 31
0.0
  0
LINE
  5
1AF
330
1F
100
AcDbEntity
  8
0
  6
Continuous
 62
     7
370
    15
100
AcDbLine
 10
83.7902627102
 20
181.2141498612
 30
0.0
 11
83.7902627102
 21
183.634447459
 31
0.0
  0
LINE
  5
1B0
330
1F
100
AcDbEntity
  8
0
  6
Continuous
 62
     7
370
    15
100
AcDbLine
 10
126.9252627102
 20
63.047347459
 30
0.0
 11
127.1752627102
 21
63.047347459
 31
0.0
  0
LINE
  5
1B1
330
1F
100
AcDbEntity
  8
0
  6
Continuous
 62
     7
370
    15
100
AcDbLine
 10
127.1752627102
 20
63.472347459
 30
0.0
 11
126.9252627102
 21
63.472347459
 31
0.0
  0
ARC
  5
1B2
330
1F
100
AcDbEntity
  8
0
  6
Continuous
 62
     7
370
    15
100
AcDbCircle
 10
73.5208087566
 20
141.5373883002
 30
0.0
 40
0.1000000000000227
100
AcDbArc
 50
249.8000519931
 51
270.0
  0
ARC
  5
1B3
330
1F
100
AcDbEntity
  8
0
  6
Continuous
 62
     7
370
    15
100
AcDbCircle
 10
73.7397166639
 20
141.5373883002
 30
0.0
 40
0.1000000000000227
100
AcDbArc
 50
270.0
 51
290.199948007
  0
LINE
  5
1B4
330
1F
100
AcDbEntity
  8
0
  6
Continuous
 62
     7
370
    15
100
AcDbLine
 10
73.5208087566
 20
141.4373883002
 30
0.0
 11
73.7397166639
 21
141.4373883002
 31
0.0
  0
SPLINE
  5
1B5
330
1F
100
AcDbEntity
  8
0
  6
Continuous
 62
     7
370
    15
100
AcDbSpline
210
0.0
220
0.0
230
1.0
 70
     8
 71
     3
 72
    67
 73
    63
 74
     0
 42
0.000000001
 43
0.00000001
 40
0.0
 40
0.0
 40
0.0
 40
0.0
 40
0.0093520743032635
 40
0.0177688812721069
 40
0.0254427595271185
 40
0.0324902232489938
 40
0.0389464153439416
 40
0.0448324987232802
 40
0.0501656935249385
 40
0.0557118219355361
 40
0.0605497628467915
 40
0.064867602729589
 40
0.0691784272542438
 40
0.0735201313406771
 40
0.0778985114517119
 40
0.0885862484397499
 40
0.0995494517387977
 40
0.1105638331288944
 40
0.1216001074076983
 40
0.1326673335737663
 40
0.1485344480348826
 40
0.1644438404141418
 40
0.1803544807508232
 40
0.1963218499770218
 40
0.2123061208371008
 40
0.2282647901093764
 40
0.2442706707871278
 40
0.2693786397963278
 40
0.2944677481420517
 40
0.3196094990251445
 40
0.3447050263906186
 40
0.3698513936012237
 40
0.402747165877628
 40
0.4356710885652931
 40
0.4685801294042446
 40
0.5044911076025904
 40
0.5404015806550608
 40
0.5763058435387273
 40
0.6122249707043864
 40
0.6481195595716451
 40
0.6840419594223376
 40
0.7196932057503611
 40
0.7393229271979948
 40
0.7581408037646409
 40
0.7761162583133011
 40
0.7829413911972266
 40
0.7899979456996054
 40
0.7979187995816617
 40
0.8067228050554659
 40
0.8164188001647866
 40
0.8270162406022128
 40
0.8385251320027038
 40
0.8509559560405172
 40
0.8643195903166512
 40
0.8786272220361597
 40
0.893890255489186
 40
0.9101202133661785
 40
0.9263187349173937
 40
0.9433966818681577
 40
0.961363483549685
 40
0.9802283146105337
 40
1.0
 40
1.0
 40
1.0
 40
1.0
 10
103.475262710225
 20
63.41859745904924
 30
0.0
 10
103.311800953422
 20
63.4214173927109
 30
0.0
 10
103.0012246625397
 20
63.42677524860508
 30
0.0
 10
102.5583252820288
 20
63.47063064443016
 30
0.0
 10
102.1588264447607
 20
63.53424836581787
 30
0.0
 10
101.7972618146029
 20
63.61416676662552
 30
0.0
 10
101.4707911380611
 20
63.70544590880298
 30
0.0
 10
101.1779116742491
 20
63.80397343036316
 30
0.0
 10
100.9049533901678
 20
63.91068079386053
 30
0.0
 10
100.6540410186607
 20
64.02266020198657
 30
0.0
 10
100.424274076663
 20
64.137765863328
 30
0.0
 10
100.2180838071074
 20
64.25129515013414
 30
0.0
 10
100.0235602345046
 20
64.36772072967635
 30
0.0
 10
99.83237955709092
 20
64.49151873330125
 30
0.0
 10
99.55425327232545
 20
64.6856951180296
 30
0.0
 10
99.19681121409315
 20
64.96789110609014
 30
0.0
 10
98.77757409145175
 20
65.35608041714015
 30
0.0
 10
98.3835573209279
 20
65.77811891891098
 30
0.0
 10
98.01700331497796
 20
66.22645205745178
 30
0.0
 10
97.62778619793033
 20
66.7642436101866
 30
0.0
 10
97.22818750076661
 20
67.39814335279212
 30
0.0
 10
96.8295870786028
 20
68.13048934981292
 30
0.0
 10
96.47073119364606
 20
68.88492437657968
 30
0.0
 10
96.14699243727313
 20
69.65639941609061
 30
0.0
 10
95.85433202525353
 20
70.44101849728531
 30
0.0
 10
95.5890445574935
 20
71.23597134320985
 30
0.0
 10
95.30230401834756
 20
72.19133256895772
 30
0.0
 10
95.00799436722848
 20
73.31047959857854
 30
0.0
 10
94.717542399906
 20
74.59479420957072
 30
0.0
 10
94.46470993346962
 20
75.88676803431107
 30
0.0
 10
94.2437440463151
 20
77.18554065790119
 30
0.0
 10
94.03048882804684
 20
78.62271814597318
 30
0.0
 10
93.83044769140139
 20
80.19983933876388
 30
0.0
 10
93.64760464778304
 20
81.91549207467969
 30
0.0
 10
93.4890241556105
 20
83.68644232767632
 30
0.0
 10
93.35310940994725
 20
85.51160721109923
 30
0.0
 10
93.23805306296784
 20
87.39062936413359
 30
0.0
 10
93.14397154314595
 20
89.27094866483293
 30
0.0
 10
93.06772871117028
 20
91.15178863236419
 30
0.0
 10
93.00662597093577
 20
93.033491838958
 30
0.0
 10
92.95850746172974
 20
94.91088410345435
 30
0.0
 10
92.92684787430689
 20
96.50434702725504
 30
0.0
 10
92.90597146695309
 20
97.79904966168777
 30
0.0
 10
92.89240107501116
 20
98.7849442933843
 30
0.0
 10
92.88346876960557
 20
99.54712071961292
 30
0.0
 10
92.8776404150723
 20
100.1037905957193
 30
0.0
 10
92.87390797618859
 20
100.484769564949
 30
0.0
 10
92.87012645734589
 20
100.9003302162513
 30
0.0
 10
92.8662682375243
 20
101.3620159212652
 30
0.0
 10
92.86241531230355
 20
101.8704762392129
 30
0.0
 10
92.85865126707996
 20
102.4262060260415
 30
0.0
 10
92.8550572814747
 20
103.0297287265636
 30
0.0
 10
92.85170963551852
 20
103.681592496583
 30
0.0
 10
92.84867701296982
 20
104.3823660088407
 30
0.0
 10
92.84601759901487
 20
105.1326339440427
 30
0.0
 10
92.84377599069092
 20
105.932992166349
 30
0.0
 10
92.84201708886542
 20
106.7663947733691
 30
0.0
 10
92.8407129821666
 20
107.6315136671073
 30
0.0
 10
92.83982128930202
 20
108.5269842615615
 30
0.0
 10
92.8392844946022
 20
109.4690486261044
 30
0.0
 10
92.83903550172664
 20
110.4581859127342
 30
0.0
 10
92.83902042534696
 20
111.1333551622471
 30
0.0
 10
92.83901271022502
 20
111.4788633812186
 30
0.0
  0
SPLINE
  5
1B6
330
1F
100
AcDbEntity
  8
0
  6
Continuous
 62
     7
370
    15
100
AcDbSpline
210
0.0
220
0.0
230
1.0
 70
     8
 71
     3
 72
    64
 73
    60
 74
     0
 42
0.000000001
 43
0.00000001
 40
0.0
 40
0.0
 40
0.0
 40
0.0
 40
0.0199637957060256
 40
0.0388181012230098
 40
0.0565748083569885
 40
0.0732460804878763
 40
0.0888442033383674
 40
0.1031310828442991
 40
0.1164061113106488
 40
0.1286805145936682
 40
0.1399651579800014
 40
0.1492128512867678
 40
0.1576868573026263
 40
0.1653948317260348
 40
0.1727850083008915
 40
0.1802229074588298
 40
0.187707667292639
 40
0.1952384061132995
 40
0.2028142221632026
 40
0.2394788048781924
 40
0.2768506134791061
 40
0.3142902599877526
 40
0.3644027302488279
 40
0.414534636529005
 40
0.4646653372128571
 40
0.5147731979581573
 40
0.5466883196398352
 40
0.5785589377628111
 40
0.6104716685301005
 40
0.6423334815581602
 40
0.6674001085092025
 40
0.6924348528066547
 40
0.7174626409374023
 40
0.742495435429263
 40
0.7587087423897009
 40
0.7749493188713986
 40
0.7911741567874411
 40
0.8073514841121653
 40
0.8235379138446757
 40
0.8396952918268864
 40
0.8558014412246314
 40
0.8670594956930303
 40
0.878300610701984
 40
0.8894347134566214
 40
0.9000118791272677
 40
0.9100299015160581
 40
0.9140549081486742
 40
0.9180481133913728
 40
0.9226199250118897
 40
0.9279450528284469
 40
0.9340213442784098
 40
0.9408520178247487
 40
0.948449171153839
 40
0.9568392316515045
 40
0.9660886335617496
 40
0.9736605668225792
 40
0.981842117234328
 40
0.9906354474770301
 40
1.0
 40
1.0
 40
1.0
 40
1.0
 10
92.52151271022501
 20
111.4788633812186
 30
0.0
 10
92.52152067204467
 20
111.1266798416515
 30
0.0
 10
92.52153615320496
 20
110.4418854022919
 30
0.0
 10
92.52179323597247
 20
109.4438429395736
 30
0.0
 10
92.52233866592482
 20
108.5038843681572
 30
0.0
 10
92.52322645183432
 20
107.6213687549369
 30
0.0
 10
92.52446532944498
 20
106.8000652370505
 30
0.0
 10
92.52604010516875
 20
106.0386759223014
 30
0.0
 10
92.52791401992661
 20
105.3359215817221
 30
0.0
 10
92.53005436379412
 20
104.686131049557
 30
0.0
 10
92.5323324479601
 20
104.1073881456907
 30
0.0
 10
92.53466002952169
 20
103.5956892962807
 30
0.0
 10
92.53695486595979
 20
103.1470874413009
 30
0.0
 10
92.53931085278704
 20
102.7312550535041
 30
0.0
 10
92.54177859239313
 20
102.3337017274945
 30
0.0
 10
92.54444193039203
 20
101.9400875034305
 30
0.0
 10
92.54735599575318
 20
101.5439953142662
 30
0.0
 10
92.55053631201574
 20
101.1454720745427
 30
0.0
 10
92.55842467313994
 20
100.2322057533892
 30
0.0
 10
92.57375501395715
 20
98.79255382677094
 30
0.0
 10
92.60283642425652
 20
96.82620056988127
 30
0.0
 10
92.64662961305571
 20
94.62282879571372
 30
0.0
 10
92.71222844701838
 20
92.19478140511302
 30
0.0
 10
92.81124012054407
 20
89.54378667993429
 30
0.0
 10
92.9446481475405
 20
86.89435382091801
 30
0.0
 10
93.09985067897604
 20
84.56804283008229
 30
0.0
 10
93.26753056617099
 20
82.56577786929203
 30
0.0
 10
93.43436604758634
 20
80.88573453124157
 30
0.0
 10
93.63154365551976
 20
79.20990182359768
 30
0.0
 10
93.84814039793214
 20
77.65752989560603
 30
0.0
 10
94.08087674149532
 20
76.23034974833715
 30
0.0
 10
94.32502226671639
 20
74.92752069186884
 30
0.0
 10
94.60501667951992
 20
73.63248833623737
 30
0.0
 10
94.8895089567604
 20
72.49820060142027
 30
0.0
 10
95.16811789611754
 20
71.52297041680333
 30
0.0
 10
95.42797267155126
 20
70.70433708858016
 30
0.0
 10
95.7146728103112
 20
69.89534531348053
 30
0.0
 10
96.0316283359812
 20
69.09868852632275
 30
0.0
 10
96.38288545276359
 20
68.31775867290435
 30
0.0
 10
96.77315779726666
 20
67.55687886350938
 30
0.0
 10
97.1640543872219
 20
66.8954005741066
 30
0.0
 10
97.54495026389469
 20
66.33048450492186
 30
0.0
 10
97.9032969224604
 20
65.85717610209996
 30
0.0
 10
98.2819713512039
 20
65.41558867337177
 30
0.0
 10
98.67360774506724
 20
65.01511308726715
 30
0.0
 10
98.99792686950717
 20
64.7256494702236
 30
0.0
 10
99.24562484446409
 20
64.52588379818903
 30
0.0
 10
99.42255179065062
 20
64.39156681463359
 30
0.0
 10
99.62242256395278
 20
64.24972557629111
 30
0.0
 10
99.85834162148755
 20
64.09548160382023
 30
0.0
 10
100.1353135623302
 20
63.93172513155712
 30
0.0
 10
100.4559669730899
 20
63.76393695105772
 30
0.0
 10
100.8231965426115
 20
63.59845934749448
 30
0.0
 10
101.2404941481765
 20
63.44231987484309
 30
0.0
 10
101.667693425067
 20
63.31702006272346
 30
0.0
 10
102.0986640970282
 20
63.22184241044339
 30
0.0
 10
102.5267499573327
 20
63.15512668553488
 30
0.0
 10
102.9896509146563
 20
63.10989679365055
 30
0.0
 10
103.3100325219192
 20
63.10409144668794
 30
0.0
 10
103.475262710225
 20
63.10109745904925
 30
0.0
  0
LINE
  5
1B7
330
1F
100
AcDbEntity
  8
0
  6
Continuous
 62
     7
370
    15
100
AcDbLine
 10
126.9252627102
 20
63.418597459
 30
0.0
 11
108.5552506694
 21
63.418597459
 31
0.0
  0
LINE
  5
1B8
330
1F
100
AcDbEntity
  8
0
  6
Continuous
 62
     7
370
    15
100
AcDbLine
 10
108.5551375484
 20
63.101097459
 30
0.0
 11
126.9252627102
 21
63.101097459
 31
0.0
  0
LINE
  5
1B9
330
1F
100
AcDbEntity
  8
0
  6
Continuous
 62
     7
370
    15
100
AcDbLine
 10
92.5215127102
 20
111.9551133812
 30
0.0
 11
92.5215127102
 21
111.4788633812
 31
0.0
  0
LINE
  5
1BA
330
1F
100
AcDbEntity
  8
0
  6
Continuous
 62
     7
370
    15
100
AcDbLine
 10
92.8390127102
 20
111.4788633812
 30
0.0
 11
92.8390127102
 21
111.9551133812
 31
0.0
  0
LINE
  5
1BB
330
1F
100
AcDbEntity
  8
0
  6
Continuous
 62
     7
370
    15
100
AcDbLine
 10
73.7890127102
 20
150.5909063416
 30
0.0
 11
73.7890127102
 21
171.236072459
 31
0.0
  0
LINE
  5
1BC
330
1F
100
AcDbEntity
  8
0
  6
Continuous
 62
     7
370
    15
100
AcDbLine
 10
73.4715127102
 20
171.236072459
 30
0.0
 11
73.4715127102
 21
150.5909063416
 31
0.0
  0
LINE
  5
1BD
330
1F
100
AcDbEntity
  8
0
  6
Continuous
 62
     7
370
    15
100
AcDbLine
 10
92.8390127102
 20
121.0335182627
 30
0.0
 11
92.8390127102
 21
153.456072459
 31
0.0
  0
LINE
  5
1BE
330
1F
100
AcDbEntity
  8
0
  6
Continuous
 62
     7
370
    15
100
AcDbLine
 10
92.5215127102
 20
153.456072459
 30
0.0
 11
92.5215127102
 21
121.0335182627
 31
0.0
  0
LINE
  5
1BF
330
1F
100
AcDbEntity
  8
0
  6
Continuous
 62
     7
370
    15
100
AcDbLine
 10
92.8390127102
 20
120.6906182627
 30
0.0
 11
92.8390127102
 21
120.7160182627
 31
0.0
  0
LINE
  5
1C0
330
1F
100
AcDbEntity
  8
0
  6
Continuous
 62
     7
370
    15
100
AcDbLine
 10
92.5215127102
 20
120.7160182627
 30
0.0
 11
92.5215127102
 21
120.6906182627
 31
0.0
  0
LINE
  5
1C1
330
1F
100
AcDbEntity
  8
0
  6
Continuous
 62
     7
370
    15
100
AcDbLine
 10
93.3612432292
 20
120.7063936049
 30
0.0
 11
93.3612432292
 21
120.7035587835
 31
0.0
  0
SPLINE
  5
1C2
330
1F
100
AcDbEntity
  8
0
  6
Continuous
 62
     7
370
    15
100
AcDbSpline
210
0.0
220
0.0
230
1.0
 70
     8
 71
     3
 72
     9
 73
     5
 74
     0
 42
0.000000001
 43
0.00000001
 40
0.0
 40
0.0
 40
0.0
 40
0.0
 40
0.5001062692256477
 40
1.0
 40
1.0
 40
1.0
 40
1.0
 10
93.36144557052081
 20
120.7038627368707
 30
0.0
 10
93.36387808063384
 20
120.702434100734
 30
0.0
 10
93.36874206707577
 20
120.6995774356117
 30
0.0
 10
93.37362381225094
 20
120.6967190731799
 30
0.0
 10
93.37606416605925
 20
120.6952901957199
 30
0.0
  0
SPLINE
  5
1C3
330
1F
100
AcDbEntity
  8
0
  6
Continuous
 62
     7
370
    15
100
AcDbSpline
210
0.0
220
0.0
230
1.0
 70
     8
 71
     3
 72
     9
 73
     5
 74
     0
 42
0.000000001
 43
0.00000001
 40
0.0
 40
0.0
 40
0.0
 40
0.0
 40
0.4995329093439601
 40
1.0
 40
1.0
 40
1.0
 40
1.0
 10
93.45527217997918
 20
120.7058590558865
 30
0.0
 10
93.45774137986646
 20
120.7072986311626
 30
0.0
 10
93.46268439731556
 20
120.7101804738785
 30
0.0
 10
93.46763432601563
 20
120.7130551856002
 30
0.0
 10
93.4701116024311
 20
120.714493884212
 30
0.0
  0
SPLINE
  5
1C4
330
1F
100
AcDbEntity
  8
0
  6
Continuous
 62
     7
370
    15
100
AcDbSpline
210
0.0
220
0.0
230
1.0
 70
     8
 71
     3
 72
     9
 73
     5
 74
     0
 42
0.000000001
 43
0.00000001
 40
0.0
 40
0.0
 40
0.0
 40
0.0
 40
0.6985427162394484
 40
1.0
 40
1.0
 40
1.0
 40
1.0
 10
93.37638621847337
 20
120.6927370198574
 30
0.0
 10
93.37391042573702
 20
120.6912911256732
 30
0.0
 10
93.37036620048237
 20
120.6892212534226
 30
0.0
 10
93.36682206716837
 20
120.6871586811834
 30
0.0
 10
93.36575366236626
 20
120.6865369037585
 30
0.0
  0
SPLINE
  5
1C5
330
1F
100
AcDbEntity
  8
0
  6
Continuous
 62
     7
370
    15
100
AcDbSpline
210
0.0
220
0.0
230
1.0
 70
     8
 71
     3
 72
     9
 73
     5
 74
     0
 42
0.000000001
 43
0.00000001
 40
0.0
 40
0.0
 40
0.0
 40
0.0
 40
0.4994445772670906
 40
1.0
 40
1.0
 40
1.0
 40
1.0
 10
93.37638621847337
 20
120.7154155912859
 30
0.0
 10
93.37391042999934
 20
120.7139700355268
 30
0.0
 10
93.36895334649756
 20
120.7110757088588
 30
0.0
 10
93.3639963915876
 20
120.708191592272
 30
0.0
 10
93.36151516092718
 20
120.7067479320747
 30
0.0
  0
SPLINE
  5
1C6
330
1F
100
AcDbEntity
  8
0
  6
Continuous
 62
     7
370
    15
100
AcDbSpline
210
0.0
220
0.0
230
1.0
 70
     8
 71
     3
 72
     9
 73
     5
 74
     0
 42
0.000000001
 43
0.00000001
 40
0.0
 40
0.0
 40
0.0
 40
0.0
 40
0.5377755312592096
 40
1.0
 40
1.0
 40
1.0
 40
1.0
 10
93.46934975747662
 20
120.6957891984034
 30
0.0
 10
93.4669024456215
 20
120.6972216647927
 30
0.0
 10
93.46235164010346
 20
120.6998853530902
 30
0.0
 10
93.45782526587705
 20
120.7025519682272
 30
0.0
 10
93.45573306495491
 20
120.7037845429922
 30
0.0
  0
LINE
  5
1C7
330
1F
100
AcDbEntity
  8
0
  6
Continuous
 62
     7
370
    15
100
AcDbLine
 10
93.3759733934
 20
120.6950543192
 30
0.0
 11
93.3759733934
 21
120.6924961214
 31
0.0
  0
LINE
  5
1C8
330
1F
100
AcDbEntity
  8
0
  6
Continuous
 62
     7
370
    15
100
AcDbLine
 10
92.2244716557
 20
120.6988389778
 30
0.0
 11
92.2244716557
 21
120.6960041564
 31
0.0
  0
SPLINE
  5
1C9
330
1F
100
AcDbEntity
  8
0
  6
Continuous
 62
     7
370
    15
100
AcDbSpline
210
0.0
220
0.0
230
1.0
 70
     8
 71
     3
 72
     9
 73
     5
 74
     0
 42
0.000000001
 43
0.00000001
 40
0.0
 40
0.0
 40
0.0
 40
0.0
 40
0.4994059515897136
 40
1.0
 40
1.0
 40
1.0
 40
1.0
 10
92.23973674049886
 20
120.7079302853312
 30
0.0
 10
92.23726035451203
 20
120.7064836488762
 30
0.0
 10
92.23230169116624
 20
120.703586934389
 30
0.0
 10
92.2273381232269
 20
120.700701091745
 30
0.0
 10
92.2248533906576
 20
120.6992564560927
 30
0.0
  0
SPLINE
  5
1CA
330
1F
100
AcDbEntity
  8
0
  6
Continuous
 62
     7
370
    15
100
AcDbSpline
210
0.0
220
0.0
230
1.0
 70
     8
 71
     3
 72
     9
 73
     5
 74
     0
 42
0.000000001
 43
0.00000001
 40
0.0
 40
0.0
 40
0.0
 40
0.0
 40
0.5005310199510444
 40
1.0
 40
1.0
 40
1.0
 40
1.0
 10
92.22491952098402
 20
120.6955454547629
 30
0.0
 10
92.22740010589764
 20
120.6941055799133
 30
0.0
 10
92.23235601235447
 20
120.6912288853785
 30
0.0
 10
92.23730182953493
 20
120.6883441058461
 30
0.0
 10
92.23977211179756
 20
120.6869032479554
 30
0.0
  0
SPLINE
  5
1CB
330
1F
100
AcDbEntity
  8
0
  6
Continuous
 62
     7
370
    15
100
AcDbSpline
210
0.0
220
0.0
230
1.0
 70
     8
 71
     3
 72
     9
 73
     5
 74
     0
 42
0.000000001
 43
0.00000001
 40
0.0
 40
0.0
 40
0.0
 40
0.0
 40
0.3178362513697304
 40
1.0
 40
1.0
 40
1.0
 40
1.0
 10
92.2291660641149
 20
120.7157570933544
 30
0.0
 10
92.23023052170726
 20
120.7151390382703
 30
0.0
 10
92.23357959717545
 20
120.7131944675
 30
0.0
 10
92.23692185372202
 20
120.7112444324166
 30
0.0
 10
92.2392018199767
 20
120.7099141891742
 30
0.0
  0
LINE
  5
1CC
330
1F
100
AcDbEntity
  8
0
  6
Continuous
 62
     7
370
    15
100
AcDbLine
 10
73.6302627102
 20
148.5271563416
 30
0.0
 11
80.0596377102
 21
148.5271563416
 31
0.0
  0
LINE
  5
1CD
330
1F
100
AcDbEntity
  8
0
  6
Continuous
 62
     7
370
    15
100
AcDbLine
 10
67.2008877102
 20
148.5271563416
 30
0.0
 11
73.6302627102
 21
148.5271563416
 31
0.0
  0
LINE
  5
1CE
330
1F
100
AcDbEntity
  8
0
  6
Continuous
 62
     7
370
    15
100
AcDbLine
 10
73.6302627102
 20
147.5746563416
 30
0.0
 11
80.0596377102
 21
147.5746563416
 31
0.0
  0
LINE
  5
1CF
330
1F
100
AcDbEntity
  8
0
  6
Continuous
 62
     7
370
    15
100
AcDbLine
 10
67.2008877102
 20
147.5746563416
 30
0.0
 11
73.6302627102
 21
147.5746563416
 31
0.0
  0
LINE
  5
1D0
330
1F
100
AcDbEntity
  8
0
  6
Continuous
 62
     7
370
    15
100
AcDbLine
 10
106.0152627102
 20
62.374847459
 30
0.0
 11
109.1902627102
 21
62.374847459
 31
0.0
  0
LINE
  5
1D1
330
1F
100
AcDbEntity
  8
0
  6
Continuous
 62
     7
370
    15
100
AcDbLine
 10
102.8402627102
 20
62.374847459
 30
0.0
 11
106.0152627102
 21
62.374847459
 31
0.0
  0
LINE
  5
1D2
330
1F
100
AcDbEntity
  8
0
  6
Continuous
 62
     7
370
    15
100
AcDbLine
 10
106.0152627102
 20
63.009847459
 30
0.0
 11
109.1902627102
 21
63.009847459
 31
0.0
  0
LINE
  5
1D3
330
1F
100
AcDbEntity
  8
0
  6
Continuous
 62
     7
370
    15
100
AcDbLine
 10
102.8402627102
 20
63.009847459
 30
0.0
 11
106.0152627102
 21
63.009847459
 31
0.0
  0
LINE
  5
1D4
330
1F
100
AcDbEntity
  8
0
  6
Continuous
 62
     7
370
    15
100
AcDbLine
 10
105.8041405558
 20
65.232347459
 30
0.0
 11
109.1902627102
 21
65.232347459
 31
0.0
  0
LINE
  5
1D5
330
1F
100
AcDbEntity
  8
0
  6
Continuous
 62
     7
370
    15
100
AcDbLine
 10
102.8402627102
 20
65.232347459
 30
0.0
 11
105.8041405558
 21
65.232347459
 31
0.0
  0
LINE
  5
1D6
330
1F
100
AcDbEntity
  8
0
  6
Continuous
 62
     7
370
    15
100
AcDbLine
 10
105.8041405558
 20
65.708597459
 30
0.0
 11
109.1902627102
 21
65.708597459
 31
0.0
  0
LINE
  5
1D7
330
1F
100
AcDbEntity
  8
0
  6
Continuous
 62
     7
370
    15
100
AcDbLine
 10
102.8402627102
 20
65.708597459
 30
0.0
 11
105.8041405558
 21
65.708597459
 31
0.0
  0
SPLINE
  5
1D8
330
1F
100
AcDbEntity
  8
0
  6
Continuous
 62
     7
370
    15
100
AcDbSpline
210
0.0
220
0.0
230
1.0
 70
     8
 71
     3
 72
    36
 73
    32
 74
     0
 42
0.000000001
 43
0.00000001
 40
0.0
 40
0.0
 40
0.0
 40
0.0
 40
0.0625000000000001
 40
0.0625000000000001
 40
0.1250000000000002
 40
0.1250000000000002
 40
0.1875000000000003
 40
0.1875000000000003
 40
0.2500000000000004
 40
0.2500000000000004
 40
0.3125000000000004
 40
0.3125000000000004
 40
0.3750000000000003
 40
0.3750000000000003
 40
0.4375000000000003
 40
0.4375000000000003
 40
0.5000000000000003
 40
0.5000000000000003
 40
0.5625000000000003
 40
0.5625000000000003
 40
0.6250000000000003
 40
0.6250000000000003
 40
0.6875000000000003
 40
0.6875000000000003
 40
0.7500000000000002
 40
0.7500000000000002
 40
0.8125000000000002
 40
0.8125000000000002
 40
0.8750000000000002
 40
0.8750000000000002
 40
1.0
 40
1.0
 40
1.0
 40
1.0
 10
103.475262710225
 20
63.41859745904927
 30
0.0
 10
103.475262710225
 20
63.41859745904927
 30
0.0
 10
103.4753260914938
 20
63.41759313035323
 30
0.0
 10
103.4755750616215
 20
63.41353227323921
 30
0.0
 10
103.475759952614
 20
63.41048409932628
 30
0.0
 10
103.4762167204503
 20
63.40257685220693
 30
0.0
 10
103.476491672123
 20
63.39766445703862
 30
0.0
 10
103.4770952015762
 20
63.38605935622967
 30
0.0
 10
103.4774172207657
 20
63.37949132583798
 30
0.0
 10
103.4780646203145
 20
63.36486685695503
 30
0.0
 10
103.4783933305116
 20
63.35670901492951
 30
0.0
 10
103.4789935607694
 20
63.33945342465598
 30
0.0
 10
103.479266713012
 20
63.33034111925784
 30
0.0
 10
103.4797277567953
 20
63.31114227665
 30
0.0
 10
103.4799139815606
 20
63.30105015970622
 30
0.0
 10
103.4801625587348
 20
63.28075833389146
 30
0.0
 10
103.4802279644296
 20
63.27045120520994
 30
0.0
 10
103.4802290327299
 20
63.24950226320461
 30
0.0
 10
103.4801643308035
 20
63.23915316562984
 30
0.0
 10
103.4799175289244
 20
63.21886394067344
 30
0.0
 10
103.4797327504922
 20
63.20879556864497
 30
0.0
 10
103.479272217371
 20
63.18954881996727
 30
0.0
 10
103.4789994037853
 20
63.18042813668724
 30
0.0
 10
103.4784006296183
 20
63.16317747822794
 30
0.0
 10
103.4780718740424
 20
63.15500229077212
 30
0.0
 10
103.4774239086992
 20
63.14034451920171
 30
0.0
 10
103.4771019473371
 20
63.13377126766265
 30
0.0
 10
103.4764989751773
 20
63.12216503401091
 30
0.0
 10
103.4762222169538
 20
63.11721551591866
 30
0.0
 10
103.4755351939417
 20
63.10531542875017
 30
0.0
 10
103.475262710225
 20
63.10109745904926
 30
0.0
 10
103.475262710225
 20
63.10109745904925
 30
0.0
  0
SPLINE
  5
1D9
330
1F
100
AcDbEntity
  8
0
  6
Continuous
 62
     7
370
    15
100
AcDbSpline
210
0.0
220
0.0
230
1.0
 70
     8
 71
     3
 72
    17
 73
    13
 74
     0
 42
0.000000001
 43
0.00000001
 40
0.0
 40
0.0
 40
0.0
 40
0.0
 40
0.0367707808271345
 40
0.1439261122505857
 40
0.2511582400465918
 40
0.3585730287332938
 40
0.4659918936138638
 40
0.5732289252391667
 40
0.6803822890527047
 40
0.7876804277416604
 40
0.8951260057559516
 40
1.0
 40
1.0
 40
1.0
 40
1.0
 10
108.5551371930962
 20
63.10312436162216
 30
0.0
 10
108.5551715701061
 20
63.10256847194541
 30
0.0
 10
108.5553061266554
 20
63.10039263998821
 30
0.0
 10
108.5543899669489
 20
63.11507551071702
 30
0.0
 10
108.5527755597466
 20
63.14563686078468
 30
0.0
 10
108.551090022678
 20
63.19029578595426
 30
0.0
 10
108.5501638904683
 20
63.24249926704263
 30
0.0
 10
108.550378516302
 20
63.29668025537862
 30
0.0
 10
108.5516504094046
 20
63.34675404033386
 30
0.0
 10
108.5533940445287
 20
63.38671849048635
 30
0.0
 10
108.5549399839577
 20
63.41357253437253
 30
0.0
 10
108.5551477355174
 20
63.41680015652959
 30
0.0
 10
108.5552503531689
 20
63.41839442136311
 30
0.0
  0
LINE
  5
1DA
330
1F
100
AcDbEntity
  8
0
  6
Continuous
 62
     7
370
    15
100
AcDbLine
 10
83.1552627102
 20
183.634447459
 30
0.0
 11
85.2190127102
 21
183.634447459
 31
0.0
  0
LINE
  5
1DB
330
1F
100
AcDbEntity
  8
0
  6
Continuous
 62
     7
370
    15
100
AcDbLine
 10
81.0915127102
 20
183.634447459
 30
0.0
 11
83.1552627102
 21
183.634447459
 31
0.0
  0
LINE
  5
1DC
330
1F
100
AcDbEntity
  8
0
  6
Continuous
 62
     7
370
    15
100
AcDbLine
 10
83.1552627102
 20
184.269447459
 30
0.0
 11
85.2190127102
 21
184.269447459
 31
0.0
  0
LINE
  5
1DD
330
1F
100
AcDbEntity
  8
0
  6
Continuous
 62
     7
370
    15
100
AcDbLine
 10
81.0915127102
 20
184.269447459
 30
0.0
 11
83.1552627102
 21
184.269447459
 31
0.0
  0
LINE
  5
1DE
330
1F
100
AcDbEntity
  8
0
  6
Continuous
 62
     7
370
    15
100
AcDbLine
 10
91.6483877102
 20
121.0335182627
 30
0.0
 11
93.7121377102
 21
121.0335182627
 31
0.0
  0
LINE
  5
1DF
330
1F
100
AcDbEntity
  8
0
  6
Continuous
 62
     7
370
    15
100
AcDbLine
 10
91.6483877102
 20
120.7160182627
 30
0.0
 11
93.7121377102
 21
120.7160182627
 31
0.0
  0
LINE
  5
1E0
330
1F
100
AcDbEntity
  8
0
  6
Continuous
 62
     7
370
    15
100
AcDbLine
 10
92.6802627102
 20
111.9551133812
 30
0.0
 11
93.7121377102
 21
111.9551133812
 31
0.0
  0
LINE
  5
1E1
330
1F
100
AcDbEntity
  8
0
  6
Continuous
 62
     7
370
    15
100
AcDbLine
 10
91.6483877102
 20
111.9551133812
 30
0.0
 11
92.6802627102
 21
111.9551133812
 31
0.0
  0
LINE
  5
1E2
330
1F
100
AcDbEntity
  8
0
  6
Continuous
 62
     7
370
    15
100
AcDbLine
 10
92.6802627102
 20
120.6863633812
 30
0.0
 11
93.7121377102
 21
120.6863633812
 31
0.0
  0
LINE
  5
1E3
330
1F
100
AcDbEntity
  8
0
  6
Continuous
 62
     7
370
    15
100
AcDbLine
 10
91.6483877102
 20
120.6863633812
 30
0.0
 11
92.6802627102
 21
120.6863633812
 31
0.0
  0
SPLINE
  5
1E4
330
1F
100
AcDbEntity
  8
0
  6
Continuous
 62
     7
370
    15
100
AcDbSpline
210
0.0
220
0.0
230
1.0
 70
     8
 71
     3
 72
    16
 73
    12
 74
     0
 42
0.000000001
 43
0.00000001
 40
0.0
 40
0.0
 40
0.0
 40
0.0
 40
0.0582434410664839
 40
0.1784052819914199
 40
0.3017336842263831
 40
0.4201665220154447
 40
0.5424212177178539
 40
0.664675913420267
 40
0.7831087512093454
 40
0.9064371534442912
 40
1.0
 40
1.0
 40
1.0
 40
1.0
 10
92.39943016593303
 20
120.6997944120645
 30
0.0
 10
92.39963893336626
 20
120.6995696534774
 30
0.0
 10
92.40027840816579
 20
120.6988811962301
 30
0.0
 10
92.39238520331747
 20
120.6977579318358
 30
0.0
 10
92.37742410889791
 20
120.6962107536942
 30
0.0
 10
92.35715804485358
 20
120.69493290408
 30
0.0
 10
92.33533859142351
 20
120.6934531049985
 30
0.0
 10
92.31503506436489
 20
120.6919731822727
 30
0.0
 10
92.29964085961504
 20
120.6906956969359
 30
0.0
 10
92.29103057342846
 20
120.689260958702
 30
0.0
 10
92.2918778346788
 20
120.6884430300212
 30
0.0
 10
92.29224332740753
 20
120.6880901908168
 30
0.0
  0
SPLINE
  5
1E5
330
1F
100
AcDbEntity
  8
0
  6
Continuous
 62
     7
370
    15
100
AcDbSpline
210
0.0
220
0.0
230
1.0
 70
     8
 71
     3
 72
    16
 73
    12
 74
     0
 42
0.000000001
 43
0.00000001
 40
0.0
 40
0.0
 40
0.0
 40
0.0
 40
0.0600757788677899
 40
0.1840179095450149
 40
0.3112262215046033
 40
0.4333849546326639
 40
0.5594857812679502
 40
0.6855866079032183
 40
0.8077453410312803
 40
0.9349536529908535
 40
1.0
 40
1.0
 40
1.0
 40
1.0
 10
92.39943016593303
 20
120.7026292334931
 30
0.0
 10
92.39963893693195
 20
120.7024044749671
 30
0.0
 10
92.4002784226535
 20
120.7017160179071
 30
0.0
 10
92.39238506653086
 20
120.7005927509177
 30
0.0
 10
92.37742461582137
 20
120.6990455838191
 30
0.0
 10
92.35715621575392
 20
120.6977676941301
 30
0.0
 10
92.3353456720283
 20
120.6962880478957
 30
0.0
 10
92.3150090137452
 20
120.6948075568
 30
0.0
 10
92.29973633257701
 20
120.6935321562135
 30
0.0
 10
92.2915179551807
 20
120.6922212068248
 30
0.0
 10
92.29208371623537
 20
120.6915155145851
 30
0.0
 10
92.29227513261031
 20
120.6912767546895
 30
0.0
  0
SPLINE
  5
1E6
330
1F
100
AcDbEntity
  8
0
  6
Continuous
 62
     7
370
    15
100
AcDbSpline
210
0.0
220
0.0
230
1.0
 70
     8
 71
     3
 72
    16
 73
    12
 74
     0
 42
0.000000001
 43
0.00000001
 40
0.0
 40
0.0
 40
0.0
 40
0.0
 40
0.0603502258324494
 40
0.1848585670890347
 40
0.312674405841057
 40
0.4353776244616599
 40
0.5620716665265244
 40
0.6887657085913753
 40
0.8114689272119759
 40
0.9392847659639919
 40
1.0
 40
1.0
 40
1.0
 40
1.0
 10
92.38497865826876
 20
120.7111336977788
 30
0.0
 10
92.3851311468198
 20
120.7109089427395
 30
0.0
 10
92.38559823397074
 20
120.7102204963597
 30
0.0
 10
92.37983221702352
 20
120.7090969866026
 30
0.0
 10
92.36891175719177
 20
120.707550375277
 30
0.0
 10
92.35410462967563
 20
120.7062719090395
 30
0.0
 10
92.33818094654617
 20
120.7047925331072
 30
0.0
 10
92.32332741163587
 20
120.703312188145
 30
0.0
 10
92.31218592562446
 20
120.7020365764378
 30
0.0
 10
92.30622466060653
 20
120.7007441483568
 30
0.0
 10
92.30660717661729
 20
120.7000547476961
 30
0.0
 10
92.30673036346798
 20
120.6998327305938
 30
0.0
  0
SPLINE
  5
1E7
330
1F
100
AcDbEntity
  8
0
  6
Continuous
 62
     7
370
    15
100
AcDbSpline
210
0.0
220
0.0
230
1.0
 70
     8
 71
     3
 72
    16
 73
    12
 74
     0
 42
0.000000001
 43
0.00000001
 40
0.0
 40
0.0
 40
0.0
 40
0.0
 40
0.0122668826592017
 40
0.142668716794821
 40
0.276534605912245
 40
0.4050458735187856
 40
0.5377368666890193
 40
0.6704278598592301
 40
0.7989391274657686
 40
0.9328050165831859
 40
1.0
 40
1.0
 40
1.0
 40
1.0
 10
92.38503074544147
 20
120.7134266874081
 30
0.0
 10
92.38503519458492
 20
120.713383365664
 30
0.0
 10
92.38508693989024
 20
120.7128795165761
 30
0.0
 10
92.37965985876002
 20
120.7119322708979
 30
0.0
 10
92.36895628387623
 20
120.7103850759357
 30
0.0
 10
92.3540926424256
 20
120.7091067672648
 30
0.0
 10
92.3381835666075
 20
120.7076273295799
 30
0.0
 10
92.32332908370289
 20
120.7061470710282
 30
0.0
 10
92.31217690597019
 20
120.7048711804345
 30
0.0
 10
92.3061872456456
 20
120.7035653414981
 30
0.0
 10
92.30659242229544
 20
120.7028637177009
 30
0.0
 10
92.30672783321812
 20
120.7026292334931
 30
0.0
  0
LINE
  5
1E8
330
1F
100
AcDbEntity
  8
0
  6
Continuous
 62
     7
370
    15
100
AcDbLine
 10
73.6302627102
 20
150.5909063416
 30
0.0
 11
74.1065127102
 21
150.5909063416
 31
0.0
  0
LINE
  5
1E9
330
1F
100
AcDbEntity
  8
0
  6
Continuous
 62
     7
370
    15
100
AcDbLine
 10
73.1540127102
 20
150.5909063416
 30
0.0
 11
73.6302627102
 21
150.5909063416
 31
0.0
  0
LINE
  5
1EA
330
1F
100
AcDbEntity
  8
0
  6
Continuous
 62
     7
370
    15
100
AcDbLine
 10
92.6802627102
 20
153.456072459
 30
0.0
 11
93.0771377102
 21
153.456072459
 31
0.0
  0
LINE
  5
1EB
330
1F
100
AcDbEntity
  8
0
  6
Continuous
 62
     7
370
    15
100
AcDbLine
 10
92.2833877102
 20
153.456072459
 30
0.0
 11
92.6802627102
 21
153.456072459
 31
0.0
  0
ARC
  5
1EC
330
1F
100
AcDbEntity
  8
0
  6
Continuous
 62
     7
370
    15
100
AcDbCircle
 10
83.1552627102
 20
171.315447459
 30
0.0
 40
9.713505180631753
100
AcDbArc
 50
88.3142407341
 51
91.6857592659
  0
SPLINE
  5
1ED
330
1F
100
AcDbEntity
  8
0
  6
Continuous
 62
     7
370
    15
100
AcDbSpline
210
0.0
220
0.0
230
1.0
 70
     8
 71
     3
 72
    13
 73
     9
 74
     0
 42
0.000000001
 43
0.00000001
 40
0.0
 40
0.0
 40
0.0
 40
0.0
 40
0.1127168231672986
 40
0.2744675697300736
 40
0.5315411790554133
 40
0.7362540585697165
 40
0.9046998368719568
 40
1.0
 40
1.0
 40
1.0
 40
1.0
 10
83.44101271022501
 20
181.0247486610751
 30
0.0
 10
83.46313552635837
 20
181.0265525619139
 30
0.0
 10
83.51700499685168
 20
181.0309450941495
 30
0.0
 10
83.60717332680812
 20
181.0784464481294
 30
0.0
 10
83.69424947411817
 20
181.140268790695
 30
0.0
 10
83.75790584370219
 20
181.1906246262712
 30
0.0
 10
83.78856285529417
 20
181.2155861875471
 30
0.0
 10
83.78726418941564
 20
181.2145306126868
 30
0.0
 10
83.78679493832725
 20
181.2141491984521
 30
0.0
  0
SPLINE
  5
1EE
330
1F
100
AcDbEntity
  8
0
  6
Continuous
 62
     7
370
    15
100
AcDbSpline
210
0.0
220
0.0
230
1.0
 70
     8
 71
     3
 72
    14
 73
    10
 74
     0
 42
0.000000001
 43
0.00000001
 40
0.0
 40
0.0
 40
0.0
 40
0.0
 40
0.0738616330086111
 40
0.2297489024941325
 40
0.3956296388689752
 40
0.6392345539761967
 40
0.8383197413327048
 40
0.9531911008026419
 40
1.0
 40
1.0
 40
1.0
 40
1.0
 10
82.52373246331008
 20
181.2141475819334
 30
0.0
 10
82.52291708669911
 20
181.2148132598712
 30
0.0
 10
82.52038083243745
 20
181.2168838717625
 30
0.0
 10
82.54364437056661
 20
181.1978852080462
 30
0.0
 10
82.59390879653878
 20
181.1578617832615
 30
0.0
 10
82.67269773243
 20
181.0986705789545
 30
0.0
 10
82.7607292244342
 20
181.0459776828797
 30
0.0
 10
82.82868630254653
 20
181.0253426161512
 30
0.0
 10
82.86034657793695
 20
181.0248820127734
 30
0.0
 10
82.86951271022501
 20
181.0247486610751
 30
0.0
  0
LINE
  5
1EF
330
1F
100
AcDbEntity
  8
0
  6
Continuous
 62
     7
370
    15
100
AcDbLine
 10
73.6302627102
 20
171.236072459
 30
0.0
 11
74.0271377102
 21
171.236072459
 31
0.0
  0
LINE
  5
1F0
330
1F
100
AcDbEntity
  8
0
  6
Continuous
 62
     7
370
    15
100
AcDbLine
 10
73.2333877102
 20
171.236072459
 30
0.0
 11
73.6302627102
 21
171.236072459
 31
0.0
  0
LINE
  5
1F1
330
1F
100
AcDbEntity
  8
0
  6
Continuous
 62
     7
370
    15
100
AcDbLine
 10
127.1752627102
 20
63.009847459
 30
0.0
 11
128.2752627102
 21
63.009847459
 31
0.0
  0
LINE
  5
1F2
330
1F
100
AcDbEntity
  8
0
  6
Continuous
 62
     7
370
    15
100
AcDbLine
 10
127.1752627102
 20
63.009847459
 30
0.0
 11
127.1752627102
 21
63.209847459
 31
0.0
  0
LINE
  5
1F3
330
1F
100
AcDbEntity
  8
0
  6
Continuous
 62
     7
370
    15
100
AcDbLine
 10
127.1752627102
 20
63.209847459
 30
0.0
 11
128.2752627102
 21
63.209847459
 31
0.0
  0
LINE
  5
1F4
330
1F
100
AcDbEntity
  8
0
  6
Continuous
 62
     7
370
    15
100
AcDbLine
 10
128.2752627102
 20
63.009847459
 30
0.0
 11
128.2752627102
 21
63.209847459
 31
0.0
  0
LINE
  5
1F5
330
1F
100
AcDbEntity
  8
0
  6
Continuous
 62
     7
370
    15
100
AcDbLine
 10
127.1752627102
 20
63.309847459
 30
0.0
 11
128.2752627102
 21
63.309847459
 31
0.0
  0
LINE
  5
1F6
330
1F
100
AcDbEntity
  8
0
  6
Continuous
 62
     7
370
    15
100
AcDbLine
 10
128.2752627102
 20
63.209847459
 30
0.0
 11
128.2752627102
 21
63.309847459
 31
0.0
  0
LINE
  5
1F7
330
1F
100
AcDbEntity
  8
0
  6
Continuous
 62
     7
370
    15
100
AcDbLine
 10
127.1752627102
 20
63.309847459
 30
0.0
 11
127.1752627102
 21
63.209847459
 31
0.0
  0
LINE
  5
1F8
330
1F
100
AcDbEntity
  8
0
  6
Continuous
 62
     7
370
    15
100
AcDbLine
 10
128.2752627102
 20
63.509847459
 30
0.0
 11
127.1752627102
 21
63.509847459
 31
0.0
  0
LINE
  5
1F9
330
1F
100
AcDbEntity
  8
0
  6
Continuous
 62
     7
370
    15
100
AcDbLine
 10
128.2752627102
 20
63.309847459
 30
0.0
 11
128.2752627102
 21
63.509847459
 31
0.0
  0
LINE
  5
1FA
330
1F
100
AcDbEntity
  8
0
  6
Continuous
 62
     7
370
    15
100
AcDbLine
 10
127.1752627102
 20
63.509847459
 30
0.0
 11
127.1752627102
 21
63.309847459
 31
0.0
  0
LINE
  5
1FB
330
1F
100
AcDbEntity
  8
0
  6
Continuous
 62
     7
370
    15
100
AcDbLine
 10
82.8695127102
 20
183.634447459
 30
0.0
 11
82.8695127102
 21
181.0247486611
 31
0.0
  0
LINE
  5
1FC
330
1F
100
AcDbEntity
  8
0
  6
Continuous
 62
     7
370
    15
100
AcDbLine
 10
83.4410127102
 20
183.634447459
 30
0.0
 11
83.4410127102
 21
181.0247486611
 31
0.0
  0
LINE
  5
1FD
330
1F
100
AcDbEntity
  8
0
  6
Continuous
 62
     7
370
    15
100
AcDbLine
 10
128.2752627102
 20
63.372347459
 30
0.0
 11
128.8752627102
 21
63.372347459
 31
0.0
  0
LINE
  5
1FE
330
1F
100
AcDbEntity
  8
0
  6
Continuous
 62
     7
370
    15
100
AcDbLine
 10
128.8752627102
 20
63.372347459
 30
0.0
 11
128.8752627102
 21
63.147347459
 31
0.0
  0
LINE
  5
1FF
330
1F
100
AcDbEntity
  8
0
  6
Continuous
 62
     7
370
    15
100
AcDbLine
 10
128.8752627102
 20
63.147347459
 30
0.0
 11
128.2752627102
 21
63.147347459
 31
0.0
  0
LINE
  5
200
330
1F
100
AcDbEntity
  8
0
  6
Continuous
 62
     7
370
    15
100
AcDbLine
 10
126.9252627102
 20
63.259847459
 30
0.0
 11
126.9252627102
 21
63.472347459
 31
0.0
  0
LINE
  5
201
330
1F
100
AcDbEntity
  8
0
  6
Continuous
 62
     7
370
    15
100
AcDbLine
 10
126.9252627102
 20
63.047347459
 30
0.0
 11
126.9252627102
 21
63.259847459
 31
0.0
  0
LINE
  5
202
330
1F
100
AcDbEntity
  8
0
  6
Continuous
 62
     7
370
    15
100
AcDbLine
 10
103.4752627102
 20
63.101097459
 30
0.0
 11
103.4752627102
 21
63.418597459
 31
0.0
  0
LINE
  5
203
330
1F
100
AcDbEntity
  8
0
  6
Continuous
 62
     7
370
    15
100
AcDbLine
 10
92.5215127102
 20
120.6906182627
 30
0.0
 11
92.8390127102
 21
120.6906182627
 31
0.0
  0
SPLINE
  5
204
330
1F
100
AcDbEntity
  8
0
  6
Continuous
 62
     7
370
    15
100
AcDbSpline
210
0.0
220
0.0
230
1.0
 70
     8
 71
     3
 72
    15
 73
    11
 74
     0
 42
0.000000001
 43
0.00000001
 40
0.0
 40
0.0
 40
0.0
 40
0.0
 40
0.109566338466409
 40
0.2417233423846241
 40
0.3704871031579532
 40
0.4992508639312709
 40
0.6314078678494826
 40
0.758318852862635
 40
0.8893252877646498
 40
1.0
 40
1.0
 40
1.0
 40
1.0
 10
93.469767104987
 20
120.7144895416662
 30
0.0
 10
93.46863086223404
 20
120.7141180582111
 30
0.0
 10
93.46612410331653
 20
120.7132984979003
 30
0.0
 10
93.45301377804515
 20
120.7118314602601
 30
0.0
 10
93.43427705872597
 20
120.710461539285
 30
0.0
 10
93.41257541883634
 20
120.7090944840271
 30
0.0
 10
93.39143558408347
 20
120.7075500592648
 30
0.0
 10
93.37415029116801
 20
120.7062746485694
 30
0.0
 10
93.36297011373146
 20
120.7048601518343
 30
0.0
 10
93.36216891111167
 20
120.7039675423364
 30
0.0
 10
93.36180201087788
 20
120.7035587835214
 30
0.0
  0
SPLINE
  5
205
330
1F
100
AcDbEntity
  8
0
  6
Continuous
 62
     7
370
    15
100
AcDbSpline
210
0.0
220
0.0
230
1.0
 70
     8
 71
     3
 72
    15
 73
    11
 74
     0
 42
0.000000001
 43
0.00000001
 40
0.0
 40
0.0
 40
0.0
 40
0.0
 40
0.1041506482900605
 40
0.2406302887570191
 40
0.373578238054642
 40
0.5065261873522554
 40
0.6430058278192378
 40
0.7740262969957116
 40
0.9093081014977881
 40
1.0
 40
1.0
 40
1.0
 40
1.0
 10
93.45487127092426
 20
120.7058953296866
 30
0.0
 10
93.45412996570768
 20
120.7055525529988
 30
0.0
 10
93.45241724964444
 20
120.7047605996628
 30
0.0
 10
93.44296934632294
 20
120.7033268617597
 30
0.0
 10
93.42931290657619
 20
120.7019571627376
 30
0.0
 10
93.41345858095954
 20
120.7005897985421
 30
0.0
 10
93.39801405463905
 20
120.69904584387
 30
0.0
 10
93.38543790698887
 20
120.6977702285307
 30
0.0
 10
93.37760384569116
 20
120.6964423922958
 30
0.0
 10
93.37699727728624
 20
120.6956335961651
 30
0.0
 10
93.37675383816266
 20
120.6953089953128
 30
0.0
  0
SPLINE
  5
206
330
1F
100
AcDbEntity
  8
0
  6
Continuous
 62
     7
370
    15
100
AcDbSpline
210
0.0
220
0.0
230
1.0
 70
     8
 71
     3
 72
    16
 73
    12
 74
     0
 42
0.000000001
 43
0.00000001
 40
0.0
 40
0.0
 40
0.0
 40
0.0
 40
0.0204928471803449
 40
0.1483781143973467
 40
0.2815919198469624
 40
0.4113585443197733
 40
0.5411251687925664
 40
0.6743389742422228
 40
0.802224241459203
 40
0.934268874080986
 40
1.0
 40
1.0
 40
1.0
 40
1.0
 10
93.45532500558879
 20
120.7035587835214
 30
0.0
 10
93.4554551770838
 20
120.7034827266113
 30
0.0
 10
93.45639768159823
 20
120.7029320378363
 30
0.0
 10
93.45230098379149
 20
120.7020413756888
 30
0.0
 10
93.44318026296875
 20
120.7004887398741
 30
0.0
 10
93.42925614430871
 20
120.6991232084805
 30
0.0
 10
93.41347772910225
 20
120.6977547628129
 30
0.0
 10
93.39799593351766
 20
120.6962109820305
 30
0.0
 10
93.38549005810889
 20
120.6949357616349
 30
0.0
 10
93.37796051844794
 20
120.6936932867544
 30
0.0
 10
93.37733143011918
 20
120.6929674387353
 30
0.0
 10
93.37712235149166
 20
120.6927262018522
 30
0.0
  0
SPLINE
  5
207
330
1F
100
AcDbEntity
  8
0
  6
Continuous
 62
     7
370
    15
100
AcDbSpline
210
0.0
220
0.0
230
1.0
 70
     8
 71
     3
 72
    14
 73
    10
 74
     0
 42
0.000000001
 43
0.00000001
 40
0.0
 40
0.0
 40
0.0
 40
0.0
 40
0.0087316385794247
 40
0.196175604531821
 40
0.3913677932950618
 40
0.5815482570886351
 40
0.7717287208822006
 40
0.9669209096454726
 40
1.0
 40
1.0
 40
1.0
 40
1.0
 10
92.30416958130677
 20
120.7033980588502
 30
0.0
 10
92.30391518013728
 20
120.7033760449268
 30
0.0
 10
92.29819949427115
 20
120.7028814533697
 30
0.0
 10
92.28276987471773
 20
120.7020437421336
 30
0.0
 10
92.26160594327817
 20
120.7004883124414
 30
0.0
 10
92.24231572174737
 20
120.6991220733521
 30
0.0
 10
92.22945503345672
 20
120.6977597907899
 30
0.0
 10
92.223610130336
 20
120.6966147431073
 30
0.0
 10
92.2248706983915
 20
120.6960814382807
 30
0.0
 10
92.22505336896123
 20
120.696004156379
 30
0.0
  0
SPLINE
  5
208
330
1F
100
AcDbEntity
  8
0
  6
Continuous
 62
     7
370
    15
100
AcDbSpline
210
0.0
220
0.0
230
1.0
 70
     8
 71
     3
 72
    13
 73
     9
 74
     0
 42
0.000000001
 43
0.00000001
 40
0.0
 40
0.0
 40
0.0
 40
0.0
 40
0.0690708877727593
 40
0.295127837553721
 40
0.5153805834525267
 40
0.7356333293513334
 40
0.9616902791323128
 40
1.0
 40
1.0
 40
1.0
 40
1.0
 10
92.2896980568312
 20
120.7052638219475
 30
0.0
 10
92.28757987304893
 20
120.7051251673699
 30
0.0
 10
92.27852924376995
 20
120.7045327205808
 30
0.0
 10
92.26142837240018
 20
120.7033226926845
 30
0.0
 10
92.24236288807988
 20
120.7019570119683
 30
0.0
 10
92.22944145310598
 20
120.7005945784772
 30
0.0
 10
92.22361057492786
 20
120.6994495656406
 30
0.0
 10
92.22487075466346
 20
120.698916259849
 30
0.0
 10
92.22505336896123
 20
120.6988389778076
 30
0.0
  0
SPLINE
  5
209
330
1F
100
AcDbEntity
  8
0
  6
Continuous
 62
     7
370
    15
100
AcDbSpline
210
0.0
220
0.0
230
1.0
 70
     8
 71
     3
 72
    14
 73
    10
 74
     0
 42
0.000000001
 43
0.00000001
 40
0.0
 40
0.0
 40
0.0
 40
0.0
 40
0.009932471808253
 40
0.1830858779816817
 40
0.3634539896875179
 40
0.5391547058377761
 40
0.7148554219880233
 40
0.8952235336938755
 40
0.9999999999999999
 40
0.9999999999999999
 40
0.9999999999999999
 40
0.9999999999999999
 10
92.29753199864182
 20
120.6949088229729
 30
0.0
 10
92.29730354459707
 20
120.6948817085592
 30
0.0
 10
92.29309243681185
 20
120.6943819068649
 30
0.0
 10
92.28177886899859
 20
120.6935388007925
 30
0.0
 10
92.26630876573554
 20
120.6919837613924
 30
0.0
 10
92.25227689910913
 20
120.6906189309446
 30
0.0
 10
92.24267331785376
 20
120.6892500558021
 30
0.0
 10
92.23828047345806
 20
120.6879066336279
 30
0.0
 10
92.23989797936461
 20
120.687193319392
 30
0.0
 10
92.24049233242684
 20
120.686931211848
 30
0.0
  0
LINE
  5
20A
330
1F
100
AcDbEntity
  8
0
  6
Continuous
 62
     8
370
    15
100
AcDbLine
 10
67.3581080973
 20
147.4147349256
 30
0.0
 11
79.9024173232
 21
147.4147349256
 31
0.0
  0
LINE
  5
20B
330
1F
100
AcDbEntity
  8
0
  6
Continuous
 62
     8
370
    15
100
AcDbLine
 10
67.3587597773
 20
147.4035054712
 30
0.0
 11
79.9017656432
 21
147.4035054712
 31
0.0
  0
LINE
  5
20C
330
1F
100
AcDbEntity
  8
0
  6
Continuous
 62
     8
370
    15
100
AcDbLine
 10
67.3717930758
 20
147.2254603543
 30
0.0
 11
79.8887323447
 21
147.2254603543
 31
0.0
  0
LINE
  5
20D
330
1F
100
AcDbEntity
  8
0
  6
Continuous
 62
     8
370
    15
100
AcDbLine
 10
67.372783622
 20
147.2142557057
 30
0.0
 11
79.8877417984
 21
147.2142557057
 31
0.0
  0
LINE
  5
20E
330
1F
100
AcDbEntity
  8
0
  6
Continuous
 62
     8
370
    15
100
AcDbLine
 10
67.3911884761
 20
147.0366854609
 30
0.0
 11
79.8693369443
 21
147.0366854609
 31
0.0
  0
LINE
  5
20F
330
1F
100
AcDbEntity
  8
0
  6
Continuous
 62
     8
370
    15
100
AcDbLine
 10
67.3925169848
 20
147.0255158415
 30
0.0
 11
79.8680084357
 21
147.0255158415
 31
0.0
  0
LINE
  5
210
330
1F
100
AcDbEntity
  8
0
  6
Continuous
 62
     8
370
    15
100
AcDbLine
 10
67.4162766014
 20
146.8485824893
 30
0.0
 11
79.8442488191
 21
146.8485824893
 31
0.0
  0
LINE
  5
211
330
1F
100
AcDbEntity
  8
0
  6
Continuous
 62
     8
370
    15
100
AcDbLine
 10
67.4179418602
 20
146.8374580906
 30
0.0
 11
79.8425835602
 21
146.8374580906
 31
0.0
  0
LINE
  5
212
330
1F
100
AcDbEntity
  8
0
  6
Continuous
 62
     8
370
    15
100
AcDbLine
 10
67.4470345603
 20
146.6613230705
 30
0.0
 11
79.8134908602
 21
146.6613230705
 31
0.0
  0
LINE
  5
213
330
1F
100
AcDbEntity
  8
0
  6
Continuous
 62
     8
370
    15
100
AcDbLine
 10
67.44903505
 20
146.6502540429
 30
0.0
 11
79.8114903705
 21
146.6502540429
 31
0.0
  0
LINE
  5
214
330
1F
100
AcDbEntity
  8
0
  6
Continuous
 62
     8
370
    15
100
AcDbLine
 10
67.4834342884
 20
146.4750780659
 30
0.0
 11
79.7770911321
 21
146.4750780659
 31
0.0
  0
LINE
  5
215
330
1F
100
AcDbEntity
  8
0
  6
Continuous
 62
     8
370
    15
100
AcDbLine
 10
67.4857681836
 20
146.4640745089
 30
0.0
 11
79.7747572369
 21
146.4640745089
 31
0.0
  0
LINE
  5
216
330
1F
100
AcDbEntity
  8
0
  6
Continuous
 62
     8
370
    15
100
AcDbLine
 10
67.5254425734
 20
146.2900174112
 30
0.0
 11
79.7350828471
 21
146.2900174112
 31
0.0
  0
LINE
  5
217
330
1F
100
AcDbEntity
  8
0
  6
Continuous
 62
     8
370
    15
100
AcDbLine
 10
67.5281077446
 20
146.2790893649
 30
0.0
 11
79.7324176759
 21
146.2790893649
 31
0.0
  0
LINE
  5
218
330
1F
100
AcDbEntity
  8
0
  6
Continuous
 62
     8
370
    15
100
AcDbLine
 10
67.5730210857
 20
146.1063099613
 30
0.0
 11
79.6875043348
 21
146.1063099613
 31
0.0
  0
LINE
  5
219
330
1F
100
AcDbEntity
  8
0
  6
Continuous
 62
     8
370
    15
100
AcDbLine
 10
67.576015101
 20
146.0954673968
 30
0.0
 11
79.6845103194
 21
146.0954673968
 31
0.0
  0
LINE
  5
21A
330
1F
100
AcDbEntity
  8
0
  6
Continuous
 62
     8
370
    15
100
AcDbLine
 10
67.6261264131
 20
145.9241233368
 30
0.0
 11
79.6343990073
 21
145.9241233368
 31
0.0
  0
LINE
  5
21B
330
1F
100
AcDbEntity
  8
0
  6
Continuous
 62
     8
370
    15
100
AcDbLine
 10
67.6294465408
 20
145.9133761472
 30
0.0
 11
79.6310788796
 21
145.9133761472
 31
0.0
  0
LINE
  5
21C
330
1F
100
AcDbEntity
  8
0
  6
Continuous
 62
     8
370
    15
100
AcDbLine
 10
67.6847101008
 20
145.7436237704
 30
0.0
 11
79.5758153197
 21
145.7436237704
 31
0.0
  0
LINE
  5
21D
330
1F
100
AcDbEntity
  8
0
  6
Continuous
 62
     8
370
    15
100
AcDbLine
 10
67.6883533115
 20
145.7329817617
 30
0.0
 11
79.572172109
 21
145.7329817617
 31
0.0
  0
LINE
  5
21E
330
1F
100
AcDbEntity
  8
0
  6
Continuous
 62
     8
370
    15
100
AcDbLine
 10
67.7487186951
 20
145.5649759554
 30
0.0
 11
79.5118067254
 21
145.5649759554
 31
0.0
  0
LINE
  5
21F
330
1F
100
AcDbEntity
  8
0
  6
Continuous
 62
     8
370
    15
100
AcDbLine
 10
67.7526816646
 20
145.5544488377
 30
0.0
 11
79.5078437559
 21
145.5544488377
 31
0.0
  0
LINE
  5
220
330
1F
100
AcDbEntity
  8
0
  6
Continuous
 62
     8
370
    15
100
AcDbLine
 10
67.8180937926
 20
145.3883428956
 30
0.0
 11
79.4424316279
 21
145.3883428956
 31
0.0
  0
LINE
  5
221
330
1F
100
AcDbEntity
  8
0
  6
Continuous
 62
     8
370
    15
100
AcDbLine
 10
67.8223729049
 20
145.3779402743
 30
0.0
 11
79.4381525155
 21
145.3779402743
 31
0.0
  0
LINE
  5
222
330
1F
100
AcDbEntity
  8
0
  6
Continuous
 62
     8
370
    15
100
AcDbLine
 10
67.8927720933
 20
145.2138857566
 30
0.0
 11
79.3677533271
 21
145.2138857566
 31
0.0
  0
LINE
  5
223
330
1F
100
AcDbEntity
  8
0
  6
Continuous
 62
     8
370
    15
100
AcDbLine
 10
67.8973634441
 20
145.2036171233
 30
0.0
 11
79.3631619763
 21
145.2036171233
 31
0.0
  0
LINE
  5
224
330
1F
100
AcDbEntity
  8
0
  6
Continuous
 62
     8
370
    15
100
AcDbLine
 10
67.9726854584
 20
145.0417637184
 30
0.0
 11
79.287839962
 21
145.0417637184
 31
0.0
  0
LINE
  5
225
330
1F
100
AcDbEntity
  8
0
  6
Continuous
 62
     8
370
    15
100
AcDbLine
 10
67.9775848584
 20
145.0316384425
 30
0.0
 11
79.282940562
 21
145.0316384425
 31
0.0
  0
LINE
  5
226
330
1F
100
AcDbEntity
  8
0
  6
Continuous
 62
     8
370
    15
100
AcDbLine
 10
68.0577609726
 20
144.8721338306
 30
0.0
 11
79.2027644479
 21
144.8721338306
 31
0.0
  0
LINE
  5
227
330
1F
100
AcDbEntity
  8
0
  6
Continuous
 62
     8
370
    15
100
AcDbLine
 10
68.0629639514
 20
144.8621611507
 30
0.0
 11
79.1975614691
 21
144.8621611507
 31
0.0
  0
LINE
  5
228
330
1F
100
AcDbEntity
  8
0
  6
Continuous
 62
     8
370
    15
100
AcDbLine
 10
68.1534228204
 20
144.6953398842
 30
0.0
 11
79.1071026001
 21
144.6953398842
 31
0.0
  0
LINE
  5
229
330
1F
100
AcDbEntity
  8
0
  6
Continuous
 62
     8
370
    15
100
AcDbLine
 10
68.248878928
 20
144.5313268558
 30
0.0
 11
79.0116464924
 21
144.5313268558
 31
0.0
  0
LINE
  5
22A
330
1F
100
AcDbEntity
  8
0
  6
Continuous
 62
     8
370
    15
100
AcDbLine
 10
68.3492451771
 20
144.3702717162
 30
0.0
 11
78.9112802433
 21
144.3702717162
 31
0.0
  0
LINE
  5
22B
330
1F
100
AcDbEntity
  8
0
  6
Continuous
 62
     8
370
    15
100
AcDbLine
 10
68.4544299905
 20
144.2123214171
 30
0.0
 11
78.80609543
 21
144.2123214171
 31
0.0
  0
LINE
  5
22C
330
1F
100
AcDbEntity
  8
0
  6
Continuous
 62
     8
370
    15
100
AcDbLine
 10
68.5643373942
 20
144.0576200772
 30
0.0
 11
78.6961880263
 21
144.0576200772
 31
0.0
  0
LINE
  5
22D
330
1F
100
AcDbEntity
  8
0
  6
Continuous
 62
     8
370
    15
100
AcDbLine
 10
68.6788671053
 20
143.9063088508
 30
0.0
 11
78.5816583152
 21
143.9063088508
 31
0.0
  0
LINE
  5
22E
330
1F
100
AcDbEntity
  8
0
  6
Continuous
 62
     8
370
    15
100
AcDbLine
 10
68.7979146233
 20
143.758525799
 30
0.0
 11
78.4626107971
 21
143.758525799
 31
0.0
  0
LINE
  5
22F
330
1F
100
AcDbEntity
  8
0
  6
Continuous
 62
     8
370
    15
100
AcDbLine
 10
68.9213713256
 20
143.6144057636
 30
0.0
 11
78.3391540948
 21
143.6144057636
 31
0.0
  0
LINE
  5
230
330
1F
100
AcDbEntity
  8
0
  6
Continuous
 62
     8
370
    15
100
AcDbLine
 10
69.0491245665
 20
143.4740802443
 30
0.0
 11
78.2114008539
 21
143.4740802443
 31
0.0
  0
LINE
  5
231
330
1F
100
AcDbEntity
  8
0
  6
Continuous
 62
     8
370
    15
100
AcDbLine
 10
69.18105778
 20
143.3376772783
 30
0.0
 11
78.0794676404
 21
143.3376772783
 31
0.0
  0
LINE
  5
232
330
1F
100
AcDbEntity
  8
0
  6
Continuous
 62
     8
370
    15
100
AcDbLine
 10
69.3170505861
 20
143.2053213239
 30
0.0
 11
77.9434748344
 21
143.2053213239
 31
0.0
  0
LINE
  5
233
330
1F
100
AcDbEntity
  8
0
  6
Continuous
 62
     8
370
    15
100
AcDbLine
 10
69.4569789007
 20
143.0771331469
 30
0.0
 11
77.8035465198
 21
143.0771331469
 31
0.0
  0
LINE
  5
234
330
1F
100
AcDbEntity
  8
0
  6
Continuous
 62
     8
370
    15
100
AcDbLine
 10
92.6802627102
 20
171.315447459
 30
0.0
 11
92.2833877102
 21
171.315447459
 31
0.0
  0
LINE
  5
235
330
1F
100
AcDbEntity
  8
0
  6
Continuous
 62
     8
370
    15
100
AcDbLine
 10
93.0771377102
 20
171.315447459
 30
0.0
 11
92.6802627102
 21
171.315447459
 31
0.0
  0
LINE
  5
236
330
1F
100
AcDbEntity
  8
0
  6
Continuous
 62
     8
370
    15
100
AcDbLine
 10
73.6302627102
 20
171.315447459
 30
0.0
 11
74.0271377102
 21
171.315447459
 31
0.0
  0
LINE
  5
237
330
1F
100
AcDbEntity
  8
0
  6
Continuous
 62
     8
370
    15
100
AcDbLine
 10
73.2333877102
 20
171.315447459
 30
0.0
 11
73.6302627102
 21
171.315447459
 31
0.0
  0
LINE
  5
238
330
1F
100
AcDbEntity
  8
0
  6
Continuous
 62
     8
370
    15
100
AcDbLine
 10
92.6802627102
 20
111.4788633812
 30
0.0
 11
92.8390126953
 21
111.4788633812
 31
0.0
  0
LINE
  5
239
330
1F
100
AcDbEntity
  8
0
  6
Continuous
 62
     8
370
    15
100
AcDbLine
 10
92.521512731
 20
111.4788633812
 30
0.0
 11
92.6802627102
 21
111.4788633812
 31
0.0
  0
LINE
  5
23A
330
1F
100
AcDbEntity
  8
0
  6
Continuous
 62
     7
370
    15
100
AcDbLine
 10
92.6802627102
 20
242.8090712408
 30
0.0
 11
85.1804921532
 21
242.8090712408
 31
0.0
  0
LINE
  5
23B
330
1F
100
AcDbEntity
  8
0
  6
Continuous
 62
     7
370
    15
100
AcDbLine
 10
81.1300332672
 20
242.8090712408
 30
0.0
 11
73.6302627102
 21
242.8090712408
 31
0.0
  0
LINE
  5
23C
330
1F
100
AcDbEntity
  8
0
  6
Continuous
 62
     7
370
    15
100
AcDbLine
 10
73.6302627102
 20
242.0153212408
 30
0.0
 11
81.1300332672
 21
242.0153212408
 31
0.0
  0
LINE
  5
23D
330
1F
100
AcDbEntity
  8
0
  6
Continuous
 62
     7
370
    15
100
AcDbLine
 10
85.1804921532
 20
242.0153212408
 30
0.0
 11
92.6802627102
 21
242.0153212408
 31
0.0
  0
SPLINE
  5
23E
330
1F
100
AcDbEntity
  8
0
  6
Continuous
 62
     7
370
    15
100
AcDbSpline
210
0.0
220
0.0
230
1.0
 70
    24
 71
     3
 72
    37
 73
    33
 74
     0
 42
0.000000001
 43
0.00000001
 40
0.0
 40
0.0
 40
0.0
 40
0.0
 40
0.0148287942972123
 40
0.0346562634333335
 40
0.0528289683336316
 40
0.069466127571715
 40
0.084657840882869
 40
0.0984693282877342
 40
0.112896478106625
 40
0.1255481265369389
 40
0.1367110529401861
 40
0.1477452376711641
 40
0.1588522466347265
 40
0.1700458743746042
 40
0.1973384747118057
 40
0.2253345713878032
 40
0.2535042790960601
 40
0.281714414051653
 40
0.3099978994620932
 40
0.3505353028875573
 40
0.3911816541448754
 40
0.4318390014794534
 40
0.4726228751492913
 40
0.5134698033319116
 40
0.5542549576704151
 40
0.5951411504861468
 40
0.65931533589619
 40
0.7234217257895392
 40
0.787676867757117
 40
0.8518196348317284
 40
0.916081003409381
 40
1.0
 40
1.0
 40
1.0
 40
1.0
 10
102.8489410825015
 20
242.5709462407733
 30
0.0
 10
102.7474082758369
 20
242.5709462407733
 30
0.0
 10
102.5101167183193
 20
242.5709462407733
 30
0.0
 10
102.1515621318871
 20
242.5709462407733
 30
0.0
 10
101.7844985459359
 20
242.5709462407733
 30
0.0
 10
101.4531993027005
 20
242.5709462407733
 30
0.0
 10
101.1554984927213
 20
242.5709462407733
 30
0.0
 10
100.8770233374127
 20
242.5709462407733
 30
0.0
 10
100.6197922242599
 20
242.5709462407733
 30
0.0
 10
100.3841733414567
 20
242.5709462407733
 30
0.0
 10
100.1737287093995
 20
242.5709462407733
 30
0.0
 10
99.97662276318152
 20
242.5709462407733
 30
0.0
 10
99.78351494598415
 20
242.5709462407733
 30
0.0
 10
99.50272165789647
 20
242.5709462407733
 30
0.0
 10
99.14160383593322
 20
242.5709462407733
 30
0.0
 10
98.71715712681339
 20
242.5709462407733
 30
0.0
 10
98.3174668482793
 20
242.5709462407733
 30
0.0
 10
97.94507539624578
 20
242.5709462407733
 30
0.0
 10
97.54943740029195
 20
242.5709462407733
 30
0.0
 10
97.14291753884353
 20
242.5709462407733
 30
0.0
 10
96.73713094819752
 20
242.5709462407733
 30
0.0
 10
96.37174068205522
 20
242.5709462407733
 30
0.0
 10
96.04206101919273
 20
242.5709462407733
 30
0.0
 10
95.74401354171727
 20
242.5709462407733
 30
0.0
 10
95.47387049869066
 20
242.5709462407733
 30
0.0
 10
95.18192216258024
 20
242.5709462407733
 30
0.0
 10
94.88239253364026
 20
242.5709462407733
 30
0.0
 10
94.5869041307544
 20
242.5709462407733
 30
0.0
 10
94.32968868220654
 20
242.5709462407733
 30
0.0
 10
94.10541592197981
 20
242.5709462407733
 30
0.0
 10
93.88743305665975
 20
242.5709462407733
 30
0.0
 10
93.76236709351312
 20
242.5709462407733
 30
0.0
 10
93.69153847783936
 20
242.5709462407733
 30
0.0
  0
SPLINE
  5
23F
330
1F
100
AcDbEntity
  8
0
  6
Continuous
 62
     7
370
    15
100
AcDbSpline
210
0.0
220
0.0
230
1.0
 70
    24
 71
     3
 72
    37
 73
    33
 74
     0
 42
0.000000001
 43
0.00000001
 40
0.0
 40
0.0
 40
0.0
 40
0.0
 40
0.0370010737280306
 40
0.1183819157472387
 40
0.182400043609304
 40
0.2463611398809154
 40
0.310272204033658
 40
0.3742305887720511
 40
0.4156422267041674
 40
0.4571251884114223
 40
0.4985863270965612
 40
0.5399133127732604
 40
0.5812645387247528
 40
0.6225552785299733
 40
0.6636996390120148
 40
0.6924606736147062
 40
0.7211720145653285
 40
0.7496934118330886
 40
0.7768572046088525
 40
0.8025509427093421
 40
0.8128659900690788
 40
0.8229932456545032
 40
0.8343100924754427
 40
0.8475811724445178
 40
0.8627944077369525
 40
0.879958817243654
 40
0.8991156531286493
 40
0.920351336077764
 40
0.943811687167448
 40
0.9629982235717288
 40
0.9836829132729624
 40
1.0
 40
1.0
 40
1.0
 40
1.0
 10
93.69294677097766
 20
242.2534462407733
 30
0.0
 10
93.7218081243997
 20
242.2534462407733
 30
0.0
 10
93.81414766930786
 20
242.2534462407733
 30
0.0
 10
93.98988642298187
 20
242.2534462407733
 30
0.0
 10
94.21795469763909
 20
242.2534462407733
 30
0.0
 10
94.45853999183012
 20
242.2534462407733
 30
0.0
 10
94.73399037686555
 20
242.2534462407733
 30
0.0
 10
95.01383451615551
 20
242.2534462407733
 30
0.0
 10
95.28782011811008
 20
242.2534462407733
 30
0.0
 10
95.54331304519992
 20
242.2534462407733
 30
0.0
 10
95.8251767546284
 20
242.2534462407733
 30
0.0
 10
96.13681299695367
 20
242.2534462407733
 30
0.0
 10
96.48219969978861
 20
242.2534462407733
 30
0.0
 10
96.86602560190796
 20
242.2534462407733
 30
0.0
 10
97.2506704514274
 20
242.2534462407733
 30
0.0
 10
97.62571768334631
 20
242.2534462407733
 30
0.0
 10
97.97917074441884
 20
242.2534462407733
 30
0.0
 10
98.3537405844312
 20
242.2534462407733
 30
0.0
 10
98.74230519240257
 20
242.2534462407733
 30
0.0
 10
99.06479494479694
 20
242.2534462407733
 30
0.0
 10
99.31062383878911
 20
242.2534462407733
 30
0.0
 10
99.48387182528084
 20
242.2534462407733
 30
0.0
 10
99.67779538821311
 20
242.2534462407733
 30
0.0
 10
99.905989896422
 20
242.2534462407733
 30
0.0
 10
100.1752234321891
 20
242.2534462407733
 30
0.0
 10
100.4882826160565
 20
242.2534462407733
 30
0.0
 10
100.8483971837012
 20
242.2534462407733
 30
0.0
 10
101.2592568163872
 20
242.2534462407733
 30
0.0
 10
101.6807029428727
 20
242.2534462407733
 30
0.0
 10
102.1059313228384
 20
242.2534462407733
 30
0.0
 10
102.4874934385057
 20
242.2534462407733
 30
0.0
 10
102.741135368165
 20
242.2534462407733
 30
0.0
 10
102.852986683517
 20
242.2534462407733
 30
0.0
  0
LINE
  5
240
330
1F
100
AcDbEntity
  8
0
  6
Continuous
 62
     7
370
    15
100
AcDbLine
 10
126.9252627102
 20
242.1996962408
 30
0.0
 11
127.1752627102
 21
242.1996962408
 31
0.0
  0
LINE
  5
241
330
1F
100
AcDbEntity
  8
0
  6
Continuous
 62
     7
370
    15
100
AcDbLine
 10
127.1752627102
 20
242.6246962408
 30
0.0
 11
126.9252627102
 21
242.6246962408
 31
0.0
  0
LINE
  5
242
330
1F
100
AcDbEntity
  8
0
  6
Continuous
 62
     7
370
    15
100
AcDbLine
 10
126.9252627102
 20
242.5709462408
 30
0.0
 11
109.1862914767
 21
242.5709462408
 31
0.0
  0
LINE
  5
243
330
1F
100
AcDbEntity
  8
0
  6
Continuous
 62
     7
370
    15
100
AcDbLine
 10
109.1862914767
 20
242.2534462408
 30
0.0
 11
126.9252627102
 21
242.2534462408
 31
0.0
  0
CIRCLE
  5
244
330
1F
100
AcDbEntity
  8
0
  6
Continuous
 62
     7
370
    15
100
AcDbCircle
 10
83.1552627102
 20
242.4121962408
 30
0.0
 40
2.063749999999999
  0
ARC
  5
245
330
1F
100
AcDbEntity
  8
0
  6
Continuous
 62
     7
370
    15
100
AcDbCircle
 10
92.6802627102
 20
242.4121962408
 30
0.0
 40
0.3968750000000227
100
AcDbArc
 50
270.0
 51
90.0
  0
ARC
  5
246
330
1F
100
AcDbEntity
  8
0
  6
Continuous
 62
     7
370
    15
100
AcDbCircle
 10
73.6302627102
 20
242.4121962408
 30
0.0
 40
0.3968750000000227
100
AcDbArc
 50
90.0
 51
270.0
  0
ARC
  5
247
330
1F
100
AcDbEntity
  8
0
  6
Continuous
 62
     7
370
    15
100
AcDbCircle
 10
73.6302627102
 20
242.4121962408
 30
0.0
 40
0.4762499999999971
100
AcDbArc
 50
270.0
 51
303.5573097619
  0
ARC
  5
248
330
1F
100
AcDbEntity
  8
0
  6
Continuous
 62
     7
370
    15
100
AcDbCircle
 10
73.6302627102
 20
242.4121962408
 30
0.0
 40
0.4762500000000207
100
AcDbArc
 50
56.4426902381
 51
270.0
  0
ARC
  5
249
330
1F
100
AcDbEntity
  8
0
  6
Continuous
 62
     7
370
    15
100
AcDbCircle
 10
73.6302627102
 20
242.4121962408
 30
0.0
 40
6.429375000000002
100
AcDbArc
 50
270.0
 51
356.460973541
  0
ARC
  5
24A
330
1F
100
AcDbEntity
  8
0
  6
Continuous
 62
     7
370
    15
100
AcDbCircle
 10
73.6302627102
 20
242.4121962408
 30
0.0
 40
6.429375000000003
100
AcDbArc
 50
3.539026459
 51
270.0
  0
LINE
  5
24B
330
1F
100
AcDbEntity
  8
0
  6
Continuous
 62
     7
370
    15
100
AcDbLine
 10
91.7608553976
 20
242.8806577751
 30
0.0
 11
91.7277627102
 21
242.8090712408
 31
0.0
  0
ARC
  5
24C
330
1F
100
AcDbEntity
  8
0
  6
Continuous
 62
     7
370
    15
100
AcDbCircle
 10
92.6802627102
 20
242.4121962408
 30
0.0
 40
1.031875000000015
100
AcDbArc
 50
202.619864948
 51
152.9999945549
  0
CIRCLE
  5
24D
330
1F
100
AcDbEntity
  8
0
  6
Continuous
 62
     7
370
    15
100
AcDbCircle
 10
106.0152627102
 20
242.4121962408
 30
0.0
 40
3.174999999999983
  0
LINE
  5
24E
330
1F
100
AcDbEntity
  8
0
  6
Continuous
 62
     7
370
    15
100
AcDbLine
 10
128.2752627102
 20
242.2171962408
 30
0.0
 11
128.2752627102
 21
242.6071962408
 31
0.0
  0
LINE
  5
24F
330
1F
100
AcDbEntity
  8
0
  6
Continuous
 62
     7
370
    15
100
AcDbLine
 10
128.2752627102
 20
242.2171962408
 30
0.0
 11
127.1752627102
 21
242.2171962408
 31
0.0
  0
LINE
  5
250
330
1F
100
AcDbEntity
  8
0
  6
Continuous
 62
     7
370
    15
100
AcDbLine
 10
127.1752627102
 20
242.6071962408
 30
0.0
 11
127.1752627102
 21
242.2171962408
 31
0.0
  0
LINE
  5
251
330
1F
100
AcDbEntity
  8
0
  6
Continuous
 62
     7
370
    15
100
AcDbLine
 10
128.2752627102
 20
242.6071962408
 30
0.0
 11
127.1752627102
 21
242.6071962408
 31
0.0
  0
LINE
  5
252
330
1F
100
AcDbEntity
  8
0
  6
Continuous
 62
     7
370
    15
100
AcDbLine
 10
127.1752627102
 20
242.8071962408
 30
0.0
 11
127.1752627102
 21
242.6071962408
 31
0.0
  0
LINE
  5
253
330
1F
100
AcDbEntity
  8
0
  6
Continuous
 62
     7
370
    15
100
AcDbLine
 10
128.2752627102
 20
242.8071962408
 30
0.0
 11
127.1752627102
 21
242.8071962408
 31
0.0
  0
LINE
  5
254
330
1F
100
AcDbEntity
  8
0
  6
Continuous
 62
     7
370
    15
100
AcDbLine
 10
128.2752627102
 20
242.6071962408
 30
0.0
 11
128.2752627102
 21
242.8071962408
 31
0.0
  0
LINE
  5
255
330
1F
100
AcDbEntity
  8
0
  6
Continuous
 62
     7
370
    15
100
AcDbLine
 10
128.2752627102
 20
242.0171962408
 30
0.0
 11
128.2752627102
 21
242.2171962408
 31
0.0
  0
LINE
  5
256
330
1F
100
AcDbEntity
  8
0
  6
Continuous
 62
     7
370
    15
100
AcDbLine
 10
127.1752627102
 20
242.0171962408
 30
0.0
 11
128.2752627102
 21
242.0171962408
 31
0.0
  0
LINE
  5
257
330
1F
100
AcDbEntity
  8
0
  6
Continuous
 62
     7
370
    15
100
AcDbLine
 10
127.1752627102
 20
242.2171962408
 30
0.0
 11
127.1752627102
 21
242.0171962408
 31
0.0
  0
LINE
  5
258
330
1F
100
AcDbEntity
  8
0
  6
Continuous
 62
     7
370
    15
100
AcDbLine
 10
126.9252627102
 20
242.1996962408
 30
0.0
 11
126.9252627102
 21
242.6246962408
 31
0.0
  0
LINE
  5
259
330
1F
100
AcDbEntity
  8
0
  6
Continuous
 62
     7
370
    15
100
AcDbLine
 10
128.2752627102
 20
242.1121962408
 30
0.0
 11
128.8752627102
 21
242.1121962408
 31
0.0
  0
LINE
  5
25A
330
1F
100
AcDbEntity
  8
0
  6
Continuous
 62
     7
370
    15
100
AcDbLine
 10
128.8752627102
 20
242.7121962408
 30
0.0
 11
128.8752627102
 21
242.1121962408
 31
0.0
  0
LINE
  5
25B
330
1F
100
AcDbEntity
  8
0
  6
Continuous
 62
     7
370
    15
100
AcDbLine
 10
128.2752627102
 20
242.7121962408
 30
0.0
 11
128.8752627102
 21
242.7121962408
 31
0.0
  0
INSERT
  5
267
330
1F
100
AcDbEntity
  8
0
  6
Continuous
 62
     7
370
     0
100
AcDbBlockReference
  2
SW_CENTERMARKSYMBOL_0
 10
73.6302627102
 20
242.4121962408
 30
0.0
  0
INSERT
  5
273
330
1F
100
AcDbEntity
  8
0
  6
Continuous
 62
     7
370
     0
100
AcDbBlockReference
  2
SW_CENTERMARKSYMBOL_1
 10
92.6802627102
 20
242.4121962408
 30
0.0
  0
INSERT
  5
27F
330
1F
100
AcDbEntity
  8
0
  6
Continuous
 62
     7
370
     0
100
AcDbBlockReference
  2
SW_CENTERMARKSYMBOL_2
 10
83.1552627102
 20
242.4121962408
 30
0.0
  0
INSERT
  5
28B
330
1F
100
AcDbEntity
  8
0
  6
Continuous
 62
     7
370
     0
100
AcDbBlockReference
  2
SW_CENTERMARKSYMBOL_3
 10
106.0152627102
 20
242.4121962408
 30
0.0
  0
LINE
  5
28C
330
1F
100
AcDbEntity
  8
0
  6
Continuous
 62
     7
370
    15
100
AcDbLine
 10
302.0674171541
 20
62.374847459
 30
0.0
 11
302.0674171541
 21
63.009847459
 31
0.0
  0
LINE
  5
28D
330
1F
100
AcDbEntity
  8
0
  6
Continuous
 62
     7
370
    15
100
AcDbLine
 10
295.7174171541
 20
63.009847459
 30
0.0
 11
295.7174171541
 21
62.374847459
 31
0.0
  0
LINE
  5
28E
330
1F
100
AcDbEntity
  8
0
  6
Continuous
 62
     7
370
    15
100
AcDbLine
 10
302.0674171541
 20
65.232347459
 30
0.0
 11
302.0674171541
 21
65.708597459
 31
0.0
  0
LINE
  5
28F
330
1F
100
AcDbEntity
  8
0
  6
Continuous
 62
     7
370
    15
100
AcDbLine
 10
295.7174171541
 20
65.708597459
 30
0.0
 11
295.7174171541
 21
65.232347459
 31
0.0
  0
LINE
  5
290
330
1F
100
AcDbEntity
  8
0
  6
Continuous
 62
     7
370
    15
100
AcDbLine
 10
301.4324171541
 20
63.009847459
 30
0.0
 11
301.4324171541
 21
65.232347459
 31
0.0
  0
LINE
  5
291
330
1F
100
AcDbEntity
  8
0
  6
Continuous
 62
     7
370
    15
100
AcDbLine
 10
296.3524171541
 20
65.232347459
 30
0.0
 11
296.3524171541
 21
63.009847459
 31
0.0
  0
SPLINE
  5
292
330
1F
100
AcDbEntity
  8
0
  6
Continuous
 62
     7
370
    15
100
AcDbSpline
210
0.0
220
0.0
230
1.0
 70
    24
 71
     3
 72
    49
 73
    45
 74
     0
 42
0.000000001
 43
0.00000001
 40
0.0
 40
0.0
 40
0.0
 40
0.0
 40
0.0225288399149702
 40
0.043810575548975
 40
0.0638585815359511
 40
0.0826865338950183
 40
0.1003082441938538
 40
0.1164545006316041
 40
0.1314634205064971
 40
0.1453476276537568
 40
0.1581193444114383
 40
0.1685921360705604
 40
0.1781953287471493
 40
0.1869364076972456
 40
0.1952708511510383
 40
0.2036589948611304
 40
0.2120998860923362
 40
0.2205925354559963
 40
0.2291359311237612
 40
0.2704822573085637
 40
0.3126384590171452
 40
0.354879143436102
 40
0.4114168144937169
 40
0.4679794370438317
 40
0.5245365470476537
 40
0.581070925832826
 40
0.6170805441227178
 40
0.653039420074521
 40
0.6890452846530345
 40
0.7249966819245355
 40
0.753277799325651
 40
0.7815337220333405
 40
0.8097675421854754
 40
0.8380222670263755
 40
0.8563165757361537
 40
0.8746423929596224
 40
0.8929585694848837
 40
0.9112154815938291
 40
0.9294831022642421
 40
0.9477240021313298
 40
0.9659002363956865
 40
0.9786059218529185
 40
0.9912896542781705
 40
1.0
 40
1.0
 40
1.0
 40
1.0
 10
298.7336671540588
 20
111.4788633812186
 30
0.0
 10
298.7336671540588
 20
111.1281288196573
 30
0.0
 10
298.7336671540588
 20
110.4460749249645
 30
0.0
 10
298.7336671540588
 20
109.451908727011
 30
0.0
 10
298.7336671540588
 20
108.5153589784715
 30
0.0
 10
298.7336671540588
 20
107.6357896844427
 30
0.0
 10
298.7336671540588
 20
106.816964266938
 30
0.0
 10
298.7336671540588
 20
106.0575951741756
 30
0.0
 10
298.7336671540588
 20
105.356413312468
 30
0.0
 10
298.7336671540588
 20
104.707768135525
 30
0.0
 10
298.7336671540588
 20
104.1297434783786
 30
0.0
 10
298.7336671540588
 20
103.6183675340322
 30
0.0
 10
298.7336671540588
 20
103.1697421374752
 30
0.0
 10
298.7336671540588
 20
102.7544078705105
 30
0.0
 10
298.7336671540588
 20
102.357990749634
 30
0.0
 10
298.7336671540588
 20
101.9662483362064
 30
0.0
 10
298.7336671540588
 20
101.5720446129788
 30
0.0
 10
298.7336671540588
 20
101.1754258104445
 30
0.0
 10
298.7336671540588
 20
100.2665481084455
 30
0.0
 10
298.7336671540588
 20
98.83363114960791
 30
0.0
 10
298.7336671540588
 20
96.87623386557723
 30
0.0
 10
298.7336671540588
 20
94.68254690450352
 30
0.0
 10
298.7336671540588
 20
92.26499530749578
 30
0.0
 10
298.7336671540588
 20
89.62547916522242
 30
0.0
 10
298.7336671540588
 20
86.98746194052676
 30
0.0
 10
298.7336671540588
 20
84.67113542853613
 30
0.0
 10
298.7336671540588
 20
82.67735541491528
 30
0.0
 10
298.7336671540588
 20
81.00437210969044
 30
0.0
 10
298.7336671540588
 20
79.3354770776024
 30
0.0
 10
298.7336671540588
 20
77.78944357624776
 30
0.0
 10
298.7336671540588
 20
76.36780818825817
 30
0.0
 10
298.7336671540588
 20
75.06999481634732
 30
0.0
 10
298.7336671540588
 20
73.7795749595852
 30
0.0
 10
298.7336671540588
 20
72.64919132978295
 30
0.0
 10
298.7336671540588
 20
71.67695906116006
 30
0.0
 10
298.7336671540588
 20
70.86061019354759
 30
0.0
 10
298.7336671540588
 20
70.05355993331983
 30
0.0
 10
298.7336671540588
 20
69.25845459003567
 30
0.0
 10
298.7336671540588
 20
68.47857679459953
 30
0.0
 10
298.7336671540588
 20
67.71829637833324
 30
0.0
 10
298.7336671540588
 20
67.05636045682841
 30
0.0
 10
298.7336671540588
 20
66.49171227717964
 30
0.0
 10
298.7336671540588
 20
66.06324673887354
 30
0.0
 10
298.7336671540588
 20
65.81121087728694
 30
0.0
 10
298.7336671540588
 20
65.7085974590492
 30
0.0
  0
SPLINE
  5
293
330
1F
100
AcDbEntity
  8
0
  6
Continuous
 62
     7
370
    15
100
AcDbSpline
210
0.0
220
0.0
230
1.0
 70
    24
 71
     3
 72
    51
 73
    47
 74
     0
 42
0.000000001
 43
0.00000001
 40
0.0
 40
0.0
 40
0.0
 40
0.0
 40
0.0098926193635523
 40
0.0223715996736415
 40
0.0402571414245099
 40
0.0581907521396098
 40
0.0761292144431763
 40
0.0941235015371993
 40
0.1121456089656702
 40
0.1301404611045889
 40
0.1481798925147534
 40
0.1764942386615098
 40
0.2047786726915077
 40
0.2331287377488859
 40
0.2614292217855262
 40
0.2897820340907558
 40
0.3268833031989303
 40
0.3640069010660822
 40
0.4011235413257886
 40
0.4416166156302749
 40
0.4821173455644746
 40
0.5226050025707937
 40
0.5631140701118268
 40
0.6035933462887401
 40
0.644104933924196
 40
0.684341168422828
 40
0.7065150894577
 40
0.7277710864657513
 40
0.7480744335112888
 40
0.7557830983923964
 40
0.7636884760057093
 40
0.7725580099799692
 40
0.7824274692529264
 40
0.79330682829266
 40
0.8052067685387595
 40
0.8181386011469839
 40
0.8321141825953838
 40
0.8471458231363168
 40
0.8632461880928911
 40
0.880428192015104
 40
0.8987048857302626
 40
0.916951584961017
 40
0.9361939239196527
 40
0.9564425812093158
 40
0.9777079441786273
 40
1.0
 40
1.0
 40
1.0
 40
1.0
 10
299.0511671540587
 20
65.70859745904923
 30
0.0
 10
299.0511671540587
 20
65.82573247485546
 30
0.0
 10
299.0511671540587
 20
66.09062669397775
 30
0.0
 10
299.0511671540587
 20
66.59759320739956
 30
0.0
 10
299.0511671540587
 20
67.23002955337503
 30
0.0
 10
299.0511671540587
 20
67.96278041775219
 30
0.0
 10
299.0511671540587
 20
68.71791485250168
 30
0.0
 10
299.0511671540587
 20
69.49078981905363
 30
0.0
 10
299.0511671540587
 20
70.27724908475909
 30
0.0
 10
299.0511671540587
 20
71.07442295260184
 30
0.0
 10
299.0511671540587
 20
72.03285130074686
 30
0.0
 10
299.0511671540587
 20
73.1558780871922
 30
0.0
 10
299.0511671540587
 20
74.44513991395264
 30
0.0
 10
299.0511671540587
 20
75.74233047978565
 30
0.0
 10
299.0511671540587
 20
77.04657400547867
 30
0.0
 10
299.0511671540587
 20
78.49005456190322
 30
0.0
 10
299.0511671540587
 20
80.0741377338759
 30
0.0
 10
299.0511671540587
 20
81.79762258286935
 30
0.0
 10
299.0511671540587
 20
83.57659398037059
 30
0.0
 10
299.0511671540587
 20
85.41022053575617
 30
0.0
 10
299.0511671540587
 20
87.297882538458
 30
0.0
 10
299.0511671540587
 20
89.18697619023632
 30
0.0
 10
299.0511671540587
 20
91.07655309059726
 30
0.0
 10
299.0511671540587
 20
92.967061329176
 30
0.0
 10
299.0511671540587
 20
94.85370041996518
 30
0.0
 10
299.0511671540587
 20
96.45566674791134
 30
0.0
 10
299.0511671540587
 20
97.75800562108176
 30
0.0
 10
299.0511671540587
 20
98.75010675112892
 30
0.0
 10
299.0511671540587
 20
99.51705520038553
 30
0.0
 10
299.0511671540587
 20
100.076183883069
 30
0.0
 10
299.0511671540587
 20
100.4573241795927
 30
0.0
 10
299.0511671540587
 20
100.8721047042723
 30
0.0
 10
299.0511671540587
 20
101.3331850609932
 30
0.0
 10
299.0511671540587
 20
101.8414441089573
 30
0.0
 10
299.0511671540587
 20
102.3973798483515
 30
0.0
 10
299.0511671540587
 20
103.0015194429575
 30
0.0
 10
299.0511671540587
 20
103.6544152744952
 30
0.0
 10
299.0511671540587
 20
104.3566406724499
 30
0.0
 10
299.0511671540587
 20
105.1087853206635
 30
0.0
 10
299.0511671540587
 20
105.9114503400609
 30
0.0
 10
299.0511671540587
 20
106.7475306479655
 30
0.0
 10
299.0511671540587
 20
107.6156869884008
 30
0.0
 10
299.0511671540587
 20
108.5145432688622
 30
0.0
 10
299.0511671540587
 20
109.4603941946028
 30
0.0
 10
299.0511671540587
 20
110.4537230297895
 30
0.0
 10
299.0511671540587
 20
111.1318221014904
 30
0.0
 10
299.0511671540587
 20
111.4788633812186
 30
0.0
  0
LINE
  5
294
330
1F
100
AcDbEntity
  8
0
  6
Continuous
 62
     7
370
    15
100
AcDbLine
 10
299.9242921541
 20
111.9551133812
 30
0.0
 11
299.9242921541
 21
120.6863633812
 31
0.0
  0
LINE
  5
295
330
1F
100
AcDbEntity
  8
0
  6
Continuous
 62
     7
370
    15
100
AcDbLine
 10
297.8605421541
 20
120.6863633812
 30
0.0
 11
297.8605421541
 21
111.9551133812
 31
0.0
  0
LINE
  5
296
330
1F
100
AcDbEntity
  8
0
  6
Continuous
 62
     7
370
    15
100
AcDbLine
 10
297.8605421541
 20
121.0335182627
 30
0.0
 11
297.8605421541
 21
120.7160182627
 31
0.0
  0
LINE
  5
297
330
1F
100
AcDbEntity
  8
0
  6
Continuous
 62
     7
370
    15
100
AcDbLine
 10
299.9242921541
 20
120.7160182627
 30
0.0
 11
299.9242921541
 21
121.0335182627
 31
0.0
  0
LINE
  5
298
330
1F
100
AcDbEntity
  8
0
  6
Continuous
 62
     7
370
    15
100
AcDbLine
 10
298.9855777495
 20
120.6979317164
 30
0.0
 11
298.9855777495
 21
120.7007665378
 31
0.0
  0
SPLINE
  5
299
330
1F
100
AcDbEntity
  8
0
  6
Continuous
 62
     7
370
    15
100
AcDbSpline
210
0.0
220
0.0
230
1.0
 70
     8
 71
     3
 72
     9
 73
     5
 74
     0
 42
0.000000001
 43
0.00000001
 40
0.0
 40
0.0
 40
0.0
 40
0.0
 40
0.4995507442324676
 40
1.0
 40
1.0
 40
1.0
 40
1.0
 10
298.9704721881185
 20
120.6889236002521
 30
0.0
 10
298.972943201981
 20
120.6903663504929
 30
0.0
 10
298.9778896741682
 20
120.6932544459614
 30
0.0
 10
298.9828386081684
 20
120.6961346117755
 30
0.0
 10
298.9853152985057
 20
120.6975759886136
 30
0.0
  0
SPLINE
  5
29A
330
1F
100
AcDbEntity
  8
0
  6
Continuous
 62
     7
370
    15
100
AcDbSpline
210
0.0
220
0.0
230
1.0
 70
     8
 71
     3
 72
     9
 73
     5
 74
     0
 42
0.000000001
 43
0.00000001
 40
0.0
 40
0.0
 40
0.0
 40
0.0
 40
0.5134367425696778
 40
1.0
 40
1.0
 40
1.0
 40
1.0
 10
298.8766202005341
 20
120.7089152743279
 30
0.0
 10
298.8790968962049
 20
120.7074739146696
 30
0.0
 10
298.8839206563013
 20
120.7046666366958
 30
0.0
 10
298.8887420168568
 20
120.7018516296498
 30
0.0
 10
298.8910879137539
 20
120.7004819506517
 30
0.0
  0
LINE
  5
29B
330
1F
100
AcDbEntity
  8
0
  6
Continuous
 62
     7
370
    15
100
AcDbLine
 10
298.9704721881
 20
120.7116021717
 30
0.0
 11
298.9776000138
 21
120.715761646
 31
0.0
  0
SPLINE
  5
29C
330
1F
100
AcDbEntity
  8
0
  6
Continuous
 62
     7
370
    15
100
AcDbSpline
210
0.0
220
0.0
230
1.0
 70
     8
 71
     3
 72
     9
 73
     5
 74
     0
 42
0.000000001
 43
0.00000001
 40
0.0
 40
0.0
 40
0.0
 40
0.0
 40
0.4995167692638995
 40
0.9999999999999999
 40
0.9999999999999999
 40
0.9999999999999999
 40
0.9999999999999999
 10
298.8917111080553
 20
120.6985855824635
 30
0.0
 10
298.8892437896244
 20
120.6971441992963
 30
0.0
 10
298.8843043790125
 20
120.6942586441839
 30
0.0
 10
298.879351432999
 20
120.6913806978686
 30
0.0
 10
298.8768725665765
 20
120.6899403339989
 30
0.0
  0
SPLINE
  5
29D
330
1F
100
AcDbEntity
  8
0
  6
Continuous
 62
     7
370
    15
100
AcDbSpline
210
0.0
220
0.0
230
1.0
 70
     8
 71
     3
 72
     9
 73
     5
 74
     0
 42
0.000000001
 43
0.00000001
 40
0.0
 40
0.0
 40
0.0
 40
0.0
 40
0.5004380937078158
 40
1.0
 40
1.0
 40
1.0
 40
1.0
 10
298.9852973534724
 20
120.7011498325283
 30
0.0
 10
298.9828216451028
 20
120.7025894348621
 30
0.0
 10
298.9778745629347
 20
120.7054661190154
 30
0.0
 10
298.9729314444926
 20
120.7083497630367
 30
0.0
 10
298.9704620508207
 20
120.709790321741
 30
0.0
  0
LINE
  5
29E
330
1F
100
AcDbEntity
  8
0
  6
Continuous
 62
     7
370
    15
100
AcDbLine
 10
299.2892921541
 20
153.456072459
 30
0.0
 11
299.2892921541
 21
171.315447459
 31
0.0
  0
LINE
  5
29F
330
1F
100
AcDbEntity
  8
0
  6
Continuous
 62
     7
370
    15
100
AcDbLine
 10
298.4955421541
 20
171.315447459
 30
0.0
 11
298.4955421541
 21
153.456072459
 31
0.0
  0
ARC
  5
2A0
330
1F
100
AcDbEntity
  8
0
  6
Continuous
 62
     7
370
    15
100
AcDbCircle
 10
298.8924171541
 20
180.840447459
 30
0.0
 40
0.3968749999999833
100
AcDbArc
 50
151.6423634237
 51
180.0
  0
ARC
  5
2A1
330
1F
100
AcDbEntity
  8
0
  6
Continuous
 62
     7
370
    15
100
AcDbCircle
 10
298.8924171541
 20
180.840447459
 30
0.0
 40
0.3968750000000333
100
AcDbArc
 50
0.0
 51
28.3576365763
  0
LINE
  5
2A2
330
1F
100
AcDbEntity
  8
0
  6
Continuous
 62
     7
370
    15
100
AcDbLine
 10
299.2892921541
 20
171.315447459
 30
0.0
 11
299.2892921541
 21
180.840447459
 31
0.0
  0
LINE
  5
2A3
330
1F
100
AcDbEntity
  8
0
  6
Continuous
 62
     7
370
    15
100
AcDbLine
 10
298.4955421541
 20
180.840447459
 30
0.0
 11
298.4955421541
 21
171.315447459
 31
0.0
  0
LINE
  5
2A4
330
1F
100
AcDbEntity
  8
0
  6
Continuous
 62
     7
370
    15
100
AcDbLine
 10
298.7336671541
 20
111.9551133812
 30
0.0
 11
298.7336671541
 21
111.4788633812
 31
0.0
  0
LINE
  5
2A5
330
1F
100
AcDbEntity
  8
0
  6
Continuous
 62
     7
370
    15
100
AcDbLine
 10
299.0511671541
 20
111.4788633812
 30
0.0
 11
299.0511671541
 21
111.9551133812
 31
0.0
  0
LINE
  5
2A6
330
1F
100
AcDbEntity
  8
0
  6
Continuous
 62
     7
370
    15
100
AcDbLine
 10
299.0511671541
 20
120.6906182627
 30
0.0
 11
299.0511671541
 21
120.7160182627
 31
0.0
  0
LINE
  5
2A7
330
1F
100
AcDbEntity
  8
0
  6
Continuous
 62
     7
370
    15
100
AcDbLine
 10
298.7336671541
 20
120.7160182627
 30
0.0
 11
298.7336671541
 21
120.6906182627
 31
0.0
  0
LINE
  5
2A8
330
1F
100
AcDbEntity
  8
0
  6
Continuous
 62
     7
370
    15
100
AcDbLine
 10
299.0511671541
 20
121.0335182627
 30
0.0
 11
299.0511671541
 21
153.456072459
 31
0.0
  0
LINE
  5
2A9
330
1F
100
AcDbEntity
  8
0
  6
Continuous
 62
     7
370
    15
100
AcDbLine
 10
298.7336671541
 20
153.456072459
 30
0.0
 11
298.7336671541
 21
121.0335182627
 31
0.0
  0
SPLINE
  5
2AA
330
1F
100
AcDbEntity
  8
0
  6
Continuous
 62
     7
370
    15
100
AcDbSpline
210
0.0
220
0.0
230
1.0
 70
     8
 71
     3
 72
     9
 73
     5
 74
     0
 42
0.000000001
 43
0.00000001
 40
0.0
 40
0.0
 40
0.0
 40
0.0
 40
0.4996546319896416
 40
1.0
 40
1.0
 40
1.0
 40
1.0
 10
298.2754446931797
 20
120.6963812915481
 30
0.0
 10
298.2779074320617
 20
120.6978207805094
 30
0.0
 10
298.2828363143821
 20
120.7007017484203
 30
0.0
 10
298.2877782084441
 20
120.7035766830229
 30
0.0
 10
298.2902508622473
 20
120.7050151432347
 30
0.0
  0
SPLINE
  5
2AB
330
1F
100
AcDbEntity
  8
0
  6
Continuous
 62
     7
370
    15
100
AcDbSpline
210
0.0
220
0.0
230
1.0
 70
     8
 71
     3
 72
     9
 73
     5
 74
     0
 42
0.000000001
 43
0.00000001
 40
0.0
 40
0.0
 40
0.0
 40
0.0
 40
0.4992320057398675
 40
1.0
 40
1.0
 40
1.0
 40
1.0
 10
298.1966985419206
 20
120.7060662064751
 30
0.0
 10
298.1942166990304
 20
120.7046179891924
 30
0.0
 10
298.1892453773572
 20
120.7017170988928
 30
0.0
 10
298.184278016047
 20
120.6988284420833
 30
0.0
 10
298.1817905204868
 20
120.6973818952066
 30
0.0
  0
SPLINE
  5
2AC
330
1F
100
AcDbEntity
  8
0
  6
Continuous
 62
     7
370
    15
100
AcDbSpline
210
0.0
220
0.0
230
1.0
 70
     8
 71
     3
 72
     9
 73
     5
 74
     0
 42
0.000000001
 43
0.00000001
 40
0.0
 40
0.0
 40
0.0
 40
0.0
 40
0.9965808422266571
 40
1.0
 40
1.0
 40
1.0
 40
1.0
 10
299.4708239330159
 20
120.6909727252383
 30
0.0
 10
299.4683478362887
 20
120.6895265635365
 30
0.0
 10
299.4658632443496
 20
120.6880754402152
 30
0.0
 10
299.463376762781
 20
120.6866294001453
 30
0.0
 10
299.4633682611081
 20
120.6866244559062
 30
0.0
  0
SPLINE
  5
2AD
330
1F
100
AcDbEntity
  8
0
  6
Continuous
 62
     7
370
    15
100
AcDbSpline
210
0.0
220
0.0
230
1.0
 70
     8
 71
     3
 72
     9
 73
     5
 74
     0
 42
0.000000001
 43
0.00000001
 40
0.0
 40
0.0
 40
0.0
 40
0.0
 40
0.499360382851168
 40
1.0
 40
1.0
 40
1.0
 40
1.0
 10
299.4708239330159
 20
120.7136512966668
 30
0.0
 10
299.4683475241721
 20
120.7122059745827
 30
0.0
 10
299.4633883625547
 20
120.709311627867
 30
0.0
 10
299.4584254297754
 20
120.7064274258777
 30
0.0
 10
299.4559407890088
 20
120.7049834800981
 30
0.0
  0
SPLINE
  5
2AE
330
1F
100
AcDbEntity
  8
0
  6
Continuous
 62
     7
370
    15
100
AcDbSpline
210
0.0
220
0.0
230
1.0
 70
     8
 71
     3
 72
     9
 73
     5
 74
     0
 42
0.000000001
 43
0.00000001
 40
0.0
 40
0.0
 40
0.0
 40
0.0
 40
0.5000818842876043
 40
0.9999999999999999
 40
0.9999999999999999
 40
0.9999999999999999
 40
0.9999999999999999
 10
299.5584260053693
 20
120.6949191692866
 30
0.0
 10
299.5561901142036
 20
120.6963463487394
 30
0.0
 10
299.5517190640895
 20
120.6992002402673
 30
0.0
 10
299.5473016302473
 20
120.7020556751271
 30
0.0
 10
299.5450932750446
 20
120.7034831587417
 30
0.0
  0
LINE
  5
2AF
330
1F
100
AcDbEntity
  8
0
  6
Continuous
 62
     7
370
    15
100
AcDbLine
 10
299.4555719325
 20
120.7045544043
 30
0.0
 11
299.4555719325
 21
120.7017195829
 31
0.0
  0
SPLINE
  5
2B0
330
1F
100
AcDbEntity
  8
0
  6
Continuous
 62
     7
370
    15
100
AcDbSpline
210
0.0
220
0.0
230
1.0
 70
     8
 71
     3
 72
     9
 73
     5
 74
     0
 42
0.000000001
 43
0.00000001
 40
0.0
 40
0.0
 40
0.0
 40
0.0
 40
0.5000879973184871
 40
1.0
 40
1.0
 40
1.0
 40
1.0
 10
299.4596491344521
 20
120.7002621397804
 30
0.0
 10
299.4619757147463
 20
120.6988343634992
 30
0.0
 10
299.4666280565476
 20
120.6959793134104
 30
0.0
 10
299.4712374300969
 20
120.693122839837
 30
0.0
 10
299.4735417112591
 20
120.6916948544122
 30
0.0
  0
SPLINE
  5
2B1
330
1F
100
AcDbEntity
  8
0
  6
Continuous
 62
     7
370
    15
100
AcDbSpline
210
0.0
220
0.0
230
1.0
 70
     8
 71
     3
 72
     9
 73
     5
 74
     0
 42
0.000000001
 43
0.00000001
 40
0.0
 40
0.0
 40
0.0
 40
0.0
 40
0.4995199894203245
 40
1.0
 40
1.0
 40
1.0
 40
1.0
 10
299.5495008566281
 20
120.7039270672726
 30
0.0
 10
299.5519706096206
 20
120.7053706833944
 30
0.0
 10
299.5569148621927
 20
120.7082606901055
 30
0.0
 10
299.5618695234481
 20
120.7111422894875
 30
0.0
 10
299.5643492323658
 20
120.7125844723767
 30
0.0
  0
LINE
  5
2B2
330
1F
100
AcDbEntity
  8
0
  6
Continuous
 62
     7
370
    15
100
AcDbLine
 10
299.4703020968
 20
120.6932151186
 30
0.0
 11
299.4703020968
 21
120.6906683789
 31
0.0
  0
LINE
  5
2B3
330
1F
100
AcDbEntity
  8
0
  6
Continuous
 62
     7
370
    15
100
AcDbLine
 10
300.9561671541
 20
183.634447459
 30
0.0
 11
300.9561671541
 21
184.269447459
 31
0.0
  0
LINE
  5
2B4
330
1F
100
AcDbEntity
  8
0
  6
Continuous
 62
     7
370
    15
100
AcDbLine
 10
296.8286671541
 20
184.269447459
 30
0.0
 11
296.8286671541
 21
183.634447459
 31
0.0
  0
LINE
  5
2B5
330
1F
100
AcDbEntity
  8
0
  6
Continuous
 62
     7
370
    15
100
AcDbLine
 10
305.3217921541
 20
147.5746563416
 30
0.0
 11
305.3217921541
 21
148.5271563416
 31
0.0
  0
LINE
  5
2B6
330
1F
100
AcDbEntity
  8
0
  6
Continuous
 62
     7
370
    15
100
AcDbLine
 10
292.4630421541
 20
148.5271563416
 30
0.0
 11
292.4630421541
 21
147.5746563416
 31
0.0
  0
ARC
  5
2B7
330
1F
100
AcDbEntity
  8
0
  6
Continuous
 62
     7
370
    15
100
AcDbCircle
 10
292.6614796541
 20
147.5058455704
 30
0.0
 40
0.1000000000000024
100
AcDbArc
 50
136.5194960789
 51
245.6587050717
  0
ARC
  5
2B8
330
1F
100
AcDbEntity
  8
0
  6
Continuous
 62
     7
370
    15
100
AcDbCircle
 10
305.1233546541
 20
147.5058455704
 30
0.0
 40
0.1000000000000437
100
AcDbArc
 50
294.3412949284
 51
43.480503921
  0
ARC
  5
2B9
330
1F
100
AcDbEntity
  8
0
  6
Continuous
 62
     7
370
    15
100
AcDbCircle
 10
292.6723940114
 20
147.3177743147
 30
0.0
 40
0.099999999999983
100
AcDbArc
 50
120.9839474642
 51
247.3894743023
  0
ARC
  5
2BA
330
1F
100
AcDbEntity
  8
0
  6
Continuous
 62
     7
370
    15
100
AcDbCircle
 10
305.1124402968
 20
147.3177743147
 30
0.0
 40
0.099999999999983
100
AcDbArc
 50
292.6105256977
 51
59.0160525358
  0
ARC
  5
2BB
330
1F
100
AcDbEntity
  8
0
  6
Continuous
 62
     7
370
    15
100
AcDbCircle
 10
292.6889837107
 20
147.1301185066
 30
0.0
 40
0.0999999999999923
100
AcDbArc
 50
122.7147166947
 51
249.1202435328
  0
ARC
  5
2BC
330
1F
100
AcDbEntity
  8
0
  6
Continuous
 62
     7
370
    15
100
AcDbCircle
 10
305.0958505974
 20
147.1301185066
 30
0.0
 40
0.0999999999999923
100
AcDbArc
 50
290.8797564672
 51
57.2852833053
  0
ARC
  5
2BD
330
1F
100
AcDbEntity
  8
0
  6
Continuous
 62
     7
370
    15
100
AcDbCircle
 10
292.7112336152
 20
146.9430493692
 30
0.0
 40
0.1000000000000205
100
AcDbArc
 50
124.4454859253
 51
250.8510127634
  0
ARC
  5
2BE
330
1F
100
AcDbEntity
  8
0
  6
Continuous
 62
     7
370
    15
100
AcDbCircle
 10
305.0736006929
 20
146.9430493692
 30
0.0
 40
0.1000000000000205
100
AcDbArc
 50
289.1489872366
 51
55.5545140747
  0
ARC
  5
2BF
330
1F
100
AcDbEntity
  8
0
  6
Continuous
 62
     7
370
    15
100
AcDbCircle
 10
292.6176452544
 20
147.4089493996
 30
0.0
 40
0.0063500000000254
100
AcDbArc
 50
300.9839474644
 51
65.6587050717
  0
ARC
  5
2C0
330
1F
100
AcDbEntity
  8
0
  6
Continuous
 62
     7
370
    15
100
AcDbCircle
 10
305.1671890537
 20
147.4089493996
 30
0.0
 40
0.0063500000000254
100
AcDbArc
 50
114.3412949283
 51
239.0160525356
  0
ARC
  5
2C1
330
1F
100
AcDbEntity
  8
0
  6
Continuous
 62
     7
370
    15
100
AcDbCircle
 10
292.6315061674
 20
147.2195984179
 30
0.0
 40
0.0063500000000036
100
AcDbArc
 50
302.7147166949
 51
67.3894743025
  0
ARC
  5
2C2
330
1F
100
AcDbEntity
  8
0
  6
Continuous
 62
     7
370
    15
100
AcDbCircle
 10
305.1533281407
 20
147.2195984179
 30
0.0
 40
0.0063500000000255
100
AcDbArc
 50
112.610525698
 51
237.2852833051
  0
ARC
  5
2C3
330
1F
100
AcDbEntity
  8
0
  6
Continuous
 62
     7
370
    15
100
AcDbCircle
 10
292.7391234233
 20
146.7567375901
 30
0.0
 40
0.0999999999999954
100
AcDbArc
 50
126.1762551559
 51
252.581781994
  0
ARC
  5
2C4
330
1F
100
AcDbEntity
  8
0
  6
Continuous
 62
     7
370
    15
100
AcDbCircle
 10
305.0457108849
 20
146.7567375901
 30
0.0
 40
0.1000000000000289
100
AcDbArc
 50
287.418218006
 51
53.8237448441
  0
ARC
  5
2C5
330
1F
100
AcDbEntity
  8
0
  6
Continuous
 62
     7
370
    15
100
AcDbCircle
 10
292.6510797298
 20
147.0307524625
 30
0.0
 40
0.0063500000000286
100
AcDbArc
 50
304.4454859257
 51
69.1202435325
  0
ARC
  5
2C6
330
1F
100
AcDbEntity
  8
0
  6
Continuous
 62
     7
370
    15
100
AcDbCircle
 10
305.1337545784
 20
147.0307524625
 30
0.0
 40
0.0063500000000286
100
AcDbArc
 50
110.8797564675
 51
235.5545140743
  0
ARC
  5
2C7
330
1F
100
AcDbEntity
  8
0
  6
Continuous
 62
     7
370
    15
100
AcDbCircle
 10
292.7726276874
 20
146.571353166
 30
0.0
 40
0.100000000000023
100
AcDbArc
 50
127.9070243865
 51
254.3125512245
  0
ARC
  5
2C8
330
1F
100
AcDbEntity
  8
0
  6
Continuous
 62
     7
370
    15
100
AcDbCircle
 10
305.0122066207
 20
146.571353166
 30
0.0
 40
0.100000000000023
100
AcDbArc
 50
285.6874487754
 51
52.0929756135
  0
ARC
  5
2C9
330
1F
100
AcDbEntity
  8
0
  6
Continuous
 62
     7
370
    15
100
AcDbCircle
 10
292.676348082
 20
146.8425838424
 30
0.0
 40
0.0063500000000074
100
AcDbArc
 50
306.176255156
 51
70.8510127639
  0
ARC
  5
2CA
330
1F
100
AcDbEntity
  8
0
  6
Continuous
 62
     7
370
    15
100
AcDbCircle
 10
305.1084862261
 20
146.8425838424
 30
0.0
 40
0.0063500000000074
100
AcDbArc
 50
109.1489872361
 51
233.823744844
  0
ARC
  5
2CB
330
1F
100
AcDbEntity
  8
0
  6
Continuous
 62
     7
370
    15
100
AcDbCircle
 10
292.7072881685
 20
146.6552642485
 30
0.0
 40
0.0063500000000206
100
AcDbArc
 50
307.9070243865
 51
72.5817819936
  0
ARC
  5
2CC
330
1F
100
AcDbEntity
  8
0
  6
Continuous
 62
     7
370
    15
100
AcDbCircle
 10
305.0775461396
 20
146.6552642485
 30
0.0
 40
0.0063499999999978
100
AcDbArc
 50
107.4182180059
 51
232.0929756139
  0
ARC
  5
2CD
330
1F
100
AcDbEntity
  8
0
  6
Continuous
 62
     7
370
    15
100
AcDbCircle
 10
292.8117158373
 20
146.3870652474
 30
0.0
 40
0.1000000000000197
100
AcDbArc
 50
129.637793617
 51
256.0433204551
  0
ARC
  5
2CE
330
1F
100
AcDbEntity
  8
0
  6
Continuous
 62
     7
370
    15
100
AcDbCircle
 10
304.9731184708
 20
146.3870652474
 30
0.0
 40
0.1000000000000197
100
AcDbArc
 50
283.9566795449
 51
50.362206383
  0
ARC
  5
2CF
330
1F
100
AcDbEntity
  8
0
  6
Continuous
 62
     7
370
    15
100
AcDbCircle
 10
292.7438717586
 20
146.4689645971
 30
0.0
 40
0.0063500000000024
100
AcDbArc
 50
309.6377936171
 51
74.3125512248
  0
ARC
  5
2D0
330
1F
100
AcDbEntity
  8
0
  6
Continuous
 62
     7
370
    15
100
AcDbCircle
 10
305.0409625496
 20
146.4689645971
 30
0.0
 40
0.0063500000000028
100
AcDbArc
 50
105.6874487762
 51
230.3622063829
  0
ARC
  5
2D1
330
1F
100
AcDbEntity
  8
0
  6
Continuous
 62
     7
370
    15
100
AcDbCircle
 10
292.8563522077
 20
146.2040419842
 30
0.0
 40
0.1000000000000062
100
AcDbArc
 50
131.3685628476
 51
257.7740896857
  0
ARC
  5
2D2
330
1F
100
AcDbEntity
  8
0
  6
Continuous
 62
     7
370
    15
100
AcDbCircle
 10
304.9284821004
 20
146.2040419842
 30
0.0
 40
0.1000000000000062
100
AcDbArc
 50
282.2259103143
 51
48.6314371524
  0
ARC
  5
2D3
330
1F
100
AcDbEntity
  8
0
  6
Continuous
 62
     7
370
    15
100
AcDbCircle
 10
292.7860654722
 20
146.2838548736
 30
0.0
 40
0.0063499999999993
100
AcDbArc
 50
311.3685628478
 51
76.0433204552
  0
ARC
  5
2D4
330
1F
100
AcDbEntity
  8
0
  6
Continuous
 62
     7
370
    15
100
AcDbCircle
 10
304.998768836
 20
146.2838548736
 30
0.0
 40
0.0063499999999993
100
AcDbArc
 50
103.9566795448
 51
228.6314371522
  0
ARC
  5
2D5
330
1F
100
AcDbEntity
  8
0
  6
Continuous
 62
     7
370
    15
100
AcDbCircle
 10
292.906496071
 20
146.0224503727
 30
0.0
 40
0.1000000000000027
100
AcDbArc
 50
133.0993320782
 51
259.5048589162
  0
ARC
  5
2D6
330
1F
100
AcDbEntity
  8
0
  6
Continuous
 62
     7
370
    15
100
AcDbCircle
 10
304.8783382371
 20
146.0224503727
 30
0.0
 40
0.0999999999999923
100
AcDbArc
 50
280.4951410837
 51
46.9006679218
  0
ARC
  5
2D7
330
1F
100
AcDbEntity
  8
0
  6
Continuous
 62
     7
370
    15
100
AcDbCircle
 10
292.8338308105
 20
146.1001039779
 30
0.0
 40
0.0063500000000307
100
AcDbArc
 50
313.0993320783
 51
77.7740896854
  0
ARC
  5
2D8
330
1F
100
AcDbEntity
  8
0
  6
Continuous
 62
     7
370
    15
100
AcDbCircle
 10
304.9510034977
 20
146.1001039779
 30
0.0
 40
0.0063500000000695
100
AcDbArc
 50
102.2259103146
 51
226.9006679213
  0
ARC
  5
2D9
330
1F
100
AcDbEntity
  8
0
  6
Continuous
 62
     7
370
    15
100
AcDbCircle
 10
292.9621016744
 20
145.8424561025
 30
0.0
 40
0.1000000000000004
100
AcDbArc
 50
134.8301013088
 51
261.2356281468
  0
ARC
  5
2DA
330
1F
100
AcDbEntity
  8
0
  6
Continuous
 62
     7
370
    15
100
AcDbCircle
 10
304.8227326337
 20
145.8424561025
 30
0.0
 40
0.1000000000000112
100
AcDbArc
 50
278.7643718532
 51
45.1698986912
  0
ARC
  5
2DB
330
1F
100
AcDbEntity
  8
0
  6
Continuous
 62
     7
370
    15
100
AcDbCircle
 10
292.8871241909
 20
145.9178795701
 30
0.0
 40
0.0063500000000177
100
AcDbArc
 50
314.8301013089
 51
79.5048589156
  0
ARC
  5
2DC
330
1F
100
AcDbEntity
  8
0
  6
Continuous
 62
     7
370
    15
100
AcDbCircle
 10
304.8977101172
 20
145.9178795701
 30
0.0
 40
0.0063500000000177
100
AcDbArc
 50
100.4951410844
 51
225.1698986911
  0
ARC
  5
2DD
330
1F
100
AcDbEntity
  8
0
  6
Continuous
 62
     7
370
    15
100
AcDbCircle
 10
293.0231182816
 20
145.6642234061
 30
0.0
 40
0.1000000000000414
100
AcDbArc
 50
136.5608705394
 51
262.9663973774
  0
ARC
  5
2DE
330
1F
100
AcDbEntity
  8
0
  6
Continuous
 62
     7
370
    15
100
AcDbCircle
 10
304.7617160265
 20
145.6642234061
 30
0.0
 40
0.1000000000000282
100
AcDbArc
 50
277.0336026226
 51
43.4391294607
  0
ARC
  5
2DF
330
1F
100
AcDbEntity
  8
0
  6
Continuous
 62
     7
370
    15
100
AcDbCircle
 10
292.9458969869
 20
145.7373479173
 30
0.0
 40
0.006350000000029
100
AcDbArc
 50
316.5608705392
 51
81.235628147
  0
ARC
  5
2E0
330
1F
100
AcDbEntity
  8
0
  6
Continuous
 62
     7
370
    15
100
AcDbCircle
 10
304.8389373212
 20
145.7373479173
 30
0.0
 40
0.006350000000029
100
AcDbArc
 50
98.764371853
 51
223.4391294604
  0
ARC
  5
2E1
330
1F
100
AcDbEntity
  8
0
  6
Continuous
 62
     7
370
    15
100
AcDbCircle
 10
293.0894902192
 20
145.4879149085
 30
0.0
 40
0.100000000000005
100
AcDbArc
 50
138.2916397699
 51
264.697166608
  0
ARC
  5
2E2
330
1F
100
AcDbEntity
  8
0
  6
Continuous
 62
     7
370
    15
100
AcDbCircle
 10
304.6953440889
 20
145.4879149085
 30
0.0
 40
0.100000000000005
100
AcDbArc
 50
275.302833392
 51
41.7083602301
  0
ARC
  5
2E3
330
1F
100
AcDbEntity
  8
0
  6
Continuous
 62
     7
370
    15
100
AcDbCircle
 10
293.0100955724
 20
145.5586737422
 30
0.0
 40
0.0063500000000163
100
AcDbArc
 50
318.29163977
 51
82.9663973776
  0
ARC
  5
2E4
330
1F
100
AcDbEntity
  8
0
  6
Continuous
 62
     7
370
    15
100
AcDbCircle
 10
304.7747387358
 20
145.5586737422
 30
0.0
 40
0.0063500000000163
100
AcDbArc
 50
97.0336026224
 51
221.70836023
  0
ARC
  5
2E5
330
1F
100
AcDbEntity
  8
0
  6
Continuous
 62
     7
370
    15
100
AcDbCircle
 10
293.1611569273
 20
145.3136914791
 30
0.0
 40
0.1000000000000036
100
AcDbArc
 50
140.0224090005
 51
266.4279358385
  0
ARC
  5
2E6
330
1F
100
AcDbEntity
  8
0
  6
Continuous
 62
     7
370
    15
100
AcDbCircle
 10
304.6236773808
 20
145.3136914791
 30
0.0
 40
0.1000000000000036
100
AcDbArc
 50
273.5720641615
 51
39.9775909995
  0
ARC
  5
2E7
330
1F
100
AcDbEntity
  8
0
  6
Continuous
 62
     7
370
    15
100
AcDbCircle
 10
293.0796613705
 20
145.3820200728
 30
0.0
 40
0.0063499999999777
100
AcDbArc
 50
320.0224090001
 51
84.6971666082
  0
ARC
  5
2E8
330
1F
100
AcDbEntity
  8
0
  6
Continuous
 62
     7
370
    15
100
AcDbCircle
 10
304.7051729376
 20
145.3820200728
 30
0.0
 40
0.0063499999999777
100
AcDbArc
 50
95.3028333918
 51
219.9775909999
  0
ARC
  5
2E9
330
1F
100
AcDbEntity
  8
0
  6
Continuous
 62
     7
370
    15
100
AcDbCircle
 10
293.2380530151
 20
145.1417120846
 30
0.0
 40
0.1000000000000165
100
AcDbArc
 50
141.753178231
 51
268.1587050691
  0
ARC
  5
2EA
330
1F
100
AcDbEntity
  8
0
  6
Continuous
 62
     7
370
    15
100
AcDbCircle
 10
304.5467812931
 20
145.1417120846
 30
0.0
 40
0.1000000000000165
100
AcDbArc
 50
271.8412949309
 51
38.246821769
  0
ARC
  5
2EB
330
1F
100
AcDbEntity
  8
0
  6
Continuous
 62
     7
370
    15
100
AcDbCircle
 10
293.1545309074
 20
145.2075480932
 30
0.0
 40
0.006350000000017
100
AcDbArc
 50
321.7531782311
 51
86.4279358384
  0
ARC
  5
2EC
330
1F
100
AcDbEntity
  8
0
  6
Continuous
 62
     7
370
    15
100
AcDbCircle
 10
304.6303034008
 20
145.2075480932
 30
0.0
 40
0.006350000000017
100
AcDbArc
 50
93.5720641616
 51
218.2468217689
  0
ARC
  5
2ED
330
1F
100
AcDbEntity
  8
0
  6
Continuous
 62
     7
370
    15
100
AcDbCircle
 10
293.32010832
 20
144.9721336445
 30
0.0
 40
0.1000000000000314
100
AcDbArc
 50
143.4839474616
 51
269.8894742989
  0
ARC
  5
2EE
330
1F
100
AcDbEntity
  8
0
  6
Continuous
 62
     7
370
    15
100
AcDbCircle
 10
304.4647259881
 20
144.9721336445
 30
0.0
 40
0.1000000000000314
100
AcDbArc
 50
270.1105257011
 51
36.5160525384
  0
ARC
  5
2EF
330
1F
100
AcDbEntity
  8
0
  6
Continuous
 62
     7
370
    15
100
AcDbCircle
 10
293.2346358696
 20
145.0354169972
 30
0.0
 40
0.0063499999999952
100
AcDbArc
 50
323.4839474612
 51
88.158705069
  0
ARC
  5
2F0
330
1F
100
AcDbEntity
  8
0
  6
Continuous
 62
     7
370
    15
100
AcDbCircle
 10
304.5501984385
 20
145.0354169972
 30
0.0
 40
0.0063499999999952
100
AcDbArc
 50
91.841294931
 51
216.5160525388
  0
ARC
  5
2F1
330
1F
100
AcDbEntity
  8
0
  6
Continuous
 62
     7
370
    15
100
AcDbCircle
 10
293.4072479724
 20
144.8051108874
 30
0.0
 40
0.1000000000000198
100
AcDbArc
 50
145.2147166922
 51
270.0
  0
ARC
  5
2F2
330
1F
100
AcDbEntity
  8
0
  6
Continuous
 62
     7
370
    15
100
AcDbCircle
 10
304.3775863357
 20
144.8051108874
 30
0.0
 40
0.0999999999999731
100
AcDbArc
 50
270.0
 51
34.7852833079
  0
LINE
  5
2F3
330
1F
100
AcDbEntity
  8
0
  6
Continuous
 62
     7
370
    15
100
AcDbLine
 10
293.4072479724
 20
144.7051108874
 30
0.0
 11
298.7336671541
 21
144.7051108874
 31
0.0
  0
LINE
  5
2F4
330
1F
100
AcDbEntity
  8
0
  6
Continuous
 62
     7
370
    15
100
AcDbLine
 10
299.0511671541
 20
144.7051108874
 30
0.0
 11
304.3775863357
 21
144.7051108874
 31
0.0
  0
ARC
  5
2F5
330
1F
100
AcDbEntity
  8
0
  6
Continuous
 62
     7
370
    15
100
AcDbCircle
 10
293.319903167
 20
144.8657838424
 30
0.0
 40
0.0063499999999853
100
AcDbArc
 50
325.2147166921
 51
89.8894743103
  0
ARC
  5
2F6
330
1F
100
AcDbEntity
  8
0
  6
Continuous
 62
     7
370
    15
100
AcDbCircle
 10
304.4649311411
 20
144.8657838424
 30
0.0
 40
0.006350000000032
100
AcDbArc
 50
90.1105256897
 51
214.7852833076
  0
ARC
  5
2F7
330
1F
100
AcDbEntity
  8
0
  6
Continuous
 62
     7
370
    15
100
AcDbCircle
 10
293.4993924634
 20
144.64079621
 30
0.0
 40
0.0999999999999943
100
AcDbArc
 50
146.9454859227
 51
270.0
  0
ARC
  5
2F8
330
1F
100
AcDbEntity
  8
0
  6
Continuous
 62
     7
370
    15
100
AcDbCircle
 10
304.2854418448
 20
144.64079621
 30
0.0
 40
0.1000000000000325
100
AcDbArc
 50
270.0
 51
33.0545140773
  0
LINE
  5
2F9
330
1F
100
AcDbEntity
  8
0
  6
Continuous
 62
     7
370
    15
100
AcDbLine
 10
293.4993924634
 20
144.54079621
 30
0.0
 11
298.7336671541
 21
144.54079621
 31
0.0
  0
LINE
  5
2FA
330
1F
100
AcDbEntity
  8
0
  6
Continuous
 62
     7
370
    15
100
AcDbLine
 10
299.0511671541
 20
144.54079621
 30
0.0
 11
304.2854418448
 21
144.54079621
 31
0.0
  0
ARC
  5
2FB
330
1F
100
AcDbEntity
  8
0
  6
Continuous
 62
     7
370
    15
100
AcDbCircle
 10
293.4102549991
 20
144.6988034075
 30
0.0
 40
0.0063500000000127
100
AcDbArc
 50
326.9454859227
 51
83.3657727068
  0
ARC
  5
2FC
330
1F
100
AcDbEntity
  8
0
  6
Continuous
 62
     7
370
    15
100
AcDbCircle
 10
304.3745793091
 20
144.6988034075
 30
0.0
 40
0.0063500000000127
100
AcDbArc
 50
96.6342272932
 51
213.0545140773
  0
LINE
  5
2FD
330
1F
100
AcDbEntity
  8
0
  6
Continuous
 62
     7
370
    15
100
AcDbLine
 10
304.3745793091
 20
144.7051534075
 30
0.0
 11
299.0511671541
 21
144.7051534075
 31
0.0
  0
LINE
  5
2FE
330
1F
100
AcDbEntity
  8
0
  6
Continuous
 62
     7
370
    15
100
AcDbLine
 10
298.7336671541
 20
144.7051534075
 30
0.0
 11
293.4102549991
 21
144.7051534075
 31
0.0
  0
ARC
  5
2FF
330
1F
100
AcDbEntity
  8
0
  6
Continuous
 62
     7
370
    15
100
AcDbCircle
 10
293.5964577173
 20
144.4793395381
 30
0.0
 40
0.1000000000000381
100
AcDbArc
 50
148.6762551533
 51
270.0
  0
ARC
  5
300
330
1F
100
AcDbEntity
  8
0
  6
Continuous
 62
     7
370
    15
100
AcDbCircle
 10
304.1883765908
 20
144.4793395381
 30
0.0
 40
0.0999999999999943
100
AcDbArc
 50
270.0
 51
31.3237448467
  0
LINE
  5
301
330
1F
100
AcDbEntity
  8
0
  6
Continuous
 62
     7
370
    15
100
AcDbLine
 10
293.5964577173
 20
144.3793395381
 30
0.0
 11
298.7336671541
 21
144.3793395381
 31
0.0
  0
LINE
  5
302
330
1F
100
AcDbEntity
  8
0
  6
Continuous
 62
     7
370
    15
100
AcDbLine
 10
299.0511671541
 20
144.3793395381
 30
0.0
 11
304.1883765908
 21
144.3793395381
 31
0.0
  0
ARC
  5
303
330
1F
100
AcDbEntity
  8
0
  6
Continuous
 62
     7
370
    15
100
AcDbCircle
 10
293.5056089259
 20
144.5346280505
 30
0.0
 40
0.0063499999999916
100
AcDbArc
 50
328.676255153
 51
76.2552155842
  0
ARC
  5
304
330
1F
100
AcDbEntity
  8
0
  6
Continuous
 62
     7
370
    15
100
AcDbCircle
 10
304.2792253822
 20
144.5346280505
 30
0.0
 40
0.006350000000035
100
AcDbArc
 50
103.7447844158
 51
211.3237448467
  0
ARC
  5
305
330
1F
100
AcDbEntity
  8
0
  6
Continuous
 62
     7
370
    15
100
AcDbCircle
 10
293.6983551689
 20
144.3208881898
 30
0.0
 40
0.1000000000000227
100
AcDbArc
 50
150.4070243839
 51
270.0
  0
ARC
  5
306
330
1F
100
AcDbEntity
  8
0
  6
Continuous
 62
     7
370
    15
100
AcDbCircle
 10
304.0864791392
 20
144.3208881898
 30
0.0
 40
0.1000000000000227
100
AcDbArc
 50
270.0
 51
29.5929756161
  0
LINE
  5
307
330
1F
100
AcDbEntity
  8
0
  6
Continuous
 62
     7
370
    15
100
AcDbLine
 10
293.6983551689
 20
144.2208881898
 30
0.0
 11
298.7336671541
 21
144.2208881898
 31
0.0
  0
LINE
  5
308
330
1F
100
AcDbEntity
  8
0
  6
Continuous
 62
     7
370
    15
100
AcDbLine
 10
299.0511671541
 20
144.2208881898
 30
0.0
 11
304.0864791392
 21
144.2208881898
 31
0.0
  0
ARC
  5
309
330
1F
100
AcDbEntity
  8
0
  6
Continuous
 62
     7
370
    15
100
AcDbCircle
 10
293.6058779437
 20
144.3734075702
 30
0.0
 40
0.0063499999999963
100
AcDbArc
 50
330.4070243839
 51
69.0941718748
  0
ARC
  5
30A
330
1F
100
AcDbEntity
  8
0
  6
Continuous
 62
     7
370
    15
100
AcDbCircle
 10
304.1789563644
 20
144.3734075702
 30
0.0
 40
0.0063499999999963
100
AcDbArc
 50
110.9058281252
 51
209.5929756161
  0
ARC
  5
30B
330
1F
100
AcDbEntity
  8
0
  6
Continuous
 62
     7
370
    15
100
AcDbCircle
 10
293.8049918438
 20
144.1655867411
 30
0.0
 40
0.1000000000000227
100
AcDbArc
 50
152.1377936145
 51
270.0
  0
ARC
  5
30C
330
1F
100
AcDbEntity
  8
0
  6
Continuous
 62
     7
370
    15
100
AcDbCircle
 10
303.9798424643
 20
144.1655867411
 30
0.0
 40
0.1000000000000227
100
AcDbArc
 50
270.0
 51
27.8622063855
  0
LINE
  5
30D
330
1F
100
AcDbEntity
  8
0
  6
Continuous
 62
     7
370
    15
100
AcDbLine
 10
293.8049918438
 20
144.0655867411
 30
0.0
 11
298.7336671541
 21
144.0655867411
 31
0.0
  0
LINE
  5
30E
330
1F
100
AcDbEntity
  8
0
  6
Continuous
 62
     7
370
    15
100
AcDbLine
 10
299.0511671541
 20
144.0655867411
 30
0.0
 11
303.9798424643
 21
144.0655867411
 31
0.0
  0
ARC
  5
30F
330
1F
100
AcDbEntity
  8
0
  6
Continuous
 62
     7
370
    15
100
AcDbCircle
 10
293.7109705638
 20
144.215289069
 30
0.0
 40
0.0063500000000242
100
AcDbArc
 50
332.1377936148
 51
61.8543493757
  0
ARC
  5
310
330
1F
100
AcDbEntity
  8
0
  6
Continuous
 62
     7
370
    15
100
AcDbCircle
 10
304.0738637443
 20
144.215289069
 30
0.0
 40
0.0063500000000242
100
AcDbArc
 50
118.1456506243
 51
207.8622063852
  0
ARC
  5
311
330
1F
100
AcDbEntity
  8
0
  6
Continuous
 62
     7
370
    15
100
AcDbCircle
 10
293.9162704434
 20
144.0135768937
 30
0.0
 40
0.1000000000000406
100
AcDbArc
 50
153.868562845
 51
270.0
  0
ARC
  5
312
330
1F
100
AcDbEntity
  8
0
  6
Continuous
 62
     7
370
    15
100
AcDbCircle
 10
303.8685638647
 20
144.0135768937
 30
0.0
 40
0.1000000000000406
100
AcDbArc
 50
270.0
 51
26.131437155
  0
LINE
  5
313
330
1F
100
AcDbEntity
  8
0
  6
Continuous
 62
     7
370
    15
100
AcDbLine
 10
293.9162704434
 20
143.9135768937
 30
0.0
 11
298.7336671541
 21
143.9135768937
 31
0.0
  0
LINE
  5
314
330
1F
100
AcDbEntity
  8
0
  6
Continuous
 62
     7
370
    15
100
AcDbLine
 10
299.0511671541
 20
143.9135768937
 30
0.0
 11
303.8685638647
 21
143.9135768937
 31
0.0
  0
ARC
  5
315
330
1F
100
AcDbEntity
  8
0
  6
Continuous
 62
     7
370
    15
100
AcDbCircle
 10
293.8207908966
 20
144.0604168194
 30
0.0
 40
0.0063500000000136
100
AcDbArc
 50
333.868562845
 51
54.5044778229
  0
ARC
  5
316
330
1F
100
AcDbEntity
  8
0
  6
Continuous
 62
     7
370
    15
100
AcDbCircle
 10
303.9640434115
 20
144.0604168194
 30
0.0
 40
0.0063500000000136
100
AcDbArc
 50
125.4955221771
 51
206.131437155
  0
ARC
  5
317
330
1F
100
AcDbEntity
  8
0
  6
Continuous
 62
     7
370
    15
100
AcDbCircle
 10
294.0320894336
 20
143.8649973462
 30
0.0
 40
0.1000000000000174
100
AcDbArc
 50
155.5993320756
 51
270.0
  0
ARC
  5
318
330
1F
100
AcDbEntity
  8
0
  6
Continuous
 62
     7
370
    15
100
AcDbCircle
 10
303.7527448745
 20
143.8649973462
 30
0.0
 40
0.0999999999999943
100
AcDbArc
 50
270.0
 51
24.4006679244
  0
LINE
  5
319
330
1F
100
AcDbEntity
  8
0
  6
Continuous
 62
     7
370
    15
100
AcDbLine
 10
294.0320894336
 20
143.7649973462
 30
0.0
 11
298.7336671541
 21
143.7649973462
 31
0.0
  0
LINE
  5
31A
330
1F
100
AcDbEntity
  8
0
  6
Continuous
 62
     7
370
    15
100
AcDbLine
 10
299.0511671541
 20
143.7649973462
 30
0.0
 11
303.7527448745
 21
143.7649973462
 31
0.0
  0
ARC
  5
31B
330
1F
100
AcDbEntity
  8
0
  6
Continuous
 62
     7
370
    15
100
AcDbCircle
 10
293.9352387384
 20
143.9089321314
 30
0.0
 40
0.0063500000000049
100
AcDbArc
 50
335.5993320756
 51
47.0088163578
  0
ARC
  5
31C
330
1F
100
AcDbEntity
  8
0
  6
Continuous
 62
     7
370
    15
100
AcDbCircle
 10
303.8495955697
 20
143.9089321314
 30
0.0
 40
0.0063500000000456
100
AcDbArc
 50
132.9911836422
 51
204.4006679242
  0
ARC
  5
31D
330
1F
100
AcDbEntity
  8
0
  6
Continuous
 62
     7
370
    15
100
AcDbCircle
 10
294.1523431376
 20
143.7199836672
 30
0.0
 40
0.0999999999999999
100
AcDbArc
 50
157.3301013062
 51
270.0
  0
ARC
  5
31E
330
1F
100
AcDbEntity
  8
0
  6
Continuous
 62
     7
370
    15
100
AcDbCircle
 10
303.6324911705
 20
143.7199836672
 30
0.0
 40
0.0999999999999999
100
AcDbArc
 50
270.0
 51
22.6698986938
  0
LINE
  5
31F
330
1F
100
AcDbEntity
  8
0
  6
Continuous
 62
     7
370
    15
100
AcDbLine
 10
294.1523431376
 20
143.6199836672
 30
0.0
 11
298.7336671541
 21
143.6199836672
 31
0.0
  0
LINE
  5
320
330
1F
100
AcDbEntity
  8
0
  6
Continuous
 62
     7
370
    15
100
AcDbLine
 10
299.0511671541
 20
143.6199836672
 30
0.0
 11
303.6324911705
 21
143.6199836672
 31
0.0
  0
ARC
  5
321
330
1F
100
AcDbEntity
  8
0
  6
Continuous
 62
     7
370
    15
100
AcDbCircle
 10
294.0542096637
 20
143.7609732244
 30
0.0
 40
0.0063500000000301
100
AcDbArc
 50
337.3301013063
 51
39.3251117656
  0
ARC
  5
322
330
1F
100
AcDbEntity
  8
0
  6
Continuous
 62
     7
370
    15
100
AcDbCircle
 10
303.7306246445
 20
143.7609732244
 30
0.0
 40
0.0063500000000301
100
AcDbArc
 50
140.6748882344
 51
202.6698986937
  0
ARC
  5
323
330
1F
100
AcDbEntity
  8
0
  6
Continuous
 62
     7
370
    15
100
AcDbCircle
 10
294.1775951195
 20
143.6166751007
 30
0.0
 40
0.006349999999978
100
AcDbArc
 50
339.0608705366
 51
31.4016419538
  0
ARC
  5
324
330
1F
100
AcDbEntity
  8
0
  6
Continuous
 62
     7
370
    15
100
AcDbCircle
 10
303.6072391886
 20
143.6166751007
 30
0.0
 40
0.006349999999978
100
AcDbArc
 50
148.5983580462
 51
200.9391294634
  0
ARC
  5
325
330
1F
100
AcDbEntity
  8
0
  6
Continuous
 62
     7
370
    15
100
AcDbCircle
 10
294.2769218321
 20
143.5786681717
 30
0.0
 40
0.100000000000011
100
AcDbArc
 50
159.0608705367
 51
270.0
  0
ARC
  5
326
330
1F
100
AcDbEntity
  8
0
  6
Continuous
 62
     7
370
    15
100
AcDbCircle
 10
303.507912476
 20
143.5786681717
 30
0.0
 40
0.100000000000011
100
AcDbArc
 50
270.0
 51
20.9391294633
  0
LINE
  5
327
330
1F
100
AcDbEntity
  8
0
  6
Continuous
 62
     7
370
    15
100
AcDbLine
 10
294.2769218321
 20
143.4786681717
 30
0.0
 11
298.7336671541
 21
143.4786681717
 31
0.0
  0
LINE
  5
328
330
1F
100
AcDbEntity
  8
0
  6
Continuous
 62
     7
370
    15
100
AcDbLine
 10
299.0511671541
 20
143.4786681717
 30
0.0
 11
303.507912476
 21
143.4786681717
 31
0.0
  0
ARC
  5
329
330
1F
100
AcDbEntity
  8
0
  6
Continuous
 62
     7
370
    15
100
AcDbCircle
 10
294.3052825252
 20
143.4761694225
 30
0.0
 40
0.0063499999999698
100
AcDbArc
 50
340.7916397673
 51
23.1726932463
  0
ARC
  5
32A
330
1F
100
AcDbEntity
  8
0
  6
Continuous
 62
     7
370
    15
100
AcDbCircle
 10
303.4795517829
 20
143.4761694225
 30
0.0
 40
0.0063500000000069
100
AcDbArc
 50
156.8273067539
 51
199.2083602327
  0
ARC
  5
32B
330
1F
100
AcDbEntity
  8
0
  6
Continuous
 62
     7
370
    15
100
AcDbCircle
 10
294.4057118478
 20
143.4411798002
 30
0.0
 40
0.0999999999999943
100
AcDbArc
 50
160.7916397673
 51
270.0
  0
ARC
  5
32C
330
1F
100
AcDbEntity
  8
0
  6
Continuous
 62
     7
370
    15
100
AcDbCircle
 10
303.3791224603
 20
143.4411798002
 30
0.0
 40
0.0999999999999943
100
AcDbArc
 50
270.0
 51
19.2083602327
  0
LINE
  5
32D
330
1F
100
AcDbEntity
  8
0
  6
Continuous
 62
     7
370
    15
100
AcDbLine
 10
294.4057118478
 20
143.3411798002
 30
0.0
 11
298.7336671541
 21
143.3411798002
 31
0.0
  0
LINE
  5
32E
330
1F
100
AcDbEntity
  8
0
  6
Continuous
 62
     7
370
    15
100
AcDbLine
 10
299.0511671541
 20
143.3411798002
 30
0.0
 11
303.3791224603
 21
143.3411798002
 31
0.0
  0
ARC
  5
32F
330
1F
100
AcDbEntity
  8
0
  6
Continuous
 62
     7
370
    15
100
AcDbCircle
 10
294.4371553748
 20
143.3395843913
 30
0.0
 40
0.0063499999999604
100
AcDbArc
 50
342.5224089979
 51
14.5512263075
  0
ARC
  5
330
330
1F
100
AcDbEntity
  8
0
  6
Continuous
 62
     7
370
    15
100
AcDbCircle
 10
303.3476789333
 20
143.3395843913
 30
0.0
 40
0.0063500000000146
100
AcDbArc
 50
165.4487736925
 51
197.477591002
  0
ARC
  5
331
330
1F
100
AcDbEntity
  8
0
  6
Continuous
 62
     7
370
    15
100
AcDbCircle
 10
294.5385956725
 20
143.3076440015
 30
0.0
 40
0.1000000000000017
100
AcDbArc
 50
162.5224089979
 51
270.0
  0
ARC
  5
332
330
1F
100
AcDbEntity
  8
0
  6
Continuous
 62
     7
370
    15
100
AcDbCircle
 10
303.2462386356
 20
143.3076440015
 30
0.0
 40
0.0999999999999943
100
AcDbArc
 50
270.0
 51
17.4775910021
  0
LINE
  5
333
330
1F
100
AcDbEntity
  8
0
  6
Continuous
 62
     7
370
    15
100
AcDbLine
 10
294.5385956725
 20
143.2076440015
 30
0.0
 11
298.7336671541
 21
143.2076440015
 31
0.0
  0
LINE
  5
334
330
1F
100
AcDbEntity
  8
0
  6
Continuous
 62
     7
370
    15
100
AcDbLine
 10
299.0511671541
 20
143.2076440015
 30
0.0
 11
303.2462386356
 21
143.2076440015
 31
0.0
  0
LWPOLYLINE
  5
335
330
1F
100
AcDbEntity
  8
0
  6
Continuous
 62
     7
370
    15
100
AcDbPolyline
 90
        3
 70
   128
 43
0.0
 10
294.5794149933
 20
143.2076440015
 10
294.5794371613
 20
143.2067644965
 10
294.5792050299
 20
143.2053213239
  0
LWPOLYLINE
  5
336
330
1F
100
AcDbEntity
  8
0
  6
Continuous
 62
     7
370
    15
100
AcDbPolyline
 90
        3
 70
   128
 43
0.0
 10
303.2056292782
 20
143.2053213239
 10
303.2053971468
 20
143.2067644965
 10
303.2054193148
 20
143.2076440015
  0
ARC
  5
337
330
1F
100
AcDbEntity
  8
0
  6
Continuous
 62
     7
370
    15
100
AcDbCircle
 10
294.6754520591
 20
143.1781826177
 30
0.0
 40
0.0999999999999943
100
AcDbArc
 50
164.2531782285
 51
270.0
  0
ARC
  5
338
330
1F
100
AcDbEntity
  8
0
  6
Continuous
 62
     7
370
    15
100
AcDbCircle
 10
303.109382249
 20
143.1781826177
 30
0.0
 40
0.0999999999999943
100
AcDbArc
 50
270.0
 51
15.7468217715
  0
LINE
  5
339
330
1F
100
AcDbEntity
  8
0
  6
Continuous
 62
     7
370
    15
100
AcDbLine
 10
294.6754520591
 20
143.0781826177
 30
0.0
 11
298.7336671541
 21
143.0781826177
 31
0.0
  0
LINE
  5
33A
330
1F
100
AcDbEntity
  8
0
  6
Continuous
 62
     7
370
    15
100
AcDbLine
 10
299.0511671541
 20
143.0781826177
 30
0.0
 11
303.109382249
 21
143.0781826177
 31
0.0
  0
LINE
  5
33B
330
1F
100
AcDbEntity
  8
0
  6
Continuous
 62
     7
370
    15
100
AcDbLine
 10
294.7193035826
 20
143.0781826177
 30
0.0
 11
294.7191333445
 21
143.0771331469
 31
0.0
  0
LINE
  5
33C
330
1F
100
AcDbEntity
  8
0
  6
Continuous
 62
     7
370
    15
100
AcDbLine
 10
303.0657009636
 20
143.0771331469
 30
0.0
 11
303.0655307255
 21
143.0781826177
 31
0.0
  0
ARC
  5
33D
330
1F
100
AcDbEntity
  8
0
  6
Continuous
 62
     7
370
    15
100
AcDbCircle
 10
294.8161561354
 20
143.0529137735
 30
0.0
 40
0.0999999999999945
100
AcDbArc
 50
165.983947459
 51
270.0
  0
ARC
  5
33E
330
1F
100
AcDbEntity
  8
0
  6
Continuous
 62
     7
370
    15
100
AcDbCircle
 10
302.9686781727
 20
143.0529137735
 30
0.0
 40
0.0999999999999945
100
AcDbArc
 50
270.0
 51
14.016052541
  0
LINE
  5
33F
330
1F
100
AcDbEntity
  8
0
  6
Continuous
 62
     7
370
    15
100
AcDbLine
 10
294.8161561354
 20
142.9529137735
 30
0.0
 11
298.7336671541
 21
142.9529137735
 31
0.0
  0
LINE
  5
340
330
1F
100
AcDbEntity
  8
0
  6
Continuous
 62
     7
370
    15
100
AcDbLine
 10
299.0511671541
 20
142.9529137735
 30
0.0
 11
302.9686781727
 21
142.9529137735
 31
0.0
  0
ARC
  5
341
330
1F
100
AcDbEntity
  8
0
  6
Continuous
 62
     7
370
    15
100
AcDbCircle
 10
294.9605795187
 20
142.931951768
 30
0.0
 40
0.0999999999999943
100
AcDbArc
 50
167.7147166896
 51
270.0
  0
ARC
  5
342
330
1F
100
AcDbEntity
  8
0
  6
Continuous
 62
     7
370
    15
100
AcDbCircle
 10
302.8242547894
 20
142.931951768
 30
0.0
 40
0.0999999999999972
100
AcDbArc
 50
270.0
 51
12.2852833104
  0
LINE
  5
343
330
1F
100
AcDbEntity
  8
0
  6
Continuous
 62
     7
370
    15
100
AcDbLine
 10
294.9605795187
 20
142.831951768
 30
0.0
 11
298.7336671541
 21
142.831951768
 31
0.0
  0
LINE
  5
344
330
1F
100
AcDbEntity
  8
0
  6
Continuous
 62
     7
370
    15
100
AcDbLine
 10
299.0511671541
 20
142.831951768
 30
0.0
 11
302.8242547894
 21
142.831951768
 31
0.0
  0
ARC
  5
345
330
1F
100
AcDbEntity
  8
0
  6
Continuous
 62
     7
370
    15
100
AcDbCircle
 10
295.1085904326
 20
142.8154069707
 30
0.0
 40
0.1000000000000277
100
AcDbArc
 50
169.4454859202
 51
270.0
  0
ARC
  5
346
330
1F
100
AcDbEntity
  8
0
  6
Continuous
 62
     7
370
    15
100
AcDbCircle
 10
302.6762438755
 20
142.8154069707
 30
0.0
 40
0.1000000000000277
100
AcDbArc
 50
270.0
 51
10.5545140798
  0
LINE
  5
347
330
1F
100
AcDbEntity
  8
0
  6
Continuous
 62
     7
370
    15
100
AcDbLine
 10
295.1085904326
 20
142.7154069707
 30
0.0
 11
298.7336671541
 21
142.7154069707
 31
0.0
  0
LINE
  5
348
330
1F
100
AcDbEntity
  8
0
  6
Continuous
 62
     7
370
    15
100
AcDbLine
 10
299.0511671541
 20
142.7154069707
 30
0.0
 11
302.6762438755
 21
142.7154069707
 31
0.0
  0
ARC
  5
349
330
1F
100
AcDbEntity
  8
0
  6
Continuous
 62
     7
370
    15
100
AcDbCircle
 10
295.2600538274
 20
142.7033857207
 30
0.0
 40
0.0999999999999943
100
AcDbArc
 50
173.0956332867
 51
270.0
  0
ARC
  5
34A
330
1F
100
AcDbEntity
  8
0
  6
Continuous
 62
     7
370
    15
100
AcDbCircle
 10
302.5247804807
 20
142.7033857207
 30
0.0
 40
0.1000000000000404
100
AcDbArc
 50
270.0
 51
6.9043667133
  0
LINE
  5
34B
330
1F
100
AcDbEntity
  8
0
  6
Continuous
 62
     7
370
    15
100
AcDbLine
 10
295.2600538274
 20
142.6033857207
 30
0.0
 11
298.7336671541
 21
142.6033857207
 31
0.0
  0
LINE
  5
34C
330
1F
100
AcDbEntity
  8
0
  6
Continuous
 62
     7
370
    15
100
AcDbLine
 10
299.0511671541
 20
142.6033857207
 30
0.0
 11
302.5247804807
 21
142.6033857207
 31
0.0
  0
ARC
  5
34D
330
1F
100
AcDbEntity
  8
0
  6
Continuous
 62
     7
370
    15
100
AcDbCircle
 10
295.4148315032
 20
142.5959902297
 30
0.0
 40
0.1000000000000219
100
AcDbArc
 50
175.7588236835
 51
270.0
  0
ARC
  5
34E
330
1F
100
AcDbEntity
  8
0
  6
Continuous
 62
     7
370
    15
100
AcDbCircle
 10
302.3700028049
 20
142.5959902297
 30
0.0
 40
0.1000000000000219
100
AcDbArc
 50
270.0
 51
4.2411763165
  0
LINE
  5
34F
330
1F
100
AcDbEntity
  8
0
  6
Continuous
 62
     7
370
    15
100
AcDbLine
 10
295.4148315032
 20
142.4959902297
 30
0.0
 11
298.7336671541
 21
142.4959902297
 31
0.0
  0
LINE
  5
350
330
1F
100
AcDbEntity
  8
0
  6
Continuous
 62
     7
370
    15
100
AcDbLine
 10
299.0511671541
 20
142.4959902297
 30
0.0
 11
302.3700028049
 21
142.4959902297
 31
0.0
  0
ARC
  5
351
330
1F
100
AcDbEntity
  8
0
  6
Continuous
 62
     7
370
    15
100
AcDbCircle
 10
295.572782236
 20
142.4933184886
 30
0.0
 40
0.1000000000000121
100
AcDbArc
 50
178.4690229252
 51
270.0
  0
ARC
  5
352
330
1F
100
AcDbEntity
  8
0
  6
Continuous
 62
     7
370
    15
100
AcDbCircle
 10
302.2120520721
 20
142.4933184886
 30
0.0
 40
0.1000000000000121
100
AcDbArc
 50
270.0
 51
1.5309770748
  0
LINE
  5
353
330
1F
100
AcDbEntity
  8
0
  6
Continuous
 62
     7
370
    15
100
AcDbLine
 10
295.572782236
 20
142.3933184886
 30
0.0
 11
298.7336671541
 21
142.3933184886
 31
0.0
  0
LINE
  5
354
330
1F
100
AcDbEntity
  8
0
  6
Continuous
 62
     7
370
    15
100
AcDbLine
 10
299.0511671541
 20
142.3933184886
 30
0.0
 11
302.2120520721
 21
142.3933184886
 31
0.0
  0
ARC
  5
355
330
1F
100
AcDbEntity
  8
0
  6
Continuous
 62
     7
370
    15
100
AcDbCircle
 10
295.7337619067
 20
142.3954641783
 30
0.0
 40
0.100000000000012
100
AcDbArc
 50
181.2294839945
 51
270.0
  0
ARC
  5
356
330
1F
100
AcDbEntity
  8
0
  6
Continuous
 62
     7
370
    15
100
AcDbCircle
 10
302.0510724014
 20
142.3954641783
 30
0.0
 40
0.1000000000000688
100
AcDbArc
 50
270.0
 51
358.7705160055
  0
LINE
  5
357
330
1F
100
AcDbEntity
  8
0
  6
Continuous
 62
     7
370
    15
100
AcDbLine
 10
295.7337619067
 20
142.2954641783
 30
0.0
 11
298.7336671541
 21
142.2954641783
 31
0.0
  0
LINE
  5
358
330
1F
100
AcDbEntity
  8
0
  6
Continuous
 62
     7
370
    15
100
AcDbLine
 10
299.0511671541
 20
142.2954641783
 30
0.0
 11
302.0510724014
 21
142.2954641783
 31
0.0
  0
ARC
  5
359
330
1F
100
AcDbEntity
  8
0
  6
Continuous
 62
     7
370
    15
100
AcDbCircle
 10
295.8976236324
 20
142.3025165841
 30
0.0
 40
0.1000000000000731
100
AcDbArc
 50
184.0440879354
 51
270.0
  0
ARC
  5
35A
330
1F
100
AcDbEntity
  8
0
  6
Continuous
 62
     7
370
    15
100
AcDbCircle
 10
301.8872106757
 20
142.3025165841
 30
0.0
 40
0.1000000000000164
100
AcDbArc
 50
270.0
 51
355.9559120646
  0
LINE
  5
35B
330
1F
100
AcDbEntity
  8
0
  6
Continuous
 62
     7
370
    15
100
AcDbLine
 10
295.8976236324
 20
142.2025165841
 30
0.0
 11
298.7336671541
 21
142.2025165841
 31
0.0
  0
LINE
  5
35C
330
1F
100
AcDbEntity
  8
0
  6
Continuous
 62
     7
370
    15
100
AcDbLine
 10
299.0511671541
 20
142.2025165841
 30
0.0
 11
301.8872106757
 21
142.2025165841
 31
0.0
  0
ARC
  5
35D
330
1F
100
AcDbEntity
  8
0
  6
Continuous
 62
     7
370
    15
100
AcDbCircle
 10
296.0642179007
 20
142.2145605143
 30
0.0
 40
0.099999999999984
100
AcDbArc
 50
186.9174566234
 51
270.0
  0
ARC
  5
35E
330
1F
100
AcDbEntity
  8
0
  6
Continuous
 62
     7
370
    15
100
AcDbCircle
 10
301.7206164074
 20
142.2145605143
 30
0.0
 40
0.099999999999984
100
AcDbArc
 50
270.0
 51
353.0825433766
  0
LINE
  5
35F
330
1F
100
AcDbEntity
  8
0
  6
Continuous
 62
     7
370
    15
100
AcDbLine
 10
296.0642179007
 20
142.1145605143
 30
0.0
 11
298.7336671541
 21
142.1145605143
 31
0.0
  0
LINE
  5
360
330
1F
100
AcDbEntity
  8
0
  6
Continuous
 62
     7
370
    15
100
AcDbLine
 10
299.0511671541
 20
142.1145605143
 30
0.0
 11
301.7206164074
 21
142.1145605143
 31
0.0
  0
ARC
  5
361
330
1F
100
AcDbEntity
  8
0
  6
Continuous
 62
     7
370
    15
100
AcDbCircle
 10
296.2333927056
 20
142.1316762228
 30
0.0
 40
0.1000000000000379
100
AcDbArc
 50
189.8551012021
 51
270.0
  0
ARC
  5
362
330
1F
100
AcDbEntity
  8
0
  6
Continuous
 62
     7
370
    15
100
AcDbCircle
 10
301.5514416025
 20
142.1316762228
 30
0.0
 40
0.1000000000000379
100
AcDbArc
 50
270.0
 51
350.1448987979
  0
LINE
  5
363
330
1F
100
AcDbEntity
  8
0
  6
Continuous
 62
     7
370
    15
100
AcDbLine
 10
296.2333927056
 20
142.0316762228
 30
0.0
 11
298.7336671541
 21
142.0316762228
 31
0.0
  0
LINE
  5
364
330
1F
100
AcDbEntity
  8
0
  6
Continuous
 62
     7
370
    15
100
AcDbLine
 10
299.0511671541
 20
142.0316762228
 30
0.0
 11
301.5514416025
 21
142.0316762228
 31
0.0
  0
ARC
  5
365
330
1F
100
AcDbEntity
  8
0
  6
Continuous
 62
     7
370
    15
100
AcDbCircle
 10
296.404993687
 20
142.0539393357
 30
0.0
 40
0.1000000000000161
100
AcDbArc
 50
192.8636190137
 51
270.0
  0
ARC
  5
366
330
1F
100
AcDbEntity
  8
0
  6
Continuous
 62
     7
370
    15
100
AcDbCircle
 10
301.3798406211
 20
142.0539393357
 30
0.0
 40
0.1000000000000161
100
AcDbArc
 50
270.0
 51
347.1363809863
  0
LINE
  5
367
330
1F
100
AcDbEntity
  8
0
  6
Continuous
 62
     7
370
    15
100
AcDbLine
 10
296.404993687
 20
141.9539393357
 30
0.0
 11
298.7336671541
 21
141.9539393357
 31
0.0
  0
LINE
  5
368
330
1F
100
AcDbEntity
  8
0
  6
Continuous
 62
     7
370
    15
100
AcDbLine
 10
299.0511671541
 20
141.9539393357
 30
0.0
 11
301.3798406211
 21
141.9539393357
 31
0.0
  0
ARC
  5
369
330
1F
100
AcDbEntity
  8
0
  6
Continuous
 62
     7
370
    15
100
AcDbCircle
 10
296.5788642707
 20
141.9814207825
 30
0.0
 40
0.1000000000000227
100
AcDbArc
 50
195.9509580187
 51
270.0
  0
ARC
  5
36A
330
1F
100
AcDbEntity
  8
0
  6
Continuous
 62
     7
370
    15
100
AcDbCircle
 10
301.2059700374
 20
141.9814207825
 30
0.0
 40
0.1000000000000227
100
AcDbArc
 50
270.0
 51
344.0490419813
  0
LINE
  5
36B
330
1F
100
AcDbEntity
  8
0
  6
Continuous
 62
     7
370
    15
100
AcDbLine
 10
296.5788642707
 20
141.8814207825
 30
0.0
 11
298.7336671541
 21
141.8814207825
 31
0.0
  0
LINE
  5
36C
330
1F
100
AcDbEntity
  8
0
  6
Continuous
 62
     7
370
    15
100
AcDbLine
 10
299.0511671541
 20
141.8814207825
 30
0.0
 11
301.2059700374
 21
141.8814207825
 31
0.0
  0
ARC
  5
36D
330
1F
100
AcDbEntity
  8
0
  6
Continuous
 62
     7
370
    15
100
AcDbCircle
 10
296.7548458118
 20
141.9141867316
 30
0.0
 40
0.1000000000000401
100
AcDbArc
 50
199.1267774996
 51
270.0
  0
ARC
  5
36E
330
1F
100
AcDbEntity
  8
0
  6
Continuous
 62
     7
370
    15
100
AcDbCircle
 10
301.0299884963
 20
141.9141867316
 30
0.0
 40
0.1000000000000401
100
AcDbArc
 50
270.0
 51
340.8732225004
  0
LINE
  5
36F
330
1F
100
AcDbEntity
  8
0
  6
Continuous
 62
     7
370
    15
100
AcDbLine
 10
296.7548458118
 20
141.8141867316
 30
0.0
 11
298.7336671541
 21
141.8141867316
 31
0.0
  0
LINE
  5
370
330
1F
100
AcDbEntity
  8
0
  6
Continuous
 62
     7
370
    15
100
AcDbLine
 10
299.0511671541
 20
141.8141867316
 30
0.0
 11
301.0299884963
 21
141.8141867316
 31
0.0
  0
ARC
  5
371
330
1F
100
AcDbEntity
  8
0
  6
Continuous
 62
     7
370
    15
100
AcDbCircle
 10
296.9327777393
 20
141.8522985292
 30
0.0
 40
0.0999999999999943
100
AcDbArc
 50
202.4029498844
 51
270.0
  0
ARC
  5
372
330
1F
100
AcDbEntity
  8
0
  6
Continuous
 62
     7
370
    15
100
AcDbCircle
 10
300.8520565688
 20
141.8522985292
 30
0.0
 40
0.1000000000000041
100
AcDbArc
 50
270.0
 51
337.5970501156
  0
LINE
  5
373
330
1F
100
AcDbEntity
  8
0
  6
Continuous
 62
     7
370
    15
100
AcDbLine
 10
296.9327777393
 20
141.7522985292
 30
0.0
 11
298.7336671541
 21
141.7522985292
 31
0.0
  0
LINE
  5
374
330
1F
100
AcDbEntity
  8
0
  6
Continuous
 62
     7
370
    15
100
AcDbLine
 10
299.0511671541
 20
141.7522985292
 30
0.0
 11
300.8520565688
 21
141.7522985292
 31
0.0
  0
ARC
  5
375
330
1F
100
AcDbEntity
  8
0
  6
Continuous
 62
     7
370
    15
100
AcDbCircle
 10
297.1124977026
 20
141.7958126441
 30
0.0
 40
0.0999999999999943
100
AcDbArc
 50
205.7942757715
 51
270.0
  0
ARC
  5
376
330
1F
100
AcDbEntity
  8
0
  6
Continuous
 62
     7
370
    15
100
AcDbCircle
 10
300.6723366055
 20
141.7958126441
 30
0.0
 40
0.1000000000000172
100
AcDbArc
 50
270.0
 51
334.2057242285
  0
LINE
  5
377
330
1F
100
AcDbEntity
  8
0
  6
Continuous
 62
     7
370
    15
100
AcDbLine
 10
297.1124977026
 20
141.6958126441
 30
0.0
 11
298.7336671541
 21
141.6958126441
 31
0.0
  0
LINE
  5
378
330
1F
100
AcDbEntity
  8
0
  6
Continuous
 62
     7
370
    15
100
AcDbLine
 10
299.0511671541
 20
141.6958126441
 30
0.0
 11
300.6723366055
 21
141.6958126441
 31
0.0
  0
ARC
  5
379
330
1F
100
AcDbEntity
  8
0
  6
Continuous
 62
     7
370
    15
100
AcDbCircle
 10
297.2938417196
 20
141.7447806158
 30
0.0
 40
0.1000000000000461
100
AcDbArc
 50
209.3195324928
 51
270.0
  0
ARC
  5
37A
330
1F
100
AcDbEntity
  8
0
  6
Continuous
 62
     7
370
    15
100
AcDbCircle
 10
300.4909925885
 20
141.7447806158
 30
0.0
 40
0.0999999999999965
100
AcDbArc
 50
270.0
 51
330.6804675072
  0
LINE
  5
37B
330
1F
100
AcDbEntity
  8
0
  6
Continuous
 62
     7
370
    15
100
AcDbLine
 10
297.2938417196
 20
141.6447806158
 30
0.0
 11
298.7336671541
 21
141.6447806158
 31
0.0
  0
LINE
  5
37C
330
1F
100
AcDbEntity
  8
0
  6
Continuous
 62
     7
370
    15
100
AcDbLine
 10
299.0511671541
 20
141.6447806158
 30
0.0
 11
300.4909925885
 21
141.6447806158
 31
0.0
  0
ARC
  5
37D
330
1F
100
AcDbEntity
  8
0
  6
Continuous
 62
     7
370
    15
100
AcDbCircle
 10
297.4766443265
 20
141.6992490076
 30
0.0
 40
0.1000000000000508
100
AcDbArc
 50
213.0030662814
 51
270.0
  0
ARC
  5
37E
330
1F
100
AcDbEntity
  8
0
  6
Continuous
 62
     7
370
    15
100
AcDbCircle
 10
300.3081899817
 20
141.6992490076
 30
0.0
 40
0.1000000000000508
100
AcDbArc
 50
270.0
 51
326.9969337186
  0
LINE
  5
37F
330
1F
100
AcDbEntity
  8
0
  6
Continuous
 62
     7
370
    15
100
AcDbLine
 10
297.4766443265
 20
141.5992490076
 30
0.0
 11
298.7336671541
 21
141.5992490076
 31
0.0
  0
LINE
  5
380
330
1F
100
AcDbEntity
  8
0
  6
Continuous
 62
     7
370
    15
100
AcDbLine
 10
299.0511671541
 20
141.5992490076
 30
0.0
 11
300.3081899817
 21
141.5992490076
 31
0.0
  0
ARC
  5
381
330
1F
100
AcDbEntity
  8
0
  6
Continuous
 62
     7
370
    15
100
AcDbCircle
 10
297.6607387283
 20
141.6592593637
 30
0.0
 40
0.0999999999999943
100
AcDbArc
 50
216.8773150548
 51
270.0
  0
ARC
  5
382
330
1F
100
AcDbEntity
  8
0
  6
Continuous
 62
     7
370
    15
100
AcDbCircle
 10
300.1240955798
 20
141.6592593637
 30
0.0
 40
0.0999999999999943
100
AcDbArc
 50
270.0
 51
323.1226849452
  0
LINE
  5
383
330
1F
100
AcDbEntity
  8
0
  6
Continuous
 62
     7
370
    15
100
AcDbLine
 10
297.6607387283
 20
141.5592593637
 30
0.0
 11
298.7336671541
 21
141.5592593637
 31
0.0
  0
LINE
  5
384
330
1F
100
AcDbEntity
  8
0
  6
Continuous
 62
     7
370
    15
100
AcDbLine
 10
299.0511671541
 20
141.5592593637
 30
0.0
 11
300.1240955798
 21
141.5592593637
 31
0.0
  0
ARC
  5
385
330
1F
100
AcDbEntity
  8
0
  6
Continuous
 62
     7
370
    15
100
AcDbCircle
 10
297.8459569518
 20
141.6248481721
 30
0.0
 40
0.0999999999999943
100
AcDbArc
 50
220.9870235251
 51
270.0
  0
ARC
  5
386
330
1F
100
AcDbEntity
  8
0
  6
Continuous
 62
     7
370
    15
100
AcDbCircle
 10
299.9388773563
 20
141.6248481721
 30
0.0
 40
0.0999999999999943
100
AcDbArc
 50
270.0
 51
319.0129764749
  0
LINE
  5
387
330
1F
100
AcDbEntity
  8
0
  6
Continuous
 62
     7
370
    15
100
AcDbLine
 10
297.8459569518
 20
141.5248481721
 30
0.0
 11
298.7336671541
 21
141.5248481721
 31
0.0
  0
LINE
  5
388
330
1F
100
AcDbEntity
  8
0
  6
Continuous
 62
     7
370
    15
100
AcDbLine
 10
299.0511671541
 20
141.5248481721
 30
0.0
 11
299.9388773563
 21
141.5248481721
 31
0.0
  0
ARC
  5
389
330
1F
100
AcDbEntity
  8
0
  6
Continuous
 62
     7
370
    15
100
AcDbCircle
 10
298.0321299981
 20
141.5960468306
 30
0.0
 40
0.1000000000000124
100
AcDbArc
 50
225.3967800363
 51
270.0
  0
ARC
  5
38A
330
1F
100
AcDbEntity
  8
0
  6
Continuous
 62
     7
370
    15
100
AcDbCircle
 10
299.7527043101
 20
141.5960468306
 30
0.0
 40
0.1000000000000523
100
AcDbArc
 50
270.0
 51
314.6032199637
  0
LINE
  5
38B
330
1F
100
AcDbEntity
  8
0
  6
Continuous
 62
     7
370
    15
100
AcDbLine
 10
298.0321299981
 20
141.4960468306
 30
0.0
 11
298.7336671541
 21
141.4960468306
 31
0.0
  0
LINE
  5
38C
330
1F
100
AcDbEntity
  8
0
  6
Continuous
 62
     7
370
    15
100
AcDbLine
 10
299.0511671541
 20
141.4960468306
 30
0.0
 11
299.7527043101
 21
141.4960468306
 31
0.0
  0
ARC
  5
38D
330
1F
100
AcDbEntity
  8
0
  6
Continuous
 62
     7
370
    15
100
AcDbCircle
 10
298.219087997
 20
141.5728816183
 30
0.0
 40
0.1000000000000227
100
AcDbArc
 50
230.2057606379
 51
270.0
  0
ARC
  5
38E
330
1F
100
AcDbEntity
  8
0
  6
Continuous
 62
     7
370
    15
100
AcDbCircle
 10
299.5657463111
 20
141.5728816183
 30
0.0
 40
0.1000000000000227
100
AcDbArc
 50
270.0
 51
309.7942393621
  0
LINE
  5
38F
330
1F
100
AcDbEntity
  8
0
  6
Continuous
 62
     7
370
    15
100
AcDbLine
 10
298.219087997
 20
141.4728816183
 30
0.0
 11
298.7336671541
 21
141.4728816183
 31
0.0
  0
LINE
  5
390
330
1F
100
AcDbEntity
  8
0
  6
Continuous
 62
     7
370
    15
100
AcDbLine
 10
299.0511671541
 20
141.4728816183
 30
0.0
 11
299.5657463111
 21
141.4728816183
 31
0.0
  0
ARC
  5
391
330
1F
100
AcDbEntity
  8
0
  6
Continuous
 62
     7
370
    15
100
AcDbCircle
 10
298.4066603623
 20
141.5553736721
 30
0.0
 40
0.1000000000000227
100
AcDbArc
 50
235.5804358654
 51
270.0
  0
ARC
  5
392
330
1F
100
AcDbEntity
  8
0
  6
Continuous
 62
     7
370
    15
100
AcDbCircle
 10
299.3781739458
 20
141.5553736721
 30
0.0
 40
0.1000000000000227
100
AcDbArc
 50
270.0
 51
304.4195641346
  0
LINE
  5
393
330
1F
100
AcDbEntity
  8
0
  6
Continuous
 62
     7
370
    15
100
AcDbLine
 10
298.4066603623
 20
141.4553736721
 30
0.0
 11
298.7257478111
 21
141.4553736721
 31
0.0
  0
LINE
  5
394
330
1F
100
AcDbEntity
  8
0
  6
Continuous
 62
     7
370
    15
100
AcDbLine
 10
299.059086497
 20
141.4553736721
 30
0.0
 11
299.3781739458
 21
141.4553736721
 31
0.0
  0
LINE
  5
395
330
1F
100
AcDbEntity
  8
0
  6
Continuous
 62
     7
370
    15
100
AcDbLine
 10
299.3686671541
 20
148.5271563416
 30
0.0
 11
299.3686671541
 21
150.5909063416
 31
0.0
  0
LINE
  5
396
330
1F
100
AcDbEntity
  8
0
  6
Continuous
 62
     7
370
    15
100
AcDbLine
 10
298.4161671541
 20
150.5909063416
 30
0.0
 11
298.4161671541
 21
148.5271563416
 31
0.0
  0
ARC
  5
397
330
1F
100
AcDbEntity
  8
0
  6
Continuous
 62
     7
370
    15
100
AcDbCircle
 10
298.5946759472
 20
141.5435389666
 30
0.0
 40
0.0999999999999943
100
AcDbArc
 50
241.8424045432
 51
270.0
  0
ARC
  5
398
330
1F
100
AcDbEntity
  8
0
  6
Continuous
 62
     7
370
    15
100
AcDbCircle
 10
299.1901583609
 20
141.5435389666
 30
0.0
 40
0.0999999999999943
100
AcDbArc
 50
270.0
 51
298.1575954568
  0
LINE
  5
399
330
1F
100
AcDbEntity
  8
0
  6
Continuous
 62
     7
370
    15
100
AcDbLine
 10
298.5946759472
 20
141.4435389666
 30
0.0
 11
298.7336671541
 21
141.4435389666
 31
0.0
  0
LINE
  5
39A
330
1F
100
AcDbEntity
  8
0
  6
Continuous
 62
     7
370
    15
100
AcDbLine
 10
299.0511671541
 20
141.4435389666
 30
0.0
 11
299.1901583609
 21
141.4435389666
 31
0.0
  0
LINE
  5
39B
330
1F
100
AcDbEntity
  8
0
  6
Continuous
 62
     7
370
    15
100
AcDbLine
 10
299.1924171541
 20
63.147347459
 30
0.0
 11
299.1924171541
 21
63.372347459
 31
0.0
  0
LINE
  5
39C
330
1F
100
AcDbEntity
  8
0
  6
Continuous
 62
     7
370
    15
100
AcDbLine
 10
298.5924171541
 20
63.372347459
 30
0.0
 11
298.5924171541
 21
63.147347459
 31
0.0
  0
LINE
  5
39D
330
1F
100
AcDbEntity
  8
0
  6
Continuous
 62
     7
370
    15
100
AcDbLine
 10
298.6074171541
 20
63.272347459
 30
0.0
 11
298.6074171541
 21
63.162347459
 31
0.0
  0
LINE
  5
39E
330
1F
100
AcDbEntity
  8
0
  6
Continuous
 62
     7
370
    15
100
AcDbLine
 10
298.6074171541
 20
63.162347459
 30
0.0
 11
299.1774171541
 21
63.162347459
 31
0.0
  0
LINE
  5
39F
330
1F
100
AcDbEntity
  8
0
  6
Continuous
 62
     7
370
    15
100
AcDbLine
 10
298.5924171541
 20
63.147347459
 30
0.0
 11
299.1924171541
 21
63.147347459
 31
0.0
  0
LINE
  5
3A0
330
1F
100
AcDbEntity
  8
0
  6
Continuous
 62
     7
370
    15
100
AcDbLine
 10
299.1924171541
 20
63.372347459
 30
0.0
 11
298.5924171541
 21
63.372347459
 31
0.0
  0
LINE
  5
3A1
330
1F
100
AcDbEntity
  8
0
  6
Continuous
 62
     7
370
    15
100
AcDbLine
 10
299.1774171541
 20
63.272347459
 30
0.0
 11
298.6074171541
 21
63.272347459
 31
0.0
  0
LINE
  5
3A2
330
1F
100
AcDbEntity
  8
0
  6
Continuous
 62
     7
370
    15
100
AcDbLine
 10
299.1774171541
 20
63.162347459
 30
0.0
 11
299.1774171541
 21
63.272347459
 31
0.0
  0
LINE
  5
3A3
330
1F
100
AcDbEntity
  8
0
  6
Continuous
 62
     7
370
    15
100
AcDbLine
 10
298.4974171541
 20
63.209847459
 30
0.0
 11
298.4974171541
 21
63.309847459
 31
0.0
  0
ARC
  5
3A4
330
1F
100
AcDbEntity
  8
0
  6
Continuous
 62
     7
370
    15
100
AcDbCircle
 10
298.6974171541
 20
63.309847459
 30
0.0
 40
0.2000000000000099
100
AcDbArc
 50
90.0
 51
180.0
  0
LINE
  5
3A5
330
1F
100
AcDbEntity
  8
0
  6
Continuous
 62
     7
370
    15
100
AcDbLine
 10
298.6974171541
 20
63.509847459
 30
0.0
 11
299.0874171541
 21
63.509847459
 31
0.0
  0
ARC
  5
3A6
330
1F
100
AcDbEntity
  8
0
  6
Continuous
 62
     7
370
    15
100
AcDbCircle
 10
299.0874171541
 20
63.309847459
 30
0.0
 40
0.2000000000000099
100
AcDbArc
 50
0.0
 51
90.0
  0
LINE
  5
3A7
330
1F
100
AcDbEntity
  8
0
  6
Continuous
 62
     7
370
    15
100
AcDbLine
 10
299.2874171541
 20
63.309847459
 30
0.0
 11
299.2874171541
 21
63.209847459
 31
0.0
  0
ARC
  5
3A8
330
1F
100
AcDbEntity
  8
0
  6
Continuous
 62
     7
370
    15
100
AcDbCircle
 10
299.0874171541
 20
63.209847459
 30
0.0
 40
0.1999999999999957
100
AcDbArc
 50
270.0
 51
0.0
  0
LINE
  5
3A9
330
1F
100
AcDbEntity
  8
0
  6
Continuous
 62
     7
370
    15
100
AcDbLine
 10
298.6974171541
 20
63.009847459
 30
0.0
 11
299.0874171541
 21
63.009847459
 31
0.0
  0
ARC
  5
3AA
330
1F
100
AcDbEntity
  8
0
  6
Continuous
 62
     7
370
    15
100
AcDbCircle
 10
298.6974171541
 20
63.209847459
 30
0.0
 40
0.1999999999999957
100
AcDbArc
 50
180.0
 51
270.0
  0
LINE
  5
3AB
330
1F
100
AcDbEntity
  8
0
  6
Continuous
 62
     7
370
    15
100
AcDbLine
 10
295.7174171541
 20
63.009847459
 30
0.0
 11
298.6974171541
 21
63.009847459
 31
0.0
  0
LINE
  5
3AC
330
1F
100
AcDbEntity
  8
0
  6
Continuous
 62
     7
370
    15
100
AcDbLine
 10
299.0874171541
 20
63.009847459
 30
0.0
 11
302.0674171541
 21
63.009847459
 31
0.0
  0
LINE
  5
3AD
330
1F
100
AcDbEntity
  8
0
  6
Continuous
 62
     7
370
    15
100
AcDbLine
 10
295.7174171541
 20
62.374847459
 30
0.0
 11
302.0674171541
 21
62.374847459
 31
0.0
  0
LINE
  5
3AE
330
1F
100
AcDbEntity
  8
0
  6
Continuous
 62
     7
370
    15
100
AcDbLine
 10
295.7174171541
 20
65.232347459
 30
0.0
 11
302.0674171541
 21
65.232347459
 31
0.0
  0
LINE
  5
3AF
330
1F
100
AcDbEntity
  8
0
  6
Continuous
 62
     7
370
    15
100
AcDbLine
 10
295.7174171541
 20
65.708597459
 30
0.0
 11
302.0674171541
 21
65.708597459
 31
0.0
  0
LINE
  5
3B0
330
1F
100
AcDbEntity
  8
0
  6
Continuous
 62
     7
370
    15
100
AcDbLine
 10
297.8605421541
 20
111.9551133812
 30
0.0
 11
299.9242921541
 21
111.9551133812
 31
0.0
  0
LINE
  5
3B1
330
1F
100
AcDbEntity
  8
0
  6
Continuous
 62
     7
370
    15
100
AcDbLine
 10
297.8605421541
 20
120.6863633812
 30
0.0
 11
299.9242921541
 21
120.6863633812
 31
0.0
  0
LINE
  5
3B2
330
1F
100
AcDbEntity
  8
0
  6
Continuous
 62
     7
370
    15
100
AcDbLine
 10
297.8605421541
 20
120.7160182627
 30
0.0
 11
299.9242921541
 21
120.7160182627
 31
0.0
  0
LINE
  5
3B3
330
1F
100
AcDbEntity
  8
0
  6
Continuous
 62
     7
370
    15
100
AcDbLine
 10
297.8605421541
 20
121.0335182627
 30
0.0
 11
299.9242921541
 21
121.0335182627
 31
0.0
  0
SPLINE
  5
3B4
330
1F
100
AcDbEntity
  8
0
  6
Continuous
 62
     7
370
    15
100
AcDbSpline
210
0.0
220
0.0
230
1.0
 70
     8
 71
     3
 72
    16
 73
    12
 74
     0
 42
0.000000001
 43
0.00000001
 40
0.0
 40
0.0
 40
0.0
 40
0.0
 40
0.0182529640362034
 40
0.1515618581183129
 40
0.2795790086088337
 40
0.4117273052306018
 40
0.5438756018523738
 40
0.6718927523428851
 40
0.8052016464249933
 40
0.9350877216054668
 40
1.0
 40
1.0
 40
1.0
 40
1.0
 10
298.9850805913346
 20
120.7007665377859
 30
0.0
 10
298.9852397362078
 20
120.7007019849382
 30
0.0
 10
298.9865611814617
 20
120.7001659761271
 30
0.0
 10
298.9809231458395
 20
120.6990396345752
 30
0.0
 10
298.9683415734565
 20
120.6977693515643
 30
0.0
 10
298.9493368414397
 20
120.696287464502
 30
0.0
 10
298.9277486366087
 20
120.694808196465
 30
0.0
 10
298.9064549324061
 20
120.6935301973679
 30
0.0
 10
298.8893934324245
 20
120.691983099572
 30
0.0
 10
298.8791054168009
 20
120.6908529623969
 30
0.0
 10
298.8782121108425
 20
120.6901574722283
 30
0.0
 10
298.8779144362267
 20
120.6899257153854
 30
0.0
  0
SPLINE
  5
3B5
330
1F
100
AcDbEntity
  8
0
  6
Continuous
 62
     7
370
    15
100
AcDbSpline
210
0.0
220
0.0
230
1.0
 70
     8
 71
     3
 72
    15
 73
    11
 74
     0
 42
0.000000001
 43
0.00000001
 40
0.0
 40
0.0
 40
0.0
 40
0.0
 40
0.1095193072207492
 40
0.2368483491250607
 40
0.3683186656534619
 40
0.4997889821818647
 40
0.6271180240861878
 40
0.759752428231801
 40
0.8889546446000397
 40
1.0
 40
1.0
 40
1.0
 40
1.0
 10
298.9700892303069
 20
120.7116498324754
 30
0.0
 10
298.9693045188378
 20
120.7112275479072
 30
0.0
 10
298.9676074882344
 20
120.710314307992
 30
0.0
 10
298.958051788075
 20
120.7091054135349
 30
0.0
 10
298.9444399028331
 20
120.7076275490135
 30
0.0
 10
298.9285982282325
 20
120.7061475608479
 30
0.0
 10
298.9130928814395
 20
120.7048690538351
 30
0.0
 10
298.9005108104187
 20
120.7033232227981
 30
0.0
 10
298.8923563421848
 20
120.7020291619268
 30
0.0
 10
298.8917371634955
 20
120.7011656592473
 30
0.0
 10
298.8914509715598
 20
120.7007665377859
 30
0.0
  0
SPLINE
  5
3B6
330
1F
100
AcDbEntity
  8
0
  6
Continuous
 62
     7
370
    15
100
AcDbSpline
210
0.0
220
0.0
230
1.0
 70
     8
 71
     3
 72
    16
 73
    12
 74
     0
 42
0.000000001
 43
0.00000001
 40
0.0
 40
0.0
 40
0.0
 40
0.0
 40
0.0184501969048713
 40
0.1532273963955208
 40
0.2826135220560149
 40
0.4162078273343982
 40
0.5498021326127919
 40
0.6791882582732977
 40
0.8139654577639258
 40
0.9452550202440879
 40
1.0
 40
1.0
 40
1.0
 40
1.0
 10
298.97048452748
 20
120.7092710020717
 30
0.0
 10
298.970600737882
 20
120.7092064477485
 30
0.0
 10
298.9715658558931
 20
120.7086703293038
 30
0.0
 10
298.9674501471926
 20
120.7075444493615
 30
0.0
 10
298.9582589660646
 20
120.70627356443
 30
0.0
 10
298.9443813099995
 20
120.7047919342118
 30
0.0
 10
298.9286217302645
 20
120.7033128906058
 30
0.0
 10
298.9130558739407
 20
120.7020343861333
 30
0.0
 10
298.9006394569869
 20
120.7004875985654
 30
0.0
 10
298.8932582507458
 20
120.6993949808617
 30
0.0
 10
298.8925972850694
 20
120.6987381776389
 30
0.0
 10
298.8924027805859
 20
120.6985448980538
 30
0.0
  0
LINE
  5
3B7
330
1F
100
AcDbEntity
  8
0
  6
Continuous
 62
     7
370
    15
100
AcDbLine
 10
298.4955421541
 20
153.456072459
 30
0.0
 11
299.2892921541
 21
153.456072459
 31
0.0
  0
SPLINE
  5
3B8
330
1F
100
AcDbEntity
  8
0
  6
Continuous
 62
     7
370
    15
100
AcDbSpline
210
0.0
220
0.0
230
1.0
 70
     8
 71
     3
 72
    58
 73
    54
 74
     0
 42
0.000000001
 43
0.00000001
 40
0.0
 40
0.0
 40
0.0
 40
0.0
 40
0.0312499999999997
 40
0.0312499999999997
 40
0.0624999999999993
 40
0.0624999999999993
 40
0.1249999999999981
 40
0.1249999999999981
 40
0.1562499999999978
 40
0.1562499999999978
 40
0.1874999999999976
 40
0.1874999999999976
 40
0.2499999999999969
 40
0.2499999999999969
 40
0.2812499999999968
 40
0.2812499999999968
 40
0.3124999999999968
 40
0.3124999999999968
 40
0.3437499999999968
 40
0.3437499999999968
 40
0.3749999999999968
 40
0.3749999999999968
 40
0.4374999999999967
 40
0.4374999999999967
 40
0.4687499999999964
 40
0.4687499999999964
 40
0.4999999999999962
 40
0.4999999999999962
 40
0.531249999999996
 40
0.531249999999996
 40
0.5624999999999958
 40
0.5624999999999958
 40
0.5937499999999956
 40
0.5937499999999956
 40
0.6249999999999953
 40
0.6249999999999953
 40
0.6874999999999952
 40
0.6874999999999952
 40
0.7187499999999954
 40
0.7187499999999954
 40
0.7499999999999957
 40
0.7499999999999957
 40
0.812499999999997
 40
0.812499999999997
 40
0.8749999999999982
 40
0.8749999999999982
 40
0.9062499999999988
 40
0.9062499999999988
 40
0.9374999999999992
 40
0.9374999999999992
 40
0.9687499999999997
 40
0.9687499999999997
 40
1.0
 40
1.0
 40
1.0
 40
1.0
 10
298.5431671540587
 20
181.0247486610751
 30
0.0
 10
298.5431671540587
 20
181.0243827710333
 30
0.0
 10
298.5438280725534
 20
181.0252377204524
 30
0.0
 10
298.5463618607218
 20
181.0290257535196
 30
0.0
 10
298.5482551008332
 20
181.0319843066677
 30
0.0
 10
298.5555430374829
 20
181.0430613378038
 30
0.0
 10
298.5623800424972
 20
181.0530762703692
 30
0.0
 10
298.5752650365288
 20
181.0695728174643
 30
0.0
 10
298.5800177815174
 20
181.0753480315926
 30
0.0
 10
298.5902528509524
 20
181.0870064505173
 30
0.0
 10
298.5957538444561
 20
181.0929160058196
 30
0.0
 10
298.6134259178085
 20
181.1106615075838
 30
0.0
 10
298.6267513418259
 20
181.1225079666738
 30
0.0
 10
298.6493916700321
 20
181.139710911793
 30
0.0
 10
298.6574200039008
 20
181.1453736986673
 30
0.0
 10
298.6741568846037
 20
181.1562337214478
 30
0.0
 10
298.6828877257306
 20
181.1614516570567
 30
0.0
 10
298.7011190769343
 20
181.1713944953671
 30
0.0
 10
298.7106193210342
 20
181.176119755599
 30
0.0
 10
298.730460962404
 20
181.1849995007654
 30
0.0
 10
298.7408618671311
 20
181.1891748265068
 30
0.0
 10
298.7730493667904
 20
181.2005448078811
 30
0.0
 10
298.7955480487229
 20
181.2065240077545
 30
0.0
 10
298.8310424384267
 20
181.2127165328379
 30
0.0
 10
298.8432394069185
 20
181.2143148168059
 30
0.0
 10
298.8675269349671
 20
181.216430149921
 30
0.0
 10
298.8796901028527
 20
181.2169657284844
 30
0.0
 10
298.9040550134779
 20
181.2169967944323
 30
0.0
 10
298.9162567544199
 20
181.2164923263304
 30
0.0
 10
298.9406997583745
 20
181.2144198618789
 30
0.0
 10
298.9528424802867
 20
181.2128528046177
 30
0.0
 10
298.9764688082889
 20
181.2087872551857
 30
0.0
 10
298.9880321791351
 20
181.2062825562761
 30
0.0
 10
299.0106843466105
 20
181.200387489067
 30
0.0
 10
299.0218352752562
 20
181.196973265265
 30
0.0
 10
299.0540479863878
 20
181.1856564626052
 30
0.0
 10
299.0738829338028
 20
181.1767216966386
 30
0.0
 10
299.1015371954371
 20
181.1616917257189
 30
0.0
 10
299.1103958569541
 20
181.1564061046102
 30
0.0
 10
299.1271266895706
 20
181.1455702936628
 30
0.0
 10
299.1350467977593
 20
181.1399949358961
 30
0.0
 10
299.1575858146422
 20
181.1229178226311
 30
0.0
 10
299.1709950597059
 20
181.1110529944263
 30
0.0
 10
299.1948552290202
 20
181.0871402900258
 30
0.0
 10
299.2051376454091
 20
181.0752310438124
 30
0.0
 10
299.217981322862
 20
181.0588104922881
 30
0.0
 10
299.2218431240952
 20
181.0535693788869
 30
0.0
 10
299.2286868319937
 20
181.0438887084046
 30
0.0
 10
299.231673903166
 20
181.0394387620941
 30
0.0
 10
299.2365241304779
 20
181.0320691752093
 30
0.0
 10
299.2384118877272
 20
181.0291186992757
 30
0.0
 10
299.2409930115364
 20
181.0252551502292
 30
0.0
 10
299.2416671540587
 20
181.024382910814
 30
0.0
 10
299.2416671540587
 20
181.0247486610751
 30
0.0
  0
LINE
  5
3B9
330
1F
100
AcDbEntity
  8
0
  6
Continuous
 62
     7
370
    15
100
AcDbLine
 10
298.7336671541
 20
120.6906182627
 30
0.0
 11
298.8776700054
 21
120.6906182627
 31
0.0
  0
LINE
  5
3BA
330
1F
100
AcDbEntity
  8
0
  6
Continuous
 62
     7
370
    15
100
AcDbLine
 10
298.9745552836
 20
120.6906182627
 30
0.0
 11
299.0511671541
 21
120.6906182627
 31
0.0
  0
SPLINE
  5
3BB
330
1F
100
AcDbEntity
  8
0
  6
Continuous
 62
     7
370
    15
100
AcDbSpline
210
0.0
220
0.0
230
1.0
 70
     8
 71
     3
 72
    16
 73
    12
 74
     0
 42
0.000000001
 43
0.00000001
 40
0.0
 40
0.0
 40
0.0
 40
0.0
 40
0.0186991343897592
 40
0.145598018482133
 40
0.2685298606414628
 40
0.3965432390282048
 40
0.5212697653693902
 40
0.6459962917105634
 40
0.7740096700973271
 40
0.896941512256645
 40
1.0
 40
1.0
 40
1.0
 40
1.0
 10
298.2897098458518
 20
120.7050075377917
 30
0.0
 10
298.2897437994554
 20
120.7049359403687
 30
0.0
 10
298.2900081741215
 20
120.704378457723
 30
0.0
 10
298.2824146532986
 20
120.7033082772946
 30
0.0
 10
298.2676813251121
 20
120.7020351498424
 30
0.0
 10
298.2474263659741
 20
120.7004902589789
 30
0.0
 10
298.2255998796163
 20
120.6991227403353
 30
0.0
 10
298.2052415439373
 20
120.6977551411665
 30
0.0
 10
298.1899214490271
 20
120.6962104949539
 30
0.0
 10
298.1812639949577
 20
120.695016875206
 30
0.0
 10
298.1821141522438
 20
120.6941312732602
 30
0.0
 10
298.1825018499133
 20
120.693727411744
 30
0.0
  0
SPLINE
  5
3BC
330
1F
100
AcDbEntity
  8
0
  6
Continuous
 62
     7
370
    15
100
AcDbSpline
210
0.0
220
0.0
230
1.0
 70
     8
 71
     3
 72
    16
 73
    12
 74
     0
 42
0.000000001
 43
0.00000001
 40
0.0
 40
0.0
 40
0.0
 40
0.0
 40
0.1023498339208364
 40
0.2274349931336382
 40
0.3486098100660691
 40
0.4747935344652465
 40
0.597737384736537
 40
0.7206812350078303
 40
0.8468649594070223
 40
0.9680397763394452
 40
1.0
 40
1.0
 40
1.0
 40
1.0
 10
298.2895751288116
 20
120.7088219911262
 30
0.0
 10
298.2900765361666
 20
120.7084260453891
 30
0.0
 10
298.2911907302398
 20
120.7075462011085
 30
0.0
 10
298.2827571048422
 20
120.7061448876753
 30
0.0
 10
298.267587784707
 20
120.7048694520125
 30
0.0
 10
298.2474462852608
 20
120.703325311793
 30
0.0
 10
298.2256120597244
 20
120.7019571621145
 30
0.0
 10
298.2051722622668
 20
120.7005913508707
 30
0.0
 10
298.1901896103653
 20
120.6990401060404
 30
0.0
 10
298.1823306821379
 20
120.6981026701226
 30
0.0
 10
298.1825647673031
 20
120.6975006600471
 30
0.0
 10
298.1826136223149
 20
120.6973750168463
 30
0.0
  0
SPLINE
  5
3BD
330
1F
100
AcDbEntity
  8
0
  6
Continuous
 62
     7
370
    15
100
AcDbSpline
210
0.0
220
0.0
230
1.0
 70
     8
 71
     3
 72
    15
 73
    11
 74
     0
 42
0.000000001
 43
0.00000001
 40
0.0
 40
0.0
 40
0.0
 40
0.0
 40
0.1080270985377716
 40
0.2382785586573311
 40
0.3685300187768972
 40
0.5022415392729527
 40
0.6306046129867589
 40
0.7631425923771528
 40
0.8956805717675566
 40
1.0
 40
1.0
 40
1.0
 40
1.0
 10
299.5495698045128
 20
120.7017195828736
 30
0.0
 10
299.5493665354498
 20
120.7013113814979
 30
0.0
 10
299.5489181788802
 20
120.7004109996793
 30
0.0
 10
299.5410196141699
 20
120.6991200166795
 30
0.0
 10
299.528565244954
 20
120.6977554657011
 30
0.0
 10
299.5131853437283
 20
120.6962114790828
 30
0.0
 10
299.497286772375
 20
120.6949331927346
 30
0.0
 10
299.4835264026911
 20
120.6934504607151
 30
0.0
 10
299.4738530345481
 20
120.6920729642957
 30
0.0
 10
299.4719978365784
 20
120.6912700105212
 30
0.0
 10
299.4711807492286
 20
120.6909163645048
 30
0.0
  0
SPLINE
  5
3BE
330
1F
100
AcDbEntity
  8
0
  6
Continuous
 62
     7
370
    15
100
AcDbSpline
210
0.0
220
0.0
230
1.0
 70
     8
 71
     3
 72
    17
 73
    13
 74
     0
 42
0.000000001
 43
0.00000001
 40
0.0
 40
0.0
 40
0.0
 40
0.0
 40
0.056681314311821
 40
0.1712767485285158
 40
0.2858721827452343
 40
0.4034874897060647
 40
0.5164340155539118
 40
0.6330253546280116
 40
0.7496166937021232
 40
0.8625632195499695
 40
0.9801785265107923
 40
0.9999999999999999
 40
0.9999999999999999
 40
0.9999999999999999
 40
0.9999999999999999
 10
299.5632522508411
 20
120.712570190691
 30
0.0
 10
299.5630192110659
 20
120.7123273790798
 30
0.0
 10
299.5623150231787
 20
120.7115936631496
 30
0.0
 10
299.552283301079
 20
120.7104606051681
 30
0.0
 10
299.5353954263171
 20
120.7090945541939
 30
0.0
 10
299.5142722318326
 20
120.7075507540646
 30
0.0
 10
299.4925611527366
 20
120.7062719025931
 30
0.0
 10
299.4735585244708
 20
120.7047928277809
 30
0.0
 10
299.4600167833275
 20
120.7033110342429
 30
0.0
 10
299.4547144380046
 20
120.7020401925917
 30
0.0
 10
299.4551872344805
 20
120.7008984687033
 30
0.0
 10
299.4595703775452
 20
120.7003481537164
 30
0.0
 10
299.4602025253136
 20
120.7002687859236
 30
0.0
  0
SPLINE
  5
3BF
330
1F
100
AcDbEntity
  8
0
  6
Continuous
 62
     7
370
    15
100
AcDbSpline
210
0.0
220
0.0
230
1.0
 70
     8
 71
     3
 72
    16
 73
    12
 74
     0
 42
0.000000001
 43
0.00000001
 40
0.0
 40
0.0
 40
0.0
 40
0.0
 40
0.0536225341366643
 40
0.1845208243833976
 40
0.3154191146301458
 40
0.4497946479497545
 40
0.5787951740438828
 40
0.7119913384403174
 40
0.8451875028367444
 40
0.9741880289308922
 40
1.0
 40
1.0
 40
1.0
 40
1.0
 10
299.5487766222926
 20
120.703941497535
 30
0.0
 10
299.5486220789747
 20
120.703740638824
 30
0.0
 10
299.548090279035
 20
120.703049462707
 30
0.0
 10
299.5408959459313
 20
120.7019565880143
 30
0.0
 10
299.5286029932128
 20
120.7005897313312
 30
0.0
 10
299.5131619625098
 20
120.6990467191966
 30
0.0
 10
299.4973419721595
 20
120.6977669143246
 30
0.0
 10
299.4833212462401
 20
120.6962894199697
 30
0.0
 10
299.4739759041678
 20
120.6948029348171
 30
0.0
 10
299.4697164868581
 20
120.6938927171276
 30
0.0
 10
299.4706400708915
 20
120.6933119501749
 30
0.0
 10
299.470794060555
 20
120.6932151185879
 30
0.0
  0
LINE
  5
3C0
330
1F
100
AcDbEntity
  8
0
  6
Continuous
 62
     7
370
    15
100
AcDbLine
 10
296.8286671541
 20
183.634447459
 30
0.0
 11
300.9561671541
 21
183.634447459
 31
0.0
  0
LINE
  5
3C1
330
1F
100
AcDbEntity
  8
0
  6
Continuous
 62
     7
370
    15
100
AcDbLine
 10
296.8286671541
 20
184.269447459
 30
0.0
 11
300.9561671541
 21
184.269447459
 31
0.0
  0
LINE
  5
3C2
330
1F
100
AcDbEntity
  8
0
  6
Continuous
 62
     7
370
    15
100
AcDbLine
 10
299.2416671541
 20
183.634447459
 30
0.0
 11
299.2416671541
 21
181.0247486611
 31
0.0
  0
LINE
  5
3C3
330
1F
100
AcDbEntity
  8
0
  6
Continuous
 62
     7
370
    15
100
AcDbLine
 10
298.5431671541
 20
183.634447459
 30
0.0
 11
298.5431671541
 21
181.0247486611
 31
0.0
  0
LINE
  5
3C4
330
1F
100
AcDbEntity
  8
0
  6
Continuous
 62
     7
370
    15
100
AcDbLine
 10
292.4630421541
 20
148.5271563416
 30
0.0
 11
298.7336671541
 21
148.5271563416
 31
0.0
  0
LINE
  5
3C5
330
1F
100
AcDbEntity
  8
0
  6
Continuous
 62
     7
370
    15
100
AcDbLine
 10
299.0511671541
 20
148.5271563416
 30
0.0
 11
305.3217921541
 21
148.5271563416
 31
0.0
  0
LINE
  5
3C6
330
1F
100
AcDbEntity
  8
0
  6
Continuous
 62
     7
370
    15
100
AcDbLine
 10
292.4630421541
 20
147.5746563416
 30
0.0
 11
298.7336671541
 21
147.5746563416
 31
0.0
  0
LINE
  5
3C7
330
1F
100
AcDbEntity
  8
0
  6
Continuous
 62
     7
370
    15
100
AcDbLine
 10
299.0511671541
 20
147.5746563416
 30
0.0
 11
305.3217921541
 21
147.5746563416
 31
0.0
  0
LINE
  5
3C8
330
1F
100
AcDbEntity
  8
0
  6
Continuous
 62
     7
370
    15
100
AcDbLine
 10
298.4161671541
 20
150.5909063416
 30
0.0
 11
298.7336671541
 21
150.5909063416
 31
0.0
  0
LINE
  5
3C9
330
1F
100
AcDbEntity
  8
0
  6
Continuous
 62
     7
370
    15
100
AcDbLine
 10
299.0511671541
 20
150.5909063416
 30
0.0
 11
299.3686671541
 21
150.5909063416
 31
0.0
  0
LINE
  5
3CA
330
1F
100
AcDbEntity
  8
0
  6
Continuous
 62
     8
370
    15
100
AcDbLine
 10
298.7336671541
 20
111.4788633812
 30
0.0
 11
299.0511671541
 21
111.4788633812
 31
0.0
  0
LINE
  5
3CB
330
1F
100
AcDbEntity
  8
0
  6
Continuous
 62
     8
370
    15
100
AcDbLine
 10
299.2892921541
 20
171.315447459
 30
0.0
 11
298.4955421541
 21
171.315447459
 31
0.0
  0
LINE
  5
3CC
330
1F
100
AcDbEntity
  8
0
  6
Continuous
 62
     8
370
    15
100
AcDbLine
 10
292.6202625411
 20
147.4147349256
 30
0.0
 11
298.7336671541
 21
147.4147349256
 31
0.0
  0
LINE
  5
3CD
330
1F
100
AcDbEntity
  8
0
  6
Continuous
 62
     8
370
    15
100
AcDbLine
 10
299.0511671541
 20
147.4147349256
 30
0.0
 11
305.164571767
 21
147.4147349256
 31
0.0
  0
LINE
  5
3CE
330
1F
100
AcDbEntity
  8
0
  6
Continuous
 62
     8
370
    15
100
AcDbLine
 10
292.6209142211
 20
147.4035054712
 30
0.0
 11
298.7336671541
 21
147.4035054712
 31
0.0
  0
LINE
  5
3CF
330
1F
100
AcDbEntity
  8
0
  6
Continuous
 62
     8
370
    15
100
AcDbLine
 10
299.0511671541
 20
147.4035054712
 30
0.0
 11
305.163920087
 21
147.4035054712
 31
0.0
  0
LINE
  5
3D0
330
1F
100
AcDbEntity
  8
0
  6
Continuous
 62
     8
370
    15
100
AcDbLine
 10
292.6339475196
 20
147.2254603543
 30
0.0
 11
298.7336671541
 21
147.2254603543
 31
0.0
  0
LINE
  5
3D1
330
1F
100
AcDbEntity
  8
0
  6
Continuous
 62
     8
370
    15
100
AcDbLine
 10
299.0511671541
 20
147.2254603543
 30
0.0
 11
305.1508867885
 21
147.2254603543
 31
0.0
  0
LINE
  5
3D2
330
1F
100
AcDbEntity
  8
0
  6
Continuous
 62
     8
370
    15
100
AcDbLine
 10
292.6349380658
 20
147.2142557057
 30
0.0
 11
298.7336671541
 21
147.2142557057
 31
0.0
  0
LINE
  5
3D3
330
1F
100
AcDbEntity
  8
0
  6
Continuous
 62
     8
370
    15
100
AcDbLine
 10
299.0511671541
 20
147.2142557057
 30
0.0
 11
305.1498962423
 21
147.2142557057
 31
0.0
  0
LINE
  5
3D4
330
1F
100
AcDbEntity
  8
0
  6
Continuous
 62
     8
370
    15
100
AcDbLine
 10
292.65334292
 20
147.0366854609
 30
0.0
 11
298.7336671541
 21
147.0366854609
 31
0.0
  0
LINE
  5
3D5
330
1F
100
AcDbEntity
  8
0
  6
Continuous
 62
     8
370
    15
100
AcDbLine
 10
299.0511671541
 20
147.0366854609
 30
0.0
 11
305.1314913881
 21
147.0366854609
 31
0.0
  0
LINE
  5
3D6
330
1F
100
AcDbEntity
  8
0
  6
Continuous
 62
     8
370
    15
100
AcDbLine
 10
292.6546714286
 20
147.0255158415
 30
0.0
 11
298.7336671541
 21
147.0255158415
 31
0.0
  0
LINE
  5
3D7
330
1F
100
AcDbEntity
  8
0
  6
Continuous
 62
     8
370
    15
100
AcDbLine
 10
299.0511671541
 20
147.0255158415
 30
0.0
 11
305.1301628795
 21
147.0255158415
 31
0.0
  0
LINE
  5
3D8
330
1F
100
AcDbEntity
  8
0
  6
Continuous
 62
     8
370
    15
100
AcDbLine
 10
292.6784310452
 20
146.8485824893
 30
0.0
 11
298.7336671541
 21
146.8485824893
 31
0.0
  0
LINE
  5
3D9
330
1F
100
AcDbEntity
  8
0
  6
Continuous
 62
     8
370
    15
100
AcDbLine
 10
299.0511671541
 20
146.8485824893
 30
0.0
 11
305.1064032629
 21
146.8485824893
 31
0.0
  0
LINE
  5
3DA
330
1F
100
AcDbEntity
  8
0
  6
Continuous
 62
     8
370
    15
100
AcDbLine
 10
292.6800963041
 20
146.8374580906
 30
0.0
 11
298.7336671541
 21
146.8374580906
 31
0.0
  0
LINE
  5
3DB
330
1F
100
AcDbEntity
  8
0
  6
Continuous
 62
     8
370
    15
100
AcDbLine
 10
299.0511671541
 20
146.8374580906
 30
0.0
 11
305.104738004
 21
146.8374580906
 31
0.0
  0
LINE
  5
3DC
330
1F
100
AcDbEntity
  8
0
  6
Continuous
 62
     8
370
    15
100
AcDbLine
 10
292.7091890041
 20
146.6613230705
 30
0.0
 11
298.7336671541
 21
146.6613230705
 31
0.0
  0
LINE
  5
3DD
330
1F
100
AcDbEntity
  8
0
  6
Continuous
 62
     8
370
    15
100
AcDbLine
 10
299.0511671541
 20
146.6613230705
 30
0.0
 11
305.075645304
 21
146.6613230705
 31
0.0
  0
LINE
  5
3DE
330
1F
100
AcDbEntity
  8
0
  6
Continuous
 62
     8
370
    15
100
AcDbLine
 10
292.7111894938
 20
146.6502540429
 30
0.0
 11
298.7336671541
 21
146.6502540429
 31
0.0
  0
LINE
  5
3DF
330
1F
100
AcDbEntity
  8
0
  6
Continuous
 62
     8
370
    15
100
AcDbLine
 10
299.0511671541
 20
146.6502540429
 30
0.0
 11
305.0736448143
 21
146.6502540429
 31
0.0
  0
LINE
  5
3E0
330
1F
100
AcDbEntity
  8
0
  6
Continuous
 62
     8
370
    15
100
AcDbLine
 10
292.7455887322
 20
146.4750780659
 30
0.0
 11
298.7336671541
 21
146.4750780659
 31
0.0
  0
LINE
  5
3E1
330
1F
100
AcDbEntity
  8
0
  6
Continuous
 62
     8
370
    15
100
AcDbLine
 10
299.0511671541
 20
146.4750780659
 30
0.0
 11
305.0392455759
 21
146.4750780659
 31
0.0
  0
LINE
  5
3E2
330
1F
100
AcDbEntity
  8
0
  6
Continuous
 62
     8
370
    15
100
AcDbLine
 10
292.7479226274
 20
146.4640745089
 30
0.0
 11
298.7336671541
 21
146.4640745089
 31
0.0
  0
LINE
  5
3E3
330
1F
100
AcDbEntity
  8
0
  6
Continuous
 62
     8
370
    15
100
AcDbLine
 10
299.0511671541
 20
146.4640745089
 30
0.0
 11
305.0369116807
 21
146.4640745089
 31
0.0
  0
LINE
  5
3E4
330
1F
100
AcDbEntity
  8
0
  6
Continuous
 62
     8
370
    15
100
AcDbLine
 10
292.7875970172
 20
146.2900174112
 30
0.0
 11
298.7336671541
 21
146.2900174112
 31
0.0
  0
LINE
  5
3E5
330
1F
100
AcDbEntity
  8
0
  6
Continuous
 62
     8
370
    15
100
AcDbLine
 10
299.0511671541
 20
146.2900174112
 30
0.0
 11
304.9972372909
 21
146.2900174112
 31
0.0
  0
LINE
  5
3E6
330
1F
100
AcDbEntity
  8
0
  6
Continuous
 62
     8
370
    15
100
AcDbLine
 10
292.7902621884
 20
146.2790893649
 30
0.0
 11
298.7336671541
 21
146.2790893649
 31
0.0
  0
LINE
  5
3E7
330
1F
100
AcDbEntity
  8
0
  6
Continuous
 62
     8
370
    15
100
AcDbLine
 10
299.0511671541
 20
146.2790893649
 30
0.0
 11
304.9945721197
 21
146.2790893649
 31
0.0
  0
LINE
  5
3E8
330
1F
100
AcDbEntity
  8
0
  6
Continuous
 62
     8
370
    15
100
AcDbLine
 10
292.8351755295
 20
146.1063099613
 30
0.0
 11
298.7336671541
 21
146.1063099613
 31
0.0
  0
LINE
  5
3E9
330
1F
100
AcDbEntity
  8
0
  6
Continuous
 62
     8
370
    15
100
AcDbLine
 10
299.0511671541
 20
146.1063099613
 30
0.0
 11
304.9496587786
 21
146.1063099613
 31
0.0
  0
LINE
  5
3EA
330
1F
100
AcDbEntity
  8
0
  6
Continuous
 62
     8
370
    15
100
AcDbLine
 10
292.8381695449
 20
146.0954673968
 30
0.0
 11
298.7336671541
 21
146.0954673968
 31
0.0
  0
LINE
  5
3EB
330
1F
100
AcDbEntity
  8
0
  6
Continuous
 62
     8
370
    15
100
AcDbLine
 10
299.0511671541
 20
146.0954673968
 30
0.0
 11
304.9466647633
 21
146.0954673968
 31
0.0
  0
LINE
  5
3EC
330
1F
100
AcDbEntity
  8
0
  6
Continuous
 62
     8
370
    15
100
AcDbLine
 10
292.888280857
 20
145.9241233368
 30
0.0
 11
298.7336671541
 21
145.9241233368
 31
0.0
  0
LINE
  5
3ED
330
1F
100
AcDbEntity
  8
0
  6
Continuous
 62
     8
370
    15
100
AcDbLine
 10
299.0511671541
 20
145.9241233368
 30
0.0
 11
304.8965534512
 21
145.9241233368
 31
0.0
  0
LINE
  5
3EE
330
1F
100
AcDbEntity
  8
0
  6
Continuous
 62
     8
370
    15
100
AcDbLine
 10
292.8916009847
 20
145.9133761472
 30
0.0
 11
298.7336671541
 21
145.9133761472
 31
0.0
  0
LINE
  5
3EF
330
1F
100
AcDbEntity
  8
0
  6
Continuous
 62
     8
370
    15
100
AcDbLine
 10
299.0511671541
 20
145.9133761472
 30
0.0
 11
304.8932333234
 21
145.9133761472
 31
0.0
  0
LINE
  5
3F0
330
1F
100
AcDbEntity
  8
0
  6
Continuous
 62
     8
370
    15
100
AcDbLine
 10
292.9468645446
 20
145.7436237704
 30
0.0
 11
298.7336671541
 21
145.7436237704
 31
0.0
  0
LINE
  5
3F1
330
1F
100
AcDbEntity
  8
0
  6
Continuous
 62
     8
370
    15
100
AcDbLine
 10
299.0511671541
 20
145.7436237704
 30
0.0
 11
304.8379697635
 21
145.7436237704
 31
0.0
  0
LINE
  5
3F2
330
1F
100
AcDbEntity
  8
0
  6
Continuous
 62
     8
370
    15
100
AcDbLine
 10
292.9505077553
 20
145.7329817617
 30
0.0
 11
298.7336671541
 21
145.7329817617
 31
0.0
  0
LINE
  5
3F3
330
1F
100
AcDbEntity
  8
0
  6
Continuous
 62
     8
370
    15
100
AcDbLine
 10
299.0511671541
 20
145.7329817617
 30
0.0
 11
304.8343265528
 21
145.7329817617
 31
0.0
  0
LINE
  5
3F4
330
1F
100
AcDbEntity
  8
0
  6
Continuous
 62
     8
370
    15
100
AcDbLine
 10
293.0108731389
 20
145.5649759554
 30
0.0
 11
298.7336671541
 21
145.5649759554
 31
0.0
  0
LINE
  5
3F5
330
1F
100
AcDbEntity
  8
0
  6
Continuous
 62
     8
370
    15
100
AcDbLine
 10
299.0511671541
 20
145.5649759554
 30
0.0
 11
304.7739611692
 21
145.5649759554
 31
0.0
  0
LINE
  5
3F6
330
1F
100
AcDbEntity
  8
0
  6
Continuous
 62
     8
370
    15
100
AcDbLine
 10
293.0148361084
 20
145.5544488377
 30
0.0
 11
298.7336671541
 21
145.5544488377
 31
0.0
  0
LINE
  5
3F7
330
1F
100
AcDbEntity
  8
0
  6
Continuous
 62
     8
370
    15
100
AcDbLine
 10
299.0511671541
 20
145.5544488377
 30
0.0
 11
304.7699981997
 21
145.5544488377
 31
0.0
  0
LINE
  5
3F8
330
1F
100
AcDbEntity
  8
0
  6
Continuous
 62
     8
370
    15
100
AcDbLine
 10
293.0802482364
 20
145.3883428956
 30
0.0
 11
298.7336671541
 21
145.3883428956
 31
0.0
  0
LINE
  5
3F9
330
1F
100
AcDbEntity
  8
0
  6
Continuous
 62
     8
370
    15
100
AcDbLine
 10
299.0511671541
 20
145.3883428956
 30
0.0
 11
304.7045860717
 21
145.3883428956
 31
0.0
  0
LINE
  5
3FA
330
1F
100
AcDbEntity
  8
0
  6
Continuous
 62
     8
370
    15
100
AcDbLine
 10
293.0845273488
 20
145.3779402743
 30
0.0
 11
298.7336671541
 21
145.3779402743
 31
0.0
  0
LINE
  5
3FB
330
1F
100
AcDbEntity
  8
0
  6
Continuous
 62
     8
370
    15
100
AcDbLine
 10
299.0511671541
 20
145.3779402743
 30
0.0
 11
304.7003069594
 21
145.3779402743
 31
0.0
  0
LINE
  5
3FC
330
1F
100
AcDbEntity
  8
0
  6
Continuous
 62
     8
370
    15
100
AcDbLine
 10
293.1549265371
 20
145.2138857566
 30
0.0
 11
298.7336671541
 21
145.2138857566
 31
0.0
  0
LINE
  5
3FD
330
1F
100
AcDbEntity
  8
0
  6
Continuous
 62
     8
370
    15
100
AcDbLine
 10
299.0511671541
 20
145.2138857566
 30
0.0
 11
304.629907771
 21
145.2138857566
 31
0.0
  0
LINE
  5
3FE
330
1F
100
AcDbEntity
  8
0
  6
Continuous
 62
     8
370
    15
100
AcDbLine
 10
293.1595178879
 20
145.2036171233
 30
0.0
 11
298.7336671541
 21
145.2036171233
 31
0.0
  0
LINE
  5
3FF
330
1F
100
AcDbEntity
  8
0
  6
Continuous
 62
     8
370
    15
100
AcDbLine
 10
299.0511671541
 20
145.2036171233
 30
0.0
 11
304.6253164202
 21
145.2036171233
 31
0.0
  0
LINE
  5
400
330
1F
100
AcDbEntity
  8
0
  6
Continuous
 62
     8
370
    15
100
AcDbLine
 10
293.2348399023
 20
145.0417637184
 30
0.0
 11
298.7336671541
 21
145.0417637184
 31
0.0
  0
LINE
  5
401
330
1F
100
AcDbEntity
  8
0
  6
Continuous
 62
     8
370
    15
100
AcDbLine
 10
299.0511671541
 20
145.0417637184
 30
0.0
 11
304.5499944058
 21
145.0417637184
 31
0.0
  0
LINE
  5
402
330
1F
100
AcDbEntity
  8
0
  6
Continuous
 62
     8
370
    15
100
AcDbLine
 10
293.2397393023
 20
145.0316384425
 30
0.0
 11
298.7336671541
 21
145.0316384425
 31
0.0
  0
LINE
  5
403
330
1F
100
AcDbEntity
  8
0
  6
Continuous
 62
     8
370
    15
100
AcDbLine
 10
299.0511671541
 20
145.0316384425
 30
0.0
 11
304.5450950059
 21
145.0316384425
 31
0.0
  0
LINE
  5
404
330
1F
100
AcDbEntity
  8
0
  6
Continuous
 62
     8
370
    15
100
AcDbLine
 10
293.3199154164
 20
144.8721338306
 30
0.0
 11
298.7336671541
 21
144.8721338306
 31
0.0
  0
LINE
  5
405
330
1F
100
AcDbEntity
  8
0
  6
Continuous
 62
     8
370
    15
100
AcDbLine
 10
299.0511671541
 20
144.8721338306
 30
0.0
 11
304.4649188917
 21
144.8721338306
 31
0.0
  0
LINE
  5
406
330
1F
100
AcDbEntity
  8
0
  6
Continuous
 62
     8
370
    15
100
AcDbLine
 10
293.3251183952
 20
144.8621611507
 30
0.0
 11
298.7336671541
 21
144.8621611507
 31
0.0
  0
LINE
  5
407
330
1F
100
AcDbEntity
  8
0
  6
Continuous
 62
     8
370
    15
100
AcDbLine
 10
299.0511671541
 20
144.8621611507
 30
0.0
 11
304.4597159129
 21
144.8621611507
 31
0.0
  0
LINE
  5
408
330
1F
100
AcDbEntity
  8
0
  6
Continuous
 62
     8
370
    15
100
AcDbLine
 10
293.4155772642
 20
144.6953398842
 30
0.0
 11
298.7336671541
 21
144.6953398842
 31
0.0
  0
LINE
  5
409
330
1F
100
AcDbEntity
  8
0
  6
Continuous
 62
     8
370
    15
100
AcDbLine
 10
299.0511671541
 20
144.6953398842
 30
0.0
 11
304.3692570439
 21
144.6953398842
 31
0.0
  0
LINE
  5
40A
330
1F
100
AcDbEntity
  8
0
  6
Continuous
 62
     8
370
    15
100
AcDbLine
 10
293.5110333718
 20
144.5313268558
 30
0.0
 11
298.7336671541
 21
144.5313268558
 31
0.0
  0
LINE
  5
40B
330
1F
100
AcDbEntity
  8
0
  6
Continuous
 62
     8
370
    15
100
AcDbLine
 10
299.0511671541
 20
144.5313268558
 30
0.0
 11
304.2738009363
 21
144.5313268558
 31
0.0
  0
LINE
  5
40C
330
1F
100
AcDbEntity
  8
0
  6
Continuous
 62
     8
370
    15
100
AcDbLine
 10
293.611399621
 20
144.3702717162
 30
0.0
 11
298.7336671541
 21
144.3702717162
 31
0.0
  0
LINE
  5
40D
330
1F
100
AcDbEntity
  8
0
  6
Continuous
 62
     8
370
    15
100
AcDbLine
 10
299.0511671541
 20
144.3702717162
 30
0.0
 11
304.1734346871
 21
144.3702717162
 31
0.0
  0
LINE
  5
40E
330
1F
100
AcDbEntity
  8
0
  6
Continuous
 62
     8
370
    15
100
AcDbLine
 10
293.7165844343
 20
144.2123214171
 30
0.0
 11
298.7336671541
 21
144.2123214171
 31
0.0
  0
LINE
  5
40F
330
1F
100
AcDbEntity
  8
0
  6
Continuous
 62
     8
370
    15
100
AcDbLine
 10
299.0511671541
 20
144.2123214171
 30
0.0
 11
304.0682498738
 21
144.2123214171
 31
0.0
  0
LINE
  5
410
330
1F
100
AcDbEntity
  8
0
  6
Continuous
 62
     8
370
    15
100
AcDbLine
 10
293.826491838
 20
144.0576200772
 30
0.0
 11
298.7336671541
 21
144.0576200772
 31
0.0
  0
LINE
  5
411
330
1F
100
AcDbEntity
  8
0
  6
Continuous
 62
     8
370
    15
100
AcDbLine
 10
299.0511671541
 20
144.0576200772
 30
0.0
 11
303.9583424701
 21
144.0576200772
 31
0.0
  0
LINE
  5
412
330
1F
100
AcDbEntity
  8
0
  6
Continuous
 62
     8
370
    15
100
AcDbLine
 10
293.9410215491
 20
143.9063088508
 30
0.0
 11
298.7336671541
 21
143.9063088508
 31
0.0
  0
LINE
  5
413
330
1F
100
AcDbEntity
  8
0
  6
Continuous
 62
     8
370
    15
100
AcDbLine
 10
299.0511671541
 20
143.9063088508
 30
0.0
 11
303.843812759
 21
143.9063088508
 31
0.0
  0
LINE
  5
414
330
1F
100
AcDbEntity
  8
0
  6
Continuous
 62
     8
370
    15
100
AcDbLine
 10
294.0600690671
 20
143.758525799
 30
0.0
 11
298.7336671541
 21
143.758525799
 31
0.0
  0
LINE
  5
415
330
1F
100
AcDbEntity
  8
0
  6
Continuous
 62
     8
370
    15
100
AcDbLine
 10
299.0511671541
 20
143.758525799
 30
0.0
 11
303.724765241
 21
143.758525799
 31
0.0
  0
LINE
  5
416
330
1F
100
AcDbEntity
  8
0
  6
Continuous
 62
     8
370
    15
100
AcDbLine
 10
294.1835257695
 20
143.6144057636
 30
0.0
 11
298.7336671541
 21
143.6144057636
 31
0.0
  0
LINE
  5
417
330
1F
100
AcDbEntity
  8
0
  6
Continuous
 62
     8
370
    15
100
AcDbLine
 10
299.0511671541
 20
143.6144057636
 30
0.0
 11
303.6013085386
 21
143.6144057636
 31
0.0
  0
LINE
  5
418
330
1F
100
AcDbEntity
  8
0
  6
Continuous
 62
     8
370
    15
100
AcDbLine
 10
294.3112790104
 20
143.4740802443
 30
0.0
 11
298.7336671541
 21
143.4740802443
 31
0.0
  0
LINE
  5
419
330
1F
100
AcDbEntity
  8
0
  6
Continuous
 62
     8
370
    15
100
AcDbLine
 10
299.0511671541
 20
143.4740802443
 30
0.0
 11
303.4735552977
 21
143.4740802443
 31
0.0
  0
LINE
  5
41A
330
1F
100
AcDbEntity
  8
0
  6
Continuous
 62
     8
370
    15
100
AcDbLine
 10
294.4432122238
 20
143.3376772783
 30
0.0
 11
298.7336671541
 21
143.3376772783
 31
0.0
  0
LINE
  5
41B
330
1F
100
AcDbEntity
  8
0
  6
Continuous
 62
     8
370
    15
100
AcDbLine
 10
299.0511671541
 20
143.3376772783
 30
0.0
 11
303.3416220843
 21
143.3376772783
 31
0.0
  0
LINE
  5
41C
330
1F
100
AcDbEntity
  8
0
  6
Continuous
 62
     8
370
    15
100
AcDbLine
 10
294.5792050299
 20
143.2053213239
 30
0.0
 11
298.7336671541
 21
143.2053213239
 31
0.0
  0
LINE
  5
41D
330
1F
100
AcDbEntity
  8
0
  6
Continuous
 62
     8
370
    15
100
AcDbLine
 10
299.0511671541
 20
143.2053213239
 30
0.0
 11
303.2056292782
 21
143.2053213239
 31
0.0
  0
LINE
  5
41E
330
1F
100
AcDbEntity
  8
0
  6
Continuous
 62
     8
370
    15
100
AcDbLine
 10
294.7191333445
 20
143.0771331469
 30
0.0
 11
298.7336671541
 21
143.0771331469
 31
0.0
  0
LINE
  5
41F
330
1F
100
AcDbEntity
  8
0
  6
Continuous
 62
     8
370
    15
100
AcDbLine
 10
299.0511671541
 20
143.0771331469
 30
0.0
 11
303.0657009636
 21
143.0771331469
 31
0.0
  0
ENDSEC
  0
SECTION
  2
OBJECTS
  0
DICTIONARY
  5
C
330
0
100
AcDbDictionary
281
     1
  3
ACAD_GROUP
350
D
  3
ACAD_LAYOUT
350
1A
  3
ACAD_MLINESTYLE
350
17
  3
ACAD_PLOTSETTINGS
350
19
  3
ACAD_PLOTSTYLENAME
350
E
  3
ACAD_SCALELIST
350
47
  0
DICTIONARY
  5
D
102
{ACAD_REACTORS
330
C
102
}
330
C
100
AcDbDictionary
281
     1
  0
DICTIONARY
  5
1A
102
{ACAD_REACTORS
330
C
102
}
330
C
100
AcDbDictionary
281
     1
  3
Layout1
350
1E
  3
Layout2
350
26
  3
Model
350
22
  0
DICTIONARY
  5
17
102
{ACAD_REACTORS
330
C
102
}
330
C
100
AcDbDictionary
281
     1
  3
Standard
350
18
  0
DICTIONARY
  5
19
102
{ACAD_REACTORS
330
C
102
}
330
C
100
AcDbDictionary
281
     1
  0
ACDBDICTIONARYWDFLT
  5
E
102
{ACAD_REACTORS
330
C
102
}
330
C
100
AcDbDictionary
281
     1
  3
Normal
350
F
100
AcDbDictionaryWithDefault
340
F
  0
DICTIONARY
  5
47
102
{ACAD_REACTORS
330
C
102
}
330
C
100
AcDbDictionary
281
     1
  3
A0
350
48
  3
A1
350
49
  3
A2
350
4A
  3
A3
350
4B
  3
A4
350
4C
  3
A5
350
4D
  3
A6
350
4E
  3
A7
350
4F
  3
A8
350
50
  3
A9
350
51
  3
B0
350
52
  3
B1
350
53
  3
B2
350
54
  3
B3
350
55
  3
B4
350
56
  3
B5
350
57
  3
B6
350
58
  3
B7
350
59
  3
B8
350
5A
  3
B9
350
5B
  3
C0
350
5C
  3
C1
350
5D
  3
C2
350
5E
  3
C3
350
5F
  3
C4
350
60
  3
C5
350
61
  3
C6
350
62
  3
C7
350
63
  3
C8
350
64
  3
C9
350
65
  3
D0
350
66
  3
D1
350
67
  3
D2
350
68
  0
LAYOUT
  5
1E
102
{ACAD_REACTORS
330
1A
102
}
330
1A
100
AcDbPlotSettings
  1

  2
none_device
  4

  6

 40
0.0
 41
0.0
 42
0.0
 43
0.0
 44
0.0
 45
0.0
 46
0.0
 47
0.0
 48
0.0
 49
0.0
140
0.0
141
0.0
142
1.0
143
1.0
 70
   688
 72
     1
 73
     0
 74
     5
  7

 75
    16
147
1.0
148
0.0
149
0.0
100
AcDbLayout
  1
Layout1
 70
     1
 71
     1
 10
0.0
 20
0.0
 11
420.0
 21
297.0
 12
0.0
 22
0.0
 32
0.0
 14
1.0000000000E+20
 24
1.0000000000E+20
 34
1.0000000000E+20
 15
-1.0000000000E+20
 25
-1.0000000000E+20
 35
-1.0000000000E+20
146
0.0
 13
0.0
 23
0.0
 33
0.0
 16
1.0
 26
0.0
 36
0.0
 17
0.0
 27
1.0
 37
0.0
 76
     0
330
1B
  0
LAYOUT
  5
26
102
{ACAD_REACTORS
330
1A
102
}
330
1A
100
AcDbPlotSettings
  1

  2
none_device
  4

  6

 40
0.0
 41
0.0
 42
0.0
 43
0.0
 44
0.0
 45
0.0
 46
0.0
 47
0.0
 48
0.0
 49
0.0
140
0.0
141
0.0
142
1.0
143
1.0
 70
   688
 72
     1
 73
     0
 74
     5
  7

 75
    16
147
1.0
148
0.0
149
0.0
100
AcDbLayout
  1
Layout2
 70
     1
 71
     2
 10
0.0
 20
0.0
 11
0.0
 21
0.0
 12
0.0
 22
0.0
 32
0.0
 14
0.0
 24
0.0
 34
0.0
 15
0.0
 25
0.0
 35
0.0
146
0.0
 13
0.0
 23
0.0
 33
0.0
 16
1.0
 26
0.0
 36
0.0
 17
0.0
 27
1.0
 37
0.0
 76
     0
330
23
  0
LAYOUT
  5
22
102
{ACAD_REACTORS
330
1A
102
}
330
1A
100
AcDbPlotSettings
  1

  2
none_device
  4
Letter_(8.50_x_11.00_Inches)
  6

 40
6.35
 41
6.35
 42
6.35000508
 43
6.35000508
 44
215.9
 45
279.4
 46
0.0
 47
0.0
 48
0.0
 49
0.0
140
0.0
141
0.0
142
1.0
143
1.0
 70
  1712
 72
     1
 73
     0
 74
     0
  7

 75
     0
147
1.0
148
0.0
149
0.0
100
AcDbLayout
  1
Model
 70
     1
 71
     0
 10
0.0
 20
0.0
 11
431.8
 21
279.4
 12
0.0
 22
0.0
 32
0.0
 14
0.0
 24
0.0
 34
0.0
 15
431.8
 25
279.4
 35
0.0
146
0.0
 13
0.0
 23
0.0
 33
0.0
 16
1.0
 26
0.0
 36
0.0
 17
0.0
 27
1.0
 37
0.0
 76
     0
330
1F
331
29
  0
MLINESTYLE
  5
18
102
{ACAD_REACTORS
330
17
102
}
330
17
100
AcDbMlineStyle
  2
Standard
 70
     0
  3

 62
   256
 51
90.0
 52
90.0
 71
     2
 49
0.5
 62
   256
  6
BYLAYER
 49
-0.5
 62
   256
  6
BYLAYER
  0
ACDBPLACEHOLDER
  5
F
102
{ACAD_REACTORS
330
E
102
}
330
E
  0
SCALE
  5
48
102
{ACAD_REACTORS
330
47
102
}
330
47
100
AcDbScale
 70
     0
300
1:1
140
1.0
141
1.0
290
     1
  0
SCALE
  5
49
102
{ACAD_REACTORS
330
47
102
}
330
47
100
AcDbScale
 70
     0
300
1:2
140
1.0
141
2.0
290
     0
  0
SCALE
  5
4A
102
{ACAD_REACTORS
330
47
102
}
330
47
100
AcDbScale
 70
     0
300
1:4
140
1.0
141
4.0
290
     0
  0
SCALE
  5
4B
102
{ACAD_REACTORS
330
47
102
}
330
47
100
AcDbScale
 70
     0
300
1:5
140
1.0
141
5.0
290
     0
  0
SCALE
  5
4C
102
{ACAD_REACTORS
330
47
102
}
330
47
100
AcDbScale
 70
     0
300
1:8
140
1.0
141
8.0
290
     0
  0
SCALE
  5
4D
102
{ACAD_REACTORS
330
47
102
}
330
47
100
AcDbScale
 70
     0
300
1:10
140
1.0
141
10.0
290
     0
  0
SCALE
  5
4E
102
{ACAD_REACTORS
330
47
102
}
330
47
100
AcDbScale
 70
     0
300
1:16
140
1.0
141
16.0
290
     0
  0
SCALE
  5
4F
102
{ACAD_REACTORS
330
47
102
}
330
47
100
AcDbScale
 70
     0
300
1:20
140
1.0
141
20.0
290
     0
  0
SCALE
  5
50
102
{ACAD_REACTORS
330
47
102
}
330
47
100
AcDbScale
 70
     0
300
1:30
140
1.0
141
30.0
290
     0
  0
SCALE
  5
51
102
{ACAD_REACTORS
330
47
102
}
330
47
100
AcDbScale
 70
     0
300
1:40
140
1.0
141
40.0
290
     0
  0
SCALE
  5
52
102
{ACAD_REACTORS
330
47
102
}
330
47
100
AcDbScale
 70
     0
300
1:50
140
1.0
141
50.0
290
     0
  0
SCALE
  5
53
102
{ACAD_REACTORS
330
47
102
}
330
47
100
AcDbScale
 70
     0
300
1:100
140
1.0
141
100.0
290
     0
  0
SCALE
  5
54
102
{ACAD_REACTORS
330
47
102
}
330
47
100
AcDbScale
 70
     0
300
2:1
140
2.0
141
1.0
290
     0
  0
SCALE
  5
55
102
{ACAD_REACTORS
330
47
102
}
330
47
100
AcDbScale
 70
     0
300
4:1
140
4.0
141
1.0
290
     0
  0
SCALE
  5
56
102
{ACAD_REACTORS
330
47
102
}
330
47
100
AcDbScale
 70
     0
300
8:1
140
8.0
141
1.0
290
     0
  0
SCALE
  5
57
102
{ACAD_REACTORS
330
47
102
}
330
47
100
AcDbScale
 70
     0
300
10:1
140
10.0
141
1.0
290
     0
  0
SCALE
  5
58
102
{ACAD_REACTORS
330
47
102
}
330
47
100
AcDbScale
 70
     0
300
100:1
140
100.0
141
1.0
290
     0
  0
SCALE
  5
59
102
{ACAD_REACTORS
330
47
102
}
330
47
100
AcDbScale
 70
     0
300
1/128" = 1'-0"
140
0.0078125
141
12.0
290
     0
  0
SCALE
  5
5A
102
{ACAD_REACTORS
330
47
102
}
330
47
100
AcDbScale
 70
     0
300
1/64" = 1'-0"
140
0.015625
141
12.0
290
     0
  0
SCALE
  5
5B
102
{ACAD_REACTORS
330
47
102
}
330
47
100
AcDbScale
 70
     0
300
1/32" = 1'-0"
140
0.03125
141
12.0
290
     0
  0
SCALE
  5
5C
102
{ACAD_REACTORS
330
47
102
}
330
47
100
AcDbScale
 70
     0
300
1/16" = 1'-0"
140
0.0625
141
12.0
290
     0
  0
SCALE
  5
5D
102
{ACAD_REACTORS
330
47
102
}
330
47
100
AcDbScale
 70
     0
300
3/32" = 1'-0"
140
0.09375
141
12.0
290
     0
  0
SCALE
  5
5E
102
{ACAD_REACTORS
330
47
102
}
330
47
100
AcDbScale
 70
     0
300
1/8" = 1'-0"
140
0.125
141
12.0
290
     0
  0
SCALE
  5
5F
102
{ACAD_REACTORS
330
47
102
}
330
47
100
AcDbScale
 70
     0
300
3/16" = 1'-0"
140
0.1875
141
12.0
290
     0
  0
SCALE
  5
60
102
{ACAD_REACTORS
330
47
102
}
330
47
100
AcDbScale
 70
     0
300
1/4" = 1'-0"
140
0.25
141
12.0
290
     0
  0
SCALE
  5
61
102
{ACAD_REACTORS
330
47
102
}
330
47
100
AcDbScale
 70
     0
300
3/8" = 1'-0"
140
0.375
141
12.0
290
     0
  0
SCALE
  5
62
102
{ACAD_REACTORS
330
47
102
}
330
47
100
AcDbScale
 70
     0
300
1/2" = 1'-0"
140
0.5
141
12.0
290
     0
  0
SCALE
  5
63
102
{ACAD_REACTORS
330
47
102
}
330
47
100
AcDbScale
 70
     0
300
3/4" = 1'-0"
140
0.75
141
12.0
290
     0
  0
SCALE
  5
64
102
{ACAD_REACTORS
330
47
102
}
330
47
100
AcDbScale
 70
     0
300
1" = 1'-0"
140
1.0
141
12.0
290
     0
  0
SCALE
  5
65
102
{ACAD_REACTORS
330
47
102
}
330
47
100
AcDbScale
 70
     0
300
1-1/2" = 1'-0"
140
1.5
141
12.0
290
     0
  0
SCALE
  5
66
102
{ACAD_REACTORS
330
47
102
}
330
47
100
AcDbScale
 70
     0
300
3" = 1'-0"
140
3.0
141
12.0
290
     0
  0
SCALE
  5
67
102
{ACAD_REACTORS
330
47
102
}
330
47
100
AcDbScale
 70
     0
300
6" = 1'-0"
140
6.0
141
12.0
290
     0
  0
SCALE
  5
68
102
{ACAD_REACTORS
330
47
102
}
330
47
100
AcDbScale
 70
     0
300
1'-0" = 1'-0"
140
12.0
141
12.0
290
     0
  0
ENDSEC
  0
EOF
