  0
SECTION
  2
HEADER
  9
$ACADVER
  1
AC1015
  9
$ACADMAINTVER
 70
     6
  9
$DWGCODEPAGE
  3
ANSI_1252
  9
$INSBASE
 10
0.0
 20
0.0
 30
0.0
  9
$EXTMIN
 10
0.0
 20
0.0
 30
0.0
  9
$EXTMAX
 10
431.8
 20
279.4
 30
0.0
  9
$LIMMIN
 10
0.0
 20
0.0
  9
$LIMMAX
 10
431.8
 20
279.4
  9
$ORTHOMODE
 70
     0
  9
$REGENMODE
 70
     1
  9
$FILLMODE
 70
     1
  9
$QTEXTMODE
 70
     0
  9
$MIRRTEXT
 70
     1
  9
$LTSCALE
 40
1.0
  9
$ATTMODE
 70
     1
  9
$TEXTSIZE
 40
3.175
  9
$TRACEWID
 40
1.0
  9
$TEXTSTYLE
  7
Standard
  9
$CLAYER
  8
0
  9
$CELTYPE
  6
ByLayer
  9
$CECOLOR
 62
   256
  9
$CELTSCALE
 40
1.0
  9
$DISPSILH
 70
     0
  9
$DIMSCALE
 40
1.0
  9
$DIMASZ
 40
3.302
  9
$DIMEXO
 40
1.27
  9
$DIMDLI
 40
3.75
  9
$DIMRND
 40
0.0
  9
$DIMDLE
 40
0.0
  9
$DIMEXE
 40
3.175
  9
$DIMTP
 40
0.0
  9
$DIMTM
 40
0.0
  9
$DIMTXT
 40
3.175
  9
$DIMCEN
 40
2.5
  9
$DIMTSZ
 40
0.0
  9
$DIMTOL
 70
     0
  9
$DIMLIM
 70
     0
  9
$DIMTIH
 70
     1
  9
$DIMTOH
 70
     1
  9
$DIMSE1
 70
     0
  9
$DIMSE2
 70
     0
  9
$DIMTAD
 70
     0
  9
$DIMZIN
 70
     0
  9
$DIMBLK
  1

  9
$DIMASO
 70
     1
  9
$DIMSHO
 70
     1
  9
$DIMPOST
  1

  9
$DIMAPOST
  1

  9
$DIMALT
 70
     0
  9
$DIMALTD
 70
     3
  9
$DIMALTF
 40
0.0393700787
  9
$DIMLFAC
 40
10.0
  9
$DIMTOFL
 70
     1
  9
$DIMTVP
 40
0.0
  9
$DIMTIX
 70
     0
  9
$DIMSOXD
 70
     0
  9
$DIMSAH
 70
     0
  9
$DIMBLK1
  1

  9
$DIMBLK2
  1

  9
$DIMSTYLE
  2
ISO-25
  9
$DIMCLRD
 70
     0
  9
$DIMCLRE
 70
     0
  9
$DIMCLRT
 70
     0
  9
$DIMTFAC
 40
1.0
  9
$DIMGAP
 40
1.524
  9
$DIMJUST
 70
     0
  9
$DIMSD1
 70
     0
  9
$DIMSD2
 70
     0
  9
$DIMTOLJ
 70
     0
  9
$DIMTZIN
 70
     0
  9
$DIMALTZ
 70
     0
  9
$DIMALTTZ
 70
     0
  9
$DIMUPT
 70
     0
  9
$DIMDEC
 70
     0
  9
$DIMTDEC
 70
     0
  9
$DIMALTU
 70
     2
  9
$DIMALTTD
 70
     3
  9
$DIMTXSTY
  7
Standard
  9
$DIMAUNIT
 70
     0
  9
$DIMADEC
 70
     0
  9
$DIMALTRND
 40
0.0
  9
$DIMAZIN
 70
     0
  9
$DIMDSEP
 70
    44
  9
$DIMATFIT
 70
     3
  9
$DIMFRAC
 70
     0
  9
$DIMLDRBLK
  1

  9
$DIMLUNIT
 70
     2
  9
$DIMLWD
 70
    -2
  9
$DIMLWE
 70
    -2
  9
$DIMTMOVE
 70
     0
  9
$LUNITS
 70
     2
  9
$LUPREC
 70
     2
  9
$SKETCHINC
 40
1.0
  9
$FILLETRAD
 40
10.0
  9
$AUNITS
 70
     0
  9
$AUPREC
 70
     2
  9
$MENU
  1
.
  9
$ELEVATION
 40
0.0
  9
$PELEVATION
 40
0.0
  9
$THICKNESS
 40
0.0
  9
$LIMCHECK
 70
     0
  9
$CHAMFERA
 40
0.0
  9
$CHAMFERB
 40
0.0
  9
$CHAMFERC
 40
0.0
  9
$CHAMFERD
 40
0.0
  9
$SKPOLY
 70
     0
  9
$TDCREATE
 40
2458681.668639827
  9
$TDUCREATE
 40
2458681.835306493
  9
$TDUPDATE
 40
2458681.668640544
  9
$TDUUPDATE
 40
2458681.835307211
  9
$TDINDWG
 40
0.0000000116
  9
$TDUSRTIMER
 40
0.0000000116
  9
$USRTIMER
 70
     1
  9
$ANGBASE
 50
0.0
  9
$ANGDIR
 70
     0
  9
$PDMODE
 70
     0
  9
$PDSIZE
 40
-1.0
  9
$PLINEWID
 40
0.0
  9
$SPLFRAME
 70
     0
  9
$SPLINETYPE
 70
     6
  9
$SPLINESEGS
 70
     8
  9
$HANDSEED
  5
17E
  9
$SURFTAB1
 70
     6
  9
$SURFTAB2
 70
     6
  9
$SURFTYPE
 70
     6
  9
$SURFU
 70
     6
  9
$SURFV
 70
     6
  9
$UCSBASE
  2

  9
$UCSNAME
  2

  9
$UCSORG
 10
0.0
 20
0.0
 30
0.0
  9
$UCSXDIR
 10
1.0
 20
0.0
 30
0.0
  9
$UCSYDIR
 10
0.0
 20
1.0
 30
0.0
  9
$UCSORTHOREF
  2

  9
$UCSORTHOVIEW
 70
     0
  9
$UCSORGTOP
 10
0.0
 20
0.0
 30
0.0
  9
$UCSORGBOTTOM
 10
0.0
 20
0.0
 30
0.0
  9
$UCSORGLEFT
 10
0.0
 20
0.0
 30
0.0
  9
$UCSORGRIGHT
 10
0.0
 20
0.0
 30
0.0
  9
$UCSORGFRONT
 10
0.0
 20
0.0
 30
0.0
  9
$UCSORGBACK
 10
0.0
 20
0.0
 30
0.0
  9
$PUCSBASE
  2

  9
$PUCSNAME
  2

  9
$PUCSORG
 10
0.0
 20
0.0
 30
0.0
  9
$PUCSXDIR
 10
1.0
 20
0.0
 30
0.0
  9
$PUCSYDIR
 10
0.0
 20
1.0
 30
0.0
  9
$PUCSORTHOREF
  2

  9
$PUCSORTHOVIEW
 70
     0
  9
$PUCSORGTOP
 10
0.0
 20
0.0
 30
0.0
  9
$PUCSORGBOTTOM
 10
0.0
 20
0.0
 30
0.0
  9
$PUCSORGLEFT
 10
0.0
 20
0.0
 30
0.0
  9
$PUCSORGRIGHT
 10
0.0
 20
0.0
 30
0.0
  9
$PUCSORGFRONT
 10
0.0
 20
0.0
 30
0.0
  9
$PUCSORGBACK
 10
0.0
 20
0.0
 30
0.0
  9
$USERI1
 70
     0
  9
$USERI2
 70
     0
  9
$USERI3
 70
     0
  9
$USERI4
 70
     0
  9
$USERI5
 70
     0
  9
$USERR1
 40
0.0
  9
$USERR2
 40
0.0
  9
$USERR3
 40
0.0
  9
$USERR4
 40
0.0
  9
$USERR5
 40
0.0
  9
$WORLDVIEW
 70
     1
  9
$SHADEDGE
 70
     3
  9
$SHADEDIF
 70
    70
  9
$TILEMODE
 70
     1
  9
$MAXACTVP
 70
    64
  9
$PINSBASE
 10
0.0
 20
0.0
 30
0.0
  9
$PLIMCHECK
 70
     0
  9
$PEXTMIN
 10
1.0000000000E+20
 20
1.0000000000E+20
 30
1.0000000000E+20
  9
$PEXTMAX
 10
-1.0000000000E+20
 20
-1.0000000000E+20
 30
-1.0000000000E+20
  9
$PLIMMIN
 10
0.0
 20
0.0
  9
$PLIMMAX
 10
420.0
 20
297.0
  9
$UNITMODE
 70
     0
  9
$VISRETAIN
 70
     1
  9
$PLINEGEN
 70
     0
  9
$PSLTSCALE
 70
     1
  9
$TREEDEPTH
 70
  3020
  9
$CMLSTYLE
  2
Standard
  9
$CMLJUST
 70
     0
  9
$CMLSCALE
 40
20.0
  9
$PROXYGRAPHICS
 70
     1
  9
$MEASUREMENT
 70
     1
  9
$CELWEIGHT
370
    -1
  9
$ENDCAPS
280
     0
  9
$JOINSTYLE
280
     0
  9
$LWDISPLAY
290
     1
  9
$INSUNITS
 70
     4
  9
$HYPERLINKBASE
  1

  9
$STYLESHEET
  1

  9
$XEDIT
290
     1
  9
$CEPSNTYPE
380
     0
  9
$PSTYLEMODE
290
     1
  9
$FINGERPRINTGUID
  2
{F1EE5441-24E3-4FD9-8E94-709BDB1D0EA9}
  9
$VERSIONGUID
  2
{FAEB1C32-E019-11D5-929B-00C0DF256EC4}
  9
$EXTNAMES
290
     1
  9
$PSVPSCALE
 40
0.0
  9
$OLESTARTUP
290
     0
  0
ENDSEC
  0
SECTION
  2
CLASSES
  0
CLASS
  1
ACDBDICTIONARYWDFLT
  2
AcDbDictionaryWithDefault
  3
ObjectDBX Classes
 90
        0
280
     0
281
     0
  0
CLASS
  1
VISUALSTYLE
  2
AcDbVisualStyle
  3
ObjectDBX Classes
 90
     4095
280
     0
281
     0
  0
CLASS
  1
MATERIAL
  2
AcDbMaterial
  3
ObjectDBX Classes
 90
     1153
280
     0
281
     0
  0
CLASS
  1
SCALE
  2
AcDbScale
  3
ObjectDBX Classes
 90
     1153
280
     0
281
     0
  0
CLASS
  1
TABLESTYLE
  2
AcDbTableStyle
  3
ObjectDBX Classes
 90
     4095
280
     0
281
     0
  0
CLASS
  1
MLEADERSTYLE
  2
AcDbMLeaderStyle
  3
ACDB_MLEADERSTYLE_CLASS
 90
     4095
280
     0
281
     0
  0
CLASS
  1
SUN
  2
AcDbSun
  3
SCENEOE
 90
     1153
280
     0
281
     0
  0
CLASS
  1
ACDBPLACEHOLDER
  2
AcDbPlaceHolder
  3
ObjectDBX Classes
 90
        0
280
     0
281
     0
  0
CLASS
  1
LAYOUT
  2
AcDbLayout
  3
ObjectDBX Classes
 90
        0
280
     0
281
     0
  0
ENDSEC
  0
SECTION
  2
TABLES
  0
TABLE
  2
VPORT
  5
8
330
0
100
AcDbSymbolTable
 70
     1
  0
VPORT
  5
29
330
8
100
AcDbSymbolTableRecord
100
AcDbViewportTableRecord
  2
*Active
 70
     0
 10
0.0
 20
0.0
 11
1.0
 21
1.0
 12
215.9
 22
139.7
 13
0.0
 23
0.0
 14
10.0
 24
10.0
 15
10.0
 25
10.0
 16
0.0
 26
0.0
 36
1.0
 17
0.0
 27
0.0
 37
0.0
 40
279.4
 41
1.5454545455
 42
50.0
 43
0.0
 44
0.0
 50
0.0
 51
0.0
 71
     0
 72
  2000
 73
     1
 74
     3
 75
     0
 76
     0
 77
     0
 78
     0
281
     0
 65
     1
110
0.0
120
0.0
130
0.0
111
1.0
121
0.0
131
0.0
112
0.0
122
1.0
132
0.0
 79
     0
146
0.0
  0
ENDTAB
  0
TABLE
  2
LTYPE
  5
5
330
0
100
AcDbSymbolTable
 70
     6
  0
LTYPE
  5
14
330
5
100
AcDbSymbolTableRecord
100
AcDbLinetypeTableRecord
  2
ByBlock
 70
     0
  3

 72
    65
 73
     0
 40
0.0
  0
LTYPE
  5
15
330
5
100
AcDbSymbolTableRecord
100
AcDbLinetypeTableRecord
  2
ByLayer
 70
     0
  3

 72
    65
 73
     0
 40
0.0
  0
LTYPE
  5
16
330
5
100
AcDbSymbolTableRecord
100
AcDbLinetypeTableRecord
  2
Continuous
 70
     0
  3
Solid line
 72
    65
 73
     0
 40
0.0
  0
LTYPE
  5
6E
330
5
100
AcDbSymbolTableRecord
100
AcDbLinetypeTableRecord
  2
HIDDEN
 70
     0
  3
Hidden __ __ __ __ __ __ __ __ __ __ __ __ __ __
 72
    65
 73
     2
 40
1.905
 49
1.27
 74
     0
 49
-0.635
 74
     0
  0
LTYPE
  5
6F
330
5
100
AcDbSymbolTableRecord
100
AcDbLinetypeTableRecord
  2
PHANTOM
 70
     0
  3
Phantom ______  __  __  ______  __  __  ______
 72
    65
 73
     6
 40
12.7
 49
6.35
 74
     0
 49
-1.27
 74
     0
 49
1.27
 74
     0
 49
-1.27
 74
     0
 49
1.27
 74
     0
 49
-1.27
 74
     0
  0
LTYPE
  5
70
330
5
100
AcDbSymbolTableRecord
100
AcDbLinetypeTableRecord
  2
CENTER
 70
     0
  3
Center ____ _ ____ _ ____ _ ____ _ ____ _ ____
 72
    65
 73
     4
 40
10.16
 49
6.35
 74
     0
 49
-1.27
 74
     0
 49
1.27
 74
     0
 49
-1.27
 74
     0
  0
LTYPE
  5
71
330
5
100
AcDbSymbolTableRecord
100
AcDbLinetypeTableRecord
  2
CENTERX2
 70
     0
  3
Center (2x) ________  __  ________  __  _____
 72
    65
 73
     4
 40
20.32
 49
12.7
 74
     0
 49
-2.54
 74
     0
 49
2.54
 74
     0
 49
-2.54
 74
     0
  0
LTYPE
  5
72
330
5
100
AcDbSymbolTableRecord
100
AcDbLinetypeTableRecord
  2
DOT2
 70
     0
  3
Dot (.5x) ........................................
 72
    65
 73
     2
 40
0.635
 49
0.0
 74
     0
 49
-0.635
 74
     0
  0
ENDTAB
  0
TABLE
  2
LAYER
  5
2
330
0
100
AcDbSymbolTable
 70
     2
  0
LAYER
  5
10
330
2
100
AcDbSymbolTableRecord
100
AcDbLayerTableRecord
  2
0
 70
     0
 62
     7
  6
Continuous
370
    -3
390
F
  0
LAYER
  5
73
330
2
100
AcDbSymbolTableRecord
100
AcDbLayerTableRecord
  2
FORMAT
 70
     0
 62
     7
  6
Continuous
370
    -3
390
F
  0
ENDTAB
  0
TABLE
  2
STYLE
  5
3
330
0
100
AcDbSymbolTable
 70
     2
  0
STYLE
  5
11
330
3
100
AcDbSymbolTableRecord
100
AcDbTextStyleTableRecord
  2
Standard
 70
     0
 40
0.0
 41
1.0
 50
0.0
 71
     0
 42
3.175
  3
txt
  4

  0
STYLE
  5
B8
330
3
100
AcDbSymbolTableRecord
100
AcDbTextStyleTableRecord
  2
SLDTEXTSTYLE0
 70
     0
 40
0.0
 41
0.7
 50
0.0
 71
     0
 42
3.175
  3
TXT
  4

  0
ENDTAB
  0
TABLE
  2
VIEW
  5
6
330
0
100
AcDbSymbolTable
 70
     0
  0
ENDTAB
  0
TABLE
  2
UCS
  5
7
330
0
100
AcDbSymbolTable
 70
     0
  0
ENDTAB
  0
TABLE
  2
APPID
  5
9
330
0
100
AcDbSymbolTable
 70
     1
  0
APPID
  5
12
330
9
100
AcDbSymbolTableRecord
100
AcDbRegAppTableRecord
  2
ACAD
 70
     0
  0
ENDTAB
  0
TABLE
  2
DIMSTYLE
  5
A
330
0
100
AcDbSymbolTable
 70
     1
100
AcDbDimStyleTable
  0
DIMSTYLE
105
27
330
A
100
AcDbSymbolTableRecord
100
AcDbDimStyleTableRecord
  2
ISO-25
 70
     0
 41
2.5
 42
0.625
 43
3.75
 44
1.25
 73
     0
 74
     0
 77
     1
 78
     8
140
2.5
141
2.5
143
0.0393700787
147
0.625
171
     3
172
     1
178
     0
271
     2
272
     2
274
     3
278
    44
283
     0
284
     8
340
11
  0
ENDTAB
  0
TABLE
  2
BLOCK_RECORD
  5
1
330
0
100
AcDbSymbolTable
 70
     7
  0
BLOCK_RECORD
  5
1F
330
1
100
AcDbSymbolTableRecord
100
AcDbBlockTableRecord
  2
*Model_Space
340
22
  0
BLOCK_RECORD
  5
1B
330
1
100
AcDbSymbolTableRecord
100
AcDbBlockTableRecord
  2
*Paper_Space
340
1E
  0
BLOCK_RECORD
  5
23
330
1
100
AcDbSymbolTableRecord
100
AcDbBlockTableRecord
  2
*Paper_Space0
340
26
  0
BLOCK_RECORD
  5
BB
330
1
100
AcDbSymbolTableRecord
100
AcDbBlockTableRecord
  2
SW_NOTE_0
340
0
102
{BLKREFS
331
C1
102
}
  0
BLOCK_RECORD
  5
C6
330
1
100
AcDbSymbolTableRecord
100
AcDbBlockTableRecord
  2
SW_NOTE_1
340
0
102
{BLKREFS
331
CC
102
}
  0
BLOCK_RECORD
  5
EE
330
1
100
AcDbSymbolTableRecord
100
AcDbBlockTableRecord
  2
SW_CENTERMARKSYMBOL_0
340
0
102
{BLKREFS
331
F9
102
}
  0
BLOCK_RECORD
  5
FA
330
1
100
AcDbSymbolTableRecord
100
AcDbBlockTableRecord
  2
SW_CENTERMARKSYMBOL_1
340
0
102
{BLKREFS
331
105
102
}
  0
BLOCK_RECORD
  5
120
330
1
100
AcDbSymbolTableRecord
100
AcDbBlockTableRecord
  2
SW_CENTERMARKSYMBOL_2
340
0
102
{BLKREFS
331
12B
102
}
  0
BLOCK_RECORD
  5
12C
330
1
100
AcDbSymbolTableRecord
100
AcDbBlockTableRecord
  2
SW_CENTERMARKSYMBOL_3
340
0
102
{BLKREFS
331
137
102
}
  0
ENDTAB
  0
ENDSEC
  0
SECTION
  2
BLOCKS
  0
BLOCK
  5
20
330
1F
100
AcDbEntity
  8
0
100
AcDbBlockBegin
  2
*Model_Space
 70
     0
 10
0.0
 20
0.0
 30
0.0
  3
*Model_Space
  1

  0
ENDBLK
  5
21
330
1F
100
AcDbEntity
  8
0
100
AcDbBlockEnd
  0
BLOCK
  5
1C
330
1B
100
AcDbEntity
 67
     1
  8
0
100
AcDbBlockBegin
  2
*Paper_Space
 70
     0
 10
0.0
 20
0.0
 30
0.0
  3
*Paper_Space
  1

  0
ENDBLK
  5
1D
330
1B
100
AcDbEntity
 67
     1
  8
0
100
AcDbBlockEnd
  0
BLOCK
  5
24
330
23
100
AcDbEntity
  8
0
100
AcDbBlockBegin
  2
*Paper_Space0
 70
     0
 10
0.0
 20
0.0
 30
0.0
  3
*Paper_Space0
  1

  0
ENDBLK
  5
25
330
23
100
AcDbEntity
  8
0
100
AcDbBlockEnd
  0
BLOCK
  5
BC
330
BB
100
AcDbEntity
  8
0
100
AcDbBlockBegin
  2
SW_NOTE_0
 70
     0
 10
0.0
 20
0.0
 30
0.0
  3
SW_NOTE_0
  1

  0
MTEXT
  5
BE
330
BB
100
AcDbEntity
  8
0
  6
Continuous
 62
     0
370
     0
100
AcDbMText
 10
0.0
 20
2.0463950369
 30
0.0
 40
1.5875
 41
0.0
 71
     1
 72
     1
  1
87 34th Street, Unit 11, Brooklyn, NY 11232
  7
SLDTEXTSTYLE0
 73
     1
 44
1.0
  0
MTEXT
  5
BF
330
BB
100
AcDbEntity
  8
0
  6
Continuous
 62
     0
370
     0
100
AcDbMText
 10
0.0
 20
-0.0702716042
 30
0.0
 40
1.5875
 41
0.0
 71
     1
 72
     1
  1
T +1 718-387-6132
  7
SLDTEXTSTYLE0
 73
     1
 44
1.0
  0
MTEXT
  5
C0
330
BB
100
AcDbEntity
  8
0
  6
Continuous
 62
     0
370
     0
100
AcDbMText
 10
0.0
 20
-2.1869382453
 30
0.0
 40
1.5875
 41
0.0
 71
     1
 72
     1
  1
www.rollandhill.com
  7
SLDTEXTSTYLE0
 73
     1
 44
1.0
  0
ENDBLK
  5
BD
330
BB
100
AcDbEntity
  8
0
100
AcDbBlockEnd
  0
BLOCK
  5
C7
330
C6
100
AcDbEntity
  8
0
100
AcDbBlockBegin
  2
SW_NOTE_1
 70
     0
 10
0.0
 20
0.0
 30
0.0
  3
SW_NOTE_1
  1

  0
MTEXT
  5
C9
330
C6
100
AcDbEntity
  8
0
  6
Continuous
 62
     0
370
     0
100
AcDbMText
 10
0.0
 20
2.0463950369
 30
0.0
 40
1.5875
 41
0.0
 71
     1
 72
     1
  1
\LPROPRIETARY AND CONFIDENTIAL
  7
SLDTEXTSTYLE0
 73
     1
 44
1.0
  0
MTEXT
  5
CA
330
C6
100
AcDbEntity
  8
0
  6
Continuous
 62
     0
370
     0
100
AcDbMText
 10
37.3117625713
 20
2.0463950369
 30
0.0
 40
1.5875
 41
0.0
 71
     1
 72
     1
  1
THE INFORMATION CONTAINED IN THIS DRAWING IS THE SOLE PROPERTY OF ROLL & HILL LLC. ANY REPRODUCTION IN
  7
SLDTEXTSTYLE0
 73
     1
 44
1.0
  0
MTEXT
  5
CB
330
C6
100
AcDbEntity
  8
0
  6
Continuous
 62
     0
370
     0
100
AcDbMText
 10
0.0
 20
-0.0702716042
 30
0.0
 40
1.5875
 41
0.0
 71
     1
 72
     1
  1
PART OR AS A WHOLE WITHOUT THE WRITTEN PERMISSION OF ROLL & HILL LLC. IS PROHIBITED.
  7
SLDTEXTSTYLE0
 73
     1
 44
1.0
  0
ENDBLK
  5
C8
330
C6
100
AcDbEntity
  8
0
100
AcDbBlockEnd
  0
BLOCK
  5
EF
330
EE
100
AcDbEntity
  8
0
100
AcDbBlockBegin
  2
SW_CENTERMARKSYMBOL_0
 70
     0
 10
0.0
 20
0.0
 30
0.0
  3
SW_CENTERMARKSYMBOL_0
  1

  0
LINE
  5
F1
330
EE
100
AcDbEntity
  8
0
  6
Continuous
 62
     0
370
     0
100
AcDbLine
 10
0.0
 20
0.0
 30
0.0
 11
0.0
 21
0.2116666667
 31
0.0
  0
LINE
  5
F2
330
EE
100
AcDbEntity
  8
0
  6
Continuous
 62
     0
370
     0
100
AcDbLine
 10
0.0
 20
0.0
 30
0.0
 11
-0.2116666667
 21
0.0
 31
0.0
  0
LINE
  5
F3
330
EE
100
AcDbEntity
  8
0
  6
Continuous
 62
     0
370
     0
100
AcDbLine
 10
0.0
 20
0.0
 30
0.0
 11
0.0
 21
-0.2116666667
 31
0.0
  0
LINE
  5
F4
330
EE
100
AcDbEntity
  8
0
  6
Continuous
 62
     0
370
     0
100
AcDbLine
 10
0.0
 20
0.0
 30
0.0
 11
0.2116666667
 21
0.0
 31
0.0
  0
LINE
  5
F5
330
EE
100
AcDbEntity
  8
0
  6
Continuous
 62
     0
370
     0
100
AcDbLine
 10
0.0
 20
0.4233333333
 30
0.0
 11
0.0
 21
5.5033333333
 31
0.0
  0
LINE
  5
F6
330
EE
100
AcDbEntity
  8
0
  6
Continuous
 62
     0
370
     0
100
AcDbLine
 10
-0.4233333333
 20
0.0
 30
0.0
 11
-5.5033333333
 21
0.0
 31
0.0
  0
LINE
  5
F7
330
EE
100
AcDbEntity
  8
0
  6
Continuous
 62
     0
370
     0
100
AcDbLine
 10
0.0
 20
-0.4233333333
 30
0.0
 11
0.0
 21
-5.5033333333
 31
0.0
  0
LINE
  5
F8
330
EE
100
AcDbEntity
  8
0
  6
Continuous
 62
     0
370
     0
100
AcDbLine
 10
0.4233333333
 20
0.0
 30
0.0
 11
5.5033333333
 21
0.0
 31
0.0
  0
ENDBLK
  5
F0
330
EE
100
AcDbEntity
  8
0
100
AcDbBlockEnd
  0
BLOCK
  5
FB
330
FA
100
AcDbEntity
  8
0
100
AcDbBlockBegin
  2
SW_CENTERMARKSYMBOL_1
 70
     0
 10
0.0
 20
0.0
 30
0.0
  3
SW_CENTERMARKSYMBOL_1
  1

  0
LINE
  5
FD
330
FA
100
AcDbEntity
  8
0
  6
Continuous
 62
     0
370
     0
100
AcDbLine
 10
0.0
 20
0.0
 30
0.0
 11
0.0
 21
0.2116666667
 31
0.0
  0
LINE
  5
FE
330
FA
100
AcDbEntity
  8
0
  6
Continuous
 62
     0
370
     0
100
AcDbLine
 10
0.0
 20
0.0
 30
0.0
 11
-0.2116666667
 21
0.0
 31
0.0
  0
LINE
  5
FF
330
FA
100
AcDbEntity
  8
0
  6
Continuous
 62
     0
370
     0
100
AcDbLine
 10
0.0
 20
0.0
 30
0.0
 11
0.0
 21
-0.2116666667
 31
0.0
  0
LINE
  5
100
330
FA
100
AcDbEntity
  8
0
  6
Continuous
 62
     0
370
     0
100
AcDbLine
 10
0.0
 20
0.0
 30
0.0
 11
0.2116666667
 21
0.0
 31
0.0
  0
LINE
  5
101
330
FA
100
AcDbEntity
  8
0
  6
Continuous
 62
     0
370
     0
100
AcDbLine
 10
0.0
 20
0.4233333333
 30
0.0
 11
0.0
 21
0.873125
 31
0.0
  0
LINE
  5
102
330
FA
100
AcDbEntity
  8
0
  6
Continuous
 62
     0
370
     0
100
AcDbLine
 10
-0.4233333333
 20
0.0
 30
0.0
 11
-0.873125
 21
0.0
 31
0.0
  0
LINE
  5
103
330
FA
100
AcDbEntity
  8
0
  6
Continuous
 62
     0
370
     0
100
AcDbLine
 10
0.0
 20
-0.4233333333
 30
0.0
 11
0.0
 21
-0.873125
 31
0.0
  0
LINE
  5
104
330
FA
100
AcDbEntity
  8
0
  6
Continuous
 62
     0
370
     0
100
AcDbLine
 10
0.4233333333
 20
0.0
 30
0.0
 11
0.873125
 21
0.0
 31
0.0
  0
ENDBLK
  5
FC
330
FA
100
AcDbEntity
  8
0
100
AcDbBlockEnd
  0
BLOCK
  5
121
330
120
100
AcDbEntity
  8
0
100
AcDbBlockBegin
  2
SW_CENTERMARKSYMBOL_2
 70
     0
 10
0.0
 20
0.0
 30
0.0
  3
SW_CENTERMARKSYMBOL_2
  1

  0
LINE
  5
123
330
120
100
AcDbEntity
  8
0
  6
Continuous
 62
     0
370
     0
100
AcDbLine
 10
0.0
 20
0.0
 30
0.0
 11
0.0
 21
0.2116666667
 31
0.0
  0
LINE
  5
124
330
120
100
AcDbEntity
  8
0
  6
Continuous
 62
     0
370
     0
100
AcDbLine
 10
0.0
 20
0.0
 30
0.0
 11
-0.2116666667
 21
0.0
 31
0.0
  0
LINE
  5
125
330
120
100
AcDbEntity
  8
0
  6
Continuous
 62
     0
370
     0
100
AcDbLine
 10
0.0
 20
0.0
 30
0.0
 11
0.0
 21
-0.2116666667
 31
0.0
  0
LINE
  5
126
330
120
100
AcDbEntity
  8
0
  6
Continuous
 62
     0
370
     0
100
AcDbLine
 10
0.0
 20
0.0
 30
0.0
 11
0.2116666667
 21
0.0
 31
0.0
  0
LINE
  5
127
330
120
100
AcDbEntity
  8
0
  6
Continuous
 62
     0
370
     0
100
AcDbLine
 10
0.0
 20
0.4233333333
 30
0.0
 11
0.0
 21
0.7408333333
 31
0.0
  0
LINE
  5
128
330
120
100
AcDbEntity
  8
0
  6
Continuous
 62
     0
370
     0
100
AcDbLine
 10
-0.4233333333
 20
0.0
 30
0.0
 11
-0.7408333333
 21
0.0
 31
0.0
  0
LINE
  5
129
330
120
100
AcDbEntity
  8
0
  6
Continuous
 62
     0
370
     0
100
AcDbLine
 10
0.0
 20
-0.4233333333
 30
0.0
 11
0.0
 21
-0.7408333333
 31
0.0
  0
LINE
  5
12A
330
120
100
AcDbEntity
  8
0
  6
Continuous
 62
     0
370
     0
100
AcDbLine
 10
0.4233333333
 20
0.0
 30
0.0
 11
0.7408333333
 21
0.0
 31
0.0
  0
ENDBLK
  5
122
330
120
100
AcDbEntity
  8
0
100
AcDbBlockEnd
  0
BLOCK
  5
12D
330
12C
100
AcDbEntity
  8
0
100
AcDbBlockBegin
  2
SW_CENTERMARKSYMBOL_3
 70
     0
 10
0.0
 20
0.0
 30
0.0
  3
SW_CENTERMARKSYMBOL_3
  1

  0
LINE
  5
12F
330
12C
100
AcDbEntity
  8
0
  6
Continuous
 62
     0
370
     0
100
AcDbLine
 10
0.0
 20
0.0
 30
0.0
 11
0.0
 21
0.2116666667
 31
0.0
  0
LINE
  5
130
330
12C
100
AcDbEntity
  8
0
  6
Continuous
 62
     0
370
     0
100
AcDbLine
 10
0.0
 20
0.0
 30
0.0
 11
-0.2116666667
 21
0.0
 31
0.0
  0
LINE
  5
131
330
12C
100
AcDbEntity
  8
0
  6
Continuous
 62
     0
370
     0
100
AcDbLine
 10
0.0
 20
0.0
 30
0.0
 11
0.0
 21
-0.2116666667
 31
0.0
  0
LINE
  5
132
330
12C
100
AcDbEntity
  8
0
  6
Continuous
 62
     0
370
     0
100
AcDbLine
 10
0.0
 20
0.0
 30
0.0
 11
0.2116666667
 21
0.0
 31
0.0
  0
LINE
  5
133
330
12C
100
AcDbEntity
  8
0
  6
Continuous
 62
     0
370
     0
100
AcDbLine
 10
0.0
 20
0.4233333333
 30
0.0
 11
0.0
 21
0.763300998
 31
0.0
  0
LINE
  5
134
330
12C
100
AcDbEntity
  8
0
  6
Continuous
 62
     0
370
     0
100
AcDbLine
 10
-0.4233333333
 20
0.0
 30
0.0
 11
-0.763300998
 21
0.0
 31
0.0
  0
LINE
  5
135
330
12C
100
AcDbEntity
  8
0
  6
Continuous
 62
     0
370
     0
100
AcDbLine
 10
0.0
 20
-0.4233333333
 30
0.0
 11
0.0
 21
-0.763300998
 31
0.0
  0
LINE
  5
136
330
12C
100
AcDbEntity
  8
0
  6
Continuous
 62
     0
370
     0
100
AcDbLine
 10
0.4233333333
 20
0.0
 30
0.0
 11
0.763300998
 21
0.0
 31
0.0
  0
ENDBLK
  5
12E
330
12C
100
AcDbEntity
  8
0
100
AcDbBlockEnd
  0
ENDSEC
  0
SECTION
  2
ENTITIES
  0
HATCH
  5
74
330
1F
100
AcDbEntity
  8
0
  6
Continuous
 62
     7
100
AcDbHatch
 10
0.0
 20
0.0
 30
0.0
210
0.0
220
0.0
230
1.0
  2
SOLID
 70
     1
 71
     0
 91
        2
 92
        0
 93
        6
 72
     4
 94
        3
 73
     1
 74
     0
 95
       20
 96
       16
 40
0.0
 40
0.0
 40
0.0
 40
0.0
 40
1.0
 40
1.0
 40
1.0
 40
2.0
 40
2.0
 40
2.0
 40
3.0
 40
3.0
 40
3.0
 40
4.0
 40
4.0
 40
4.0
 40
5.0
 40
5.0
 40
5.0
 40
5.0
 10
261.0219043336847
 20
23.63056361828031
 42
1.0
 10
261.2341319795987
 20
23.68742184709604
 42
1.0
 10
261.3945785321864
 20
23.72473719781129
 42
1.0
 10
261.5515161764629
 20
23.77337299628437
 42
1.0
 10
262.5617362220245
 20
24.08644572151765
 42
1.0
 10
262.9966382899503
 20
24.76217905347502
 42
1.0
 10
262.9131259646454
 20
25.88395655371281
 42
1.0
 10
262.8488620904764
 20
26.74717259793779
 42
1.0
 10
262.3071445332423
 20
27.30037799580671
 42
1.0
 10
261.2989762515715
 20
27.40941936834727
 42
1.0
 10
260.5093946232761
 20
27.49481913962259
 42
1.0
 10
259.7094699986221
 20
27.48819126576296
 42
1.0
 10
258.913837050576
 20
27.51251762112626
 42
1.0
 10
258.5159962651877
 20
27.52468175973202
 42
1.0
 10
258.1174764912431
 20
27.51463645747964
 42
1.0
 10
257.7192638284546
 20
27.51463645747964
 42
1.0
 72
     4
 94
        3
 73
     1
 74
     0
 95
       14
 96
       10
 40
17.0
 40
17.0
 40
17.0
 40
17.0
 40
18.0
 40
18.0
 40
18.0
 40
19.0
 40
19.0
 40
19.0
 40
20.0
 40
20.0
 40
20.0
 40
20.0
 10
257.7192638284546
 20
27.51463645747964
 42
1.0
 10
258.2057453879524
 20
27.36893835120056
 42
1.0
 10
258.4151924094879
 20
27.04153921726714
 42
1.0
 10
258.4151320634913
 20
26.55729487989966
 42
1.0
 10
258.4149081683119
 20
24.76100595804667
 42
1.0
 10
258.4191609275175
 20
22.96470127704905
 42
1.0
 10
258.4124688639662
 20
21.16843695483816
 42
1.0
 10
258.4104423723632
 20
20.62446660851326
 42
1.0
 10
258.2139995287706
 20
20.39587059142628
 42
1.0
 10
257.7053577757453
 20
20.25910042553502
 42
1.0
 72
     1
 10
257.7053577757453
 20
20.25910042553502
 11
260.1134120717832
 21
20.25910042553502
 72
     4
 94
        3
 73
     1
 74
     0
 95
       14
 96
       10
 40
13.0
 40
13.0
 40
13.0
 40
13.0
 40
14.0
 40
14.0
 40
14.0
 40
15.0
 40
15.0
 40
15.0
 40
16.0
 40
16.0
 40
16.0
 40
16.0
 10
260.1134120717832
 20
20.25910042553502
 42
1.0
 10
259.6377614656041
 20
20.40079128856704
 42
1.0
 10
259.4435911100346
 20
20.64162793377141
 42
1.0
 10
259.4408326829897
 20
21.14221143023692
 42
1.0
 10
259.4366701545022
 20
21.89763799307775
 42
1.0
 10
259.4392191002215
 20
22.65310606781492
 42
1.0
 10
259.4405559370167
 20
23.40855338660287
 42
1.0
 10
259.4406539512153
 20
23.46398560492077
 42
1.0
 10
259.4539911852495
 20
23.51939476107442
 42
1.0
 10
259.4607286043899
 20
23.57138302951071
 42
1.0
 72
     4
 94
        3
 73
     1
 74
     0
 95
       20
 96
       16
 40
8.0
 40
8.0
 40
8.0
 40
8.0
 40
9.0
 40
9.0
 40
9.0
 40
10.0
 40
10.0
 40
10.0
 40
11.0
 40
11.0
 40
11.0
 40
12.0
 40
12.0
 40
12.0
 40
13.0
 40
13.0
 40
13.0
 40
13.0
 10
259.4607286043899
 20
23.57138302951071
 42
1.0
 10
260.3725694925604
 20
23.65083910446931
 42
1.0
 10
260.6054131759577
 20
23.52556773374194
 42
1.0
 10
261.0037355762117
 20
22.71920223094413
 42
1.0
 10
261.378026816807
 20
21.9614848264415
 42
1.0
 10
261.7451764738302
 20
21.200166649339
 42
1.0
 10
262.1067370153144
 20
20.43629933433309
 42
1.0
 10
262.1765046750147
 20
20.28890135435546
 42
1.0
 10
262.2549406335689
 20
20.22203337745712
 42
1.0
 10
262.427398730108
 20
20.22724465786873
 42
1.0
 10
262.8718696744063
 20
20.24067529366942
 42
1.0
 10
263.3170171088603
 20
20.2311736819415
 42
1.0
 10
263.7618904879274
 20
20.2323936704376
 42
1.0
 10
263.8264337986554
 20
20.23257048036439
 42
1.0
 10
263.8909540472192
 20
20.24131411562171
 42
1.0
 10
263.9554858268652
 20
20.24609336482204
 42
1.0
 72
     4
 94
        3
 73
     1
 74
     0
 95
       14
 96
       10
 40
5.0
 40
5.0
 40
5.0
 40
5.0
 40
6.0
 40
6.0
 40
6.0
 40
7.0
 40
7.0
 40
7.0
 40
8.0
 40
8.0
 40
8.0
 40
8.0
 10
263.9554858268652
 20
20.24609336482204
 42
1.0
 10
263.5606000734738
 20
20.32757122285868
 42
1.0
 10
263.3178377375433
 20
20.57267359973515
 42
1.0
 10
263.1292772534607
 20
20.88520667032095
 42
1.0
 10
262.8739775562312
 20
21.30835818112304
 42
1.0
 10
262.6276890153665
 20
21.7369354504649
 42
1.0
 10
262.3739921385617
 20
22.16106556577572
 42
1.0
 10
262.033208300972
 20
22.73079019980925
 42
1.0
 10
261.7521543160346
 20
23.35408286053947
 42
1.0
 10
261.0219043336847
 20
23.63056361828031
 42
1.0
 97
        0
 92
        0
 93
        2
 72
     1
 10
259.4558811296203
 20
23.74052094311722
 11
259.4558811296203
 21
27.35855230546976
 72
     4
 94
        3
 73
     1
 74
     0
 95
       20
 96
       16
 40
1.0
 40
1.0
 40
1.0
 40
1.0
 40
2.0
 40
2.0
 40
2.0
 40
3.0
 40
3.0
 40
3.0
 40
4.0
 40
4.0
 40
4.0
 40
5.0
 40
5.0
 40
5.0
 40
6.0
 40
6.0
 40
6.0
 40
6.0
 10
259.4558811296203
 20
27.35855230546976
 42
1.0
 10
259.8103733099057
 20
27.35855230546976
 42
1.0
 10
260.1467440101549
 20
27.38072599997261
 42
1.0
 10
260.4792308497364
 20
27.35420547185249
 42
1.0
 10
261.3230227860075
 20
27.28690123567825
 42
1.0
 10
261.7108519014664
 20
26.95476897687368
 42
1.0
 10
261.8164781518313
 20
26.10478869315943
 42
1.0
 10
261.8719876284001
 20
25.65810454981779
 42
1.0
 10
261.8389787525148
 20
25.18024881635489
 42
1.0
 10
261.7413862071132
 20
24.73962656292206
 42
1.0
 10
261.608259863196
 20
24.13857044109259
 42
1.0
 10
261.1506181168165
 20
23.81517009427841
 42
1.0
 10
260.5489927438957
 20
23.74778168120397
 42
1.0
 10
260.1942113256325
 20
23.70804326575078
 42
1.0
 10
259.8313410453958
 20
23.74052094311722
 42
1.0
 10
259.4558811296203
 20
23.74052094311722
 42
1.0
 97
        0
 75
     0
 76
     1
 98
        1
 10
0.0
 20
0.0
  0
HATCH
  5
75
330
1F
100
AcDbEntity
  8
0
  6
Continuous
 62
     7
100
AcDbHatch
 10
0.0
 20
0.0
 30
0.0
210
0.0
220
0.0
230
1.0
  2
SOLID
 70
     1
 71
     0
 91
        2
 92
        0
 93
        2
 72
     4
 94
        3
 73
     1
 74
     0
 95
       14
 96
       10
 40
0.0
 40
0.0
 40
0.0
 40
0.0
 40
1.0
 40
1.0
 40
1.0
 40
2.0
 40
2.0
 40
2.0
 40
3.0
 40
3.0
 40
3.0
 40
3.0
 10
267.2336118279071
 20
20.23490821509466
 42
1.0
 10
268.1650050112285
 20
19.98240211471103
 42
1.0
 10
269.1482911393735
 20
20.33660467264827
 42
1.0
 10
269.7215189161771
 20
21.13111084177937
 42
1.0
 10
270.3723808569537
 20
22.03321892002499
 42
1.0
 10
270.372934348899
 20
23.32205720159637
 42
1.0
 10
269.7103360726668
 20
24.21398909980579
 42
1.0
 10
269.2464106552308
 20
24.83848445240961
 42
1.0
 10
268.6216197225536
 20
25.16033694362372
 42
1.0
 10
267.7758432870376
 20
25.16748813643033
 42
1.0
 72
     4
 94
        3
 73
     1
 74
     0
 95
       14
 96
       10
 40
3.0
 40
3.0
 40
3.0
 40
3.0
 40
4.0
 40
4.0
 40
4.0
 40
5.0
 40
5.0
 40
5.0
 40
6.0
 40
6.0
 40
6.0
 40
6.0
 10
267.7758432870376
 20
25.16748813643033
 42
1.0
 10
266.9062728477855
 20
25.1505801106106
 42
1.0
 10
266.225828300013
 20
24.723612195973
 42
1.0
 10
265.7739382574312
 20
23.92202056120339
 42
1.0
 10
265.4879189885011
 20
23.41465794151554
 42
1.0
 10
265.4259332718035
 20
22.86561853145873
 42
1.0
 10
265.4837047623288
 20
22.29272284982232
 42
1.0
 10
265.5792320909092
 20
21.34541139190241
 42
1.0
 10
266.3034040398354
 20
20.48709452013179
 42
1.0
 10
267.2336118279071
 20
20.23490821509466
 42
1.0
 97
        0
 92
        0
 93
        2
 72
     4
 94
        3
 73
     1
 74
     0
 95
       17
 96
       13
 40
0.0
 40
0.0
 40
0.0
 40
0.0
 40
1.0
 40
1.0
 40
1.0
 40
2.0
 40
2.0
 40
2.0
 40
3.0
 40
3.0
 40
3.0
 40
4.0
 40
4.0
 40
4.0
 40
4.0
 10
266.4699528411193
 20
22.82140374989816
 42
1.0
 10
266.4968487059656
 20
23.23360918874381
 42
1.0
 10
266.5993976948625
 20
23.64490674705059
 42
1.0
 10
266.7072125446274
 20
24.04607386528146
 42
1.0
 10
266.7597204805012
 20
24.2414496033099
 42
1.0
 10
266.882078331128
 20
24.42789874624283
 42
1.0
 10
267.0072628343699
 20
24.59213287496141
 42
1.0
 10
267.4640605055332
 20
25.19142205062979
 42
1.0
 10
268.2143234497673
 20
25.18405330473933
 42
1.0
 10
268.6683621173312
 20
24.58056604641373
 42
1.0
 10
269.0963628325642
 20
24.01168817818241
 42
1.0
 10
269.195680043492
 20
23.34551372899321
 42
1.0
 10
269.218762963826
 20
22.68351122534059
 42
1.0
 72
     4
 94
        3
 73
     1
 74
     0
 95
       17
 96
       13
 40
4.0
 40
4.0
 40
4.0
 40
4.0
 40
5.0
 40
5.0
 40
5.0
 40
6.0
 40
6.0
 40
6.0
 40
7.0
 40
7.0
 40
7.0
 40
8.0
 40
8.0
 40
8.0
 40
8.0
 10
269.218762963826
 20
22.68351122534059
 42
1.0
 10
269.202432645224
 20
22.05765558940843
 42
1.0
 10
269.1208448575376
 20
21.47214721006825
 42
1.0
 10
268.810867074766
 20
20.94311038392242
 42
1.0
 10
268.6078393105943
 20
20.5966013640246
 42
1.0
 10
268.3388937306983
 20
20.33416469565678
 42
1.0
 10
267.9076604687568
 20
20.30531315927085
 42
1.0
 10
267.4153070900211
 20
20.27237193240103
 42
1.0
 10
267.1048165584612
 20
20.54785025472892
 42
1.0
 10
266.8746830637486
 20
20.93428603108956
 42
1.0
 10
266.5287029361534
 20
21.51524885782822
 42
1.0
 10
266.4269741915698
 20
22.16270989809668
 42
1.0
 10
266.4699528411193
 20
22.82140374989816
 42
1.0
 97
        0
 75
     0
 76
     1
 98
        1
 10
0.0
 20
0.0
  0
HATCH
  5
76
330
1F
100
AcDbEntity
  8
0
  6
Continuous
 62
     7
100
AcDbHatch
 10
0.0
 20
0.0
 30
0.0
210
0.0
220
0.0
230
1.0
  2
SOLID
 70
     1
 71
     0
 91
        1
 92
        0
 93
        4
 72
     1
 10
273.9540333846496
 20
27.87257450949275
 11
272.4594267850394
 21
27.32510813123116
 72
     4
 94
        3
 73
     1
 74
     0
 95
       14
 96
       10
 40
6.0
 40
6.0
 40
6.0
 40
6.0
 40
7.0
 40
7.0
 40
7.0
 40
8.0
 40
8.0
 40
8.0
 40
9.0
 40
9.0
 40
9.0
 40
9.0
 10
272.4594267850394
 20
27.32510813123116
 42
1.0
 10
272.9826104338649
 20
27.28380667758701
 42
1.0
 10
273.0476395875227
 20
27.23250104921648
 42
1.0
 10
273.0527409382852
 20
26.65700799131587
 42
1.0
 10
273.0685846452182
 20
24.86961337752774
 42
1.0
 10
273.0702866329497
 20
23.08209538116094
 42
1.0
 10
273.0783845276048
 20
21.29462927466367
 42
1.0
 10
273.0805785081768
 20
20.81042375860576
 42
1.0
 10
273.0059923935969
 20
20.37668517687364
 42
1.0
 10
272.426404840594
 20
20.2590796695872
 42
1.0
 72
     1
 10
272.426404840594
 20
20.2590796695872
 11
274.6224502449564
 21
20.2590796695872
 72
     4
 94
        3
 73
     1
 74
     0
 95
       17
 96
       13
 40
1.0
 40
1.0
 40
1.0
 40
1.0
 40
2.0
 40
2.0
 40
2.0
 40
3.0
 40
3.0
 40
3.0
 40
4.0
 40
4.0
 40
4.0
 40
5.0
 40
5.0
 40
5.0
 40
5.0
 10
274.6224502449564
 20
20.2590796695872
 42
1.0
 10
274.1836818051716
 20
20.38260600321025
 42
1.0
 10
274.0006220316647
 20
20.58964274029083
 42
1.0
 10
273.9590578615309
 20
21.04279505200226
 42
1.0
 10
273.9506540088286
 20
21.13443409966764
 42
1.0
 10
273.954217881965
 20
21.22727776105204
 42
1.0
 10
273.9542086570993
 20
21.31956562427539
 42
1.0
 10
273.9539872603212
 20
23.41776441505853
 42
1.0
 10
273.9540349221275
 20
25.51596282147274
 42
1.0
 10
273.9540333846496
 20
27.61416161225588
 42
1.0
 10
273.9540333846496
 20
27.71082379150879
 42
1.0
 10
273.9540333846496
 20
27.8074859707617
 42
1.0
 10
273.9540333846496
 20
27.87257450949275
 42
1.0
 97
        0
 75
     0
 76
     1
 98
        1
 10
0.0
 20
0.0
  0
HATCH
  5
77
330
1F
100
AcDbEntity
  8
0
  6
Continuous
 62
     7
100
AcDbHatch
 10
0.0
 20
0.0
 30
0.0
210
0.0
220
0.0
230
1.0
  2
SOLID
 70
     1
 71
     0
 91
        1
 92
        0
 93
        4
 72
     1
 10
276.9460186560295
 20
20.2549177176549
 11
279.1055120673172
 21
20.2549177176549
 72
     4
 94
        3
 73
     1
 74
     0
 95
       14
 96
       10
 40
6.0
 40
6.0
 40
6.0
 40
6.0
 40
7.0
 40
7.0
 40
7.0
 40
8.0
 40
8.0
 40
8.0
 40
9.0
 40
9.0
 40
9.0
 40
9.0
 10
279.1055120673172
 20
20.2549177176549
 42
1.0
 10
278.6550987719953
 20
20.40793364087759
 42
1.0
 10
278.4823339486704
 20
20.63637283524633
 42
1.0
 10
278.4822124879378
 20
21.11904779232805
 42
1.0
 10
278.4816605334703
 20
23.30086999117493
 42
1.0
 10
278.4819664915176
 20
25.48269219002111
 42
1.0
 10
278.4819649540404
 20
27.66451419668386
 42
1.0
 10
278.4819649540404
 20
27.75219577693941
 42
1.0
 10
278.4819664915176
 20
27.83987735719566
 42
1.0
 10
278.4819664915176
 20
27.88441039662488
 42
1.0
 72
     1
 10
278.4819664915176
 20
27.88441039662488
 11
276.9846800684063
 21
27.3296354262854
 72
     4
 94
        3
 73
     1
 74
     0
 95
       17
 96
       13
 40
1.0
 40
1.0
 40
1.0
 40
1.0
 40
2.0
 40
2.0
 40
2.0
 40
3.0
 40
3.0
 40
3.0
 40
4.0
 40
4.0
 40
4.0
 40
5.0
 40
5.0
 40
5.0
 40
5.0
 10
276.9846800684063
 20
27.3296354262854
 42
1.0
 10
277.5366914227135
 20
27.25167954511983
 42
1.0
 10
277.5738092075535
 20
27.20775573119973
 42
1.0
 10
277.5772915943764
 20
26.57154691311976
 42
1.0
 10
277.5773838430334
 20
26.55476419172763
 42
1.0
 10
277.577359243392
 20
26.53798031722657
 42
1.0
 10
277.577359243392
 20
26.52119721146337
 42
1.0
 10
277.5773700057348
 20
24.72538990447762
 42
1.0
 10
277.5776652014392
 20
22.92958298186009
 42
1.0
 10
277.5771993457187
 20
21.13377529050539
 42
1.0
 10
277.5770686601204
 20
20.6342380475635
 42
1.0
 10
277.4179566381115
 20
20.4199152040148
 42
1.0
 10
276.9460186560295
 20
20.2549177176549
 42
1.0
 97
        0
 75
     0
 76
     1
 98
        1
 10
0.0
 20
0.0
  0
HATCH
  5
78
330
1F
100
AcDbEntity
  8
0
  6
Continuous
 62
     7
100
AcDbHatch
 10
0.0
 20
0.0
 30
0.0
210
0.0
220
0.0
230
1.0
  2
SOLID
 70
     1
 71
     0
 91
        3
 92
        0
 93
        9
 72
     4
 94
        3
 73
     1
 74
     0
 95
       14
 96
       10
 40
0.0
 40
0.0
 40
0.0
 40
0.0
 40
1.0
 40
1.0
 40
1.0
 40
2.0
 40
2.0
 40
2.0
 40
3.0
 40
3.0
 40
3.0
 40
3.0
 10
287.0539854214827
 20
21.61211917311517
 42
1.0
 10
287.2972697310664
 20
21.3082559388604
 42
1.0
 10
287.5152010346028
 20
21.01001756649998
 42
1.0
 10
287.7601488949774
 20
20.73592220529573
 42
1.0
 10
288.1784811821614
 20
20.26780485511384
 42
1.0
 10
288.7048673968812
 20
20.09831485913089
 42
1.0
 10
289.3271645408483
 20
20.20870037148624
 42
1.0
 10
289.9739444785289
 20
20.32342848939635
 42
1.0
 10
290.7160910783766
 20
21.04182259740494
 42
1.0
 10
290.8103661314317
 20
21.70506046432864
 42
1.0
 72
     4
 94
        3
 73
     1
 74
     0
 95
       14
 96
       10
 40
24.0
 40
24.0
 40
24.0
 40
24.0
 40
25.0
 40
25.0
 40
25.0
 40
26.0
 40
26.0
 40
26.0
 40
27.0
 40
27.0
 40
27.0
 40
27.0
 10
290.8103661314317
 20
21.70506046432864
 42
1.0
 10
290.6825002672103
 20
21.49939669476813
 42
1.0
 10
290.5884281612034
 20
21.32571784099438
 42
1.0
 10
290.4735170834558
 20
21.16713932372221
 42
1.0
 10
289.9836367374808
 20
20.49110656799653
 42
1.0
 10
289.3841588364346
 20
20.43289382139212
 42
1.0
 10
288.8166481701822
 20
21.05011190802389
 42
1.0
 10
288.4270667146001
 20
21.47381844824843
 42
1.0
 10
288.0996055050067
 20
21.95463920731319
 42
1.0
 10
287.7314564875268
 20
22.4264857094768
 42
1.0
 72
     4
 94
        3
 73
     1
 74
     0
 95
       11
 96
        7
 40
22.0
 40
22.0
 40
22.0
 40
22.0
 40
23.0
 40
23.0
 40
23.0
 40
24.0
 40
24.0
 40
24.0
 40
24.0
 10
287.7314564875268
 20
22.4264857094768
 42
1.0
 10
288.1508588591387
 20
23.00030157147278
 42
1.0
 10
288.5466855488353
 20
23.55949371503118
 42
1.0
 10
288.9612633156569
 20
24.10441845059237
 42
1.0
 10
289.4290162836425
 20
24.71923384406366
 42
1.0
 10
289.9536528488242
 20
25.26443186627322
 42
1.0
 10
290.7742138825406
 20
25.39867403457779
 42
1.0
 72
     1
 10
290.7742138825406
 20
25.39867403457779
 11
287.7715077796773
 21
25.39867403457779
 72
     4
 94
        3
 73
     1
 74
     0
 95
       17
 96
       13
 40
16.0
 40
16.0
 40
16.0
 40
16.0
 40
17.0
 40
17.0
 40
17.0
 40
18.0
 40
18.0
 40
18.0
 40
19.0
 40
19.0
 40
19.0
 40
20.0
 40
20.0
 40
20.0
 40
20.0
 10
287.7715077796773
 20
25.39867403457779
 42
1.0
 10
287.9710693005408
 20
25.34310267453518
 42
1.0
 10
288.1718392788191
 20
25.32949945687163
 42
1.0
 10
288.3670435880915
 20
25.28904726743022
 42
1.0
 10
288.7601181928394
 20
25.20759054971102
 42
1.0
 10
288.9174636530569
 20
24.97387165717582
 42
1.0
 10
288.8543009972361
 20
24.57697987985169
 42
1.0
 10
288.8373887433532
 20
24.47070865762303
 42
1.0
 10
288.8131334963293
 20
24.35736772890119
 42
1.0
 10
288.7595985254019
 20
24.26650702928458
 42
1.0
 10
288.4211781752921
 20
23.692108847638
 42
1.0
 10
288.0735790837579
 20
23.12311989664797
 42
1.0
 10
287.7233847299918
 20
22.54303496963325
 42
1.0
 72
     1
 10
287.7233847299918
 20
22.54303496963325
 11
285.8065406500284
 21
24.86455968857224
 72
     4
 94
        3
 73
     1
 74
     0
 95
       20
 96
       16
 40
10.0
 40
10.0
 40
10.0
 40
10.0
 40
11.0
 40
11.0
 40
11.0
 40
12.0
 40
12.0
 40
12.0
 40
13.0
 40
13.0
 40
13.0
 40
14.0
 40
14.0
 40
14.0
 40
15.0
 40
15.0
 40
15.0
 40
15.0
 10
285.8065406500283
 20
24.86455968857225
 42
1.0
 10
285.9002991106001
 20
24.9215528310502
 42
1.0
 10
286.0025259979348
 20
24.975621306713
 42
1.0
 10
286.0959738880259
 20
25.04203380586477
 42
1.0
 10
286.361711520857
 20
25.23088333574105
 42
1.0
 10
286.6551698752792
 20
25.39378370261948
 42
1.0
 10
286.8815726805328
 20
25.62247811827483
 42
1.0
 10
287.5614237619422
 20
26.30921056516709
 42
1.0
 10
287.361321048954
 20
27.32558686332681
 42
1.0
 10
286.4793408590448
 20
27.71426216803416
 42
1.0
 10
285.840402057257
 20
27.99583274545401
 42
1.0
 10
285.1912113546599
 20
27.99239110178883
 42
1.0
 10
284.558084218296
 20
27.68711127408746
 42
1.0
 10
283.9109291360762
 20
27.37506654483262
 42
1.0
 10
283.6309452355653
 20
26.8393466878164
 42
1.0
 10
283.7149530130354
 20
26.1296866058298
 42
1.0
 72
     4
 94
        3
 73
     1
 74
     0
 95
       11
 96
        7
 40
8.0
 40
8.0
 40
8.0
 40
8.0
 40
9.0
 40
9.0
 40
9.0
 40
10.0
 40
10.0
 40
10.0
 40
10.0
 10
283.7149530130354
 20
26.1296866058298
 42
1.0
 10
283.7707819005811
 20
25.65802498535045
 42
1.0
 10
284.0198409761273
 20
25.28515591156022
 42
1.0
 10
284.3077767109179
 20
24.93075271279267
 42
1.0
 10
284.4323277733789
 20
24.77744812814591
 42
1.0
 10
284.5641388051866
 20
24.6300390014551
 42
1.0
 10
284.7027239634148
 20
24.46818604120849
 42
1.0
 72
     4
 94
        3
 73
     1
 74
     0
 95
       20
 96
       16
 40
3.0
 40
3.0
 40
3.0
 40
3.0
 40
4.0
 40
4.0
 40
4.0
 40
5.0
 40
5.0
 40
5.0
 40
6.0
 40
6.0
 40
6.0
 40
7.0
 40
7.0
 40
7.0
 40
8.0
 40
8.0
 40
8.0
 40
8.0
 10
284.7027239634148
 20
24.46818604120849
 42
1.0
 10
284.5513685160267
 20
24.38851087568819
 42
1.0
 10
284.4255536469583
 20
24.32317807019961
 42
1.0
 10
284.3005597909425
 20
24.25632085564481
 42
1.0
 10
283.8607304915963
 20
24.02105948868024
 42
1.0
 10
283.460866385652
 20
23.73663343094009
 42
1.0
 10
283.1417229300147
 20
23.34576433784628
 42
1.0
 10
282.3522343191156
 20
22.37884389028816
 42
1.0
 10
282.6109241545095
 20
20.5355588898502
 42
1.0
 10
284.198169930981
 20
20.23446388406056
 42
1.0
 10
285.1515567317372
 20
20.05360962220845
 42
1.0
 10
285.9488126796034
 20
20.36759637788916
 42
1.0
 10
286.5896302790503
 20
21.09003174583673
 42
1.0
 10
286.7443651022574
 20
21.26447318851251
 42
1.0
 10
286.8995550188436
 20
21.43851181205056
 42
1.0
 10
287.0539854214827
 20
21.61211917311517
 42
1.0
 97
        0
 92
        0
 93
        2
 72
     4
 94
        3
 73
     1
 74
     0
 95
       14
 96
       10
 40
0.0
 40
0.0
 40
0.0
 40
0.0
 40
1.0
 40
1.0
 40
1.0
 40
2.0
 40
2.0
 40
2.0
 40
3.0
 40
3.0
 40
3.0
 40
3.0
 10
284.688382372121
 20
27.15085253116304
 42
1.0
 10
284.8337724063213
 20
27.5710895609412
 42
1.0
 10
285.1818973152029
 20
27.79269159230804
 42
1.0
 10
285.6158934244382
 20
27.76810636414938
 42
1.0
 10
285.9916529561654
 20
27.74682017860581
 42
1.0
 10
286.2400293916459
 20
27.5110460628537
 42
1.0
 10
286.3549927436335
 20
27.06650131962916
 42
1.0
 10
286.5713650448558
 20
26.2298440482801
 42
1.0
 10
286.3259713159692
 20
25.4295804098103
 42
1.0
 10
285.6520579731507
 20
24.9254318870995
 42
1.0
 72
     4
 94
        3
 73
     1
 74
     0
 95
       11
 96
        7
 40
3.0
 40
3.0
 40
3.0
 40
3.0
 40
4.0
 40
4.0
 40
4.0
 40
5.0
 40
5.0
 40
5.0
 40
5.0
 10
285.6520579731507
 20
24.9254318870995
 42
1.0
 10
285.3510444536752
 20
25.31853032275095
 42
1.0
 10
285.0380140090768
 20
25.68714980838475
 42
1.0
 10
284.7721626029031
 20
26.08712768767229
 42
1.0
 10
284.5571094574822
 20
26.41068293535724
 42
1.0
 10
284.5630810205802
 20
26.788679112661
 42
1.0
 10
284.688382372121
 20
27.15085253116304
 42
1.0
 97
        0
 92
        0
 93
        2
 72
     1
 10
284.845288113738
 20
24.3712657578988
 11
287.0009947176327
 21
21.77781006188367
 72
     4
 94
        3
 73
     1
 74
     0
 95
       14
 96
       10
 40
1.0
 40
1.0
 40
1.0
 40
1.0
 40
2.0
 40
2.0
 40
2.0
 40
3.0
 40
3.0
 40
3.0
 40
4.0
 40
4.0
 40
4.0
 40
4.0
 10
287.0009947176327
 20
21.77781006188367
 42
1.0
 10
286.5509442670314
 20
21.22618922689351
 42
1.0
 10
286.0339581905155
 20
20.90925282038733
 42
1.0
 10
285.3603677179978
 20
20.87638462370451
 42
1.0
 10
284.4974276510072
 20
20.83427541775252
 42
1.0
 10
283.8665083325146
 20
21.39392726712143
 42
1.0
 10
283.7780264951535
 20
22.28619625730053
 42
1.0
 10
283.6988925217564
 20
23.08417174469389
 42
1.0
 10
284.1054815548355
 20
23.90423117633508
 42
1.0
 10
284.845288113738
 20
24.3712657578988
 42
1.0
 97
        0
 75
     0
 76
     1
 98
        1
 10
0.0
 20
0.0
  0
HATCH
  5
79
330
1F
100
AcDbEntity
  8
0
  6
Continuous
 62
     7
100
AcDbHatch
 10
0.0
 20
0.0
 30
0.0
210
0.0
220
0.0
230
1.0
  2
SOLID
 70
     1
 71
     0
 91
        1
 92
        0
 93
        2
 72
     4
 94
        3
 73
     1
 74
     0
 95
       11
 96
        7
 40
0.0
 40
0.0
 40
0.0
 40
0.0
 40
1.0
 40
1.0
 40
1.0
 40
2.0
 40
2.0
 40
2.0
 40
2.0
 10
303.0570519104932
 20
26.35430478392947
 42
1.0
 10
303.0628482011429
 20
25.96449808787493
 42
1.0
 10
303.3259905717408
 20
25.69768229885988
 42
1.0
 10
303.6993639381942
 20
25.70301926806731
 42
1.0
 10
304.0680572227529
 20
25.70828897263022
 42
1.0
 10
304.3293945946187
 20
25.98752450590587
 42
1.0
 10
304.327448147944
 20
26.37412133304796
 42
1.0
 72
     4
 94
        3
 73
     1
 74
     0
 95
       11
 96
        7
 40
2.0
 40
2.0
 40
2.0
 40
2.0
 40
3.0
 40
3.0
 40
3.0
 40
4.0
 40
4.0
 40
4.0
 40
4.0
 10
304.327448147944
 20
26.37412133304796
 42
1.0
 10
304.3255386007336
 20
26.75299425696746
 42
1.0
 10
304.0507636744179
 20
27.04560238626284
 42
1.0
 10
303.6924299141011
 20
27.05034857969325
 42
1.0
 10
303.3266947364936
 20
27.05519259513757
 42
1.0
 10
303.0511172468595
 20
26.75330175249256
 42
1.0
 10
303.0570519104932
 20
26.35430478392947
 42
1.0
 97
        0
 75
     0
 76
     1
 98
        1
 10
0.0
 20
0.0
  0
HATCH
  5
7A
330
1F
100
AcDbEntity
  8
0
  6
Continuous
 62
     7
100
AcDbHatch
 10
0.0
 20
0.0
 30
0.0
210
0.0
220
0.0
230
1.0
  2
SOLID
 70
     1
 71
     0
 91
        1
 92
        0
 93
        4
 72
     1
 10
302.6973344203136
 20
20.2539775500868
 11
304.8038079156778
 21
20.2539775500868
 72
     4
 94
        3
 73
     1
 74
     0
 95
       17
 96
       13
 40
6.0
 40
6.0
 40
6.0
 40
6.0
 40
7.0
 40
7.0
 40
7.0
 40
8.0
 40
8.0
 40
8.0
 40
9.0
 40
9.0
 40
9.0
 40
10.0
 40
10.0
 40
10.0
 40
10.0
 10
304.8038079156778
 20
20.2539775500868
 42
1.0
 10
304.4578262506061
 20
20.33981031349822
 42
1.0
 10
304.2621822227331
 20
20.55023795748124
 42
1.0
 10
304.2107535961514
 20
20.89393877449616
 42
1.0
 10
304.1922454404932
 20
21.01764883669525
 42
1.0
 10
304.1821011631179
 20
21.14380579453512
 42
1.0
 10
304.1818797663412
 20
21.26887114326077
 42
1.0
 10
304.1797703470369
 20
22.46084295323946
 42
1.0
 10
304.1808527312862
 20
23.65282014439031
 42
1.0
 10
304.1800932173391
 20
24.84479541369365
 42
1.0
 10
304.1800409430993
 20
24.93136078519359
 42
1.0
 10
304.1727133247369
 20
25.01792115989102
 42
1.0
 10
304.1706223551654
 20
25.06377258638473
 42
1.0
 72
     1
 10
304.1706223551654
 20
25.06377258638473
 11
302.7125031745686
 21
24.50968064047992
 72
     4
 94
        3
 73
     1
 74
     0
 95
       17
 96
       13
 40
1.0
 40
1.0
 40
1.0
 40
1.0
 40
2.0
 40
2.0
 40
2.0
 40
3.0
 40
3.0
 40
3.0
 40
4.0
 40
4.0
 40
4.0
 40
5.0
 40
5.0
 40
5.0
 40
5.0
 10
302.7125031745686
 20
24.50968064047994
 42
1.0
 10
302.7604109773859
 20
24.50557288463289
 42
1.0
 10
302.8224697242704
 20
24.49650561033552
 42
1.0
 10
302.8846514693661
 20
24.49557889569631
 42
1.0
 10
303.1332831261333
 20
24.4918735746181
 42
1.0
 10
303.2632153602819
 20
24.35030186610297
 42
1.0
 10
303.2668591822546
 20
24.11891186780057
 42
1.0
 10
303.2829750227277
 20
23.09531768874206
 42
1.0
 10
303.296603224403
 20
22.071496731734
 42
1.0
 10
303.2916556214044
 20
21.04785181591346
 42
1.0
 10
303.2897768237453
 20
20.65853557522151
 42
1.0
 10
303.1321361678242
 20
20.3494649042487
 42
1.0
 10
302.6973344203136
 20
20.2539775500868
 42
1.0
 97
        0
 75
     0
 76
     1
 98
        1
 10
0.0
 20
0.0
  0
HATCH
  5
7B
330
1F
100
AcDbEntity
  8
0
  6
Continuous
 62
     7
100
AcDbHatch
 10
0.0
 20
0.0
 30
0.0
210
0.0
220
0.0
230
1.0
  2
SOLID
 70
     1
 71
     0
 91
        1
 92
        0
 93
        4
 72
     1
 10
308.65963267846
 20
27.88697759989075
 11
307.1608133901539
 21
27.32540717062984
 72
     4
 94
        3
 73
     1
 74
     0
 95
       20
 96
       16
 40
5.0
 40
5.0
 40
5.0
 40
5.0
 40
6.0
 40
6.0
 40
6.0
 40
7.0
 40
7.0
 40
7.0
 40
8.0
 40
8.0
 40
8.0
 40
9.0
 40
9.0
 40
9.0
 40
10.0
 40
10.0
 40
10.0
 40
10.0
 10
307.1608133901539
 20
27.32540717062984
 42
1.0
 10
307.6774858212348
 20
27.28280885460759
 42
1.0
 10
307.7501131893193
 20
27.20350460556406
 42
1.0
 10
307.7547502218385
 20
26.63215658734291
 42
1.0
 10
307.7552944889174
 20
26.56503146731187
 42
1.0
 10
307.7550361926765
 20
26.49789904426262
 42
1.0
 10
307.7550361926765
 20
26.43077008053731
 42
1.0
 10
307.7550484924979
 20
24.69380511724257
 42
1.0
 10
307.7587445887104
 20
22.95682170421714
 42
1.0
 10
307.7500732149022
 20
21.21990094340409
 42
1.0
 10
307.7490584796685
 20
21.01681475508336
 42
1.0
 10
307.7285516030971
 20
20.78446498637255
 42
1.0
 10
307.6283941606454
 20
20.61954360515536
 42
1.0
 10
307.5293898264143
 20
20.45652254628292
 42
1.0
 10
307.3179589782804
 20
20.36177625633667
 42
1.0
 10
307.178408284104
 20
20.25443648715803
 42
1.0
 72
     1
 10
307.178408284104
 20
20.25443648715803
 11
309.3620693061908
 21
20.25443648715802
 72
     4
 94
        3
 73
     1
 74
     0
 95
       14
 96
       10
 40
1.0
 40
1.0
 40
1.0
 40
1.0
 40
2.0
 40
2.0
 40
2.0
 40
3.0
 40
3.0
 40
3.0
 40
4.0
 40
4.0
 40
4.0
 40
4.0
 10
309.3620693061908
 20
20.25443648715802
 42
1.0
 10
308.807415027844
 20
20.43200746554105
 42
1.0
 10
308.6597679764911
 20
20.6374237012035
 42
1.0
 10
308.6597187772069
 20
21.15880542625192
 42
1.0
 10
308.6595035303402
 20
23.32371921490944
 42
1.0
 10
308.65963267846
 20
25.48863300356693
 42
1.0
 10
308.65963267846
 20
27.65354698440997
 42
1.0
 10
308.65963267846
 20
27.74275854708867
 42
1.0
 10
308.65963267846
 20
27.83196991758182
 42
1.0
 10
308.65963267846
 20
27.88697759989075
 42
1.0
 97
        0
 75
     0
 76
     1
 98
        1
 10
0.0
 20
0.0
  0
HATCH
  5
7C
330
1F
100
AcDbEntity
  8
0
  6
Continuous
 62
     7
100
AcDbHatch
 10
0.0
 20
0.0
 30
0.0
210
0.0
220
0.0
230
1.0
  2
SOLID
 70
     1
 71
     0
 91
        1
 92
        0
 93
        4
 72
     1
 10
313.1781318226163
 20
27.87703492426926
 11
311.6691528821608
 21
27.32445797038016
 72
     4
 94
        3
 73
     1
 74
     0
 95
       17
 96
       13
 40
6.0
 40
6.0
 40
6.0
 40
6.0
 40
7.0
 40
7.0
 40
7.0
 40
8.0
 40
8.0
 40
8.0
 40
9.0
 40
9.0
 40
9.0
 40
10.0
 40
10.0
 40
10.0
 40
10.0
 10
311.6691528821608
 20
27.32445797038016
 42
1.0
 10
312.2096131670664
 20
27.27631108979181
 42
1.0
 10
312.2683694120104
 20
27.21300429544448
 42
1.0
 10
312.2823973578678
 20
26.60716642601487
 42
1.0
 10
312.2845313768121
 20
26.51487279724974
 42
1.0
 10
312.2871512386867
 20
26.42255802816857
 42
1.0
 10
312.2871819882395
 20
26.33025248395311
 42
1.0
 10
312.2877662297369
 20
24.60974045310045
 42
1.0
 10
312.2890700107628
 20
22.88922803787955
 42
1.0
 10
312.2876555313485
 20
21.16871754450475
 42
1.0
 10
312.2872188877024
 20
20.63608302071405
 42
1.0
 10
312.1185268426077
 20
20.41647125413319
 42
1.0
 10
311.6156486607861
 20
20.25320881127337
 42
1.0
 72
     1
 10
311.6156486607861
 20
20.25320881127337
 11
313.8867245107604
 21
20.25320881127337
 72
     4
 94
        3
 73
     1
 74
     0
 95
       17
 96
       13
 40
1.0
 40
1.0
 40
1.0
 40
1.0
 40
2.0
 40
2.0
 40
2.0
 40
3.0
 40
3.0
 40
3.0
 40
4.0
 40
4.0
 40
4.0
 40
5.0
 40
5.0
 40
5.0
 40
5.0
 10
313.8867245107604
 20
20.25320881127337
 42
1.0
 10
313.3266152617988
 20
20.4348325806782
 42
1.0
 10
313.1888880160859
 20
20.62648762285203
 42
1.0
 10
313.1786115156352
 20
21.17082388885262
 42
1.0
 10
313.1771847363981
 20
21.24633325874564
 42
1.0
 10
313.1781441224363
 20
21.32188875296783
 42
1.0
 10
313.1781441224363
 20
21.39742349124222
 42
1.0
 10
313.1781256727049
 20
23.48721689184593
 42
1.0
 10
313.1781318226163
 20
25.57700952371036
 42
1.0
 10
313.1781318226163
 20
27.66680273212925
 42
1.0
 10
313.1781318226163
 20
27.75161518695077
 42
1.0
 10
313.1781318226163
 20
27.83642744958889
 42
1.0
 10
313.1781318226163
 20
27.87703492426926
 42
1.0
 97
        0
 75
     0
 76
     1
 98
        1
 10
0.0
 20
0.0
  0
HATCH
  5
7D
330
1F
100
AcDbEntity
  8
0
  6
Continuous
 62
     7
100
AcDbHatch
 10
0.0
 20
0.0
 30
0.0
210
0.0
220
0.0
230
1.0
  2
SOLID
 70
     1
 71
     0
 91
        1
 92
        0
 93
       12
 72
     1
 10
296.2715297073844
 20
27.50458020069891
 11
293.841527870193
 21
27.50458020069891
 72
     4
 94
        3
 73
     1
 74
     0
 95
       17
 96
       13
 40
21.0
 40
21.0
 40
21.0
 40
21.0
 40
22.0
 40
22.0
 40
22.0
 40
23.0
 40
23.0
 40
23.0
 40
24.0
 40
24.0
 40
24.0
 40
25.0
 40
25.0
 40
25.0
 40
25.0
 10
293.841527870193
 20
27.50458020069891
 42
1.0
 10
294.4654639653083
 20
27.35271373418588
 42
1.0
 10
294.541848928711
 20
26.88863860486635
 42
1.0
 10
294.5396718603926
 20
26.35648992400541
 42
1.0
 10
294.5326947869268
 20
24.65236702027423
 42
1.0
 10
294.54232862173
 20
22.9481603240125
 42
1.0
 10
294.5304592944584
 20
21.24409084762873
 42
1.0
 10
294.52894334152
 20
21.02641399663968
 42
1.0
 10
294.4888489999954
 20
20.77588586122133
 42
1.0
 10
294.3739502220706
 20
20.60171040217499
 42
1.0
 10
294.2655211499942
 20
20.43733713173098
 42
1.0
 10
294.0348564567621
 20
20.35359533789035
 42
1.0
 10
293.8906841048422
 20
20.25643828302682
 42
1.0
 72
     1
 10
293.8906841048422
 20
20.25643828302682
 11
296.2880237673525
 21
20.25643828302682
 72
     4
 94
        3
 73
     1
 74
     0
 95
       14
 96
       10
 40
17.0
 40
17.0
 40
17.0
 40
17.0
 40
18.0
 40
18.0
 40
18.0
 40
19.0
 40
19.0
 40
19.0
 40
20.0
 40
20.0
 40
20.0
 40
20.0
 10
296.2880237673525
 20
20.25643828302682
 42
1.0
 10
295.7413366980624
 20
20.4024294709773
 42
1.0
 10
295.5628078711177
 20
20.63015527572819
 42
1.0
 10
295.5619960829322
 20
21.2138824872384
 42
1.0
 10
295.560827599936
 20
22.05336910178782
 42
1.0
 10
295.561359567195
 20
22.89285956003151
 42
1.0
 10
295.5621928800676
 20
23.73234771205876
 42
1.0
 10
295.5622759038603
 20
23.81306182808445
 42
1.0
 10
295.5696219719554
 20
23.89376787235267
 42
1.0
 10
295.5733857171835
 20
23.97022240661697
 42
1.0
 72
     1
 10
295.5733857171835
 20
23.97022240661697
 11
298.4851131190222
 21
23.97022240661697
 72
     4
 94
        3
 73
     1
 74
     0
 95
       11
 96
        7
 40
14.0
 40
14.0
 40
14.0
 40
14.0
 40
15.0
 40
15.0
 40
15.0
 40
16.0
 40
16.0
 40
16.0
 40
16.0
 10
298.4851131190222
 20
23.97022240661697
 42
1.0
 10
298.4851131190222
 20
23.04419117651474
 42
1.0
 10
298.4852207424561
 20
22.13796342697173
 42
1.0
 10
298.485073144605
 20
21.23173567742801
 42
1.0
 10
298.4849747460367
 20
20.62384393007452
 42
1.0
 10
298.3307257657572
 20
20.41986831094703
 42
1.0
 10
297.7632396991476
 20
20.25412130424438
 42
1.0
 72
     1
 10
297.7632396991476
 20
20.25412130424438
 11
300.2193725060648
 21
20.25412130424438
 72
     4
 94
        3
 73
     1
 74
     0
 95
       17
 96
       13
 40
9.0
 40
9.0
 40
9.0
 40
9.0
 40
10.0
 40
10.0
 40
10.0
 40
11.0
 40
11.0
 40
11.0
 40
12.0
 40
12.0
 40
12.0
 40
13.0
 40
13.0
 40
13.0
 40
13.0
 10
300.2193725060648
 20
20.25412130424438
 42
1.0
 10
299.739442715284
 20
20.41422423058344
 42
1.0
 10
299.5427163031618
 20
20.62720562490344
 42
1.0
 10
299.542119761843
 20
21.03839632851544
 42
1.0
 10
299.5393769017586
 20
22.92724217217554
 42
1.0
 10
299.5395583241182
 20
24.8160968563317
 42
1.0
 10
299.5421628112159
 20
26.70494346873036
 42
1.0
 10
299.5426363543262
 20
27.0468754177367
 42
1.0
 10
299.7248336028849
 20
27.28837413924314
 42
1.0
 10
300.049118383702
 20
27.40930924651266
 42
1.0
 10
300.1052670665942
 20
27.43024796211264
 42
1.0
 10
300.1600043450263
 20
27.45496618208605
 42
1.0
 10
300.2549312885929
 20
27.49433829349534
 42
1.0
 72
     1
 10
300.2549312885929
 20
27.49433829349534
 11
297.7186989723292
 21
27.49433829349534
 72
     4
 94
        3
 73
     1
 74
     0
 95
       14
 96
       10
 40
5.0
 40
5.0
 40
5.0
 40
5.0
 40
6.0
 40
6.0
 40
6.0
 40
7.0
 40
7.0
 40
7.0
 40
8.0
 40
8.0
 40
8.0
 40
8.0
 10
297.7186989723292
 20
27.49433829349534
 42
1.0
 10
298.3648823686909
 20
27.26685790861022
 42
1.0
 10
298.4850762195593
 20
27.0944786077999
 42
1.0
 10
298.4851069691121
 20
26.45733654080182
 42
1.0
 10
298.4851377186649
 20
25.7773505457302
 42
1.0
 10
298.4851131190222
 20
25.09736416629037
 42
1.0
 10
298.4851131190222
 20
24.41737817121947
 42
1.0
 10
298.4851131190222
 20
24.32893553953832
 42
1.0
 10
298.4851131190222
 20
24.24049329222682
 42
1.0
 10
298.4851131190222
 20
24.16049564077468
 42
1.0
 72
     1
 10
298.4851131190222
 20
24.16049564077468
 11
295.5632814142282
 21
24.16049564077468
 72
     4
 94
        3
 73
     1
 74
     0
 95
       14
 96
       10
 40
1.0
 40
1.0
 40
1.0
 40
1.0
 40
2.0
 40
2.0
 40
2.0
 40
3.0
 40
3.0
 40
3.0
 40
4.0
 40
4.0
 40
4.0
 40
4.0
 10
295.5632814142282
 20
24.16049564077468
 42
1.0
 10
295.5632814142282
 20
25.01272602299438
 42
1.0
 10
295.5627432970579
 20
25.84365465270932
 42
1.0
 10
295.5644406723573
 20
26.67457866999212
 42
1.0
 10
295.5645605956114
 20
26.73240397223375
 42
1.0
 10
295.5792681065788
 20
26.79059327230427
 42
1.0
 10
295.5906023916358
 20
26.8479388815276
 42
1.0
 10
295.6648994604227
 20
27.22384581892186
 42
1.0
 10
295.9411319155254
 20
27.38780204855992
 42
1.0
 10
296.2715297073844
 20
27.50458020069891
 42
1.0
 97
        0
 75
     0
 76
     1
 98
        1
 10
0.0
 20
0.0
  0
SPLINE
  5
7E
330
1F
100
AcDbEntity
  8
0
  6
Continuous
 62
   179
370
     0
100
AcDbSpline
210
0.0
220
0.0
230
1.0
 70
     8
 71
     3
 72
    14
 73
    10
 74
     0
 42
0.000000001
 43
0.00000001
 40
24.0
 40
24.0
 40
24.0
 40
24.0
 40
25.0
 40
25.0
 40
25.0
 40
26.0
 40
26.0
 40
26.0
 40
27.0
 40
27.0
 40
27.0
 40
27.0
 10
287.7314564875268
 20
22.42648570947681
 30
0.0
 10
288.0996055050067
 20
21.95463920731319
 30
0.0
 10
288.4270667146001
 20
21.47381844824843
 30
0.0
 10
288.8166481701822
 20
21.05011190802389
 30
0.0
 10
289.3841588364346
 20
20.43289382139212
 30
0.0
 10
289.9836367374808
 20
20.49110656799654
 30
0.0
 10
290.4735170834558
 20
21.16713932372222
 30
0.0
 10
290.5884281612034
 20
21.32571784099438
 30
0.0
 10
290.6825002672103
 20
21.49939669476814
 30
0.0
 10
290.8103661314317
 20
21.70506046432864
 30
0.0
  0
SPLINE
  5
7F
330
1F
100
AcDbEntity
  8
0
  6
Continuous
 62
   179
370
     0
100
AcDbSpline
210
0.0
220
0.0
230
1.0
 70
     8
 71
     3
 72
    11
 73
     7
 74
     0
 42
0.000000001
 43
0.00000001
 40
22.0
 40
22.0
 40
22.0
 40
22.0
 40
23.0
 40
23.0
 40
23.0
 40
24.0
 40
24.0
 40
24.0
 40
24.0
 10
290.7742138825406
 20
25.39867403457779
 30
0.0
 10
289.9536528488242
 20
25.26443186627322
 30
0.0
 10
289.4290162836425
 20
24.71923384406366
 30
0.0
 10
288.9612633156569
 20
24.10441845059237
 30
0.0
 10
288.5466855488353
 20
23.55949371503119
 30
0.0
 10
288.1508588591388
 20
23.00030157147279
 30
0.0
 10
287.7314564875268
 20
22.42648570947681
 30
0.0
  0
SPLINE
  5
80
330
1F
100
AcDbEntity
  8
0
  6
Continuous
 62
   179
370
     0
100
AcDbSpline
210
0.0
220
0.0
230
1.0
 70
     8
 71
     3
 72
    11
 73
     7
 74
     0
 42
0.000000001
 43
0.00000001
 40
20.0
 40
20.0
 40
20.0
 40
20.0
 40
21.0
 40
21.0
 40
21.0
 40
22.0
 40
22.0
 40
22.0
 40
22.0
 10
287.7715077796773
 20
25.39867403457779
 30
0.0
 10
288.2706160663608
 20
25.39867403457779
 30
0.0
 10
288.76972127809
 20
25.39867441894744
 30
0.0
 10
289.2688295647749
 20
25.39867441894744
 30
0.0
 10
289.7706253623487
 20
25.39867441894744
 30
0.0
 10
290.2724180849667
 20
25.39867403457779
 30
0.0
 10
290.7742138825406
 20
25.39867403457779
 30
0.0
  0
SPLINE
  5
81
330
1F
100
AcDbEntity
  8
0
  6
Continuous
 62
   179
370
     0
100
AcDbSpline
210
0.0
220
0.0
230
1.0
 70
     8
 71
     3
 72
    17
 73
    13
 74
     0
 42
0.000000001
 43
0.00000001
 40
16.0
 40
16.0
 40
16.0
 40
16.0
 40
17.0
 40
17.0
 40
17.0
 40
18.0
 40
18.0
 40
18.0
 40
19.0
 40
19.0
 40
19.0
 40
20.0
 40
20.0
 40
20.0
 40
20.0
 10
287.7233847299918
 20
22.54303496963325
 30
0.0
 10
288.0735790837579
 20
23.12311989664797
 30
0.0
 10
288.4211781752921
 20
23.692108847638
 30
0.0
 10
288.7595985254019
 20
24.26650702928458
 30
0.0
 10
288.8131334963293
 20
24.3573677289012
 30
0.0
 10
288.8373887433532
 20
24.47070865762303
 30
0.0
 10
288.8543009972361
 20
24.57697987985169
 30
0.0
 10
288.9174636530569
 20
24.97387165717582
 30
0.0
 10
288.7601181928394
 20
25.20759054971102
 30
0.0
 10
288.3670435880915
 20
25.28904726743022
 30
0.0
 10
288.1718392788191
 20
25.32949945687163
 30
0.0
 10
287.9710693005408
 20
25.34310267453518
 30
0.0
 10
287.7715077796773
 20
25.39867403457779
 30
0.0
  0
SPLINE
  5
82
330
1F
100
AcDbEntity
  8
0
  6
Continuous
 62
   179
370
     0
100
AcDbSpline
210
0.0
220
0.0
230
1.0
 70
     8
 71
     3
 72
     8
 73
     4
 74
     0
 42
0.000000001
 43
0.00000001
 40
15.0
 40
15.0
 40
15.0
 40
15.0
 40
16.0
 40
16.0
 40
16.0
 40
16.0
 10
285.8065406500283
 20
24.86455968857225
 30
0.0
 10
286.4380688096612
 20
24.09970377545334
 30
0.0
 10
287.0596648638312
 20
23.34687900912474
 30
0.0
 10
287.7233847299918
 20
22.54303496963325
 30
0.0
  0
SPLINE
  5
83
330
1F
100
AcDbEntity
  8
0
  6
Continuous
 62
   179
370
     0
100
AcDbSpline
210
0.0
220
0.0
230
1.0
 70
     8
 71
     3
 72
    26
 73
    22
 74
     0
 42
0.000000001
 43
0.00000001
 40
8.0
 40
8.0
 40
8.0
 40
8.0
 40
9.0
 40
9.0
 40
9.0
 40
10.0
 40
10.0
 40
10.0
 40
11.0
 40
11.0
 40
11.0
 40
12.0
 40
12.0
 40
12.0
 40
13.0
 40
13.0
 40
13.0
 40
14.0
 40
14.0
 40
14.0
 40
15.0
 40
15.0
 40
15.0
 40
15.0
 10
284.7027239634148
 20
24.4681860412085
 30
0.0
 10
284.5641388051866
 20
24.63003900145511
 30
0.0
 10
284.4323277733789
 20
24.77744812814592
 30
0.0
 10
284.3077767109179
 20
24.93075271279267
 30
0.0
 10
284.0198409761273
 20
25.28515591156022
 30
0.0
 10
283.7707819005811
 20
25.65802498535045
 30
0.0
 10
283.7149530130354
 20
26.1296866058298
 30
0.0
 10
283.6309452355654
 20
26.8393466878164
 30
0.0
 10
283.9109291360762
 20
27.37506654483262
 30
0.0
 10
284.558084218296
 20
27.68711127408746
 30
0.0
 10
285.1912113546599
 20
27.99239110178883
 30
0.0
 10
285.840402057257
 20
27.99583274545402
 30
0.0
 10
286.4793408590448
 20
27.71426216803416
 30
0.0
 10
287.361321048954
 20
27.32558686332681
 30
0.0
 10
287.5614237619422
 20
26.30921056516709
 30
0.0
 10
286.8815726805328
 20
25.62247811827483
 30
0.0
 10
286.6551698752792
 20
25.39378370261948
 30
0.0
 10
286.361711520857
 20
25.23088333574105
 30
0.0
 10
286.0959738880259
 20
25.04203380586477
 30
0.0
 10
286.0025259979348
 20
24.97562130671301
 30
0.0
 10
285.9002991106001
 20
24.9215528310502
 30
0.0
 10
285.8065406500283
 20
24.86455968857225
 30
0.0
  0
SPLINE
  5
84
330
1F
100
AcDbEntity
  8
0
  6
Continuous
 62
   179
370
     0
100
AcDbSpline
210
0.0
220
0.0
230
1.0
 70
     8
 71
     3
 72
    20
 73
    16
 74
     0
 42
0.000000001
 43
0.00000001
 40
3.0
 40
3.0
 40
3.0
 40
3.0
 40
4.0
 40
4.0
 40
4.0
 40
5.0
 40
5.0
 40
5.0
 40
6.0
 40
6.0
 40
6.0
 40
7.0
 40
7.0
 40
7.0
 40
8.0
 40
8.0
 40
8.0
 40
8.0
 10
287.0539854214827
 20
21.61211917311518
 30
0.0
 10
286.8995550188436
 20
21.43851181205056
 30
0.0
 10
286.7443651022574
 20
21.26447318851252
 30
0.0
 10
286.5896302790503
 20
21.09003174583674
 30
0.0
 10
285.9488126796034
 20
20.36759637788917
 30
0.0
 10
285.1515567317372
 20
20.05360962220845
 30
0.0
 10
284.198169930981
 20
20.23446388406056
 30
0.0
 10
282.6109241545095
 20
20.5355588898502
 30
0.0
 10
282.3522343191156
 20
22.37884389028816
 30
0.0
 10
283.1417229300147
 20
23.34576433784628
 30
0.0
 10
283.460866385652
 20
23.7366334309401
 30
0.0
 10
283.8607304915963
 20
24.02105948868025
 30
0.0
 10
284.3005597909425
 20
24.25632085564482
 30
0.0
 10
284.4255536469583
 20
24.32317807019961
 30
0.0
 10
284.5513685160267
 20
24.38851087568819
 30
0.0
 10
284.7027239634148
 20
24.4681860412085
 30
0.0
  0
SPLINE
  5
85
330
1F
100
AcDbEntity
  8
0
  6
Continuous
 62
   179
370
     0
100
AcDbSpline
210
0.0
220
0.0
230
1.0
 70
     8
 71
     3
 72
    14
 73
    10
 74
     0
 42
0.000000001
 43
0.00000001
 40
0.0
 40
0.0
 40
0.0
 40
0.0
 40
1.0
 40
1.0
 40
1.0
 40
2.0
 40
2.0
 40
2.0
 40
3.0
 40
3.0
 40
3.0
 40
3.0
 10
290.8103661314317
 20
21.70506046432864
 30
0.0
 10
290.7160910783766
 20
21.04182259740494
 30
0.0
 10
289.9739444785289
 20
20.32342848939635
 30
0.0
 10
289.3271645408483
 20
20.20870037148624
 30
0.0
 10
288.7048673968812
 20
20.0983148591309
 30
0.0
 10
288.1784811821614
 20
20.26780485511384
 30
0.0
 10
287.7601488949774
 20
20.73592220529573
 30
0.0
 10
287.5152010346028
 20
21.01001756649998
 30
0.0
 10
287.2972697310665
 20
21.30825593886041
 30
0.0
 10
287.0539854214827
 20
21.61211917311518
 30
0.0
  0
SPLINE
  5
86
330
1F
100
AcDbEntity
  8
0
  6
Continuous
 62
   179
370
     0
100
AcDbSpline
210
0.0
220
0.0
230
1.0
 70
     8
 71
     3
 72
    14
 73
    10
 74
     0
 42
0.000000001
 43
0.00000001
 40
1.0
 40
1.0
 40
1.0
 40
1.0
 40
2.0
 40
2.0
 40
2.0
 40
3.0
 40
3.0
 40
3.0
 40
4.0
 40
4.0
 40
4.0
 40
4.0
 10
284.845288113738
 20
24.3712657578988
 30
0.0
 10
284.1054815548355
 20
23.90423117633508
 30
0.0
 10
283.6988925217564
 20
23.08417174469389
 30
0.0
 10
283.7780264951535
 20
22.28619625730053
 30
0.0
 10
283.8665083325146
 20
21.39392726712143
 30
0.0
 10
284.4974276510072
 20
20.83427541775253
 30
0.0
 10
285.3603677179978
 20
20.87638462370452
 30
0.0
 10
286.0339581905155
 20
20.90925282038733
 30
0.0
 10
286.5509442670314
 20
21.22618922689351
 30
0.0
 10
287.0009947176327
 20
21.77781006188367
 30
0.0
  0
SPLINE
  5
87
330
1F
100
AcDbEntity
  8
0
  6
Continuous
 62
   179
370
     0
100
AcDbSpline
210
0.0
220
0.0
230
1.0
 70
     8
 71
     3
 72
     8
 73
     4
 74
     0
 42
0.000000001
 43
0.00000001
 40
0.0
 40
0.0
 40
0.0
 40
0.0
 40
1.0
 40
1.0
 40
1.0
 40
1.0
 10
287.0009947176327
 20
21.77781006188367
 30
0.0
 10
286.2819902310068
 20
22.64282111123716
 30
0.0
 10
285.5612360948443
 20
23.50993158628786
 30
0.0
 10
284.845288113738
 20
24.3712657578988
 30
0.0
  0
SPLINE
  5
88
330
1F
100
AcDbEntity
  8
0
  6
Continuous
 62
   179
370
     0
100
AcDbSpline
210
0.0
220
0.0
230
1.0
 70
     8
 71
     3
 72
    11
 73
     7
 74
     0
 42
0.000000001
 43
0.00000001
 40
3.0
 40
3.0
 40
3.0
 40
3.0
 40
4.0
 40
4.0
 40
4.0
 40
5.0
 40
5.0
 40
5.0
 40
5.0
 10
284.6883823721211
 20
27.15085253116305
 30
0.0
 10
284.5630810205802
 20
26.788679112661
 30
0.0
 10
284.5571094574822
 20
26.41068293535724
 30
0.0
 10
284.7721626029031
 20
26.08712768767229
 30
0.0
 10
285.0380140090768
 20
25.68714980838475
 30
0.0
 10
285.3510444536753
 20
25.31853032275096
 30
0.0
 10
285.6520579731507
 20
24.9254318870995
 30
0.0
  0
SPLINE
  5
89
330
1F
100
AcDbEntity
  8
0
  6
Continuous
 62
   179
370
     0
100
AcDbSpline
210
0.0
220
0.0
230
1.0
 70
     8
 71
     3
 72
    14
 73
    10
 74
     0
 42
0.000000001
 43
0.00000001
 40
0.0
 40
0.0
 40
0.0
 40
0.0
 40
1.0
 40
1.0
 40
1.0
 40
2.0
 40
2.0
 40
2.0
 40
3.0
 40
3.0
 40
3.0
 40
3.0
 10
285.6520579731507
 20
24.9254318870995
 30
0.0
 10
286.3259713159692
 20
25.4295804098103
 30
0.0
 10
286.5713650448558
 20
26.2298440482801
 30
0.0
 10
286.3549927436335
 20
27.06650131962916
 30
0.0
 10
286.2400293916459
 20
27.5110460628537
 30
0.0
 10
285.9916529561654
 20
27.74682017860582
 30
0.0
 10
285.6158934244382
 20
27.76810636414938
 30
0.0
 10
285.1818973152029
 20
27.79269159230804
 30
0.0
 10
284.8337724063213
 20
27.5710895609412
 30
0.0
 10
284.6883823721211
 20
27.15085253116305
 30
0.0
  0
SPLINE
  5
8A
330
1F
100
AcDbEntity
  8
0
  6
Continuous
 62
   179
370
     0
100
AcDbSpline
210
0.0
220
0.0
230
1.0
 70
     8
 71
     3
 72
    17
 73
    13
 74
     0
 42
0.000000001
 43
0.00000001
 40
21.0
 40
21.0
 40
21.0
 40
21.0
 40
22.0
 40
22.0
 40
22.0
 40
23.0
 40
23.0
 40
23.0
 40
24.0
 40
24.0
 40
24.0
 40
25.0
 40
25.0
 40
25.0
 40
25.0
 10
293.8906841048423
 20
20.25643828302682
 30
0.0
 10
294.0348564567621
 20
20.35359533789035
 30
0.0
 10
294.2655211499942
 20
20.43733713173099
 30
0.0
 10
294.3739502220706
 20
20.601710402175
 30
0.0
 10
294.4888489999955
 20
20.77588586122134
 30
0.0
 10
294.5289433415201
 20
21.02641399663968
 30
0.0
 10
294.5304592944584
 20
21.24409084762874
 30
0.0
 10
294.5423286217301
 20
22.94816032401251
 30
0.0
 10
294.5326947869268
 20
24.65236702027423
 30
0.0
 10
294.5396718603926
 20
26.35648992400541
 30
0.0
 10
294.541848928711
 20
26.88863860486636
 30
0.0
 10
294.4654639653083
 20
27.35271373418588
 30
0.0
 10
293.841527870193
 20
27.50458020069892
 30
0.0
  0
SPLINE
  5
8B
330
1F
100
AcDbEntity
  8
0
  6
Continuous
 62
   179
370
     0
100
AcDbSpline
210
0.0
220
0.0
230
1.0
 70
    24
 71
     3
 72
     8
 73
     4
 74
     0
 42
0.000000001
 43
0.00000001
 40
20.0
 40
20.0
 40
20.0
 40
20.0
 40
21.0
 40
21.0
 40
21.0
 40
21.0
 10
296.2880237673526
 20
20.25643828302682
 30
0.0
 10
295.4693261565182
 20
20.25643828302682
 30
0.0
 10
294.6506254707311
 20
20.25643828302682
 30
0.0
 10
293.8906841048423
 20
20.25643828302682
 30
0.0
  0
SPLINE
  5
8C
330
1F
100
AcDbEntity
  8
0
  6
Continuous
 62
   179
370
     0
100
AcDbSpline
210
0.0
220
0.0
230
1.0
 70
     8
 71
     3
 72
    14
 73
    10
 74
     0
 42
0.000000001
 43
0.00000001
 40
17.0
 40
17.0
 40
17.0
 40
17.0
 40
18.0
 40
18.0
 40
18.0
 40
19.0
 40
19.0
 40
19.0
 40
20.0
 40
20.0
 40
20.0
 40
20.0
 10
295.5733857171836
 20
23.97022240661698
 30
0.0
 10
295.5696219719554
 20
23.89376787235267
 30
0.0
 10
295.5622759038603
 20
23.81306182808446
 30
0.0
 10
295.5621928800676
 20
23.73234771205876
 30
0.0
 10
295.561359567195
 20
22.89285956003151
 30
0.0
 10
295.560827599936
 20
22.05336910178782
 30
0.0
 10
295.5619960829322
 20
21.2138824872384
 30
0.0
 10
295.5628078711177
 20
20.63015527572819
 30
0.0
 10
295.7413366980624
 20
20.4024294709773
 30
0.0
 10
296.2880237673526
 20
20.25643828302682
 30
0.0
  0
SPLINE
  5
8D
330
1F
100
AcDbEntity
  8
0
  6
Continuous
 62
   179
370
     0
100
AcDbSpline
210
0.0
220
0.0
230
1.0
 70
    24
 71
     3
 72
     8
 73
     4
 74
     0
 42
0.000000001
 43
0.00000001
 40
16.0
 40
16.0
 40
16.0
 40
16.0
 40
17.0
 40
17.0
 40
17.0
 40
17.0
 10
298.4851131190222
 20
23.97022240661698
 30
0.0
 10
297.5154382802974
 20
23.97022240661698
 30
0.0
 10
296.5557754958725
 20
23.97022240661698
 30
0.0
 10
295.5733857171836
 20
23.97022240661698
 30
0.0
  0
SPLINE
  5
8E
330
1F
100
AcDbEntity
  8
0
  6
Continuous
 62
   179
370
     0
100
AcDbSpline
210
0.0
220
0.0
230
1.0
 70
     8
 71
     3
 72
    11
 73
     7
 74
     0
 42
0.000000001
 43
0.00000001
 40
14.0
 40
14.0
 40
14.0
 40
14.0
 40
15.0
 40
15.0
 40
15.0
 40
16.0
 40
16.0
 40
16.0
 40
16.0
 10
297.7632396991476
 20
20.25412130424438
 30
0.0
 10
298.3307257657572
 20
20.41986831094704
 30
0.0
 10
298.4849747460367
 20
20.62384393007452
 30
0.0
 10
298.485073144605
 20
21.23173567742802
 30
0.0
 10
298.4852207424561
 20
22.13796342697173
 30
0.0
 10
298.4851131190222
 20
23.04419117651474
 30
0.0
 10
298.4851131190222
 20
23.97022240661698
 30
0.0
  0
SPLINE
  5
8F
330
1F
100
AcDbEntity
  8
0
  6
Continuous
 62
   179
370
     0
100
AcDbSpline
210
0.0
220
0.0
230
1.0
 70
    24
 71
     3
 72
     8
 73
     4
 74
     0
 42
0.000000001
 43
0.00000001
 40
13.0
 40
13.0
 40
13.0
 40
13.0
 40
14.0
 40
14.0
 40
14.0
 40
14.0
 10
300.2193725060649
 20
20.25412130424438
 30
0.0
 10
299.4006625954106
 20
20.25412130424438
 30
0.0
 10
298.5819526847563
 20
20.25412130424438
 30
0.0
 10
297.7632396991476
 20
20.25412130424438
 30
0.0
  0
SPLINE
  5
90
330
1F
100
AcDbEntity
  8
0
  6
Continuous
 62
   179
370
     0
100
AcDbSpline
210
0.0
220
0.0
230
1.0
 70
     8
 71
     3
 72
    17
 73
    13
 74
     0
 42
0.000000001
 43
0.00000001
 40
9.0
 40
9.0
 40
9.0
 40
9.0
 40
10.0
 40
10.0
 40
10.0
 40
11.0
 40
11.0
 40
11.0
 40
12.0
 40
12.0
 40
12.0
 40
13.0
 40
13.0
 40
13.0
 40
13.0
 10
300.254931288593
 20
27.49433829349534
 30
0.0
 10
300.1600043450263
 20
27.45496618208605
 30
0.0
 10
300.1052670665943
 20
27.43024796211265
 30
0.0
 10
300.049118383702
 20
27.40930924651266
 30
0.0
 10
299.7248336028849
 20
27.28837413924314
 30
0.0
 10
299.5426363543262
 20
27.0468754177367
 30
0.0
 10
299.5421628112159
 20
26.70494346873036
 30
0.0
 10
299.5395583241182
 20
24.8160968563317
 30
0.0
 10
299.5393769017586
 20
22.92724217217554
 30
0.0
 10
299.542119761843
 20
21.03839632851544
 30
0.0
 10
299.5427163031618
 20
20.62720562490344
 30
0.0
 10
299.739442715284
 20
20.41422423058345
 30
0.0
 10
300.2193725060649
 20
20.25412130424438
 30
0.0
  0
SPLINE
  5
91
330
1F
100
AcDbEntity
  8
0
  6
Continuous
 62
   179
370
     0
100
AcDbSpline
210
0.0
220
0.0
230
1.0
 70
    24
 71
     3
 72
     8
 73
     4
 74
     0
 42
0.000000001
 43
0.00000001
 40
8.0
 40
8.0
 40
8.0
 40
8.0
 40
9.0
 40
9.0
 40
9.0
 40
9.0
 10
297.7186989723292
 20
27.49433829349534
 30
0.0
 10
298.5854396840106
 20
27.49433829349534
 30
0.0
 10
299.3949493285535
 20
27.49433829349534
 30
0.0
 10
300.254931288593
 20
27.49433829349534
 30
0.0
  0
SPLINE
  5
92
330
1F
100
AcDbEntity
  8
0
  6
Continuous
 62
   179
370
     0
100
AcDbSpline
210
0.0
220
0.0
230
1.0
 70
     8
 71
     3
 72
    14
 73
    10
 74
     0
 42
0.000000001
 43
0.00000001
 40
5.0
 40
5.0
 40
5.0
 40
5.0
 40
6.0
 40
6.0
 40
6.0
 40
7.0
 40
7.0
 40
7.0
 40
8.0
 40
8.0
 40
8.0
 40
8.0
 10
298.4851131190222
 20
24.16049564077469
 30
0.0
 10
298.4851131190222
 20
24.24049329222683
 30
0.0
 10
298.4851131190222
 20
24.32893553953833
 30
0.0
 10
298.4851131190222
 20
24.41737817121947
 30
0.0
 10
298.4851131190222
 20
25.09736416629037
 30
0.0
 10
298.4851377186649
 20
25.7773505457302
 30
0.0
 10
298.4851069691121
 20
26.45733654080182
 30
0.0
 10
298.4850762195594
 20
27.0944786077999
 30
0.0
 10
298.3648823686909
 20
27.26685790861022
 30
0.0
 10
297.7186989723292
 20
27.49433829349534
 30
0.0
  0
SPLINE
  5
93
330
1F
100
AcDbEntity
  8
0
  6
Continuous
 62
   179
370
     0
100
AcDbSpline
210
0.0
220
0.0
230
1.0
 70
    24
 71
     3
 72
     8
 73
     4
 74
     0
 42
0.000000001
 43
0.00000001
 40
4.0
 40
4.0
 40
4.0
 40
4.0
 40
5.0
 40
5.0
 40
5.0
 40
5.0
 10
295.5632814142282
 20
24.16049564077469
 30
0.0
 10
296.5292663066504
 20
24.16049564077469
 30
0.0
 10
297.4889290910767
 20
24.16049564077469
 30
0.0
 10
298.4851131190222
 20
24.16049564077469
 30
0.0
  0
SPLINE
  5
94
330
1F
100
AcDbEntity
  8
0
  6
Continuous
 62
   179
370
     0
100
AcDbSpline
210
0.0
220
0.0
230
1.0
 70
     8
 71
     3
 72
    14
 73
    10
 74
     0
 42
0.000000001
 43
0.00000001
 40
1.0
 40
1.0
 40
1.0
 40
1.0
 40
2.0
 40
2.0
 40
2.0
 40
3.0
 40
3.0
 40
3.0
 40
4.0
 40
4.0
 40
4.0
 40
4.0
 10
296.2715297073845
 20
27.50458020069892
 30
0.0
 10
295.9411319155254
 20
27.38780204855992
 30
0.0
 10
295.6648994604227
 20
27.22384581892186
 30
0.0
 10
295.5906023916359
 20
26.8479388815276
 30
0.0
 10
295.5792681065788
 20
26.79059327230428
 30
0.0
 10
295.5645605956114
 20
26.73240397223375
 30
0.0
 10
295.5644406723574
 20
26.67457866999212
 30
0.0
 10
295.562743297058
 20
25.84365465270932
 30
0.0
 10
295.5632814142282
 20
25.01272602299438
 30
0.0
 10
295.5632814142282
 20
24.16049564077469
 30
0.0
  0
SPLINE
  5
95
330
1F
100
AcDbEntity
  8
0
  6
Continuous
 62
   179
370
     0
100
AcDbSpline
210
0.0
220
0.0
230
1.0
 70
    24
 71
     3
 72
     8
 73
     4
 74
     0
 42
0.000000001
 43
0.00000001
 40
0.0
 40
0.0
 40
0.0
 40
0.0
 40
1.0
 40
1.0
 40
1.0
 40
1.0
 10
293.841527870193
 20
27.50458020069892
 30
0.0
 10
294.6515264326192
 20
27.50458020069892
 30
0.0
 10
295.4615280700011
 20
27.50458020069892
 30
0.0
 10
296.2715297073845
 20
27.50458020069892
 30
0.0
  0
SPLINE
  5
96
330
1F
100
AcDbEntity
  8
0
  6
Continuous
 62
   179
370
     0
100
AcDbSpline
210
0.0
220
0.0
230
1.0
 70
     8
 71
     3
 72
    14
 73
    10
 74
     0
 42
0.000000001
 43
0.00000001
 40
17.0
 40
17.0
 40
17.0
 40
17.0
 40
18.0
 40
18.0
 40
18.0
 40
19.0
 40
19.0
 40
19.0
 40
20.0
 40
20.0
 40
20.0
 40
20.0
 10
257.7053577757453
 20
20.25910042553502
 30
0.0
 10
258.2139995287706
 20
20.39587059142628
 30
0.0
 10
258.4104423723632
 20
20.62446660851326
 30
0.0
 10
258.4124688639662
 20
21.16843695483816
 30
0.0
 10
258.4191609275175
 20
22.96470127704906
 30
0.0
 10
258.4149081683119
 20
24.76100595804667
 30
0.0
 10
258.4151320634913
 20
26.55729487989966
 30
0.0
 10
258.4151924094879
 20
27.04153921726714
 30
0.0
 10
258.2057453879524
 20
27.36893835120057
 30
0.0
 10
257.7192638284546
 20
27.51463645747964
 30
0.0
  0
SPLINE
  5
97
330
1F
100
AcDbEntity
  8
0
  6
Continuous
 62
   179
370
     0
100
AcDbSpline
210
0.0
220
0.0
230
1.0
 70
    24
 71
     3
 72
     8
 73
     4
 74
     0
 42
0.000000001
 43
0.00000001
 40
16.0
 40
16.0
 40
16.0
 40
16.0
 40
17.0
 40
17.0
 40
17.0
 40
17.0
 10
260.1134120717832
 20
20.25910042553502
 30
0.0
 10
259.3107272904223
 20
20.25910042553502
 30
0.0
 10
258.5080426051526
 20
20.25910042553502
 30
0.0
 10
257.7053577757453
 20
20.25910042553502
 30
0.0
  0
SPLINE
  5
98
330
1F
100
AcDbEntity
  8
0
  6
Continuous
 62
   179
370
     0
100
AcDbSpline
210
0.0
220
0.0
230
1.0
 70
     8
 71
     3
 72
    14
 73
    10
 74
     0
 42
0.000000001
 43
0.00000001
 40
13.0
 40
13.0
 40
13.0
 40
13.0
 40
14.0
 40
14.0
 40
14.0
 40
15.0
 40
15.0
 40
15.0
 40
16.0
 40
16.0
 40
16.0
 40
16.0
 10
259.4607286043899
 20
23.57138302951071
 30
0.0
 10
259.4539911852495
 20
23.51939476107442
 30
0.0
 10
259.4406539512153
 20
23.46398560492077
 30
0.0
 10
259.4405559370167
 20
23.40855338660287
 30
0.0
 10
259.4392191002215
 20
22.65310606781493
 30
0.0
 10
259.4366701545022
 20
21.89763799307776
 30
0.0
 10
259.4408326829897
 20
21.14221143023692
 30
0.0
 10
259.4435911100346
 20
20.64162793377142
 30
0.0
 10
259.6377614656041
 20
20.40079128856705
 30
0.0
 10
260.1134120717832
 20
20.25910042553502
 30
0.0
  0
SPLINE
  5
99
330
1F
100
AcDbEntity
  8
0
  6
Continuous
 62
   179
370
     0
100
AcDbSpline
210
0.0
220
0.0
230
1.0
 70
     8
 71
     3
 72
    20
 73
    16
 74
     0
 42
0.000000001
 43
0.00000001
 40
8.0
 40
8.0
 40
8.0
 40
8.0
 40
9.0
 40
9.0
 40
9.0
 40
10.0
 40
10.0
 40
10.0
 40
11.0
 40
11.0
 40
11.0
 40
12.0
 40
12.0
 40
12.0
 40
13.0
 40
13.0
 40
13.0
 40
13.0
 10
263.9554858268652
 20
20.24609336482204
 30
0.0
 10
263.8909540472192
 20
20.24131411562172
 30
0.0
 10
263.8264337986555
 20
20.23257048036439
 30
0.0
 10
263.7618904879275
 20
20.2323936704376
 30
0.0
 10
263.3170171088603
 20
20.2311736819415
 30
0.0
 10
262.8718696744063
 20
20.24067529366942
 30
0.0
 10
262.427398730108
 20
20.22724465786874
 30
0.0
 10
262.2549406335689
 20
20.22203337745712
 30
0.0
 10
262.1765046750147
 20
20.28890135435546
 30
0.0
 10
262.1067370153144
 20
20.43629933433309
 30
0.0
 10
261.7451764738302
 20
21.20016664933901
 30
0.0
 10
261.3780268168071
 20
21.9614848264415
 30
0.0
 10
261.0037355762117
 20
22.71920223094413
 30
0.0
 10
260.6054131759577
 20
23.52556773374194
 30
0.0
 10
260.3725694925604
 20
23.65083910446932
 30
0.0
 10
259.4607286043899
 20
23.57138302951071
 30
0.0
  0
SPLINE
  5
9A
330
1F
100
AcDbEntity
  8
0
  6
Continuous
 62
   179
370
     0
100
AcDbSpline
210
0.0
220
0.0
230
1.0
 70
     8
 71
     3
 72
    14
 73
    10
 74
     0
 42
0.000000001
 43
0.00000001
 40
5.0
 40
5.0
 40
5.0
 40
5.0
 40
6.0
 40
6.0
 40
6.0
 40
7.0
 40
7.0
 40
7.0
 40
8.0
 40
8.0
 40
8.0
 40
8.0
 10
261.0219043336847
 20
23.63056361828031
 30
0.0
 10
261.7521543160346
 20
23.35408286053947
 30
0.0
 10
262.033208300972
 20
22.73079019980925
 30
0.0
 10
262.3739921385617
 20
22.16106556577573
 30
0.0
 10
262.6276890153665
 20
21.7369354504649
 30
0.0
 10
262.8739775562312
 20
21.30835818112305
 30
0.0
 10
263.1292772534608
 20
20.88520667032095
 30
0.0
 10
263.3178377375433
 20
20.57267359973515
 30
0.0
 10
263.5606000734738
 20
20.32757122285868
 30
0.0
 10
263.9554858268652
 20
20.24609336482204
 30
0.0
  0
SPLINE
  5
9B
330
1F
100
AcDbEntity
  8
0
  6
Continuous
 62
   179
370
     0
100
AcDbSpline
210
0.0
220
0.0
230
1.0
 70
     8
 71
     3
 72
    20
 73
    16
 74
     0
 42
0.000000001
 43
0.00000001
 40
0.0
 40
0.0
 40
0.0
 40
0.0
 40
1.0
 40
1.0
 40
1.0
 40
2.0
 40
2.0
 40
2.0
 40
3.0
 40
3.0
 40
3.0
 40
4.0
 40
4.0
 40
4.0
 40
5.0
 40
5.0
 40
5.0
 40
5.0
 10
257.7192638284546
 20
27.51463645747964
 30
0.0
 10
258.1174764912431
 20
27.51463645747964
 30
0.0
 10
258.5159962651877
 20
27.52468175973202
 30
0.0
 10
258.913837050576
 20
27.51251762112626
 30
0.0
 10
259.7094699986222
 20
27.48819126576296
 30
0.0
 10
260.5093946232761
 20
27.49481913962259
 30
0.0
 10
261.2989762515716
 20
27.40941936834727
 30
0.0
 10
262.3071445332423
 20
27.30037799580672
 30
0.0
 10
262.8488620904764
 20
26.74717259793779
 30
0.0
 10
262.9131259646454
 20
25.88395655371281
 30
0.0
 10
262.9966382899504
 20
24.76217905347503
 30
0.0
 10
262.5617362220245
 20
24.08644572151765
 30
0.0
 10
261.5515161764629
 20
23.77337299628438
 30
0.0
 10
261.3945785321864
 20
23.72473719781129
 30
0.0
 10
261.2341319795987
 20
23.68742184709605
 30
0.0
 10
261.0219043336847
 20
23.63056361828031
 30
0.0
  0
SPLINE
  5
9C
330
1F
100
AcDbEntity
  8
0
  6
Continuous
 62
   179
370
     0
100
AcDbSpline
210
0.0
220
0.0
230
1.0
 70
     8
 71
     3
 72
    20
 73
    16
 74
     0
 42
0.000000001
 43
0.00000001
 40
1.0
 40
1.0
 40
1.0
 40
1.0
 40
2.0
 40
2.0
 40
2.0
 40
3.0
 40
3.0
 40
3.0
 40
4.0
 40
4.0
 40
4.0
 40
5.0
 40
5.0
 40
5.0
 40
6.0
 40
6.0
 40
6.0
 40
6.0
 10
259.4558811296203
 20
23.74052094311723
 30
0.0
 10
259.8313410453958
 20
23.74052094311723
 30
0.0
 10
260.1942113256325
 20
23.70804326575078
 30
0.0
 10
260.5489927438957
 20
23.74778168120398
 30
0.0
 10
261.1506181168165
 20
23.81517009427841
 30
0.0
 10
261.6082598631961
 20
24.13857044109259
 30
0.0
 10
261.7413862071132
 20
24.73962656292206
 30
0.0
 10
261.8389787525148
 20
25.18024881635489
 30
0.0
 10
261.8719876284001
 20
25.65810454981779
 30
0.0
 10
261.8164781518313
 20
26.10478869315943
 30
0.0
 10
261.7108519014664
 20
26.95476897687368
 30
0.0
 10
261.3230227860075
 20
27.28690123567825
 30
0.0
 10
260.4792308497364
 20
27.35420547185249
 30
0.0
 10
260.146744010155
 20
27.38072599997261
 30
0.0
 10
259.8103733099057
 20
27.35855230546976
 30
0.0
 10
259.4558811296203
 20
27.35855230546976
 30
0.0
  0
SPLINE
  5
9D
330
1F
100
AcDbEntity
  8
0
  6
Continuous
 62
   179
370
     0
100
AcDbSpline
210
0.0
220
0.0
230
1.0
 70
    24
 71
     3
 72
     8
 73
     4
 74
     0
 42
0.000000001
 43
0.00000001
 40
0.0
 40
0.0
 40
0.0
 40
0.0
 40
1.0
 40
1.0
 40
1.0
 40
1.0
 10
259.4558811296203
 20
27.35855230546976
 30
0.0
 10
259.4558811296203
 20
26.13864548795524
 30
0.0
 10
259.4558811296203
 20
24.94385548148867
 30
0.0
 10
259.4558811296203
 20
23.74052094311723
 30
0.0
  0
SPLINE
  5
9E
330
1F
100
AcDbEntity
  8
0
  6
Continuous
 62
   179
370
     0
100
AcDbSpline
210
0.0
220
0.0
230
1.0
 70
     8
 71
     3
 72
    14
 73
    10
 74
     0
 42
0.000000001
 43
0.00000001
 40
3.0
 40
3.0
 40
3.0
 40
3.0
 40
4.0
 40
4.0
 40
4.0
 40
5.0
 40
5.0
 40
5.0
 40
6.0
 40
6.0
 40
6.0
 40
6.0
 10
267.2336118279071
 20
20.23490821509466
 30
0.0
 10
266.3034040398355
 20
20.48709452013179
 30
0.0
 10
265.5792320909092
 20
21.34541139190241
 30
0.0
 10
265.4837047623288
 20
22.29272284982233
 30
0.0
 10
265.4259332718035
 20
22.86561853145873
 30
0.0
 10
265.4879189885011
 20
23.41465794151554
 30
0.0
 10
265.7739382574312
 20
23.92202056120339
 30
0.0
 10
266.225828300013
 20
24.72361219597301
 30
0.0
 10
266.9062728477855
 20
25.1505801106106
 30
0.0
 10
267.7758432870376
 20
25.16748813643033
 30
0.0
  0
SPLINE
  5
9F
330
1F
100
AcDbEntity
  8
0
  6
Continuous
 62
   179
370
     0
100
AcDbSpline
210
0.0
220
0.0
230
1.0
 70
     8
 71
     3
 72
    14
 73
    10
 74
     0
 42
0.000000001
 43
0.00000001
 40
0.0
 40
0.0
 40
0.0
 40
0.0
 40
1.0
 40
1.0
 40
1.0
 40
2.0
 40
2.0
 40
2.0
 40
3.0
 40
3.0
 40
3.0
 40
3.0
 10
267.7758432870376
 20
25.16748813643033
 30
0.0
 10
268.6216197225536
 20
25.16033694362373
 30
0.0
 10
269.2464106552308
 20
24.83848445240962
 30
0.0
 10
269.7103360726668
 20
24.21398909980579
 30
0.0
 10
270.372934348899
 20
23.32205720159637
 30
0.0
 10
270.3723808569537
 20
22.03321892002499
 30
0.0
 10
269.7215189161772
 20
21.13111084177938
 30
0.0
 10
269.1482911393735
 20
20.33660467264828
 30
0.0
 10
268.1650050112285
 20
19.98240211471103
 30
0.0
 10
267.2336118279071
 20
20.23490821509466
 30
0.0
  0
SPLINE
  5
A0
330
1F
100
AcDbEntity
  8
0
  6
Continuous
 62
   179
370
     0
100
AcDbSpline
210
0.0
220
0.0
230
1.0
 70
     8
 71
     3
 72
    17
 73
    13
 74
     0
 42
0.000000001
 43
0.00000001
 40
4.0
 40
4.0
 40
4.0
 40
4.0
 40
5.0
 40
5.0
 40
5.0
 40
6.0
 40
6.0
 40
6.0
 40
7.0
 40
7.0
 40
7.0
 40
8.0
 40
8.0
 40
8.0
 40
8.0
 10
266.4699528411193
 20
22.82140374989816
 30
0.0
 10
266.4269741915698
 20
22.16270989809668
 30
0.0
 10
266.5287029361534
 20
21.51524885782823
 30
0.0
 10
266.8746830637486
 20
20.93428603108956
 30
0.0
 10
267.1048165584612
 20
20.54785025472892
 30
0.0
 10
267.4153070900211
 20
20.27237193240103
 30
0.0
 10
267.9076604687568
 20
20.30531315927085
 30
0.0
 10
268.3388937306983
 20
20.33416469565678
 30
0.0
 10
268.6078393105943
 20
20.59660136402461
 30
0.0
 10
268.810867074766
 20
20.94311038392242
 30
0.0
 10
269.1208448575376
 20
21.47214721006825
 30
0.0
 10
269.202432645224
 20
22.05765558940843
 30
0.0
 10
269.218762963826
 20
22.6835112253406
 30
0.0
  0
SPLINE
  5
A1
330
1F
100
AcDbEntity
  8
0
  6
Continuous
 62
   179
370
     0
100
AcDbSpline
210
0.0
220
0.0
230
1.0
 70
     8
 71
     3
 72
    17
 73
    13
 74
     0
 42
0.000000001
 43
0.00000001
 40
0.0
 40
0.0
 40
0.0
 40
0.0
 40
1.0
 40
1.0
 40
1.0
 40
2.0
 40
2.0
 40
2.0
 40
3.0
 40
3.0
 40
3.0
 40
4.0
 40
4.0
 40
4.0
 40
4.0
 10
269.218762963826
 20
22.6835112253406
 30
0.0
 10
269.195680043492
 20
23.34551372899321
 30
0.0
 10
269.0963628325642
 20
24.01168817818242
 30
0.0
 10
268.6683621173312
 20
24.58056604641373
 30
0.0
 10
268.2143234497673
 20
25.18405330473933
 30
0.0
 10
267.4640605055332
 20
25.19142205062979
 30
0.0
 10
267.0072628343699
 20
24.59213287496141
 30
0.0
 10
266.882078331128
 20
24.42789874624284
 30
0.0
 10
266.7597204805012
 20
24.2414496033099
 30
0.0
 10
266.7072125446275
 20
24.04607386528146
 30
0.0
 10
266.5993976948625
 20
23.64490674705059
 30
0.0
 10
266.4968487059656
 20
23.23360918874381
 30
0.0
 10
266.4699528411193
 20
22.82140374989816
 30
0.0
  0
SPLINE
  5
A2
330
1F
100
AcDbEntity
  8
0
  6
Continuous
 62
   179
370
     0
100
AcDbSpline
210
0.0
220
0.0
230
1.0
 70
     8
 71
     3
 72
    17
 73
    13
 74
     0
 42
0.000000001
 43
0.00000001
 40
6.0
 40
6.0
 40
6.0
 40
6.0
 40
7.0
 40
7.0
 40
7.0
 40
8.0
 40
8.0
 40
8.0
 40
9.0
 40
9.0
 40
9.0
 40
10.0
 40
10.0
 40
10.0
 40
10.0
 10
311.6156486607862
 20
20.25320881127337
 30
0.0
 10
312.1185268426077
 20
20.41647125413319
 30
0.0
 10
312.2872188877024
 20
20.63608302071405
 30
0.0
 10
312.2876555313485
 20
21.16871754450475
 30
0.0
 10
312.2890700107628
 20
22.88922803787956
 30
0.0
 10
312.287766229737
 20
24.60974045310045
 30
0.0
 10
312.2871819882396
 20
26.33025248395311
 30
0.0
 10
312.2871512386867
 20
26.42255802816858
 30
0.0
 10
312.2845313768121
 20
26.51487279724975
 30
0.0
 10
312.2823973578678
 20
26.60716642601487
 30
0.0
 10
312.2683694120104
 20
27.21300429544448
 30
0.0
 10
312.2096131670664
 20
27.27631108979181
 30
0.0
 10
311.6691528821609
 20
27.32445797038016
 30
0.0
  0
SPLINE
  5
A3
330
1F
100
AcDbEntity
  8
0
  6
Continuous
 62
   179
370
     0
100
AcDbSpline
210
0.0
220
0.0
230
1.0
 70
    24
 71
     3
 72
     8
 73
     4
 74
     0
 42
0.000000001
 43
0.00000001
 40
5.0
 40
5.0
 40
5.0
 40
5.0
 40
6.0
 40
6.0
 40
6.0
 40
6.0
 10
313.8867245107604
 20
20.25320881127337
 30
0.0
 10
313.0865658051385
 20
20.25320881127337
 30
0.0
 10
312.3511103079175
 20
20.25320881127337
 30
0.0
 10
311.6156486607862
 20
20.25320881127337
 30
0.0
  0
SPLINE
  5
A4
330
1F
100
AcDbEntity
  8
0
  6
Continuous
 62
   179
370
     0
100
AcDbSpline
210
0.0
220
0.0
230
1.0
 70
     8
 71
     3
 72
    17
 73
    13
 74
     0
 42
0.000000001
 43
0.00000001
 40
1.0
 40
1.0
 40
1.0
 40
1.0
 40
2.0
 40
2.0
 40
2.0
 40
3.0
 40
3.0
 40
3.0
 40
4.0
 40
4.0
 40
4.0
 40
5.0
 40
5.0
 40
5.0
 40
5.0
 10
313.1781318226163
 20
27.87703492426926
 30
0.0
 10
313.1781318226163
 20
27.83642744958889
 30
0.0
 10
313.1781318226163
 20
27.75161518695077
 30
0.0
 10
313.1781318226163
 20
27.66680273212925
 30
0.0
 10
313.1781318226163
 20
25.57700952371036
 30
0.0
 10
313.1781256727049
 20
23.48721689184594
 30
0.0
 10
313.1781441224363
 20
21.39742349124223
 30
0.0
 10
313.1781441224363
 20
21.32188875296784
 30
0.0
 10
313.1771847363982
 20
21.24633325874564
 30
0.0
 10
313.1786115156352
 20
21.17082388885262
 30
0.0
 10
313.1888880160859
 20
20.62648762285203
 30
0.0
 10
313.3266152617988
 20
20.4348325806782
 30
0.0
 10
313.8867245107604
 20
20.25320881127337
 30
0.0
  0
SPLINE
  5
A5
330
1F
100
AcDbEntity
  8
0
  6
Continuous
 62
   179
370
     0
100
AcDbSpline
210
0.0
220
0.0
230
1.0
 70
     8
 71
     3
 72
     8
 73
     4
 74
     0
 42
0.000000001
 43
0.00000001
 40
0.0
 40
0.0
 40
0.0
 40
0.0
 40
1.0
 40
1.0
 40
1.0
 40
1.0
 10
311.6691528821609
 20
27.32445797038016
 30
0.0
 10
312.1410908642435
 20
27.49727756634619
 30
0.0
 10
312.6458878181427
 20
27.68213176842718
 30
0.0
 10
313.1781318226163
 20
27.87703492426926
 30
0.0
  0
SPLINE
  5
A6
330
1F
100
AcDbEntity
  8
0
  6
Continuous
 62
   179
370
     0
100
AcDbSpline
210
0.0
220
0.0
230
1.0
 70
     8
 71
     3
 72
    14
 73
    10
 74
     0
 42
0.000000001
 43
0.00000001
 40
6.0
 40
6.0
 40
6.0
 40
6.0
 40
7.0
 40
7.0
 40
7.0
 40
8.0
 40
8.0
 40
8.0
 40
9.0
 40
9.0
 40
9.0
 40
9.0
 10
278.4819664915177
 20
27.88441039662488
 30
0.0
 10
278.4819664915177
 20
27.83987735719566
 30
0.0
 10
278.4819649540404
 20
27.75219577693941
 30
0.0
 10
278.4819649540404
 20
27.66451419668386
 30
0.0
 10
278.4819664915177
 20
25.48269219002111
 30
0.0
 10
278.4816605334703
 20
23.30086999117493
 30
0.0
 10
278.4822124879378
 20
21.11904779232805
 30
0.0
 10
278.4823339486704
 20
20.63637283524633
 30
0.0
 10
278.6550987719953
 20
20.40793364087759
 30
0.0
 10
279.1055120673173
 20
20.25491771765491
 30
0.0
  0
SPLINE
  5
A7
330
1F
100
AcDbEntity
  8
0
  6
Continuous
 62
   179
370
     0
100
AcDbSpline
210
0.0
220
0.0
230
1.0
 70
     8
 71
     3
 72
     8
 73
     4
 74
     0
 42
0.000000001
 43
0.00000001
 40
5.0
 40
5.0
 40
5.0
 40
5.0
 40
6.0
 40
6.0
 40
6.0
 40
6.0
 10
276.9846800684063
 20
27.3296354262854
 30
0.0
 10
277.4478728777531
 20
27.5012575193644
 30
0.0
 10
277.9568994326009
 20
27.68986239811422
 30
0.0
 10
278.4819664915177
 20
27.88441039662488
 30
0.0
  0
SPLINE
  5
A8
330
1F
100
AcDbEntity
  8
0
  6
Continuous
 62
   179
370
     0
100
AcDbSpline
210
0.0
220
0.0
230
1.0
 70
     8
 71
     3
 72
    17
 73
    13
 74
     0
 42
0.000000001
 43
0.00000001
 40
1.0
 40
1.0
 40
1.0
 40
1.0
 40
2.0
 40
2.0
 40
2.0
 40
3.0
 40
3.0
 40
3.0
 40
4.0
 40
4.0
 40
4.0
 40
5.0
 40
5.0
 40
5.0
 40
5.0
 10
276.9460186560295
 20
20.25491771765491
 30
0.0
 10
277.4179566381115
 20
20.4199152040148
 30
0.0
 10
277.5770686601204
 20
20.6342380475635
 30
0.0
 10
277.5771993457187
 20
21.13377529050539
 30
0.0
 10
277.5776652014392
 20
22.92958298186009
 30
0.0
 10
277.5773700057348
 20
24.72538990447762
 30
0.0
 10
277.577359243392
 20
26.52119721146338
 30
0.0
 10
277.577359243392
 20
26.53798031722657
 30
0.0
 10
277.5773838430334
 20
26.55476419172763
 30
0.0
 10
277.5772915943764
 20
26.57154691311976
 30
0.0
 10
277.5738092075535
 20
27.20775573119973
 30
0.0
 10
277.5366914227135
 20
27.25167954511983
 30
0.0
 10
276.9846800684063
 20
27.3296354262854
 30
0.0
  0
SPLINE
  5
A9
330
1F
100
AcDbEntity
  8
0
  6
Continuous
 62
   179
370
     0
100
AcDbSpline
210
0.0
220
0.0
230
1.0
 70
    24
 71
     3
 72
     8
 73
     4
 74
     0
 42
0.000000001
 43
0.00000001
 40
0.0
 40
0.0
 40
0.0
 40
0.0
 40
1.0
 40
1.0
 40
1.0
 40
1.0
 10
279.1055120673173
 20
20.25491771765491
 30
0.0
 10
278.3856819552066
 20
20.25491771765491
 30
0.0
 10
277.6658503056181
 20
20.25491771765491
 30
0.0
 10
276.9460186560295
 20
20.25491771765491
 30
0.0
  0
SPLINE
  5
AA
330
1F
100
AcDbEntity
  8
0
  6
Continuous
 62
   179
370
     0
100
AcDbSpline
210
0.0
220
0.0
230
1.0
 70
     8
 71
     3
 72
    20
 73
    16
 74
     0
 42
0.000000001
 43
0.00000001
 40
5.0
 40
5.0
 40
5.0
 40
5.0
 40
6.0
 40
6.0
 40
6.0
 40
7.0
 40
7.0
 40
7.0
 40
8.0
 40
8.0
 40
8.0
 40
9.0
 40
9.0
 40
9.0
 40
10.0
 40
10.0
 40
10.0
 40
10.0
 10
307.178408284104
 20
20.25443648715803
 30
0.0
 10
307.3179589782804
 20
20.36177625633667
 30
0.0
 10
307.5293898264143
 20
20.45652254628292
 30
0.0
 10
307.6283941606455
 20
20.61954360515536
 30
0.0
 10
307.7285516030972
 20
20.78446498637256
 30
0.0
 10
307.7490584796685
 20
21.01681475508337
 30
0.0
 10
307.7500732149022
 20
21.21990094340409
 30
0.0
 10
307.7587445887104
 20
22.95682170421714
 30
0.0
 10
307.7550484924979
 20
24.69380511724258
 30
0.0
 10
307.7550361926766
 20
26.43077008053731
 30
0.0
 10
307.7550361926766
 20
26.49789904426263
 30
0.0
 10
307.7552944889175
 20
26.56503146731187
 30
0.0
 10
307.7547502218385
 20
26.63215658734291
 30
0.0
 10
307.7501131893193
 20
27.20350460556406
 30
0.0
 10
307.6774858212348
 20
27.28280885460759
 30
0.0
 10
307.160813390154
 20
27.32540717062984
 30
0.0
  0
SPLINE
  5
AB
330
1F
100
AcDbEntity
  8
0
  6
Continuous
 62
   179
370
     0
100
AcDbSpline
210
0.0
220
0.0
230
1.0
 70
    24
 71
     3
 72
     8
 73
     4
 74
     0
 42
0.000000001
 43
0.00000001
 40
4.0
 40
4.0
 40
4.0
 40
4.0
 40
5.0
 40
5.0
 40
5.0
 40
5.0
 10
309.3620693061908
 20
20.25443648715802
 30
0.0
 10
308.5715044609525
 20
20.25443648715802
 30
0.0
 10
307.8517004859625
 20
20.25443648715802
 30
0.0
 10
307.178408284104
 20
20.25443648715803
 30
0.0
  0
SPLINE
  5
AC
330
1F
100
AcDbEntity
  8
0
  6
Continuous
 62
   179
370
     0
100
AcDbSpline
210
0.0
220
0.0
230
1.0
 70
     8
 71
     3
 72
    14
 73
    10
 74
     0
 42
0.000000001
 43
0.00000001
 40
1.0
 40
1.0
 40
1.0
 40
1.0
 40
2.0
 40
2.0
 40
2.0
 40
3.0
 40
3.0
 40
3.0
 40
4.0
 40
4.0
 40
4.0
 40
4.0
 10
308.65963267846
 20
27.88697759989075
 30
0.0
 10
308.65963267846
 20
27.83196991758182
 30
0.0
 10
308.65963267846
 20
27.74275854708867
 30
0.0
 10
308.65963267846
 20
27.65354698440997
 30
0.0
 10
308.65963267846
 20
25.48863300356693
 30
0.0
 10
308.6595035303402
 20
23.32371921490945
 30
0.0
 10
308.6597187772069
 20
21.15880542625192
 30
0.0
 10
308.6597679764911
 20
20.6374237012035
 30
0.0
 10
308.807415027844
 20
20.43200746554105
 30
0.0
 10
309.3620693061909
 20
20.25443648715802
 30
0.0
  0
SPLINE
  5
AD
330
1F
100
AcDbEntity
  8
0
  6
Continuous
 62
   179
370
     0
100
AcDbSpline
210
0.0
220
0.0
230
1.0
 70
     8
 71
     3
 72
     8
 73
     4
 74
     0
 42
0.000000001
 43
0.00000001
 40
0.0
 40
0.0
 40
0.0
 40
0.0
 40
1.0
 40
1.0
 40
1.0
 40
1.0
 10
307.160813390154
 20
27.32540717062984
 30
0.0
 10
307.6336123597078
 20
27.50255342081908
 30
0.0
 10
308.1420254609839
 20
27.69304267058278
 30
0.0
 10
308.65963267846
 20
27.88697759989075
 30
0.0
  0
SPLINE
  5
AE
330
1F
100
AcDbEntity
  8
0
  6
Continuous
 62
   179
370
     0
100
AcDbSpline
210
0.0
220
0.0
230
1.0
 70
     8
 71
     3
 72
    14
 73
    10
 74
     0
 42
0.000000001
 43
0.00000001
 40
6.0
 40
6.0
 40
6.0
 40
6.0
 40
7.0
 40
7.0
 40
7.0
 40
8.0
 40
8.0
 40
8.0
 40
9.0
 40
9.0
 40
9.0
 40
9.0
 10
272.426404840594
 20
20.25907966958721
 30
0.0
 10
273.005992393597
 20
20.37668517687365
 30
0.0
 10
273.0805785081768
 20
20.81042375860577
 30
0.0
 10
273.0783845276048
 20
21.29462927466368
 30
0.0
 10
273.0702866329497
 20
23.08209538116095
 30
0.0
 10
273.0685846452182
 20
24.86961337752775
 30
0.0
 10
273.0527409382852
 20
26.65700799131587
 30
0.0
 10
273.0476395875227
 20
27.23250104921648
 30
0.0
 10
272.9826104338649
 20
27.28380667758701
 30
0.0
 10
272.4594267850394
 20
27.32510813123116
 30
0.0
  0
SPLINE
  5
AF
330
1F
100
AcDbEntity
  8
0
  6
Continuous
 62
   179
370
     0
100
AcDbSpline
210
0.0
220
0.0
230
1.0
 70
    24
 71
     3
 72
     8
 73
     4
 74
     0
 42
0.000000001
 43
0.00000001
 40
5.0
 40
5.0
 40
5.0
 40
5.0
 40
6.0
 40
6.0
 40
6.0
 40
6.0
 10
274.6224502449564
 20
20.25907966958721
 30
0.0
 10
273.8904356226618
 20
20.25907966958721
 30
0.0
 10
273.1584194628893
 20
20.25907966958721
 30
0.0
 10
272.426404840594
 20
20.25907966958721
 30
0.0
  0
SPLINE
  5
B0
330
1F
100
AcDbEntity
  8
0
  6
Continuous
 62
   179
370
     0
100
AcDbSpline
210
0.0
220
0.0
230
1.0
 70
     8
 71
     3
 72
    17
 73
    13
 74
     0
 42
0.000000001
 43
0.00000001
 40
1.0
 40
1.0
 40
1.0
 40
1.0
 40
2.0
 40
2.0
 40
2.0
 40
3.0
 40
3.0
 40
3.0
 40
4.0
 40
4.0
 40
4.0
 40
5.0
 40
5.0
 40
5.0
 40
5.0
 10
273.9540333846496
 20
27.87257450949275
 30
0.0
 10
273.9540333846496
 20
27.8074859707617
 30
0.0
 10
273.9540333846496
 20
27.71082379150879
 30
0.0
 10
273.9540333846496
 20
27.61416161225588
 30
0.0
 10
273.9540349221275
 20
25.51596282147274
 30
0.0
 10
273.9539872603212
 20
23.41776441505854
 30
0.0
 10
273.9542086570993
 20
21.31956562427539
 30
0.0
 10
273.954217881965
 20
21.22727776105204
 30
0.0
 10
273.9506540088286
 20
21.13443409966764
 30
0.0
 10
273.9590578615309
 20
21.04279505200227
 30
0.0
 10
274.0006220316647
 20
20.58964274029083
 30
0.0
 10
274.1836818051717
 20
20.38260600321025
 30
0.0
 10
274.6224502449564
 20
20.25907966958721
 30
0.0
  0
SPLINE
  5
B1
330
1F
100
AcDbEntity
  8
0
  6
Continuous
 62
   179
370
     0
100
AcDbSpline
210
0.0
220
0.0
230
1.0
 70
     8
 71
     3
 72
     8
 73
     4
 74
     0
 42
0.000000001
 43
0.00000001
 40
0.0
 40
0.0
 40
0.0
 40
0.0
 40
1.0
 40
1.0
 40
1.0
 40
1.0
 10
272.4594267850394
 20
27.32510813123116
 30
0.0
 10
272.932774634105
 20
27.49849255803981
 30
0.0
 10
273.4351023989377
 20
27.68249307566929
 30
0.0
 10
273.9540333846496
 20
27.87257450949275
 30
0.0
  0
SPLINE
  5
B2
330
1F
100
AcDbEntity
  8
0
  6
Continuous
 62
   179
370
     0
100
AcDbSpline
210
0.0
220
0.0
230
1.0
 70
     8
 71
     3
 72
    17
 73
    13
 74
     0
 42
0.000000001
 43
0.00000001
 40
6.0
 40
6.0
 40
6.0
 40
6.0
 40
7.0
 40
7.0
 40
7.0
 40
8.0
 40
8.0
 40
8.0
 40
9.0
 40
9.0
 40
9.0
 40
10.0
 40
10.0
 40
10.0
 40
10.0
 10
304.1706223551654
 20
25.06377258638473
 30
0.0
 10
304.1727133247369
 20
25.01792115989103
 30
0.0
 10
304.1800409430993
 20
24.93136078519359
 30
0.0
 10
304.1800932173391
 20
24.84479541369365
 30
0.0
 10
304.1808527312862
 20
23.65282014439031
 30
0.0
 10
304.1797703470369
 20
22.46084295323947
 30
0.0
 10
304.1818797663413
 20
21.26887114326077
 30
0.0
 10
304.1821011631179
 20
21.14380579453512
 30
0.0
 10
304.1922454404933
 20
21.01764883669525
 30
0.0
 10
304.2107535961514
 20
20.89393877449616
 30
0.0
 10
304.2621822227331
 20
20.55023795748125
 30
0.0
 10
304.4578262506062
 20
20.33981031349823
 30
0.0
 10
304.8038079156779
 20
20.2539775500868
 30
0.0
  0
SPLINE
  5
B3
330
1F
100
AcDbEntity
  8
0
  6
Continuous
 62
   179
370
     0
100
AcDbSpline
210
0.0
220
0.0
230
1.0
 70
     8
 71
     3
 72
     8
 73
     4
 74
     0
 42
0.000000001
 43
0.00000001
 40
5.0
 40
5.0
 40
5.0
 40
5.0
 40
6.0
 40
6.0
 40
6.0
 40
6.0
 10
302.7125031745686
 20
24.50968064047994
 30
0.0
 10
303.1898069535648
 20
24.6910587978335
 30
0.0
 10
303.6729961969132
 20
24.87467283202501
 30
0.0
 10
304.1706223551654
 20
25.06377258638473
 30
0.0
  0
SPLINE
  5
B4
330
1F
100
AcDbEntity
  8
0
  6
Continuous
 62
   179
370
     0
100
AcDbSpline
210
0.0
220
0.0
230
1.0
 70
     8
 71
     3
 72
    17
 73
    13
 74
     0
 42
0.000000001
 43
0.00000001
 40
1.0
 40
1.0
 40
1.0
 40
1.0
 40
2.0
 40
2.0
 40
2.0
 40
3.0
 40
3.0
 40
3.0
 40
4.0
 40
4.0
 40
4.0
 40
5.0
 40
5.0
 40
5.0
 40
5.0
 10
302.6973344203136
 20
20.2539775500868
 30
0.0
 10
303.1321361678242
 20
20.3494649042487
 30
0.0
 10
303.2897768237453
 20
20.65853557522151
 30
0.0
 10
303.2916556214045
 20
21.04785181591347
 30
0.0
 10
303.2966032244031
 20
22.071496731734
 30
0.0
 10
303.2829750227277
 20
23.09531768874207
 30
0.0
 10
303.2668591822546
 20
24.11891186780057
 30
0.0
 10
303.2632153602819
 20
24.35030186610297
 30
0.0
 10
303.1332831261333
 20
24.4918735746181
 30
0.0
 10
302.8846514693662
 20
24.49557889569631
 30
0.0
 10
302.8224697242705
 20
24.49650561033552
 30
0.0
 10
302.760410977386
 20
24.5055728846329
 30
0.0
 10
302.7125031745686
 20
24.50968064047994
 30
0.0
  0
SPLINE
  5
B5
330
1F
100
AcDbEntity
  8
0
  6
Continuous
 62
   179
370
     0
100
AcDbSpline
210
0.0
220
0.0
230
1.0
 70
    24
 71
     3
 72
     8
 73
     4
 74
     0
 42
0.000000001
 43
0.00000001
 40
0.0
 40
0.0
 40
0.0
 40
0.0
 40
1.0
 40
1.0
 40
1.0
 40
1.0
 10
304.8038079156779
 20
20.2539775500868
 30
0.0
 10
304.101651108875
 20
20.2539775500868
 30
0.0
 10
303.3994912271164
 20
20.2539775500868
 30
0.0
 10
302.6973344203136
 20
20.2539775500868
 30
0.0
  0
SPLINE
  5
B6
330
1F
100
AcDbEntity
  8
0
  6
Continuous
 62
   179
370
     0
100
AcDbSpline
210
0.0
220
0.0
230
1.0
 70
     8
 71
     3
 72
    11
 73
     7
 74
     0
 42
0.000000001
 43
0.00000001
 40
2.0
 40
2.0
 40
2.0
 40
2.0
 40
3.0
 40
3.0
 40
3.0
 40
4.0
 40
4.0
 40
4.0
 40
4.0
 10
303.0570519104932
 20
26.35430478392947
 30
0.0
 10
303.0511172468595
 20
26.75330175249256
 30
0.0
 10
303.3266947364937
 20
27.05519259513757
 30
0.0
 10
303.6924299141011
 20
27.05034857969325
 30
0.0
 10
304.0507636744179
 20
27.04560238626284
 30
0.0
 10
304.3255386007336
 20
26.75299425696746
 30
0.0
 10
304.327448147944
 20
26.37412133304796
 30
0.0
  0
SPLINE
  5
B7
330
1F
100
AcDbEntity
  8
0
  6
Continuous
 62
   179
370
     0
100
AcDbSpline
210
0.0
220
0.0
230
1.0
 70
     8
 71
     3
 72
    11
 73
     7
 74
     0
 42
0.000000001
 43
0.00000001
 40
0.0
 40
0.0
 40
0.0
 40
0.0
 40
1.0
 40
1.0
 40
1.0
 40
2.0
 40
2.0
 40
2.0
 40
2.0
 10
304.327448147944
 20
26.37412133304796
 30
0.0
 10
304.3293945946187
 20
25.98752450590587
 30
0.0
 10
304.068057222753
 20
25.70828897263022
 30
0.0
 10
303.6993639381942
 20
25.70301926806731
 30
0.0
 10
303.3259905717408
 20
25.69768229885988
 30
0.0
 10
303.0628482011429
 20
25.96449808787493
 30
0.0
 10
303.0570519104932
 20
26.35430478392947
 30
0.0
  0
MTEXT
  5
B9
330
1F
100
AcDbEntity
  8
0
  6
Continuous
 62
     7
370
     0
100
AcDbMText
 10
257.9690483454
 20
40.3166048975
 30
0.0
 40
3.7041666667
 41
0.0
 71
     1
 72
     1
  1
FIDW - Fiddlehead Wall Mount
  7
SLDTEXTSTYLE0
 73
     1
 44
1.0
  0
MTEXT
  5
BA
330
1F
100
AcDbEntity
  8
0
  6
Continuous
 62
     7
370
     0
100
AcDbMText
 10
258.6105142387
 20
44.3546043689
 30
0.0
 40
1.5875
 41
0.0
 71
     1
 72
     1
  1
\LDESCRIPTION
  7
SLDTEXTSTYLE0
 73
     1
 44
1.0
  0
INSERT
  5
C1
330
1F
100
AcDbEntity
  8
0
  6
Continuous
 62
     7
370
     0
100
AcDbBlockReference
  2
SW_NOTE_0
 10
317.1049495712
 20
24.1495665419
 30
0.0
  0
MTEXT
  5
C2
330
1F
100
AcDbEntity
  8
0
  6
Continuous
 62
     7
370
     0
100
AcDbMText
 10
273.8792930731
 20
32.371143085
 30
0.0
 40
1.5875
 41
0.0
 71
     2
 72
     1
  1
\LSCALE
  7
SLDTEXTSTYLE0
 73
     1
 44
1.0
  0
MTEXT
  5
C3
330
1F
100
AcDbEntity
  8
0
  6
Continuous
 62
     7
370
     0
100
AcDbMText
 10
278.3960862508
 20
33.4394650451
 30
0.0
 40
2.6458333333
 41
0.0
 71
     1
 72
     1
  1
1:12
  7
SLDTEXTSTYLE0
 73
     1
 44
1.0
  0
MTEXT
  5
C4
330
1F
100
AcDbEntity
  8
0
  6
Continuous
 62
     7
370
     0
100
AcDbMText
 10
261.5657280329
 20
32.371143085
 30
0.0
 40
1.5875
 41
0.0
 71
     2
 72
     1
  1
\LSIZE
  7
SLDTEXTSTYLE0
 73
     1
 44
1.0
  0
MTEXT
  5
C5
330
1F
100
AcDbEntity
  8
0
  6
Continuous
 62
     7
370
     0
100
AcDbMText
 10
264.7495209372
 20
33.4394651033
 30
0.0
 40
2.6458333333
 41
0.0
 71
     1
 72
     1
  1
B
  7
SLDTEXTSTYLE0
 73
     1
 44
1.0
  0
INSERT
  5
CC
330
1F
100
AcDbEntity
  8
0
  6
Continuous
 62
     7
370
     0
100
AcDbBlockReference
  2
SW_NOTE_1
 10
258.0900415808
 20
15.6806800849
 30
0.0
  0
ARC
  5
CD
330
1F
100
AcDbEntity
  8
0
  6
Continuous
 62
     7
370
    15
100
AcDbCircle
 10
97.155
 20
154.5771047824
 30
0.0
 40
0.5291666666666686
100
AcDbArc
 50
0.0
 51
180.0
  0
LINE
  5
CE
330
1F
100
AcDbEntity
  8
0
  6
Continuous
 62
     7
370
    15
100
AcDbLine
 10
97.6841666667
 20
136.7376373642
 30
0.0
 11
97.6841666667
 21
154.5771047824
 31
0.0
  0
LINE
  5
CF
330
1F
100
AcDbEntity
  8
0
  6
Continuous
 62
     7
370
    15
100
AcDbLine
 10
96.6258333333
 20
154.5771047824
 30
0.0
 11
96.6258333333
 21
136.7376373642
 31
0.0
  0
ARC
  5
D0
330
1F
100
AcDbEntity
  8
0
  6
Continuous
 62
     7
370
    15
100
AcDbCircle
 10
97.155
 20
143.5513883498
 30
0.0
 40
10.41666666666666
100
AcDbArc
 50
0.0
 51
87.0881210652
  0
ARC
  5
D1
330
1F
100
AcDbEntity
  8
0
  6
Continuous
 62
     7
370
    15
100
AcDbCircle
 10
97.155
 20
143.5513883498
 30
0.0
 40
10.41666666666666
100
AcDbArc
 50
92.9118789348
 51
267.0881210652
  0
ARC
  5
D2
330
1F
100
AcDbEntity
  8
0
  6
Continuous
 62
     7
370
    15
100
AcDbCircle
 10
97.155
 20
143.5513883498
 30
0.0
 40
10.41666666666667
100
AcDbArc
 50
272.9118789348
 51
0.0
  0
LINE
  5
D3
330
1F
100
AcDbEntity
  8
0
  6
Continuous
 62
     7
370
    15
100
AcDbLine
 10
96.6258333333
 20
136.7376373642
 30
0.0
 11
96.6258333333
 21
127.277579017
 31
0.0
  0
LINE
  5
D4
330
1F
100
AcDbEntity
  8
0
  6
Continuous
 62
     7
370
    15
100
AcDbLine
 10
97.6841666667
 20
127.277579017
 30
0.0
 11
97.6841666667
 21
136.7376373642
 31
0.0
  0
SPLINE
  5
D5
330
1F
100
AcDbEntity
  8
0
  6
Continuous
 62
     7
370
    15
100
AcDbSpline
210
0.0
220
0.0
230
1.0
 70
    24
 71
     3
 72
    17
 73
    13
 74
     0
 42
0.000000001
 43
0.00000001
 40
0.0
 40
0.0
 40
0.0
 40
0.0
 40
0.0954538250651095
 40
0.1974402328473213
 40
0.3006156436739725
 40
0.4015912442286924
 40
0.5009377145707622
 40
0.5996487927302601
 40
0.6989718078723178
 40
0.8006598202289786
 40
0.9036681379194464
 40
1.0
 40
1.0
 40
1.0
 40
1.0
 10
97.68416666666616
 20
121.0713794980471
 30
0.0
 10
97.68416666666616
 20
121.2831525817644
 30
0.0
 10
97.68416666666616
 20
121.7211918843424
 30
0.0
 10
97.68416666666616
 20
122.3860591205086
 30
0.0
 10
97.68416666666616
 20
123.0583993388629
 30
0.0
 10
97.68416666666616
 20
123.7161964760199
 30
0.0
 10
97.68416666666616
 20
124.3526741669497
 30
0.0
 10
97.68416666666616
 20
124.9722636889272
 30
0.0
 10
97.68416666666616
 20
125.5812440665542
 30
0.0
 10
97.68416666666616
 20
126.177352998511
 30
0.0
 10
97.68416666666614
 20
126.7469591284109
 30
0.0
 10
97.68416666666614
 20
127.1046996280827
 30
0.0
 10
97.68416666666614
 20
127.2775790170478
 30
0.0
  0
SPLINE
  5
D6
330
1F
100
AcDbEntity
  8
0
  6
Continuous
 62
     7
370
    15
100
AcDbSpline
210
0.0
220
0.0
230
1.0
 70
    24
 71
     3
 72
    15
 73
    11
 74
     0
 42
0.000000001
 43
0.00000001
 40
0.0
 40
0.0
 40
0.0
 40
0.0
 40
0.1255453118549222
 40
0.2497656430321394
 40
0.3746938315258522
 40
0.4999641489068491
 40
0.6250997816396192
 40
0.7497232516345469
 40
0.8741198178207823
 40
1.0
 40
1.0
 40
1.0
 40
1.0
 10
96.62583333333282
 20
127.2775790170478
 30
0.0
 10
96.62583333333282
 20
127.0519242357103
 30
0.0
 10
96.62583333333282
 20
126.602996189483
 30
0.0
 10
96.62583333333282
 20
125.8805420923577
 30
0.0
 10
96.62583333333282
 20
125.1300565923583
 30
0.0
 10
96.62583333333282
 20
124.3497798022088
 30
0.0
 10
96.62583333333282
 20
123.5485974352485
 30
0.0
 10
96.62583333333282
 20
122.7334433621224
 30
0.0
 10
96.62583333333282
 20
121.9060627706485
 30
0.0
 10
96.62583333333282
 20
121.3507046251021
 30
0.0
 10
96.62583333333282
 20
121.0713794980471
 30
0.0
  0
ARC
  5
D7
330
1F
100
AcDbEntity
  8
0
  6
Continuous
 62
     7
370
    15
100
AcDbCircle
 10
97.155
 20
57.3012285509
 30
0.0
 40
1.587500000000005
100
AcDbArc
 50
109.4712206344
 51
0.0
  0
ARC
  5
D8
330
1F
100
AcDbEntity
  8
0
  6
Continuous
 62
     7
370
    15
100
AcDbCircle
 10
97.155
 20
57.3012285509
 30
0.0
 40
1.587500000000005
100
AcDbArc
 50
0.0
 51
70.5287793656
  0
ARC
  5
D9
330
1F
100
AcDbEntity
  8
0
  6
Continuous
 62
     7
370
    15
100
AcDbCircle
 10
97.155
 20
88.4312712378
 30
0.0
 40
1.317625000000007
100
AcDbArc
 50
294.6721735277
 51
0.0
  0
ARC
  5
DA
330
1F
100
AcDbEntity
  8
0
  6
Continuous
 62
     7
370
    15
100
AcDbCircle
 10
97.155
 20
88.4312712378
 30
0.0
 40
1.317625
100
AcDbArc
 50
114.449463967
 51
245.4740676146
  0
ARC
  5
DB
330
1F
100
AcDbEntity
  8
0
  6
Continuous
 62
     7
370
    15
100
AcDbCircle
 10
97.155
 20
88.4312712378
 30
0.0
 40
1.317625000000007
100
AcDbArc
 50
0.0
 51
65.5567369333
  0
LINE
  5
DC
330
1F
100
AcDbEntity
  8
0
  6
Continuous
 62
     7
370
    15
100
AcDbLine
 10
96.6033656687
 20
87.2347336593
 30
0.0
 11
96.6033656687
 21
85.1716045711
 31
0.0
  0
LINE
  5
DD
330
1F
100
AcDbEntity
  8
0
  6
Continuous
 62
     7
370
    15
100
AcDbLine
 10
97.7066343313
 20
85.1716045711
 30
0.0
 11
97.7066343313
 21
87.2347370264
 31
0.0
  0
LINE
  5
DE
330
1F
100
AcDbEntity
  8
0
  6
Continuous
 62
     7
370
    15
100
AcDbLine
 10
96.6033656687
 20
91.8179379045
 30
0.0
 11
96.6033656687
 21
89.6278644039
 31
0.0
  0
LINE
  5
DF
330
1F
100
AcDbEntity
  8
0
  6
Continuous
 62
     7
370
    15
100
AcDbLine
 10
97.7066343313
 20
89.6278644039
 30
0.0
 11
97.7066343313
 21
91.8179379045
 31
0.0
  0
LINE
  5
E0
330
1F
100
AcDbEntity
  8
0
  6
Continuous
 62
     7
370
    15
100
AcDbLine
 10
97.6841666667
 20
91.8179379045
 30
0.0
 11
97.6841666667
 21
121.0751663664
 31
0.0
  0
LINE
  5
E1
330
1F
100
AcDbEntity
  8
0
  6
Continuous
 62
     7
370
    15
100
AcDbLine
 10
96.6258333333
 20
121.0751663664
 30
0.0
 11
96.6258333333
 21
91.8179379045
 31
0.0
  0
LINE
  5
E2
330
1F
100
AcDbEntity
  8
0
  6
Continuous
 62
     7
370
    15
100
AcDbLine
 10
97.6841666667
 20
58.7979379045
 30
0.0
 11
97.6841666667
 21
85.1716045711
 31
0.0
  0
LINE
  5
E3
330
1F
100
AcDbEntity
  8
0
  6
Continuous
 62
     7
370
    15
100
AcDbLine
 10
96.6258333333
 20
85.1716045711
 30
0.0
 11
96.6258333333
 21
58.7979379045
 31
0.0
  0
LWPOLYLINE
  5
E4
330
1F
100
AcDbEntity
  8
0
  6
Continuous
 62
     7
370
    15
100
AcDbPolyline
 90
       72
 70
   128
 43
0.0
 10
95.7593729423
 20
135.164172065
 10
95.9140798256
 20
134.980668782
 10
96.0455642918
 20
134.8016285412
 10
96.1527972969
 20
134.6284525753
 10
96.2349395972
 20
134.4624962208
 10
96.2913483177
 20
134.3050583114
 10
96.3215819839
 20
134.1573710122
 10
96.3254039761
 20
134.0205901764
 10
96.3027843823
 20
133.8957862996
 10
96.2539002314
 20
133.7839361413
 10
96.179134108
 20
133.6859150807
 10
96.0790711586
 20
133.6024902655
 10
95.9544945114
 20
133.5343146079
 10
95.8063791475
 20
133.481921675
 10
95.6358842704
 20
133.4457215124
 10
95.4443442339
 20
133.4259974355
 10
95.2332580982
 20
133.422903812
 10
95.0042778988
 20
133.4364648536
 10
94.759195716
 20
133.4665744269
 10
94.4999296503
 20
133.5129968835
 10
94.2285088101
 20
133.5753689049
 10
93.9470574316
 20
133.6532023453
 10
93.6577782533
 20
133.7458880527
 10
93.3629352771
 20
133.8527006356
 10
93.064836049
 20
133.9728041407
 10
92.7658135997
 20
134.1052585954
 10
92.4682081852
 20
134.2490273638
 10
92.1743489714
 20
134.4029852605
 10
91.8865358051
 20
134.5659273562
 10
91.6070212146
 20
134.7365784081
 10
91.3379927805
 20
134.9136028402
 10
91.081556015
 20
135.0956151965
 10
90.8397178836
 20
135.2811909833
 10
90.6143710976
 20
135.4688778187
 10
90.4072793009
 20
135.6572067986
 10
90.2200632679
 20
135.8447039933
 10
90.0541882177
 20
136.0299019833
 10
89.9109523474
 20
136.2113513429
 10
89.7914766722
 20
136.3876319851
 10
89.6966962509
 20
136.5573642748
 10
89.627352869
 20
136.7192198266
 10
89.5839892325
 20
136.8719319015
 10
89.5669447206
 20
137.0143053203
 10
89.5763527297
 20
137.1452258182
 10
89.6121396293
 20
137.2636687645
 10
89.6740253386
 20
137.3687071828
 10
89.7615255178
 20
137.4595190049
 10
89.8739553595
 20
137.5353935052
 10
90.0104349477
 20
137.595736863
 10
90.1698961445
 20
137.6400768095
 10
90.35109095
 20
137.6680663246
 10
90.552601269
 20
137.6794863524
 10
90.7728500102
 20
137.6742475157
 10
91.0101134284
 20
137.6523908155
 10
91.2625346159
 20
137.6140873101
 10
91.5281380344
 20
137.5596367764
 10
91.8048449772
 20
137.4894653635
 10
92.0904898372
 20
137.4041222581
 10
92.3828370561
 20
137.3042753855
 10
92.6795986206
 20
137.190706183
 10
92.9784519691
 20
137.0643034835
 10
93.2770581688
 20
136.9260565595
 10
93.5730802215
 20
136.7770473807
 10
93.8642013532
 20
136.6184421458
 10
94.1481431463
 20
136.4514821561
 10
94.4226833713
 20
136.2774740996
 10
94.6856733787
 20
136.0977798254
 10
94.9350549151
 20
135.9138056848
 10
95.168876232
 20
135.726991525
 10
95.3853073604
 20
135.5387994199
 10
95.5826544333
 20
135.3507022281
 10
95.7593729423
 20
135.164172065
  0
LWPOLYLINE
  5
E5
330
1F
100
AcDbEntity
  8
0
  6
Continuous
 62
     7
370
    15
100
AcDbPolyline
 90
       35
 70
   128
 43
0.0
 10
96.3154402539
 20
133.9463888361
 10
96.2169099868
 20
133.8645484757
 10
96.0923333396
 20
133.7963728181
 10
95.9442179757
 20
133.7439798852
 10
95.7737230986
 20
133.7077797226
 10
95.5821830621
 20
133.6880556457
 10
95.3710969264
 20
133.6849620222
 10
95.142116727
 20
133.6985230639
 10
94.8970345442
 20
133.7286326371
 10
94.6377684785
 20
133.7750550938
 10
94.3663476383
 20
133.8374271151
 10
94.0848962598
 20
133.9152605556
 10
93.7956170815
 20
134.0079462629
 10
93.5007741053
 20
134.1147588458
 10
93.2026748772
 20
134.2348623509
 10
92.9036524279
 20
134.3673168056
 10
92.6060470134
 20
134.511085574
 10
92.3121877996
 20
134.6650434708
 10
92.0243746333
 20
134.8279855665
 10
91.7448600428
 20
134.9986366183
 10
91.4758316087
 20
135.1756610505
 10
91.2193948432
 20
135.3576734067
 10
90.9775567118
 20
135.5432491936
 10
90.7522099258
 20
135.7309360289
 10
90.5451181291
 20
135.9192650088
 10
90.3579020961
 20
136.1067622036
 10
90.1920270458
 20
136.2919601935
 10
90.0487911756
 20
136.4734095532
 10
89.9293155004
 20
136.6496901954
 10
89.8345350791
 20
136.819422485
 10
89.7651916972
 20
136.9812780369
 10
89.7218280607
 20
137.1339901117
 10
89.7047835488
 20
137.2763635306
 10
89.7141915579
 20
137.4072840284
 10
89.716144459
 20
137.4175229726
  0
LINE
  5
E6
330
1F
100
AcDbEntity
  8
0
  6
Continuous
 62
     7
370
    15
100
AcDbLine
 10
96.6258333333
 20
58.7979379045
 30
0.0
 11
97.6841666667
 21
58.7979379045
 31
0.0
  0
SPLINE
  5
E7
330
1F
100
AcDbEntity
  8
0
  6
Continuous
 62
     7
370
    15
100
AcDbSpline
210
0.0
220
0.0
230
1.0
 70
     8
 71
     3
 72
    17
 73
    13
 74
     0
 42
0.000000001
 43
0.00000001
 40
0.0
 40
0.0
 40
0.0
 40
0.0
 40
0.0657856668166556
 40
0.1747370002363554
 40
0.2836860596942189
 40
0.3926303551866777
 40
0.5015694824038659
 40
0.6105052812745748
 40
0.7194410303292265
 40
0.8283800293842307
 40
0.93732417355897
 40
0.9999999999999999
 40
0.9999999999999999
 40
0.9999999999999999
 40
0.9999999999999999
 10
96.61098973980084
 20
89.62792486099968
 30
0.0
 10
96.6111103464413
 20
89.62830012602788
 30
0.0
 10
96.61143069650508
 20
89.62929688852181
 30
0.0
 10
96.68144965821324
 20
89.63080312758433
 30
0.0
 10
96.80550844482357
 20
89.63220303318222
 30
0.0
 10
96.97163744224014
 20
89.63310565042931
 30
0.0
 10
97.15776951632775
 20
89.63341194426269
 30
0.0
 10
97.34357411908333
 20
89.63308742383636
 30
0.0
 10
97.50882281644547
 20
89.6321686824418
 30
0.0
 10
97.63137675631744
 20
89.63075662691678
 30
0.0
 10
97.69952026335531
 20
89.62926079215954
 30
0.0
 10
97.69902922051395
 20
89.62828200886861
 30
0.0
 10
97.69884989105834
 20
89.62792455599498
 30
0.0
  0
SPLINE
  5
E8
330
1F
100
AcDbEntity
  8
0
  6
Continuous
 62
     7
370
    15
100
AcDbSpline
210
0.0
220
0.0
230
1.0
 70
     8
 71
     3
 72
    17
 73
    13
 74
     0
 42
0.000000001
 43
0.00000001
 40
0.0
 40
0.0
 40
0.0
 40
0.0
 40
0.1032188979498526
 40
0.2121419622888846
 40
0.3210617047628762
 40
0.4299762784257241
 40
0.5388860916304927
 40
0.647793615869576
 40
0.7567023110355547
 40
0.8656151313931272
 40
0.974533246239179
 40
0.9999999999999999
 40
0.9999999999999999
 40
0.9999999999999999
 40
0.9999999999999999
 10
97.70494033978362
 20
87.23461016943168
 30
0.0
 10
97.69871527769396
 20
87.23402340102108
 30
0.0
 10
97.68592113908856
 20
87.23281743772843
 30
0.0
 10
97.59107549866022
 20
87.23120627777791
 30
0.0
 10
97.45041780032601
 20
87.2299637492433
 30
0.0
 10
97.2751300453648
 20
87.22925979590975
 30
0.0
 10
97.08656926794828
 20
87.22917203824201
 30
0.0
 10
96.90599413159549
 20
87.22971024051269
 30
0.0
 10
96.75215891844012
 20
87.23081495984565
 30
0.0
 10
96.64879612844938
 20
87.23236123442962
 30
0.0
 10
96.60024186235377
 20
87.233717783605
 30
0.0
 10
96.6076781039446
 20
87.23447849083867
 30
0.0
 10
96.60908731716526
 20
87.23462264950776
 30
0.0
  0
LINE
  5
E9
330
1F
100
AcDbEntity
  8
0
  6
Continuous
 62
     7
370
    15
100
AcDbLine
 10
96.6033656687
 20
85.1716045711
 30
0.0
 11
97.7066343313
 21
85.1716045711
 31
0.0
  0
LINE
  5
EA
330
1F
100
AcDbEntity
  8
0
  6
Continuous
 62
     7
370
    15
100
AcDbLine
 10
96.6033656687
 20
91.8179379045
 30
0.0
 11
97.7066343313
 21
91.8179379045
 31
0.0
  0
ARC
  5
EB
330
1F
100
AcDbEntity
  8
0
  6
Continuous
 62
     7
370
    15
100
AcDbCircle
 10
97.155
 20
88.1795034279
 30
0.0
 40
5.291666666666684
100
AcDbArc
 50
275.7391704773
 51
0.0
  0
ARC
  5
EC
330
1F
100
AcDbEntity
  8
0
  6
Continuous
 62
     7
370
    15
100
AcDbCircle
 10
97.155
 20
88.1795034279
 30
0.0
 40
5.291666666666666
100
AcDbArc
 50
95.7391704773
 51
264.2608295227
  0
ARC
  5
ED
330
1F
100
AcDbEntity
  8
0
  6
Continuous
 62
     7
370
    15
100
AcDbCircle
 10
97.155
 20
88.1795034279
 30
0.0
 40
5.291666666666671
100
AcDbArc
 50
0.0
 51
84.2608295227
  0
INSERT
  5
F9
330
1F
100
AcDbEntity
  8
0
  6
Continuous
 62
     7
370
     0
100
AcDbBlockReference
  2
SW_CENTERMARKSYMBOL_0
 10
97.155
 20
88.1795034279
 30
0.0
  0
INSERT
  5
105
330
1F
100
AcDbEntity
  8
0
  6
Continuous
 62
     7
370
     0
100
AcDbBlockReference
  2
SW_CENTERMARKSYMBOL_1
 10
97.155
 20
88.4312712378
 30
0.0
  0
ARC
  5
106
330
1F
100
AcDbEntity
  8
0
  6
Continuous
 62
     7
370
    15
100
AcDbCircle
 10
97.155
 20
209.0148423193
 30
0.0
 40
0.5291666666666828
100
AcDbArc
 50
180.0
 51
0.0
  0
LINE
  5
107
330
1F
100
AcDbEntity
  8
0
  6
Continuous
 62
     7
370
    15
100
AcDbLine
 10
97.6841666667
 20
209.0148423193
 30
0.0
 11
97.6841666667
 21
227.1741377792
 31
0.0
  0
LINE
  5
108
330
1F
100
AcDbEntity
  8
0
  6
Continuous
 62
     7
370
    15
100
AcDbLine
 10
96.6258333333
 20
227.1769314416
 30
0.0
 11
96.6258333333
 21
209.0148423193
 31
0.0
  0
ARC
  5
109
330
1F
100
AcDbEntity
  8
0
  6
Continuous
 62
     7
370
    15
100
AcDbCircle
 10
97.155
 20
220.0184062455
 30
0.0
 40
10.41666666666667
100
AcDbArc
 50
272.9118789348
 51
267.0881210652
  0
SPLINE
  5
10A
330
1F
100
AcDbEntity
  8
0
  6
Continuous
 62
     7
370
    15
100
AcDbSpline
210
0.0
220
0.0
230
1.0
 70
     8
 71
     3
 72
    26
 73
    22
 74
     0
 42
0.000000001
 43
0.00000001
 40
0.0
 40
0.0
 40
0.0
 40
0.0
 40
0.031933468174605
 40
0.0886100513973732
 40
0.1453452106363541
 40
0.2021192129080486
 40
0.2589164058222568
 40
0.315725882326407
 40
0.3725402643987962
 40
0.4293567494252333
 40
0.4861753551857754
 40
0.5429974723545572
 40
0.5998249373735479
 40
0.656659380319286
 40
0.7135025016654313
 40
0.7703548536466887
 40
0.827214991274362
 40
0.8840763640215012
 40
0.9409288076649732
 40
0.9977568814458403
 40
1.0
 40
1.0
 40
1.0
 40
1.0
 10
99.05126078701058
 20
227.9236304916255
 30
0.0
 10
99.02317072429362
 20
227.9525691115323
 30
0.0
 10
98.94522548240835
 20
228.0328689581789
 30
0.0
 10
98.79492951353497
 20
228.1502394875918
 30
0.0
 10
98.60456554834055
 20
228.2750507958899
 30
0.0
 10
98.3971351398132
 20
228.383227194746
 30
0.0
 10
98.17619906984892
 20
228.4743094211052
 30
0.0
 10
97.94388913793125
 20
228.5470961665353
 30
0.0
 10
97.7028766199305
 20
228.600846460337
 30
0.0
 10
97.45580552111299
 20
228.6349633630963
 30
0.0
 10
97.20540728572087
 20
228.6490817367792
 30
0.0
 10
96.9544362388758
 20
228.6430461284704
 30
0.0
 10
96.70565534542521
 20
228.6169161183128
 30
0.0
 10
96.46179770372052
 20
228.5709673360446
 30
0.0
 10
96.22556589324421
 20
228.5056743375646
 30
0.0
 10
95.9995065383462
 20
228.4217594463522
 30
0.0
 10
95.78635623622003
 20
228.319988244278
 30
0.0
 10
95.5876436535997
 20
228.2019134061794
 30
0.0
 10
95.4087852388137
 20
228.0670763182442
 30
0.0
 10
95.29397191963696
 20
227.9693845764151
 30
0.0
 10
95.24556933643197
 20
227.9139316810338
 30
0.0
 10
95.24373133844742
 20
227.9118259605702
 30
0.0
  0
LINE
  5
10B
330
1F
100
AcDbEntity
  8
0
  6
Continuous
 62
     7
370
    15
100
AcDbLine
 10
94.77375
 20
226.8259862515
 30
0.0
 11
94.77375
 21
226.6835281399
 31
0.0
  0
LINE
  5
10C
330
1F
100
AcDbEntity
  8
0
  6
Continuous
 62
     7
370
    15
100
AcDbLine
 10
99.53625
 20
226.6835281399
 30
0.0
 11
99.53625
 21
226.8259862515
 31
0.0
  0
LINE
  5
10D
330
1F
100
AcDbEntity
  8
0
  6
Continuous
 62
     7
370
    15
100
AcDbLine
 10
99.4304166667
 20
226.8744519929
 30
0.0
 11
99.4304166667
 21
226.8861053469
 31
0.0
  0
LINE
  5
10E
330
1F
100
AcDbEntity
  8
0
  6
Continuous
 62
     7
370
    15
100
AcDbLine
 10
94.8795833333
 20
226.8861053469
 30
0.0
 11
94.8795833333
 21
226.8744519929
 31
0.0
  0
LINE
  5
10F
330
1F
100
AcDbEntity
  8
0
  6
Continuous
 62
     7
370
    15
100
AcDbLine
 10
97.6841666667
 20
227.736921695
 30
0.0
 11
97.6841666667
 21
227.9855533755
 31
0.0
  0
LINE
  5
110
330
1F
100
AcDbEntity
  8
0
  6
Continuous
 62
     7
370
    15
100
AcDbLine
 10
96.6258333333
 20
227.9855533755
 30
0.0
 11
96.6258333333
 21
227.8304137199
 31
0.0
  0
SPLINE
  5
111
330
1F
100
AcDbEntity
  8
0
  6
Continuous
 62
     7
370
    15
100
AcDbSpline
210
0.0
220
0.0
230
1.0
 70
     8
 71
     3
 72
    22
 73
    18
 74
     0
 42
0.000000001
 43
0.00000001
 40
0.0
 40
0.0
 40
0.0
 40
0.0
 40
0.0519126094257741
 40
0.1189784950059412
 40
0.1866462307264721
 40
0.2562727832225981
 40
0.3275745685947106
 40
0.3995933566727856
 40
0.471647838324482
 40
0.5437139527490462
 40
0.6159325010289546
 40
0.688439722750645
 40
0.7613949867373129
 40
0.8347012449557775
 40
0.9073695755716132
 40
0.9779063847140902
 40
1.0
 40
1.0
 40
1.0
 40
1.0
 10
97.68158630636937
 20
227.9772286448422
 30
0.0
 10
97.68172365464113
 20
227.9986443288713
 30
0.0
 10
97.68203844310672
 20
228.0477269291008
 30
0.0
 10
97.65157326010703
 20
228.1213193320391
 30
0.0
 10
97.59849371792211
 20
228.1931251718627
 30
0.0
 10
97.52328684279058
 20
228.254855621063
 30
0.0
 10
97.4295355104268
 20
228.3039783609668
 30
0.0
 10
97.3213772796302
 20
228.3377477797788
 30
0.0
 10
97.20466657824463
 20
228.354281433707
 30
0.0
 10
97.08537720070697
 20
228.3527612985342
 30
0.0
 10
96.96930620328122
 20
228.3331757998693
 30
0.0
 10
96.8619394923382
 20
228.296135250986
 30
0.0
 10
96.76872729375262
 20
228.2427830338005
 30
0.0
 10
96.69412267628675
 20
228.1748973932434
 30
0.0
 10
96.64570279449276
 20
228.0956102761321
 30
0.0
 10
96.62379641418484
 20
228.0283941852811
 30
0.0
 10
96.62784606080888
 20
227.9904388809434
 30
0.0
 10
96.62881195657268
 20
227.9813860249593
 30
0.0
  0
SPLINE
  5
112
330
1F
100
AcDbEntity
  8
0
  6
Continuous
 62
     7
370
    15
100
AcDbSpline
210
0.0
220
0.0
230
1.0
 70
     8
 71
     3
 72
    49
 73
    45
 74
     0
 42
0.000000001
 43
0.00000001
 40
0.0
 40
0.0
 40
0.0
 40
0.0
 40
0.0312500000000024
 40
0.0312500000000024
 40
0.0625000000000048
 40
0.0937500000000072
 40
0.0937500000000072
 40
0.1250000000000095
 40
0.1250000000000095
 40
0.1875000000000028
 40
0.1875000000000028
 40
0.2499999999999961
 40
0.2499999999999961
 40
0.3124999999999894
 40
0.3124999999999894
 40
0.343749999999986
 40
0.343749999999986
 40
0.3749999999999826
 40
0.3749999999999826
 40
0.4374999999999808
 40
0.4374999999999808
 40
0.499999999999979
 40
0.499999999999979
 40
0.531249999999978
 40
0.531249999999978
 40
0.5624999999999771
 40
0.5624999999999771
 40
0.6249999999999752
 40
0.6249999999999752
 40
0.6874999999999734
 40
0.6874999999999734
 40
0.7499999999999715
 40
0.7499999999999715
 40
0.8124999999999696
 40
0.8124999999999696
 40
0.8437499999999687
 40
0.8437499999999687
 40
0.8749999999999679
 40
0.8749999999999679
 40
0.9374999999999778
 40
0.9374999999999778
 40
0.9687499999999889
 40
0.9687499999999889
 40
1.0
 40
1.0
 40
1.0
 40
1.0
 10
96.62583333333306
 20
227.6331382431191
 30
0.0
 10
96.62583333333306
 20
227.644580756238
 30
0.0
 10
96.62669372467413
 20
227.6562265543315
 30
0.0
 10
96.63009091102789
 20
227.6790812197519
 30
0.0
 10
96.63515712239784
 20
227.7017303812547
 30
0.0
 10
96.64352644787948
 20
227.7239728811592
 30
0.0
 10
96.65357782847376
 20
227.7460083302679
 30
0.0
 10
96.6594844473655
 20
227.7569781251779
 30
0.0
 10
96.67943359809236
 20
227.7889459438157
 30
0.0
 10
96.69569776189384
 20
227.8091292364175
 30
0.0
 10
96.73405300554015
 20
227.8472781357719
 30
0.0
 10
96.75640444261052
 20
227.8653681829513
 30
0.0
 10
96.80527344503587
 20
227.8978077857862
 30
0.0
 10
96.83190660349757
 20
227.9123396588495
 30
0.0
 10
96.87520454054462
 20
227.9315674143132
 30
0.0
 10
96.89025679628531
 20
227.9375594206156
 30
0.0
 10
96.92085522949445
 20
227.948416123248
 30
0.0
 10
96.93646875884595
 20
227.9533154353345
 30
0.0
 10
96.98423407754426
 20
227.9664569742669
 30
0.0
 10
97.0174129246929
 20
227.9731726808924
 30
0.0
 10
97.08587307749289
 20
227.9822230117912
 30
0.0
 10
97.12023560499763
 20
227.9844513061924
 30
0.0
 10
97.17197111977073
 20
227.9844690913857
 30
0.0
 10
97.18924847955289
 20
227.9839168462897
 30
0.0
 10
97.22386924692796
 20
227.9816670186793
 30
0.0
 10
97.24121073899308
 20
227.9799610477731
 30
0.0
 10
97.29218573037194
 20
227.9732327079284
 30
0.0
 10
97.32517043799284
 20
227.9665977537591
 30
0.0
 10
97.38914849621665
 20
227.9490414358543
 30
0.0
 10
97.42020174122143
 20
227.938027185013
 30
0.0
 10
97.47758757700565
 20
227.9125850506585
 30
0.0
 10
97.50429175826058
 20
227.8980776396029
 30
0.0
 10
97.55360281513109
 20
227.8653819705241
 30
0.0
 10
97.57566863664773
 20
227.8475134997716
 30
0.0
 10
97.6044120256951
 20
227.8189865155936
 30
0.0
 10
97.61329866385327
 20
227.8091640080168
 30
0.0
 10
97.62965976511175
 20
227.7888814371724
 30
0.0
 10
97.63716854746691
 20
227.7783603523668
 30
0.0
 10
97.65714220061962
 20
227.746370867166
 30
0.0
 10
97.66714808289386
 20
227.7244601084181
 30
0.0
 10
97.67729491202854
 20
227.6907352381197
 30
0.0
 10
97.67986109031551
 20
227.6793494758566
 30
0.0
 10
97.68330634960299
 20
227.6562799535232
 30
0.0
 10
97.68416666666639
 20
227.6445807521439
 30
0.0
 10
97.68416666666639
 20
227.6331382431191
 30
0.0
  0
SPLINE
  5
113
330
1F
100
AcDbEntity
  8
0
  6
Continuous
 62
     7
370
    15
100
AcDbSpline
210
0.0
220
0.0
230
1.0
 70
     8
 71
     3
 72
     8
 73
     4
 74
     0
 42
0.000000001
 43
0.00000001
 40
0.0
 40
0.0
 40
0.0
 40
0.0
 40
1.0
 40
1.0
 40
1.0
 40
1.0
 10
97.68416666666639
 20
227.6331382431191
 30
0.0
 10
97.68416666666639
 20
227.4878612714178
 30
0.0
 10
97.68415958740243
 20
227.3409323677947
 30
0.0
 10
97.68416494177205
 20
227.192336345807
 30
0.0
  0
SPLINE
  5
114
330
1F
100
AcDbEntity
  8
0
  6
Continuous
 62
     7
370
    15
100
AcDbSpline
210
0.0
220
0.0
230
1.0
 70
     8
 71
     3
 72
     8
 73
     4
 74
     0
 42
0.000000001
 43
0.00000001
 40
0.0
 40
0.0
 40
0.0
 40
0.0
 40
1.0
 40
1.0
 40
1.0
 40
1.0
 10
96.6258350582274
 20
227.1923363456716
 30
0.0
 10
96.62584041243964
 20
227.3409280008008
 30
0.0
 10
96.62583333333306
 20
227.4878612430405
 30
0.0
 10
96.62583333333306
 20
227.6331382431191
 30
0.0
  0
ARC
  5
115
330
1F
100
AcDbEntity
  8
0
  6
Continuous
 62
     7
370
    15
100
AcDbCircle
 10
96.2563955801
 20
226.8269004659
 30
0.0
 40
1.476952806495101
100
AcDbArc
 50
133.6013000642
 51
225.0451128294
  0
ARC
  5
116
330
1F
100
AcDbEntity
  8
0
  6
Continuous
 62
     7
370
    15
100
AcDbCircle
 10
98.0500944471
 20
226.8266315984
 30
0.0
 40
1.480273037899229
100
AcDbArc
 50
313.8982540191
 51
47.0146818223
  0
LWPOLYLINE
  5
117
330
1F
100
AcDbEntity
  8
0
  6
Continuous
 62
     7
370
    15
100
AcDbPolyline
 90
       14
 70
   128
 43
0.0
 10
94.77375
 20
226.6835281399
 10
94.7887228002
 20
226.4814581029
 10
94.8334529091
 20
226.2819292139
 10
94.9073778197
 20
226.0874506643
 10
95.0095678833
 20
225.9004681349
 10
95.1387380006
 20
225.7233330394
 10
95.2932637824
 20
225.5582729544
 10
95.4712019773
 20
225.4073636062
 10
95.6703149093
 20
225.2725027675
 10
95.8880986178
 20
225.1553863916
 10
96.1218143462
 20
225.0574872848
 10
96.3685229837
 20
224.9800365851
 10
96.625122026
 20
224.9240082802
 10
96.6258333333
 20
224.9238853197
  0
LWPOLYLINE
  5
118
330
1F
100
AcDbEntity
  8
0
  6
Continuous
 62
     7
370
    15
100
AcDbPolyline
 90
       14
 70
   128
 43
0.0
 10
97.6841666667
 20
224.9238853197
 10
97.684877974
 20
224.9240082802
 10
97.9414770163
 20
224.9800365851
 10
98.1881856538
 20
225.0574872848
 10
98.4219013822
 20
225.1553863916
 10
98.6396850907
 20
225.2725027675
 10
98.8387980227
 20
225.4073636062
 10
99.0167362176
 20
225.5582729544
 10
99.1712619994
 20
225.7233330394
 10
99.3004321167
 20
225.9004681349
 10
99.4026221803
 20
226.0874506643
 10
99.4765470909
 20
226.2819292139
 10
99.5212771998
 20
226.4814581029
 10
99.53625
 20
226.6835281399
  0
LWPOLYLINE
  5
119
330
1F
100
AcDbEntity
  8
0
  6
Continuous
 62
     7
370
    15
100
AcDbPolyline
 90
       14
 70
   128
 43
0.0
 10
97.6841666667
 20
225.1971778201
 10
97.8106134298
 20
225.2230304495
 10
98.0541602299
 20
225.2902546415
 10
98.2860397546
 20
225.378034977
 10
98.503243194
 20
225.4852324406
 10
98.7029521712
 20
225.6104560652
 10
98.8825753131
 20
225.7520809809
 10
99.0397818754
 20
225.9082694984
 10
99.1725319855
 20
226.0769949553
 10
99.2791031117
 20
226.2560680127
 10
99.3581124139
 20
226.443165064
 10
99.4085346875
 20
226.6358583852
 10
99.4297156658
 20
226.8316476366
 10
99.4304166667
 20
226.8744519929
  0
LWPOLYLINE
  5
11A
330
1F
100
AcDbEntity
  8
0
  6
Continuous
 62
     7
370
    15
100
AcDbPolyline
 90
       14
 70
   128
 43
0.0
 10
94.8795833333
 20
226.8744519929
 10
94.8802843342
 20
226.8316476366
 10
94.9014653125
 20
226.6358583852
 10
94.9518875861
 20
226.443165064
 10
95.0308968883
 20
226.2560680127
 10
95.1374680145
 20
226.0769949553
 10
95.2702181246
 20
225.9082694984
 10
95.4274246869
 20
225.7520809809
 10
95.6070478288
 20
225.6104560652
 10
95.806756806
 20
225.4852324406
 10
96.0239602454
 20
225.378034977
 10
96.2558397701
 20
225.2902546415
 10
96.4993865702
 20
225.2230304495
 10
96.6258333333
 20
225.1971778201
  0
LWPOLYLINE
  5
11B
330
1F
100
AcDbEntity
  8
0
  6
Continuous
 62
     7
370
    15
100
AcDbPolyline
 90
       53
 70
   128
 43
0.0
 10
96.6258333333
 20
225.2088311741
 10
96.4865532678
 20
225.2376416843
 10
96.2440252095
 20
225.3057899912
 10
96.0132689209
 20
225.3943593994
 10
95.7972662737
 20
225.5022054001
 10
95.5988084905
 20
225.627934389
 10
95.4204600763
 20
225.7699216751
 10
95.2645256791
 20
225.9263324747
 10
95.1330203097
 20
226.0951456211
 10
95.0276433025
 20
226.2741796823
 10
94.9497563571
 20
226.46112115
 10
94.9003659415
 20
226.6535543352
 10
94.8801102872
 20
226.8489925837
 10
94.889251141
 20
227.0449104096
 10
94.9276703834
 20
227.2387761297
 10
94.9948715544
 20
227.4280845785
 10
95.0899862691
 20
227.6103894804
 10
95.2117854392
 20
227.7833350606
 10
95.3586951553
 20
227.9446864873
 10
95.5288170253
 20
228.0923587502
 10
95.7199527056
 20
228.2244436033
 10
95.9296323089
 20
228.339234224
 10
96.15514632
 20
228.4352472685
 10
96.3935806088
 20
228.51124204
 10
96.6418540873
 20
228.5662365214
 10
96.8967585237
 20
228.5995200646
 10
97.155
 20
228.6106625741
 10
97.4132414763
 20
228.5995200646
 10
97.6681459127
 20
228.5662365214
 10
97.9164193912
 20
228.51124204
 10
98.15485368
 20
228.4352472685
 10
98.3803676911
 20
228.339234224
 10
98.5900472944
 20
228.2244436033
 10
98.7811829747
 20
228.0923587502
 10
98.9513048447
 20
227.9446864873
 10
99.0982145608
 20
227.7833350606
 10
99.2200137309
 20
227.6103894804
 10
99.3151284456
 20
227.4280845785
 10
99.3823296166
 20
227.2387761297
 10
99.420748859
 20
227.0449104096
 10
99.4298897128
 20
226.8489925837
 10
99.4096340585
 20
226.6535543352
 10
99.3602436429
 20
226.46112115
 10
99.2823566975
 20
226.2741796823
 10
99.1769796903
 20
226.0951456211
 10
99.0454743209
 20
225.9263324747
 10
98.8895399237
 20
225.7699216751
 10
98.7111915095
 20
225.627934389
 10
98.5127337263
 20
225.5022054001
 10
98.2967310791
 20
225.3943593994
 10
98.0659747905
 20
225.3057899912
 10
97.8234467322
 20
225.2376416843
 10
97.6841666667
 20
225.2088311741
  0
LWPOLYLINE
  5
11C
330
1F
100
AcDbEntity
  8
0
  6
Continuous
 62
     7
370
    15
100
AcDbPolyline
 90
       52
 70
   128
 43
0.0
 10
97.6841666667
 20
225.2744650825
 10
97.8041392856
 20
225.2998578682
 10
98.0419176284
 20
225.3674291291
 10
98.2677846822
 20
225.4553961863
 10
98.4787070562
 20
225.5625776438
 10
98.6718520664
 20
225.6875340564
 10
98.8446257786
 20
225.8285872615
 10
98.9947078446
 20
225.9838429169
 10
99.1200826649
 20
226.1512159418
 10
99.2190664576
 20
226.3284585191
 10
99.290329872
 20
226.5131902841
 10
99.3329158417
 20
226.7029302922
 10
99.3462524379
 20
226.8951303383
 10
99.3301605502
 20
227.0872091788
 10
99.2848562925
 20
227.2765871982
 10
99.2109481001
 20
227.4607210529
 10
99.1094285589
 20
227.6371378282
 10
98.9816610746
 20
227.8034682497
 10
98.8293615624
 20
227.9574785026
 10
98.6545754023
 20
228.0971002319
 10
98.4596499694
 20
228.22045832
 10
98.2472031091
 20
228.3258960698
 10
98.0200879792
 20
228.4119974542
 10
97.7813547321
 20
228.4776061329
 10
97.5342095513
 20
228.5218409824
 10
97.2819715926
 20
228.5441079296
 10
97.0280284074
 20
228.5441079296
 10
96.7757904487
 20
228.5218409824
 10
96.528645268
 20
228.4776061329
 10
96.2899120208
 20
228.4119974542
 10
96.0627968909
 20
228.3258960698
 10
95.8503500306
 20
228.22045832
 10
95.6554245977
 20
228.0971002319
 10
95.4806384376
 20
227.9574785026
 10
95.3283389254
 20
227.8034682497
 10
95.2005714411
 20
227.6371378282
 10
95.0990518999
 20
227.4607210529
 10
95.0251437075
 20
227.2765871982
 10
94.9798394498
 20
227.0872091788
 10
94.9637475621
 20
226.8951303383
 10
94.9770841583
 20
226.7029302922
 10
95.019670128
 20
226.5131902841
 10
95.0909335424
 20
226.3284585191
 10
95.1899173351
 20
226.1512159418
 10
95.3152921554
 20
225.9838429169
 10
95.4653742214
 20
225.8285872615
 10
95.6381479336
 20
225.6875340564
 10
95.8312929438
 20
225.5625776438
 10
96.0422153178
 20
225.4553961863
 10
96.2680823716
 20
225.3674291291
 10
96.5058607144
 20
225.2998578682
 10
96.6258333333
 20
225.2744650825
  0
LINE
  5
11D
330
1F
100
AcDbEntity
  8
0
  6
Continuous
 62
     7
370
    15
100
AcDbLine
 10
97.6840544289
 20
227.9784437669
 30
0.0
 11
97.6841666667
 21
227.9855533755
 31
0.0
  0
SPLINE
  5
11E
330
1F
100
AcDbEntity
  8
0
  6
Continuous
 62
     7
370
    15
100
AcDbSpline
210
0.0
220
0.0
230
1.0
 70
     8
 71
     3
 72
    10
 73
     6
 74
     0
 42
0.000000001
 43
0.00000001
 40
0.0
 40
0.0
 40
0.0
 40
0.0
 40
0.0552253330838847
 40
0.3168938388011879
 40
1.0
 40
1.0
 40
1.0
 40
1.0
 10
97.68416666666639
 20
227.6331382431191
 30
0.0
 10
97.68416666257782
 20
227.6350225180996
 30
0.0
 10
97.68416663911685
 20
227.6458348590776
 30
0.0
 10
97.68416647370076
 20
227.6799345354902
 30
0.0
 10
97.6841616838145
 20
227.7119852767479
 30
0.0
 10
97.68415822055395
 20
227.7351591187135
 30
0.0
  0
SPLINE
  5
11F
330
1F
100
AcDbEntity
  8
0
  6
Continuous
 62
     7
370
    15
100
AcDbSpline
210
0.0
220
0.0
230
1.0
 70
     8
 71
     3
 72
    10
 73
     6
 74
     0
 42
0.000000001
 43
0.00000001
 40
0.0
 40
0.0
 40
0.0
 40
0.0
 40
0.5134849425906618
 40
0.9709429635179615
 40
1.0
 40
1.0
 40
1.0
 40
1.0
 10
96.62587736483198
 20
227.8264424850913
 30
0.0
 10
96.62586132518156
 20
227.793543629421
 30
0.0
 10
96.62583099598507
 20
227.7313355493559
 30
0.0
 10
96.62583343823593
 20
227.6665715000707
 30
0.0
 10
96.62583333924526
 20
227.6350225021363
 30
0.0
 10
96.62583333333306
 20
227.6331382431191
 30
0.0
  0
INSERT
  5
12B
330
1F
100
AcDbEntity
  8
0
  6
Continuous
 62
     7
370
     0
100
AcDbBlockReference
  2
SW_CENTERMARKSYMBOL_2
 10
97.155
 20
220.5181683291
 30
0.0
  0
INSERT
  5
137
330
1F
100
AcDbEntity
  8
0
  6
Continuous
 62
     7
370
     0
100
AcDbBlockReference
  2
SW_CENTERMARKSYMBOL_3
 10
97.155
 20
220.5301305697
 30
0.0
  0
ARC
  5
138
330
1F
100
AcDbEntity
  8
0
  6
Continuous
 62
     7
370
    15
100
AcDbCircle
 10
319.1114424908
 20
143.5513883498
 30
0.0
 40
10.41666666666664
100
AcDbArc
 50
61.8975687393
 51
0.0
  0
ARC
  5
139
330
1F
100
AcDbEntity
  8
0
  6
Continuous
 62
     7
370
    15
100
AcDbCircle
 10
319.1114424908
 20
143.5513883498
 30
0.0
 40
10.41666666666666
100
AcDbArc
 50
0.0
 51
36.6627223377
  0
LINE
  5
13A
330
1F
100
AcDbEntity
  8
0
  6
Continuous
 62
     7
370
    15
100
AcDbLine
 10
327.8945196291
 20
93.4711700946
 30
0.0
 11
327.1007696291
 21
93.4711700946
 31
0.0
  0
LINE
  5
13B
330
1F
100
AcDbEntity
  8
0
  6
Continuous
 62
     7
370
    15
100
AcDbLine
 10
327.1007696291
 20
82.8878367613
 30
0.0
 11
327.8945196291
 21
82.8878367613
 31
0.0
  0
ARC
  5
13C
330
1F
100
AcDbEntity
  8
0
  6
Continuous
 62
     7
370
    15
100
AcDbCircle
 10
327.1007696291
 20
83.1524200946
 30
0.0
 40
0.2645833333333485
100
AcDbArc
 50
180.0
 51
270.0
  0
ARC
  5
13D
330
1F
100
AcDbEntity
  8
0
  6
Continuous
 62
     7
370
    15
100
AcDbCircle
 10
327.1007696291
 20
93.2065867613
 30
0.0
 40
0.2645833333333485
100
AcDbArc
 50
90.0
 51
180.0
  0
LINE
  5
13E
330
1F
100
AcDbEntity
  8
0
  6
Continuous
 62
     7
370
    15
100
AcDbLine
 10
324.0203593792
 20
152.9047344784
 30
0.0
 11
323.9717951938
 21
152.8483129636
 31
0.0
  0
LINE
  5
13F
330
1F
100
AcDbEntity
  8
0
  6
Continuous
 62
     7
370
    15
100
AcDbLine
 10
327.5813335765
 20
149.7414433309
 30
0.0
 11
327.7237916881
 21
149.9069501216
 31
0.0
  0
ARC
  5
140
330
1F
100
AcDbEntity
  8
0
  6
Continuous
 62
     7
370
    15
100
AcDbCircle
 10
327.6756645097
 20
149.94837505
 30
0.0
 40
0.0634999999999808
100
AcDbArc
 50
319.2801455385
 51
36.7576393621
  0
ARC
  5
141
330
1F
100
AcDbEntity
  8
0
  6
Continuous
 62
     7
370
    15
100
AcDbCircle
 10
319.1114424908
 20
143.5513883498
 30
0.0
 40
10.75309015265146
100
AcDbArc
 50
36.7576393621
 51
37.0636703933
  0
LINE
  5
142
330
1F
100
AcDbEntity
  8
0
  6
Continuous
 62
     7
370
    15
100
AcDbLine
 10
327.6920454654
 20
150.0322988123
 30
0.0
 11
327.7036988194
 21
150.0458375936
 31
0.0
  0
LINE
  5
143
330
1F
100
AcDbEntity
  8
0
  6
Continuous
 62
     7
370
    15
100
AcDbLine
 10
327.4673206175
 20
149.77121513
 30
0.0
 11
327.5011216124
 21
149.8104848783
 31
0.0
  0
LINE
  5
144
330
1F
100
AcDbEntity
  8
0
  6
Continuous
 62
     7
370
    15
100
AcDbLine
 10
324.0520071579
 20
152.7792714162
 30
0.0
 11
324.018206163
 21
152.7400016679
 31
0.0
  0
ARC
  5
145
330
1F
100
AcDbEntity
  8
0
  6
Continuous
 62
     7
370
    15
100
AcDbCircle
 10
319.1114424908
 20
143.5513883498
 30
0.0
 40
10.75309015265142
100
AcDbArc
 50
37.521945517
 51
43.8876125769
  0
ARC
  5
146
330
1F
100
AcDbEntity
  8
0
  6
Continuous
 62
     7
370
    15
100
AcDbCircle
 10
319.6112045744
 20
57.3012285509
 30
0.0
 40
1.587500000000014
100
AcDbArc
 50
109.4712206344
 51
0.0
  0
ARC
  5
147
330
1F
100
AcDbEntity
  8
0
  6
Continuous
 62
     7
370
    15
100
AcDbCircle
 10
319.6112045744
 20
57.3012285509
 30
0.0
 40
1.587499999999995
100
AcDbArc
 50
0.0
 51
70.5287793656
  0
ARC
  5
148
330
1F
100
AcDbEntity
  8
0
  6
Continuous
 62
     7
370
    15
100
AcDbCircle
 10
319.6112045744
 20
88.4312712378
 30
0.0
 40
1.317624999999992
100
AcDbArc
 50
295.0474011539
 51
329.8670605025
  0
ARC
  5
149
330
1F
100
AcDbEntity
  8
0
  6
Continuous
 62
     7
370
    15
100
AcDbCircle
 10
319.6112045744
 20
88.4312712378
 30
0.0
 40
1.317625000000022
100
AcDbArc
 50
114.1652443918
 51
246.1065824834
  0
ARC
  5
14A
330
1F
100
AcDbEntity
  8
0
  6
Continuous
 62
     7
370
    15
100
AcDbCircle
 10
319.6112045744
 20
88.4312712378
 30
0.0
 40
1.317624999999988
100
AcDbArc
 50
30.1329394975
 51
64.9373160686
  0
LINE
  5
14B
330
1F
100
AcDbEntity
  8
0
  6
Continuous
 62
     7
370
    15
100
AcDbLine
 10
326.8361862957
 20
89.0927295711
 30
0.0
 11
320.7507696291
 21
89.0927295711
 31
0.0
  0
LINE
  5
14C
330
1F
100
AcDbEntity
  8
0
  6
Continuous
 62
     7
370
    15
100
AcDbLine
 10
320.7507696291
 20
87.7698129045
 30
0.0
 11
326.8361862957
 21
87.7698129045
 31
0.0
  0
ARC
  5
14D
330
1F
100
AcDbEntity
  8
0
  6
Continuous
 62
     7
370
    15
100
AcDbCircle
 10
319.2203785646
 20
143.4646047823
 30
0.0
 40
10.58333333337856
100
AcDbArc
 50
180.0
 51
217.2541325011
  0
ARC
  5
14E
330
1F
100
AcDbEntity
  8
0
  6
Continuous
 62
     7
370
    15
100
AcDbCircle
 10
319.2203785646
 20
143.4646047823
 30
0.0
 40
10.58333333337863
100
AcDbArc
 50
63.0408779679
 51
180.0
  0
ARC
  5
14F
330
1F
100
AcDbEntity
  8
0
  6
Continuous
 62
     7
370
    15
100
AcDbCircle
 10
319.2203785646
 20
143.4646047823
 30
0.0
 40
11.64166666671198
100
AcDbArc
 50
47.5523426359
 51
217.2541325011
  0
LINE
  5
150
330
1F
100
AcDbEntity
  8
0
  6
Continuous
 62
     7
370
    15
100
AcDbLine
 10
319.0715324837
 20
91.8179379045
 30
0.0
 11
319.0715324837
 21
89.6333024604
 31
0.0
  0
LINE
  5
151
330
1F
100
AcDbEntity
  8
0
  6
Continuous
 62
     7
370
    15
100
AcDbLine
 10
320.1748011463
 20
89.6223424692
 30
0.0
 11
320.1748011463
 21
91.8179379045
 31
0.0
  0
LINE
  5
152
330
1F
100
AcDbEntity
  8
0
  6
Continuous
 62
     7
370
    15
100
AcDbLine
 10
319.0715324837
 20
87.2293074432
 30
0.0
 11
319.0715324837
 21
85.1716045711
 31
0.0
  0
LINE
  5
153
330
1F
100
AcDbEntity
  8
0
  6
Continuous
 62
     7
370
    15
100
AcDbLine
 10
320.1748011463
 20
85.1716045711
 30
0.0
 11
320.1748011463
 21
87.2401965276
 31
0.0
  0
ARC
  5
154
330
1F
100
AcDbEntity
  8
0
  6
Continuous
 62
     7
370
    15
100
AcDbCircle
 10
327.3823724292
 20
151.7087521368
 30
0.0
 40
0.0634999999999838
100
AcDbArc
 50
319.2801455385
 51
49.2801455385
  0
LINE
  5
155
330
1F
100
AcDbEntity
  8
0
  6
Continuous
 62
     7
370
    15
100
AcDbLine
 10
327.4237973577
 20
151.7568793152
 30
0.0
 11
327.0774181075
 21
152.0550213655
 31
0.0
  0
LINE
  5
156
330
1F
100
AcDbEntity
  8
0
  6
Continuous
 62
     7
370
    15
100
AcDbLine
 10
320.140371241
 20
58.7979379045
 30
0.0
 11
320.140371241
 21
85.1716045711
 31
0.0
  0
LINE
  5
157
330
1F
100
AcDbEntity
  8
0
  6
Continuous
 62
     7
370
    15
100
AcDbLine
 10
319.0820379077
 20
85.1716045711
 30
0.0
 11
319.0820379077
 21
58.7979379045
 31
0.0
  0
LINE
  5
158
330
1F
100
AcDbEntity
  8
0
  6
Continuous
 62
     7
370
    15
100
AcDbLine
 10
320.140371241
 20
91.8179379045
 30
0.0
 11
320.140371241
 21
121.0751663664
 31
0.0
  0
LINE
  5
159
330
1F
100
AcDbEntity
  8
0
  6
Continuous
 62
     7
370
    15
100
AcDbLine
 10
319.0820379077
 20
121.0751663664
 30
0.0
 11
319.0820379077
 21
91.8179379045
 31
0.0
  0
SPLINE
  5
15A
330
1F
100
AcDbEntity
  8
0
  6
Continuous
 62
     7
370
    15
100
AcDbSpline
210
0.0
220
0.0
230
1.0
 70
     8
 71
     3
 72
    28
 73
    24
 74
     0
 42
0.000000001
 43
0.00000001
 40
0.0
 40
0.0
 40
0.0
 40
0.0
 40
0.0795302239464256
 40
0.1483879569075895
 40
0.2071532172406509
 40
0.2586440005614103
 40
0.3039131257020035
 40
0.3589746941825718
 40
0.4176393934790849
 40
0.486811354567588
 40
0.5479966883977058
 40
0.614255512474191
 40
0.6747478204171302
 40
0.7281102896077849
 40
0.7747496627698927
 40
0.7966998099375174
 40
0.8184143610154188
 40
0.8399020689886296
 40
0.8620956178649481
 40
0.8853018162889477
 40
0.9126232626494026
 40
0.951079585538783
 40
1.0
 40
1.0
 40
1.0
 40
1.0
 10
320.1403712410273
 20
121.0675926297397
 30
0.0
 10
320.1399755940602
 20
121.2532743047974
 30
0.0
 10
320.1392373936355
 20
121.5997202599296
 30
0.0
 10
320.1074520677375
 20
122.0824710872973
 30
0.0
 10
320.0647710579649
 20
122.498429368927
 30
0.0
 10
320.0146498336748
 20
122.8580556835653
 30
0.0
 10
319.9544343572966
 20
123.2073300452336
 30
0.0
 10
319.878777912903
 20
123.570753506651
 30
0.0
 10
319.7756407155636
 20
123.9851350924727
 30
0.0
 10
319.6506807757067
 20
124.408453345465
 30
0.0
 10
319.5018425038259
 20
124.8427048345648
 30
0.0
 10
319.34266809324
 20
125.2516339969764
 30
0.0
 10
319.1738129448124
 20
125.6367773586954
 30
0.0
 10
319.0102055188935
 20
125.9738749985562
 30
0.0
 10
318.8772050664556
 20
126.2256090892002
 30
0.0
 10
318.7743853624246
 20
126.4096231469491
 30
0.0
 10
318.6982730026309
 20
126.5412891069303
 30
0.0
 10
318.6200305631674
 20
126.6723617931978
 30
0.0
 10
318.5381368411888
 20
126.8052922508268
 30
0.0
 10
318.447052014984
 20
126.9485369199891
 30
0.0
 10
318.3327328068081
 20
127.1219553207759
 30
0.0
 10
318.1811908361802
 20
127.3427233832853
 30
0.0
 10
318.0593658223796
 20
127.5063177320291
 30
0.0
 10
317.9911585357769
 20
127.597910798865
 30
0.0
  0
SPLINE
  5
15B
330
1F
100
AcDbEntity
  8
0
  6
Continuous
 62
     7
370
    15
100
AcDbSpline
210
0.0
220
0.0
230
1.0
 70
     8
 71
     3
 72
    27
 73
    23
 74
     0
 42
0.000000001
 43
0.00000001
 40
0.0
 40
0.0
 40
0.0
 40
0.0
 40
0.0705071027776351
 40
0.1276414345283645
 40
0.1725058734243638
 40
0.2126740539792227
 40
0.2487907475438412
 40
0.2861333039484365
 40
0.3559591364669799
 40
0.4387987424359468
 40
0.5185509079305552
 40
0.572667395272484
 40
0.6210343770859343
 40
0.6656691702940858
 40
0.7078718755195584
 40
0.7569342657522435
 40
0.7945552691731455
 40
0.8318958132292965
 40
0.8661367850702956
 40
0.8982038836736209
 40
0.941557369982143
 40
1.0
 40
1.0
 40
1.0
 40
1.0
 10
317.1487692892431
 20
126.9572472352306
 30
0.0
 10
317.2368531930405
 20
126.8379971523472
 30
0.0
 10
317.3963145153277
 20
126.622114623535
 30
0.0
 10
317.595530092504
 20
126.3189035736054
 30
0.0
 10
317.7521506012375
 20
126.0643228377271
 30
0.0
 10
317.8793833069572
 20
125.8436484333277
 30
0.0
 10
317.9933853172268
 20
125.6337028682483
 30
0.0
 10
318.1304961484942
 20
125.3654579449612
 30
0.0
 10
318.2993813966241
 20
125.0032932105373
 30
0.0
 10
318.4831253352498
 20
124.5502869247935
 30
0.0
 10
318.6318256571421
 20
124.1194240281368
 30
0.0
 10
318.7405887200831
 20
123.7519922753135
 30
0.0
 10
318.8181254472856
 20
123.4525264158724
 30
0.0
 10
318.8806870541603
 20
123.1752132159525
 30
0.0
 10
318.9353298891492
 20
122.8947480371052
 30
0.0
 10
318.9788502112268
 20
122.6272566241566
 30
0.0
 10
319.0133176051585
 20
122.3687857695859
 30
0.0
 10
319.0381129802007
 20
122.1405313583123
 30
0.0
 10
319.0566890209629
 20
121.9234049530277
 30
0.0
 10
319.0713167305349
 20
121.6933211331762
 30
0.0
 10
319.0830055110578
 20
121.4120777576588
 30
0.0
 10
319.0823908141331
 20
121.1980454342455
 30
0.0
 10
319.0820379076939
 20
121.0751663663545
 30
0.0
  0
LINE
  5
15C
330
1F
100
AcDbEntity
  8
0
  6
Continuous
 62
     7
370
    15
100
AcDbLine
 10
309.9540968527
 20
136.4173055823
 30
0.0
 11
317.1487692892
 21
126.9572472352
 31
0.0
  0
LINE
  5
15D
330
1F
100
AcDbEntity
  8
0
  6
Continuous
 62
     7
370
    15
100
AcDbLine
 10
317.9911585358
 20
127.5979107989
 30
0.0
 11
310.7964860993
 21
137.057969146
 31
0.0
  0
LINE
  5
15E
330
1F
100
AcDbEntity
  8
0
  6
Continuous
 62
     7
370
    15
100
AcDbLine
 10
324.018206163
 20
152.7400016679
 30
0.0
 11
327.4673206175
 21
149.77121513
 31
0.0
  0
LINE
  5
15F
330
1F
100
AcDbEntity
  8
0
  6
Continuous
 62
     7
370
    15
100
AcDbLine
 10
327.8945196291
 20
88.1795034279
 30
0.0
 11
327.8945196291
 21
93.4711700946
 31
0.0
  0
LINE
  5
160
330
1F
100
AcDbEntity
  8
0
  6
Continuous
 62
     7
370
    15
100
AcDbLine
 10
327.8945196291
 20
82.8878367613
 30
0.0
 11
327.8945196291
 21
88.1795034279
 31
0.0
  0
LINE
  5
161
330
1F
100
AcDbEntity
  8
0
  6
Continuous
 62
     7
370
    15
100
AcDbLine
 10
326.8361862957
 20
88.1795034279
 30
0.0
 11
326.8361862957
 21
93.2065867613
 31
0.0
  0
LINE
  5
162
330
1F
100
AcDbEntity
  8
0
  6
Continuous
 62
     7
370
    15
100
AcDbLine
 10
326.8361862957
 20
83.1524200946
 30
0.0
 11
326.8361862957
 21
88.1795034279
 31
0.0
  0
LINE
  5
163
330
1F
100
AcDbEntity
  8
0
  6
Continuous
 62
     7
370
    15
100
AcDbLine
 10
325.7765643852
 20
151.2948781472
 30
0.0
 11
327.5813335765
 21
149.7414433309
 31
0.0
  0
LINE
  5
164
330
1F
100
AcDbEntity
  8
0
  6
Continuous
 62
     7
370
    15
100
AcDbLine
 10
323.9717951938
 20
152.8483129636
 30
0.0
 11
325.7765643852
 21
151.2948781472
 31
0.0
  0
SPLINE
  5
165
330
1F
100
AcDbEntity
  8
0
  6
Continuous
 62
     7
370
    15
100
AcDbSpline
210
0.0
220
0.0
230
1.0
 70
     8
 71
     3
 72
    10
 73
     6
 74
     0
 42
0.000000001
 43
0.00000001
 40
0.0
 40
0.0
 40
0.0
 40
0.0
 40
0.357091878661268
 40
0.8080157599346371
 40
0.9999999999999999
 40
0.9999999999999999
 40
0.9999999999999999
 40
0.9999999999999999
 10
324.134895562355
 20
152.9960521634108
 30
0.0
 10
324.111375071377
 20
152.9763802225173
 30
0.0
 10
324.0581536778723
 20
152.9318672015825
 30
0.0
 10
324.0160372687839
 20
152.8995863466357
 30
0.0
 10
324.0202267719403
 20
152.9028093360389
 30
0.0
 10
324.0214778349663
 20
152.9037717802059
 30
0.0
  0
SPLINE
  5
166
330
1F
100
AcDbEntity
  8
0
  6
Continuous
 62
     7
370
    15
100
AcDbSpline
210
0.0
220
0.0
230
1.0
 70
     8
 71
     3
 72
    12
 73
     8
 74
     0
 42
0.000000001
 43
0.00000001
 40
0.0
 40
0.0
 40
0.0
 40
0.0
 40
0.25000000000001
 40
0.25000000000001
 40
0.5000000000000201
 40
0.5000000000000201
 40
1.0
 40
1.0
 40
1.0
 40
1.0
 10
324.2191377693088
 20
153.0053317238065
 30
0.0
 10
324.211523213385
 20
153.0094417940807
 30
0.0
 10
324.2031789437943
 20
153.0120112169818
 30
0.0
 10
324.1868105518822
 20
153.0143028255898
 30
0.0
 10
324.1787627600472
 20
153.0140607411811
 30
0.0
 10
324.1563549139897
 20
153.0102730846126
 30
0.0
 10
324.1440553192093
 20
153.0038724317162
 30
0.0
 10
324.134895562355
 20
152.9960521634108
 30
0.0
  0
SPLINE
  5
167
330
1F
100
AcDbEntity
  8
0
  6
Continuous
 62
     7
370
    15
100
AcDbSpline
210
0.0
220
0.0
230
1.0
 70
     8
 71
     3
 72
     8
 73
     4
 74
     0
 42
0.000000001
 43
0.00000001
 40
0.0
 40
0.0
 40
0.0
 40
0.0
 40
1.0
 40
1.0
 40
1.0
 40
1.0
 10
324.2702709304424
 20
152.9775528213979
 30
0.0
 10
324.2532580708573
 20
152.9868550644977
 30
0.0
 10
324.2362137077614
 20
152.9961147310179
 30
0.0
 10
324.2191377693088
 20
153.0053317238065
 30
0.0
  0
LINE
  5
168
330
1F
100
AcDbEntity
  8
0
  6
Continuous
 62
     7
370
    15
100
AcDbLine
 10
324.2702709304
 20
152.9775528214
 30
0.0
 11
327.6920454654
 21
150.0322988123
 31
0.0
  0
SPLINE
  5
169
330
1F
100
AcDbEntity
  8
0
  6
Continuous
 62
     7
370
    15
100
AcDbSpline
210
0.0
220
0.0
230
1.0
 70
     8
 71
     3
 72
     8
 73
     4
 74
     0
 42
0.000000001
 43
0.00000001
 40
0.0
 40
0.0
 40
0.0
 40
0.0
 40
1.0
 40
1.0
 40
1.0
 40
1.0
 10
324.2838313478577
 20
152.989450119254
 30
0.0
 10
324.2792570559741
 20
152.9854100942283
 30
0.0
 10
324.2747363440471
 20
152.981444714853
 30
0.0
 10
324.2702709304422
 20
152.9775528213977
 30
0.0
  0
LINE
  5
16A
330
1F
100
AcDbEntity
  8
0
  6
Continuous
 62
     7
370
    15
100
AcDbLine
 10
327.7036988194
 20
150.0458375936
 30
0.0
 11
324.2838313479
 21
152.9894501193
 31
0.0
  0
SPLINE
  5
16B
330
1F
100
AcDbEntity
  8
0
  6
Continuous
 62
     7
370
    15
100
AcDbSpline
210
0.0
220
0.0
230
1.0
 70
     8
 71
     3
 72
    10
 73
     6
 74
     0
 42
0.000000001
 43
0.00000001
 40
0.0
 40
0.0
 40
0.0
 40
0.0
 40
0.5000000000000002
 40
0.5000000000000002
 40
1.0
 40
1.0
 40
1.0
 40
1.0
 10
326.0453574336185
 20
151.7615069831655
 30
0.0
 10
325.7821085434605
 20
151.983641684603
 30
0.0
 10
325.5089286245531
 20
152.192540940113
 30
0.0
 10
324.9427594139654
 20
152.5839382379653
 30
0.0
 10
324.6497711672822
 20
152.7664376741895
 30
0.0
 10
324.3466261299189
 20
152.9354002156946
 30
0.0
  0
SPLINE
  5
16C
330
1F
100
AcDbEntity
  8
0
  6
Continuous
 62
     7
370
    15
100
AcDbSpline
210
0.0
220
0.0
230
1.0
 70
     8
 71
     3
 72
     8
 73
     4
 74
     0
 42
0.000000001
 43
0.00000001
 40
0.0
 40
0.0
 40
0.0
 40
0.0
 40
1.0
 40
1.0
 40
1.0
 40
1.0
 10
326.0453009912292
 20
151.7614414088111
 30
0.0
 10
326.1923877525666
 20
151.6371403188203
 30
0.0
 10
326.336011330928
 20
151.5092122839104
 30
0.0
 10
326.4761848439023
 20
151.3777015392095
 30
0.0
  0
SPLINE
  5
16D
330
1F
100
AcDbEntity
  8
0
  6
Continuous
 62
     7
370
    15
100
AcDbSpline
210
0.0
220
0.0
230
1.0
 70
     8
 71
     3
 72
     8
 73
     4
 74
     0
 42
0.000000001
 43
0.00000001
 40
0.0
 40
0.0
 40
0.0
 40
0.0
 40
1.0
 40
1.0
 40
1.0
 40
1.0
 10
326.7386316441073
 20
151.1223890973058
 30
0.0
 10
326.6525110438471
 20
151.209072298499
 30
0.0
 10
326.5649341932341
 20
151.2942595246297
 30
0.0
 10
326.4761848439023
 20
151.3777015392095
 30
0.0
  0
SPLINE
  5
16E
330
1F
100
AcDbEntity
  8
0
  6
Continuous
 62
     7
370
    15
100
AcDbSpline
210
0.0
220
0.0
230
1.0
 70
     8
 71
     3
 72
     8
 73
     4
 74
     0
 42
0.000000001
 43
0.00000001
 40
0.0
 40
0.0
 40
0.0
 40
0.0
 40
1.0
 40
1.0
 40
1.0
 40
1.0
 10
326.7390624627726
 20
151.1228352230935
 30
0.0
 10
326.7639696700984
 20
151.0978832280177
 30
0.0
 10
326.7887393955258
 20
151.0728334862304
 30
0.0
 10
326.8133700328222
 20
151.0476893203593
 30
0.0
  0
SPLINE
  5
16F
330
1F
100
AcDbEntity
  8
0
  6
Continuous
 62
     7
370
    15
100
AcDbSpline
210
0.0
220
0.0
230
1.0
 70
     8
 71
     3
 72
    16
 73
    12
 74
     0
 42
0.000000001
 43
0.00000001
 40
0.0
 40
0.0
 40
0.0
 40
0.0
 40
0.1249999999999862
 40
0.1249999999999862
 40
0.2499999999999724
 40
0.2499999999999724
 40
0.3749999999999597
 40
0.3749999999999597
 40
0.499999999999947
 40
0.499999999999947
 40
1.0
 40
1.0
 40
1.0
 40
1.0
 10
326.8133700328222
 20
151.0476893203593
 30
0.0
 10
326.8175605739432
 20
151.0434114098949
 30
0.0
 10
326.8217080842696
 20
151.0392292635751
 30
0.0
 10
326.8292672209541
 20
151.0316908533243
 30
0.0
 10
326.8327117991454
 20
151.0283001386205
 30
0.0
 10
326.8388023708957
 20
151.0223723654195
 30
0.0
 10
326.8415114438763
 20
151.0197740102229
 30
0.0
 10
326.846182135149
 20
151.0153548698025
 30
0.0
 10
326.848180798747
 20
151.0134980398408
 30
0.0
 10
326.8568483173364
 20
151.0055946621365
 30
0.0
 10
326.8593792028688
 20
151.0038037052905
 30
0.0
 10
326.8597026839869
 20
151.004179523284
 30
0.0
  0
LINE
  5
170
330
1F
100
AcDbEntity
  8
0
  6
Continuous
 62
     7
370
    15
100
AcDbLine
 10
319.0820379077
 20
58.7979379045
 30
0.0
 11
320.140371241
 21
58.7979379045
 31
0.0
  0
SPLINE
  5
171
330
1F
100
AcDbEntity
  8
0
  6
Continuous
 62
     7
370
    15
100
AcDbSpline
210
0.0
220
0.0
230
1.0
 70
     8
 71
     3
 72
    18
 73
    14
 74
     0
 42
0.000000001
 43
0.00000001
 40
0.0
 40
0.0
 40
0.0
 40
0.0
 40
0.0020309343588269
 40
0.1093294517206455
 40
0.2166279200151315
 40
0.3239295894631674
 40
0.4312363267009007
 40
0.5385477985472592
 40
0.6458615998607264
 40
0.7531742864300831
 40
0.8604828803269209
 40
0.9677861920197588
 40
1.0
 40
1.0
 40
1.0
 40
1.0
 10
319.0721106966237
 20
89.63330112097756
 30
0.0
 10
319.0719168567594
 20
89.63330305024255
 30
0.0
 10
319.0614820507366
 20
89.63340690661886
 30
0.0
 10
319.0982314749788
 20
89.63304119844057
 30
0.0
 10
319.1846413877809
 20
89.63218090779189
 30
0.0
 10
319.3278291386799
 20
89.63075395218459
 30
0.0
 10
319.5023275659939
 20
89.629012553977
 30
0.0
 10
319.6910693046553
 20
89.6271260608213
 30
0.0
 10
319.8716933216496
 20
89.62531781021609
 30
0.0
 10
320.0255469770897
 20
89.62377529708168
 30
0.0
 10
320.1294926029407
 20
89.62273199965115
 30
0.0
 10
320.1783751255359
 20
89.62224102989876
 30
0.0
 10
320.1701326063968
 20
89.62232381178869
 30
0.0
 10
320.1682294497846
 20
89.62234292571473
 30
0.0
  0
LINE
  5
172
330
1F
100
AcDbEntity
  8
0
  6
Continuous
 62
     7
370
    15
100
AcDbLine
 10
320.7507696291
 20
87.7698129045
 30
0.0
 11
320.7507696291
 21
89.0927295711
 31
0.0
  0
SPLINE
  5
173
330
1F
100
AcDbEntity
  8
0
  6
Continuous
 62
     7
370
    15
100
AcDbSpline
210
0.0
220
0.0
230
1.0
 70
     8
 71
     3
 72
    17
 73
    13
 74
     0
 42
0.000000001
 43
0.00000001
 40
0.0
 40
0.0
 40
0.0
 40
0.0
 40
0.0720590720808525
 40
0.1794983739013559
 40
0.2869399195570816
 40
0.3943862187755737
 40
0.5018376748421747
 40
0.6092924208955608
 40
0.7167471604563603
 40
0.824198622932137
 40
0.931644986274331
 40
1.0
 40
1.0
 40
1.0
 40
1.0
 10
320.1678902079195
 20
87.24019614246103
 30
0.0
 10
320.1678539430761
 20
87.2401957757658
 30
0.0
 10
320.1677636077409
 20
87.24019486233185
 30
0.0
 10
320.0966178956552
 20
87.23948040479989
 30
0.0
 10
319.9721907065
 20
87.238232004769
 30
0.0
 10
319.8060501782787
 20
87.23656717324333
 30
0.0
 10
319.6198736853532
 20
87.23470444562236
 30
0.0
 10
319.4340744114322
 20
87.23284847703064
 30
0.0
 10
319.2689609701364
 20
87.23120165850794
 30
0.0
 10
319.146305927087
 20
87.22997981103317
 30
0.0
 10
319.0774726985452
 20
87.22929471042752
 30
0.0
 10
319.0784117525766
 20
87.22930406069881
 30
0.0
 10
319.07877687515
 20
87.22930769626717
 30
0.0
  0
SPLINE
  5
174
330
1F
100
AcDbEntity
  8
0
  6
Continuous
 62
     7
370
    15
100
AcDbSpline
210
0.0
220
0.0
230
1.0
 70
     8
 71
     3
 72
    14
 73
    10
 74
     0
 42
0.000000001
 43
0.00000001
 40
0.0
 40
0.0
 40
0.0
 40
0.0
 40
0.0834104079989114
 40
0.2979978229874716
 40
0.5125908369889368
 40
0.7272274804492088
 40
0.9418635053575594
 40
0.990867577983959
 40
1.0
 40
1.0
 40
1.0
 40
1.0
 10
327.0727632934514
 20
152.0496138424834
 30
0.0
 10
327.0739790754364
 20
152.0509839882446
 30
0.0
 10
327.0783226626872
 20
152.0558790662546
 30
0.0
 10
327.044202303879
 20
152.0174264165516
 30
0.0
 10
326.9747399532426
 20
151.939153080015
 30
0.0
 10
326.8748616664502
 20
151.8266250745704
 30
0.0
 10
326.788441587334
 20
151.7292824223248
 30
0.0
 10
326.7385009323274
 20
151.6730385793531
 30
0.0
 10
326.7278479252984
 20
151.6610414435239
 30
0.0
 10
326.7261744883888
 20
151.6591568629683
 30
0.0
  0
SPLINE
  5
175
330
1F
100
AcDbEntity
  8
0
  6
Continuous
 62
     7
370
    15
100
AcDbSpline
210
0.0
220
0.0
230
1.0
 70
     8
 71
     3
 72
    19
 73
    15
 74
     0
 42
0.000000001
 43
0.00000001
 40
0.0
 40
0.0
 40
0.0
 40
0.0
 40
0.1249999999999829
 40
0.1249999999999829
 40
0.2499999999999658
 40
0.3749999999999487
 40
0.3749999999999487
 40
0.4999999999999316
 40
0.4999999999999316
 40
0.7499999999999417
 40
0.7499999999999417
 40
0.8749999999999708
 40
0.8749999999999708
 40
1.0
 40
1.0
 40
1.0
 40
1.0
 10
326.4761848439023
 20
151.3777015392095
 30
0.0
 10
326.4843683714821
 20
151.3869126010312
 30
0.0
 10
326.4930023862451
 20
151.3966309676099
 30
0.0
 10
326.5108276166068
 20
151.4166954982439
 30
0.0
 10
326.5292967308326
 20
151.437485392127
 30
0.0
 10
326.5490360990964
 20
151.459706552841
 30
0.0
 10
326.5694205075773
 20
151.4826546420138
 30
0.0
 10
326.5799971677547
 20
151.4945618821962
 30
0.0
 10
326.6121893877635
 20
151.5308052924899
 30
0.0
 10
326.6342423517094
 20
151.555635168547
 30
0.0
 10
326.6681892753006
 20
151.5938595374108
 30
0.0
 10
326.6796505424422
 20
151.6067654308236
 30
0.0
 10
326.7028740841869
 20
151.6329171436677
 30
0.0
 10
326.7146544403989
 20
151.646183401566
 30
0.0
 10
326.7261744883888
 20
151.6591568629683
 30
0.0
  0
SPLINE
  5
176
330
1F
100
AcDbEntity
  8
0
  6
Continuous
 62
     7
370
    15
100
AcDbSpline
210
0.0
220
0.0
230
1.0
 70
     8
 71
     3
 72
     8
 73
     4
 74
     0
 42
0.000000001
 43
0.00000001
 40
0.0
 40
0.0
 40
0.0
 40
0.0
 40
1.0
 40
1.0
 40
1.0
 40
1.0
 10
326.7261744883888
 20
151.6591568629683
 30
0.0
 10
326.8213860035128
 20
151.5745832968191
 30
0.0
 10
326.9159000341941
 20
151.4892232376295
 30
0.0
 10
327.0096573718734
 20
151.4030444542247
 30
0.0
  0
SPLINE
  5
177
330
1F
100
AcDbEntity
  8
0
  6
Continuous
 62
     7
370
    15
100
AcDbSpline
210
0.0
220
0.0
230
1.0
 70
    24
 71
     3
 72
    14
 73
    10
 74
     0
 42
0.000000001
 43
0.00000001
 40
0.0
 40
0.0
 40
0.0
 40
0.0
 40
0.25
 40
0.25
 40
0.5
 40
0.5
 40
0.75
 40
0.75
 40
1.0
 40
1.0
 40
1.0
 40
1.0
 10
326.7386316441073
 20
151.1223890973058
 30
0.0
 10
326.7559767558957
 20
151.1403504863588
 30
0.0
 10
326.7752165269049
 20
151.1602738524692
 30
0.0
 10
326.8170105385278
 20
151.2035528184396
 30
0.0
 10
326.8392808383562
 20
151.2266143890091
 30
0.0
 10
326.885991519813
 20
151.2749847156356
 30
0.0
 10
326.9099695433143
 20
151.2998146858358
 30
0.0
 10
326.9591335801682
 20
151.3507255363464
 30
0.0
 10
326.9845943815882
 20
151.3770909680302
 30
0.0
 10
327.0096573718749
 20
151.4030444542263
 30
0.0
  0
LINE
  5
178
330
1F
100
AcDbEntity
  8
0
  6
Continuous
 62
     7
370
    15
100
AcDbLine
 10
319.623166815
 20
91.8179379045
 30
0.0
 11
320.1748011463
 21
91.8179379045
 31
0.0
  0
LINE
  5
179
330
1F
100
AcDbEntity
  8
0
  6
Continuous
 62
     7
370
    15
100
AcDbLine
 10
319.0715324837
 20
91.8179379045
 30
0.0
 11
319.623166815
 21
91.8179379045
 31
0.0
  0
LINE
  5
17A
330
1F
100
AcDbEntity
  8
0
  6
Continuous
 62
     7
370
    15
100
AcDbLine
 10
319.623166815
 20
85.1716045711
 30
0.0
 11
320.1748011463
 21
85.1716045711
 31
0.0
  0
LINE
  5
17B
330
1F
100
AcDbEntity
  8
0
  6
Continuous
 62
     7
370
    15
100
AcDbLine
 10
319.0715324837
 20
85.1716045711
 30
0.0
 11
319.623166815
 21
85.1716045711
 31
0.0
  0
LINE
  5
17C
330
1F
100
AcDbEntity
  8
0
  6
Continuous
 62
     7
370
    15
100
AcDbLine
 10
327.4304996077
 20
151.6673272084
 30
0.0
 11
326.859702684
 21
151.0041795233
 31
0.0
  0
LINE
  5
17D
330
1F
100
AcDbEntity
  8
0
  6
Continuous
 62
     7
370
    15
100
AcDbLine
 10
326.0453009912
 20
151.7614414088
 30
0.0
 11
326.2853725911
 21
152.0403548351
 31
0.0
  0
ENDSEC
  0
SECTION
  2
OBJECTS
  0
DICTIONARY
  5
C
330
0
100
AcDbDictionary
281
     1
  3
ACAD_GROUP
350
D
  3
ACAD_LAYOUT
350
1A
  3
ACAD_MLINESTYLE
350
17
  3
ACAD_PLOTSETTINGS
350
19
  3
ACAD_PLOTSTYLENAME
350
E
  3
ACAD_SCALELIST
350
47
  0
DICTIONARY
  5
D
102
{ACAD_REACTORS
330
C
102
}
330
C
100
AcDbDictionary
281
     1
  0
DICTIONARY
  5
1A
102
{ACAD_REACTORS
330
C
102
}
330
C
100
AcDbDictionary
281
     1
  3
Layout1
350
1E
  3
Layout2
350
26
  3
Model
350
22
  0
DICTIONARY
  5
17
102
{ACAD_REACTORS
330
C
102
}
330
C
100
AcDbDictionary
281
     1
  3
Standard
350
18
  0
DICTIONARY
  5
19
102
{ACAD_REACTORS
330
C
102
}
330
C
100
AcDbDictionary
281
     1
  0
ACDBDICTIONARYWDFLT
  5
E
102
{ACAD_REACTORS
330
C
102
}
330
C
100
AcDbDictionary
281
     1
  3
Normal
350
F
100
AcDbDictionaryWithDefault
340
F
  0
DICTIONARY
  5
47
102
{ACAD_REACTORS
330
C
102
}
330
C
100
AcDbDictionary
281
     1
  3
A0
350
48
  3
A1
350
49
  3
A2
350
4A
  3
A3
350
4B
  3
A4
350
4C
  3
A5
350
4D
  3
A6
350
4E
  3
A7
350
4F
  3
A8
350
50
  3
A9
350
51
  3
B0
350
52
  3
B1
350
53
  3
B2
350
54
  3
B3
350
55
  3
B4
350
56
  3
B5
350
57
  3
B6
350
58
  3
B7
350
59
  3
B8
350
5A
  3
B9
350
5B
  3
C0
350
5C
  3
C1
350
5D
  3
C2
350
5E
  3
C3
350
5F
  3
C4
350
60
  3
C5
350
61
  3
C6
350
62
  3
C7
350
63
  3
C8
350
64
  3
C9
350
65
  3
D0
350
66
  3
D1
350
67
  3
D2
350
68
  0
LAYOUT
  5
1E
102
{ACAD_REACTORS
330
1A
102
}
330
1A
100
AcDbPlotSettings
  1

  2
none_device
  4

  6

 40
0.0
 41
0.0
 42
0.0
 43
0.0
 44
0.0
 45
0.0
 46
0.0
 47
0.0
 48
0.0
 49
0.0
140
0.0
141
0.0
142
1.0
143
1.0
 70
   688
 72
     1
 73
     0
 74
     5
  7

 75
    16
147
1.0
148
0.0
149
0.0
100
AcDbLayout
  1
Layout1
 70
     1
 71
     1
 10
0.0
 20
0.0
 11
420.0
 21
297.0
 12
0.0
 22
0.0
 32
0.0
 14
1.0000000000E+20
 24
1.0000000000E+20
 34
1.0000000000E+20
 15
-1.0000000000E+20
 25
-1.0000000000E+20
 35
-1.0000000000E+20
146
0.0
 13
0.0
 23
0.0
 33
0.0
 16
1.0
 26
0.0
 36
0.0
 17
0.0
 27
1.0
 37
0.0
 76
     0
330
1B
  0
LAYOUT
  5
26
102
{ACAD_REACTORS
330
1A
102
}
330
1A
100
AcDbPlotSettings
  1

  2
none_device
  4

  6

 40
0.0
 41
0.0
 42
0.0
 43
0.0
 44
0.0
 45
0.0
 46
0.0
 47
0.0
 48
0.0
 49
0.0
140
0.0
141
0.0
142
1.0
143
1.0
 70
   688
 72
     1
 73
     0
 74
     5
  7

 75
    16
147
1.0
148
0.0
149
0.0
100
AcDbLayout
  1
Layout2
 70
     1
 71
     2
 10
0.0
 20
0.0
 11
0.0
 21
0.0
 12
0.0
 22
0.0
 32
0.0
 14
0.0
 24
0.0
 34
0.0
 15
0.0
 25
0.0
 35
0.0
146
0.0
 13
0.0
 23
0.0
 33
0.0
 16
1.0
 26
0.0
 36
0.0
 17
0.0
 27
1.0
 37
0.0
 76
     0
330
23
  0
LAYOUT
  5
22
102
{ACAD_REACTORS
330
1A
102
}
330
1A
100
AcDbPlotSettings
  1

  2
none_device
  4
Letter_(8.50_x_11.00_Inches)
  6

 40
6.35
 41
6.35
 42
6.35000508
 43
6.35000508
 44
215.9
 45
279.4
 46
0.0
 47
0.0
 48
0.0
 49
0.0
140
0.0
141
0.0
142
1.0
143
1.0
 70
  1712
 72
     1
 73
     0
 74
     0
  7

 75
     0
147
1.0
148
0.0
149
0.0
100
AcDbLayout
  1
Model
 70
     1
 71
     0
 10
0.0
 20
0.0
 11
431.8
 21
279.4
 12
0.0
 22
0.0
 32
0.0
 14
0.0
 24
0.0
 34
0.0
 15
431.8
 25
279.4
 35
0.0
146
0.0
 13
0.0
 23
0.0
 33
0.0
 16
1.0
 26
0.0
 36
0.0
 17
0.0
 27
1.0
 37
0.0
 76
     0
330
1F
331
29
  0
MLINESTYLE
  5
18
102
{ACAD_REACTORS
330
17
102
}
330
17
100
AcDbMlineStyle
  2
Standard
 70
     0
  3

 62
   256
 51
90.0
 52
90.0
 71
     2
 49
0.5
 62
   256
  6
BYLAYER
 49
-0.5
 62
   256
  6
BYLAYER
  0
ACDBPLACEHOLDER
  5
F
102
{ACAD_REACTORS
330
E
102
}
330
E
  0
SCALE
  5
48
102
{ACAD_REACTORS
330
47
102
}
330
47
100
AcDbScale
 70
     0
300
1:1
140
1.0
141
1.0
290
     1
  0
SCALE
  5
49
102
{ACAD_REACTORS
330
47
102
}
330
47
100
AcDbScale
 70
     0
300
1:2
140
1.0
141
2.0
290
     0
  0
SCALE
  5
4A
102
{ACAD_REACTORS
330
47
102
}
330
47
100
AcDbScale
 70
     0
300
1:4
140
1.0
141
4.0
290
     0
  0
SCALE
  5
4B
102
{ACAD_REACTORS
330
47
102
}
330
47
100
AcDbScale
 70
     0
300
1:5
140
1.0
141
5.0
290
     0
  0
SCALE
  5
4C
102
{ACAD_REACTORS
330
47
102
}
330
47
100
AcDbScale
 70
     0
300
1:8
140
1.0
141
8.0
290
     0
  0
SCALE
  5
4D
102
{ACAD_REACTORS
330
47
102
}
330
47
100
AcDbScale
 70
     0
300
1:10
140
1.0
141
10.0
290
     0
  0
SCALE
  5
4E
102
{ACAD_REACTORS
330
47
102
}
330
47
100
AcDbScale
 70
     0
300
1:16
140
1.0
141
16.0
290
     0
  0
SCALE
  5
4F
102
{ACAD_REACTORS
330
47
102
}
330
47
100
AcDbScale
 70
     0
300
1:20
140
1.0
141
20.0
290
     0
  0
SCALE
  5
50
102
{ACAD_REACTORS
330
47
102
}
330
47
100
AcDbScale
 70
     0
300
1:30
140
1.0
141
30.0
290
     0
  0
SCALE
  5
51
102
{ACAD_REACTORS
330
47
102
}
330
47
100
AcDbScale
 70
     0
300
1:40
140
1.0
141
40.0
290
     0
  0
SCALE
  5
52
102
{ACAD_REACTORS
330
47
102
}
330
47
100
AcDbScale
 70
     0
300
1:50
140
1.0
141
50.0
290
     0
  0
SCALE
  5
53
102
{ACAD_REACTORS
330
47
102
}
330
47
100
AcDbScale
 70
     0
300
1:100
140
1.0
141
100.0
290
     0
  0
SCALE
  5
54
102
{ACAD_REACTORS
330
47
102
}
330
47
100
AcDbScale
 70
     0
300
2:1
140
2.0
141
1.0
290
     0
  0
SCALE
  5
55
102
{ACAD_REACTORS
330
47
102
}
330
47
100
AcDbScale
 70
     0
300
4:1
140
4.0
141
1.0
290
     0
  0
SCALE
  5
56
102
{ACAD_REACTORS
330
47
102
}
330
47
100
AcDbScale
 70
     0
300
8:1
140
8.0
141
1.0
290
     0
  0
SCALE
  5
57
102
{ACAD_REACTORS
330
47
102
}
330
47
100
AcDbScale
 70
     0
300
10:1
140
10.0
141
1.0
290
     0
  0
SCALE
  5
58
102
{ACAD_REACTORS
330
47
102
}
330
47
100
AcDbScale
 70
     0
300
100:1
140
100.0
141
1.0
290
     0
  0
SCALE
  5
59
102
{ACAD_REACTORS
330
47
102
}
330
47
100
AcDbScale
 70
     0
300
1/128" = 1'-0"
140
0.0078125
141
12.0
290
     0
  0
SCALE
  5
5A
102
{ACAD_REACTORS
330
47
102
}
330
47
100
AcDbScale
 70
     0
300
1/64" = 1'-0"
140
0.015625
141
12.0
290
     0
  0
SCALE
  5
5B
102
{ACAD_REACTORS
330
47
102
}
330
47
100
AcDbScale
 70
     0
300
1/32" = 1'-0"
140
0.03125
141
12.0
290
     0
  0
SCALE
  5
5C
102
{ACAD_REACTORS
330
47
102
}
330
47
100
AcDbScale
 70
     0
300
1/16" = 1'-0"
140
0.0625
141
12.0
290
     0
  0
SCALE
  5
5D
102
{ACAD_REACTORS
330
47
102
}
330
47
100
AcDbScale
 70
     0
300
3/32" = 1'-0"
140
0.09375
141
12.0
290
     0
  0
SCALE
  5
5E
102
{ACAD_REACTORS
330
47
102
}
330
47
100
AcDbScale
 70
     0
300
1/8" = 1'-0"
140
0.125
141
12.0
290
     0
  0
SCALE
  5
5F
102
{ACAD_REACTORS
330
47
102
}
330
47
100
AcDbScale
 70
     0
300
3/16" = 1'-0"
140
0.1875
141
12.0
290
     0
  0
SCALE
  5
60
102
{ACAD_REACTORS
330
47
102
}
330
47
100
AcDbScale
 70
     0
300
1/4" = 1'-0"
140
0.25
141
12.0
290
     0
  0
SCALE
  5
61
102
{ACAD_REACTORS
330
47
102
}
330
47
100
AcDbScale
 70
     0
300
3/8" = 1'-0"
140
0.375
141
12.0
290
     0
  0
SCALE
  5
62
102
{ACAD_REACTORS
330
47
102
}
330
47
100
AcDbScale
 70
     0
300
1/2" = 1'-0"
140
0.5
141
12.0
290
     0
  0
SCALE
  5
63
102
{ACAD_REACTORS
330
47
102
}
330
47
100
AcDbScale
 70
     0
300
3/4" = 1'-0"
140
0.75
141
12.0
290
     0
  0
SCALE
  5
64
102
{ACAD_REACTORS
330
47
102
}
330
47
100
AcDbScale
 70
     0
300
1" = 1'-0"
140
1.0
141
12.0
290
     0
  0
SCALE
  5
65
102
{ACAD_REACTORS
330
47
102
}
330
47
100
AcDbScale
 70
     0
300
1-1/2" = 1'-0"
140
1.5
141
12.0
290
     0
  0
SCALE
  5
66
102
{ACAD_REACTORS
330
47
102
}
330
47
100
AcDbScale
 70
     0
300
3" = 1'-0"
140
3.0
141
12.0
290
     0
  0
SCALE
  5
67
102
{ACAD_REACTORS
330
47
102
}
330
47
100
AcDbScale
 70
     0
300
6" = 1'-0"
140
6.0
141
12.0
290
     0
  0
SCALE
  5
68
102
{ACAD_REACTORS
330
47
102
}
330
47
100
AcDbScale
 70
     0
300
1'-0" = 1'-0"
140
12.0
141
12.0
290
     0
  0
ENDSEC
  0
EOF
