  0
SECTION
  2
HEADER
  9
$ACADVER
  1
AC1015
  9
$ACADMAINTVER
 70
     6
  9
$DWGCODEPAGE
  3
ANSI_1252
  9
$INSBASE
 10
0.0
 20
0.0
 30
0.0
  9
$EXTMIN
 10
0.0
 20
0.0
 30
0.0
  9
$EXTMAX
 10
431.8
 20
279.4
 30
0.0
  9
$LIMMIN
 10
0.0
 20
0.0
  9
$LIMMAX
 10
431.8
 20
279.4
  9
$ORTHOMODE
 70
     0
  9
$REGENMODE
 70
     1
  9
$FILLMODE
 70
     1
  9
$QTEXTMODE
 70
     0
  9
$MIRRTEXT
 70
     1
  9
$LTSCALE
 40
1.0
  9
$ATTMODE
 70
     1
  9
$TEXTSIZE
 40
3.175
  9
$TRACEWID
 40
1.0
  9
$TEXTSTYLE
  7
Standard
  9
$CLAYER
  8
0
  9
$CELTYPE
  6
ByLayer
  9
$CECOLOR
 62
   256
  9
$CELTSCALE
 40
1.0
  9
$DISPSILH
 70
     0
  9
$DIMSCALE
 40
1.0
  9
$DIMASZ
 40
3.302
  9
$DIMEXO
 40
1.27
  9
$DIMDLI
 40
3.75
  9
$DIMRND
 40
0.0
  9
$DIMDLE
 40
0.0
  9
$DIMEXE
 40
3.175
  9
$DIMTP
 40
0.0
  9
$DIMTM
 40
0.0
  9
$DIMTXT
 40
3.175
  9
$DIMCEN
 40
2.5
  9
$DIMTSZ
 40
0.0
  9
$DIMTOL
 70
     0
  9
$DIMLIM
 70
     0
  9
$DIMTIH
 70
     1
  9
$DIMTOH
 70
     1
  9
$DIMSE1
 70
     0
  9
$DIMSE2
 70
     0
  9
$DIMTAD
 70
     0
  9
$DIMZIN
 70
     0
  9
$DIMBLK
  1

  9
$DIMASO
 70
     1
  9
$DIMSHO
 70
     1
  9
$DIMPOST
  1

  9
$DIMAPOST
  1

  9
$DIMALT
 70
     0
  9
$DIMALTD
 70
     3
  9
$DIMALTF
 40
0.0393700787
  9
$DIMLFAC
 40
25.0
  9
$DIMTOFL
 70
     1
  9
$DIMTVP
 40
0.0
  9
$DIMTIX
 70
     0
  9
$DIMSOXD
 70
     0
  9
$DIMSAH
 70
     0
  9
$DIMBLK1
  1

  9
$DIMBLK2
  1

  9
$DIMSTYLE
  2
ISO-25
  9
$DIMCLRD
 70
     0
  9
$DIMCLRE
 70
     0
  9
$DIMCLRT
 70
     0
  9
$DIMTFAC
 40
1.0
  9
$DIMGAP
 40
1.524
  9
$DIMJUST
 70
     0
  9
$DIMSD1
 70
     0
  9
$DIMSD2
 70
     0
  9
$DIMTOLJ
 70
     0
  9
$DIMTZIN
 70
     0
  9
$DIMALTZ
 70
     0
  9
$DIMALTTZ
 70
     0
  9
$DIMUPT
 70
     0
  9
$DIMDEC
 70
     0
  9
$DIMTDEC
 70
     0
  9
$DIMALTU
 70
     2
  9
$DIMALTTD
 70
     3
  9
$DIMTXSTY
  7
Standard
  9
$DIMAUNIT
 70
     0
  9
$DIMADEC
 70
     0
  9
$DIMALTRND
 40
0.0
  9
$DIMAZIN
 70
     0
  9
$DIMDSEP
 70
    44
  9
$DIMATFIT
 70
     3
  9
$DIMFRAC
 70
     0
  9
$DIMLDRBLK
  1

  9
$DIMLUNIT
 70
     2
  9
$DIMLWD
 70
    -2
  9
$DIMLWE
 70
    -2
  9
$DIMTMOVE
 70
     0
  9
$LUNITS
 70
     2
  9
$LUPREC
 70
     2
  9
$SKETCHINC
 40
1.0
  9
$FILLETRAD
 40
10.0
  9
$AUNITS
 70
     0
  9
$AUPREC
 70
     2
  9
$MENU
  1
.
  9
$ELEVATION
 40
0.0
  9
$PELEVATION
 40
0.0
  9
$THICKNESS
 40
0.0
  9
$LIMCHECK
 70
     0
  9
$CHAMFERA
 40
0.0
  9
$CHAMFERB
 40
0.0
  9
$CHAMFERC
 40
0.0
  9
$CHAMFERD
 40
0.0
  9
$SKPOLY
 70
     0
  9
$TDCREATE
 40
2458681.58812412
  9
$TDUCREATE
 40
2458681.754790787
  9
$TDUPDATE
 40
2458681.588125162
  9
$TDUUPDATE
 40
2458681.754791829
  9
$TDINDWG
 40
0.0000000116
  9
$TDUSRTIMER
 40
0.0000000116
  9
$USRTIMER
 70
     1
  9
$ANGBASE
 50
0.0
  9
$ANGDIR
 70
     0
  9
$PDMODE
 70
     0
  9
$PDSIZE
 40
-1.0
  9
$PLINEWID
 40
0.0
  9
$SPLFRAME
 70
     0
  9
$SPLINETYPE
 70
     6
  9
$SPLINESEGS
 70
     8
  9
$HANDSEED
  5
171
  9
$SURFTAB1
 70
     6
  9
$SURFTAB2
 70
     6
  9
$SURFTYPE
 70
     6
  9
$SURFU
 70
     6
  9
$SURFV
 70
     6
  9
$UCSBASE
  2

  9
$UCSNAME
  2

  9
$UCSORG
 10
0.0
 20
0.0
 30
0.0
  9
$UCSXDIR
 10
1.0
 20
0.0
 30
0.0
  9
$UCSYDIR
 10
0.0
 20
1.0
 30
0.0
  9
$UCSORTHOREF
  2

  9
$UCSORTHOVIEW
 70
     0
  9
$UCSORGTOP
 10
0.0
 20
0.0
 30
0.0
  9
$UCSORGBOTTOM
 10
0.0
 20
0.0
 30
0.0
  9
$UCSORGLEFT
 10
0.0
 20
0.0
 30
0.0
  9
$UCSORGRIGHT
 10
0.0
 20
0.0
 30
0.0
  9
$UCSORGFRONT
 10
0.0
 20
0.0
 30
0.0
  9
$UCSORGBACK
 10
0.0
 20
0.0
 30
0.0
  9
$PUCSBASE
  2

  9
$PUCSNAME
  2

  9
$PUCSORG
 10
0.0
 20
0.0
 30
0.0
  9
$PUCSXDIR
 10
1.0
 20
0.0
 30
0.0
  9
$PUCSYDIR
 10
0.0
 20
1.0
 30
0.0
  9
$PUCSORTHOREF
  2

  9
$PUCSORTHOVIEW
 70
     0
  9
$PUCSORGTOP
 10
0.0
 20
0.0
 30
0.0
  9
$PUCSORGBOTTOM
 10
0.0
 20
0.0
 30
0.0
  9
$PUCSORGLEFT
 10
0.0
 20
0.0
 30
0.0
  9
$PUCSORGRIGHT
 10
0.0
 20
0.0
 30
0.0
  9
$PUCSORGFRONT
 10
0.0
 20
0.0
 30
0.0
  9
$PUCSORGBACK
 10
0.0
 20
0.0
 30
0.0
  9
$USERI1
 70
     0
  9
$USERI2
 70
     0
  9
$USERI3
 70
     0
  9
$USERI4
 70
     0
  9
$USERI5
 70
     0
  9
$USERR1
 40
0.0
  9
$USERR2
 40
0.0
  9
$USERR3
 40
0.0
  9
$USERR4
 40
0.0
  9
$USERR5
 40
0.0
  9
$WORLDVIEW
 70
     1
  9
$SHADEDGE
 70
     3
  9
$SHADEDIF
 70
    70
  9
$TILEMODE
 70
     1
  9
$MAXACTVP
 70
    64
  9
$PINSBASE
 10
0.0
 20
0.0
 30
0.0
  9
$PLIMCHECK
 70
     0
  9
$PEXTMIN
 10
1.0000000000E+20
 20
1.0000000000E+20
 30
1.0000000000E+20
  9
$PEXTMAX
 10
-1.0000000000E+20
 20
-1.0000000000E+20
 30
-1.0000000000E+20
  9
$PLIMMIN
 10
0.0
 20
0.0
  9
$PLIMMAX
 10
420.0
 20
297.0
  9
$UNITMODE
 70
     0
  9
$VISRETAIN
 70
     1
  9
$PLINEGEN
 70
     0
  9
$PSLTSCALE
 70
     1
  9
$TREEDEPTH
 70
  3020
  9
$CMLSTYLE
  2
Standard
  9
$CMLJUST
 70
     0
  9
$CMLSCALE
 40
20.0
  9
$PROXYGRAPHICS
 70
     1
  9
$MEASUREMENT
 70
     1
  9
$CELWEIGHT
370
    -1
  9
$ENDCAPS
280
     0
  9
$JOINSTYLE
280
     0
  9
$LWDISPLAY
290
     1
  9
$INSUNITS
 70
     4
  9
$HYPERLINKBASE
  1

  9
$STYLESHEET
  1

  9
$XEDIT
290
     1
  9
$CEPSNTYPE
380
     0
  9
$PSTYLEMODE
290
     1
  9
$FINGERPRINTGUID
  2
{8FDA62F1-5E72-4B57-B047-A1DE91E8B5F4}
  9
$VERSIONGUID
  2
{FAEB1C32-E019-11D5-929B-00C0DF256EC4}
  9
$EXTNAMES
290
     1
  9
$PSVPSCALE
 40
0.0
  9
$OLESTARTUP
290
     0
  0
ENDSEC
  0
SECTION
  2
CLASSES
  0
CLASS
  1
ACDBDICTIONARYWDFLT
  2
AcDbDictionaryWithDefault
  3
ObjectDBX Classes
 90
        0
280
     0
281
     0
  0
CLASS
  1
VISUALSTYLE
  2
AcDbVisualStyle
  3
ObjectDBX Classes
 90
     4095
280
     0
281
     0
  0
CLASS
  1
MATERIAL
  2
AcDbMaterial
  3
ObjectDBX Classes
 90
     1153
280
     0
281
     0
  0
CLASS
  1
SCALE
  2
AcDbScale
  3
ObjectDBX Classes
 90
     1153
280
     0
281
     0
  0
CLASS
  1
TABLESTYLE
  2
AcDbTableStyle
  3
ObjectDBX Classes
 90
     4095
280
     0
281
     0
  0
CLASS
  1
MLEADERSTYLE
  2
AcDbMLeaderStyle
  3
ACDB_MLEADERSTYLE_CLASS
 90
     4095
280
     0
281
     0
  0
CLASS
  1
SUN
  2
AcDbSun
  3
SCENEOE
 90
     1153
280
     0
281
     0
  0
CLASS
  1
ACDBPLACEHOLDER
  2
AcDbPlaceHolder
  3
ObjectDBX Classes
 90
        0
280
     0
281
     0
  0
CLASS
  1
LAYOUT
  2
AcDbLayout
  3
ObjectDBX Classes
 90
        0
280
     0
281
     0
  0
ENDSEC
  0
SECTION
  2
TABLES
  0
TABLE
  2
VPORT
  5
8
330
0
100
AcDbSymbolTable
 70
     1
  0
VPORT
  5
29
330
8
100
AcDbSymbolTableRecord
100
AcDbViewportTableRecord
  2
*Active
 70
     0
 10
0.0
 20
0.0
 11
1.0
 21
1.0
 12
215.9
 22
139.7
 13
0.0
 23
0.0
 14
10.0
 24
10.0
 15
10.0
 25
10.0
 16
0.0
 26
0.0
 36
1.0
 17
0.0
 27
0.0
 37
0.0
 40
279.4
 41
1.5454545455
 42
50.0
 43
0.0
 44
0.0
 50
0.0
 51
0.0
 71
     0
 72
  2000
 73
     1
 74
     3
 75
     0
 76
     0
 77
     0
 78
     0
281
     0
 65
     1
110
0.0
120
0.0
130
0.0
111
1.0
121
0.0
131
0.0
112
0.0
122
1.0
132
0.0
 79
     0
146
0.0
  0
ENDTAB
  0
TABLE
  2
LTYPE
  5
5
330
0
100
AcDbSymbolTable
 70
     6
  0
LTYPE
  5
14
330
5
100
AcDbSymbolTableRecord
100
AcDbLinetypeTableRecord
  2
ByBlock
 70
     0
  3

 72
    65
 73
     0
 40
0.0
  0
LTYPE
  5
15
330
5
100
AcDbSymbolTableRecord
100
AcDbLinetypeTableRecord
  2
ByLayer
 70
     0
  3

 72
    65
 73
     0
 40
0.0
  0
LTYPE
  5
16
330
5
100
AcDbSymbolTableRecord
100
AcDbLinetypeTableRecord
  2
Continuous
 70
     0
  3
Solid line
 72
    65
 73
     0
 40
0.0
  0
LTYPE
  5
6E
330
5
100
AcDbSymbolTableRecord
100
AcDbLinetypeTableRecord
  2
HIDDEN
 70
     0
  3
Hidden __ __ __ __ __ __ __ __ __ __ __ __ __ __
 72
    65
 73
     2
 40
1.905
 49
1.27
 74
     0
 49
-0.635
 74
     0
  0
LTYPE
  5
6F
330
5
100
AcDbSymbolTableRecord
100
AcDbLinetypeTableRecord
  2
PHANTOM
 70
     0
  3
Phantom ______  __  __  ______  __  __  ______
 72
    65
 73
     6
 40
12.7
 49
6.35
 74
     0
 49
-1.27
 74
     0
 49
1.27
 74
     0
 49
-1.27
 74
     0
 49
1.27
 74
     0
 49
-1.27
 74
     0
  0
LTYPE
  5
70
330
5
100
AcDbSymbolTableRecord
100
AcDbLinetypeTableRecord
  2
CENTER
 70
     0
  3
Center ____ _ ____ _ ____ _ ____ _ ____ _ ____
 72
    65
 73
     4
 40
10.16
 49
6.35
 74
     0
 49
-1.27
 74
     0
 49
1.27
 74
     0
 49
-1.27
 74
     0
  0
LTYPE
  5
71
330
5
100
AcDbSymbolTableRecord
100
AcDbLinetypeTableRecord
  2
CENTERX2
 70
     0
  3
Center (2x) ________  __  ________  __  _____
 72
    65
 73
     4
 40
20.32
 49
12.7
 74
     0
 49
-2.54
 74
     0
 49
2.54
 74
     0
 49
-2.54
 74
     0
  0
LTYPE
  5
72
330
5
100
AcDbSymbolTableRecord
100
AcDbLinetypeTableRecord
  2
DOT2
 70
     0
  3
Dot (.5x) ........................................
 72
    65
 73
     2
 40
0.635
 49
0.0
 74
     0
 49
-0.635
 74
     0
  0
ENDTAB
  0
TABLE
  2
LAYER
  5
2
330
0
100
AcDbSymbolTable
 70
     2
  0
LAYER
  5
10
330
2
100
AcDbSymbolTableRecord
100
AcDbLayerTableRecord
  2
0
 70
     0
 62
     7
  6
Continuous
370
    -3
390
F
  0
LAYER
  5
73
330
2
100
AcDbSymbolTableRecord
100
AcDbLayerTableRecord
  2
FORMAT
 70
     0
 62
     7
  6
Continuous
370
    -3
390
F
  0
ENDTAB
  0
TABLE
  2
STYLE
  5
3
330
0
100
AcDbSymbolTable
 70
     2
  0
STYLE
  5
11
330
3
100
AcDbSymbolTableRecord
100
AcDbTextStyleTableRecord
  2
Standard
 70
     0
 40
0.0
 41
1.0
 50
0.0
 71
     0
 42
3.175
  3
txt
  4

  0
STYLE
  5
B8
330
3
100
AcDbSymbolTableRecord
100
AcDbTextStyleTableRecord
  2
SLDTEXTSTYLE0
 70
     0
 40
0.0
 41
0.7
 50
0.0
 71
     0
 42
3.175
  3
TXT
  4

  0
ENDTAB
  0
TABLE
  2
VIEW
  5
6
330
0
100
AcDbSymbolTable
 70
     0
  0
ENDTAB
  0
TABLE
  2
UCS
  5
7
330
0
100
AcDbSymbolTable
 70
     0
  0
ENDTAB
  0
TABLE
  2
APPID
  5
9
330
0
100
AcDbSymbolTable
 70
     1
  0
APPID
  5
12
330
9
100
AcDbSymbolTableRecord
100
AcDbRegAppTableRecord
  2
ACAD
 70
     0
  0
ENDTAB
  0
TABLE
  2
DIMSTYLE
  5
A
330
0
100
AcDbSymbolTable
 70
     1
100
AcDbDimStyleTable
  0
DIMSTYLE
105
27
330
A
100
AcDbSymbolTableRecord
100
AcDbDimStyleTableRecord
  2
ISO-25
 70
     0
 41
2.5
 42
0.625
 43
3.75
 44
1.25
 73
     0
 74
     0
 77
     1
 78
     8
140
2.5
141
2.5
143
0.0393700787
147
0.625
171
     3
172
     1
178
     0
271
     2
272
     2
274
     3
278
    44
283
     0
284
     8
340
11
  0
ENDTAB
  0
TABLE
  2
BLOCK_RECORD
  5
1
330
0
100
AcDbSymbolTable
 70
     3
  0
BLOCK_RECORD
  5
1F
330
1
100
AcDbSymbolTableRecord
100
AcDbBlockTableRecord
  2
*Model_Space
340
22
  0
BLOCK_RECORD
  5
1B
330
1
100
AcDbSymbolTableRecord
100
AcDbBlockTableRecord
  2
*Paper_Space
340
1E
  0
BLOCK_RECORD
  5
23
330
1
100
AcDbSymbolTableRecord
100
AcDbBlockTableRecord
  2
*Paper_Space0
340
26
  0
BLOCK_RECORD
  5
BB
330
1
100
AcDbSymbolTableRecord
100
AcDbBlockTableRecord
  2
SW_NOTE_0
340
0
102
{BLKREFS
331
C1
102
}
  0
BLOCK_RECORD
  5
C6
330
1
100
AcDbSymbolTableRecord
100
AcDbBlockTableRecord
  2
SW_NOTE_1
340
0
102
{BLKREFS
331
CC
102
}
  0
ENDTAB
  0
ENDSEC
  0
SECTION
  2
BLOCKS
  0
BLOCK
  5
20
330
1F
100
AcDbEntity
  8
0
100
AcDbBlockBegin
  2
*Model_Space
 70
     0
 10
0.0
 20
0.0
 30
0.0
  3
*Model_Space
  1

  0
ENDBLK
  5
21
330
1F
100
AcDbEntity
  8
0
100
AcDbBlockEnd
  0
BLOCK
  5
1C
330
1B
100
AcDbEntity
 67
     1
  8
0
100
AcDbBlockBegin
  2
*Paper_Space
 70
     0
 10
0.0
 20
0.0
 30
0.0
  3
*Paper_Space
  1

  0
ENDBLK
  5
1D
330
1B
100
AcDbEntity
 67
     1
  8
0
100
AcDbBlockEnd
  0
BLOCK
  5
24
330
23
100
AcDbEntity
  8
0
100
AcDbBlockBegin
  2
*Paper_Space0
 70
     0
 10
0.0
 20
0.0
 30
0.0
  3
*Paper_Space0
  1

  0
ENDBLK
  5
25
330
23
100
AcDbEntity
  8
0
100
AcDbBlockEnd
  0
BLOCK
  5
BC
330
BB
100
AcDbEntity
  8
0
100
AcDbBlockBegin
  2
SW_NOTE_0
 70
     0
 10
0.0
 20
0.0
 30
0.0
  3
SW_NOTE_0
  1

  0
MTEXT
  5
BE
330
BB
100
AcDbEntity
  8
0
  6
Continuous
 62
     0
370
     0
100
AcDbMText
 10
0.0
 20
2.0463950369
 30
0.0
 40
1.5875
 41
0.0
 71
     1
 72
     1
  1
87 34th Street, Unit 11, Brooklyn, NY 11232
  7
SLDTEXTSTYLE0
 73
     1
 44
1.0
  0
MTEXT
  5
BF
330
BB
100
AcDbEntity
  8
0
  6
Continuous
 62
     0
370
     0
100
AcDbMText
 10
0.0
 20
-0.0702716042
 30
0.0
 40
1.5875
 41
0.0
 71
     1
 72
     1
  1
T +1 718-387-6132
  7
SLDTEXTSTYLE0
 73
     1
 44
1.0
  0
MTEXT
  5
C0
330
BB
100
AcDbEntity
  8
0
  6
Continuous
 62
     0
370
     0
100
AcDbMText
 10
0.0
 20
-2.1869382453
 30
0.0
 40
1.5875
 41
0.0
 71
     1
 72
     1
  1
www.rollandhill.com
  7
SLDTEXTSTYLE0
 73
     1
 44
1.0
  0
ENDBLK
  5
BD
330
BB
100
AcDbEntity
  8
0
100
AcDbBlockEnd
  0
BLOCK
  5
C7
330
C6
100
AcDbEntity
  8
0
100
AcDbBlockBegin
  2
SW_NOTE_1
 70
     0
 10
0.0
 20
0.0
 30
0.0
  3
SW_NOTE_1
  1

  0
MTEXT
  5
C9
330
C6
100
AcDbEntity
  8
0
  6
Continuous
 62
     0
370
     0
100
AcDbMText
 10
0.0
 20
2.0463950369
 30
0.0
 40
1.5875
 41
0.0
 71
     1
 72
     1
  1
\LPROPRIETARY AND CONFIDENTIAL
  7
SLDTEXTSTYLE0
 73
     1
 44
1.0
  0
MTEXT
  5
CA
330
C6
100
AcDbEntity
  8
0
  6
Continuous
 62
     0
370
     0
100
AcDbMText
 10
37.3117625713
 20
2.0463950369
 30
0.0
 40
1.5875
 41
0.0
 71
     1
 72
     1
  1
THE INFORMATION CONTAINED IN THIS DRAWING IS THE SOLE PROPERTY OF ROLL & HILL LLC. ANY REPRODUCTION IN
  7
SLDTEXTSTYLE0
 73
     1
 44
1.0
  0
MTEXT
  5
CB
330
C6
100
AcDbEntity
  8
0
  6
Continuous
 62
     0
370
     0
100
AcDbMText
 10
0.0
 20
-0.0702716042
 30
0.0
 40
1.5875
 41
0.0
 71
     1
 72
     1
  1
PART OR AS A WHOLE WITHOUT THE WRITTEN PERMISSION OF ROLL & HILL LLC. IS PROHIBITED.
  7
SLDTEXTSTYLE0
 73
     1
 44
1.0
  0
ENDBLK
  5
C8
330
C6
100
AcDbEntity
  8
0
100
AcDbBlockEnd
  0
ENDSEC
  0
SECTION
  2
ENTITIES
  0
HATCH
  5
74
330
1F
100
AcDbEntity
  8
0
  6
Continuous
 62
     7
100
AcDbHatch
 10
0.0
 20
0.0
 30
0.0
210
0.0
220
0.0
230
1.0
  2
SOLID
 70
     1
 71
     0
 91
        2
 92
        0
 93
        6
 72
     4
 94
        3
 73
     1
 74
     0
 95
       20
 96
       16
 40
0.0
 40
0.0
 40
0.0
 40
0.0
 40
1.0
 40
1.0
 40
1.0
 40
2.0
 40
2.0
 40
2.0
 40
3.0
 40
3.0
 40
3.0
 40
4.0
 40
4.0
 40
4.0
 40
5.0
 40
5.0
 40
5.0
 40
5.0
 10
261.0219043336847
 20
23.63056361828031
 42
1.0
 10
261.2341319795987
 20
23.68742184709604
 42
1.0
 10
261.3945785321864
 20
23.72473719781129
 42
1.0
 10
261.5515161764629
 20
23.77337299628437
 42
1.0
 10
262.5617362220245
 20
24.08644572151765
 42
1.0
 10
262.9966382899503
 20
24.76217905347502
 42
1.0
 10
262.9131259646454
 20
25.88395655371281
 42
1.0
 10
262.8488620904764
 20
26.74717259793779
 42
1.0
 10
262.3071445332423
 20
27.30037799580671
 42
1.0
 10
261.2989762515715
 20
27.40941936834727
 42
1.0
 10
260.5093946232761
 20
27.49481913962259
 42
1.0
 10
259.7094699986221
 20
27.48819126576296
 42
1.0
 10
258.913837050576
 20
27.51251762112626
 42
1.0
 10
258.5159962651877
 20
27.52468175973202
 42
1.0
 10
258.1174764912431
 20
27.51463645747964
 42
1.0
 10
257.7192638284546
 20
27.51463645747964
 42
1.0
 72
     4
 94
        3
 73
     1
 74
     0
 95
       14
 96
       10
 40
17.0
 40
17.0
 40
17.0
 40
17.0
 40
18.0
 40
18.0
 40
18.0
 40
19.0
 40
19.0
 40
19.0
 40
20.0
 40
20.0
 40
20.0
 40
20.0
 10
257.7192638284546
 20
27.51463645747964
 42
1.0
 10
258.2057453879524
 20
27.36893835120056
 42
1.0
 10
258.4151924094879
 20
27.04153921726714
 42
1.0
 10
258.4151320634913
 20
26.55729487989966
 42
1.0
 10
258.4149081683119
 20
24.76100595804667
 42
1.0
 10
258.4191609275175
 20
22.96470127704905
 42
1.0
 10
258.4124688639662
 20
21.16843695483816
 42
1.0
 10
258.4104423723632
 20
20.62446660851326
 42
1.0
 10
258.2139995287706
 20
20.39587059142628
 42
1.0
 10
257.7053577757453
 20
20.25910042553502
 42
1.0
 72
     1
 10
257.7053577757453
 20
20.25910042553502
 11
260.1134120717832
 21
20.25910042553502
 72
     4
 94
        3
 73
     1
 74
     0
 95
       14
 96
       10
 40
13.0
 40
13.0
 40
13.0
 40
13.0
 40
14.0
 40
14.0
 40
14.0
 40
15.0
 40
15.0
 40
15.0
 40
16.0
 40
16.0
 40
16.0
 40
16.0
 10
260.1134120717832
 20
20.25910042553502
 42
1.0
 10
259.6377614656041
 20
20.40079128856704
 42
1.0
 10
259.4435911100346
 20
20.64162793377141
 42
1.0
 10
259.4408326829897
 20
21.14221143023692
 42
1.0
 10
259.4366701545022
 20
21.89763799307775
 42
1.0
 10
259.4392191002215
 20
22.65310606781492
 42
1.0
 10
259.4405559370167
 20
23.40855338660287
 42
1.0
 10
259.4406539512153
 20
23.46398560492077
 42
1.0
 10
259.4539911852495
 20
23.51939476107442
 42
1.0
 10
259.4607286043899
 20
23.57138302951071
 42
1.0
 72
     4
 94
        3
 73
     1
 74
     0
 95
       20
 96
       16
 40
8.0
 40
8.0
 40
8.0
 40
8.0
 40
9.0
 40
9.0
 40
9.0
 40
10.0
 40
10.0
 40
10.0
 40
11.0
 40
11.0
 40
11.0
 40
12.0
 40
12.0
 40
12.0
 40
13.0
 40
13.0
 40
13.0
 40
13.0
 10
259.4607286043899
 20
23.57138302951071
 42
1.0
 10
260.3725694925604
 20
23.65083910446931
 42
1.0
 10
260.6054131759577
 20
23.52556773374194
 42
1.0
 10
261.0037355762117
 20
22.71920223094413
 42
1.0
 10
261.378026816807
 20
21.9614848264415
 42
1.0
 10
261.7451764738302
 20
21.200166649339
 42
1.0
 10
262.1067370153144
 20
20.43629933433309
 42
1.0
 10
262.1765046750147
 20
20.28890135435546
 42
1.0
 10
262.2549406335689
 20
20.22203337745712
 42
1.0
 10
262.427398730108
 20
20.22724465786873
 42
1.0
 10
262.8718696744063
 20
20.24067529366942
 42
1.0
 10
263.3170171088603
 20
20.2311736819415
 42
1.0
 10
263.7618904879274
 20
20.2323936704376
 42
1.0
 10
263.8264337986554
 20
20.23257048036439
 42
1.0
 10
263.8909540472192
 20
20.24131411562171
 42
1.0
 10
263.9554858268652
 20
20.24609336482204
 42
1.0
 72
     4
 94
        3
 73
     1
 74
     0
 95
       14
 96
       10
 40
5.0
 40
5.0
 40
5.0
 40
5.0
 40
6.0
 40
6.0
 40
6.0
 40
7.0
 40
7.0
 40
7.0
 40
8.0
 40
8.0
 40
8.0
 40
8.0
 10
263.9554858268652
 20
20.24609336482204
 42
1.0
 10
263.5606000734738
 20
20.32757122285868
 42
1.0
 10
263.3178377375433
 20
20.57267359973515
 42
1.0
 10
263.1292772534607
 20
20.88520667032095
 42
1.0
 10
262.8739775562312
 20
21.30835818112304
 42
1.0
 10
262.6276890153665
 20
21.7369354504649
 42
1.0
 10
262.3739921385617
 20
22.16106556577572
 42
1.0
 10
262.033208300972
 20
22.73079019980925
 42
1.0
 10
261.7521543160346
 20
23.35408286053947
 42
1.0
 10
261.0219043336847
 20
23.63056361828031
 42
1.0
 97
        0
 92
        0
 93
        2
 72
     1
 10
259.4558811296203
 20
23.74052094311722
 11
259.4558811296203
 21
27.35855230546976
 72
     4
 94
        3
 73
     1
 74
     0
 95
       20
 96
       16
 40
1.0
 40
1.0
 40
1.0
 40
1.0
 40
2.0
 40
2.0
 40
2.0
 40
3.0
 40
3.0
 40
3.0
 40
4.0
 40
4.0
 40
4.0
 40
5.0
 40
5.0
 40
5.0
 40
6.0
 40
6.0
 40
6.0
 40
6.0
 10
259.4558811296203
 20
27.35855230546976
 42
1.0
 10
259.8103733099057
 20
27.35855230546976
 42
1.0
 10
260.1467440101549
 20
27.38072599997261
 42
1.0
 10
260.4792308497364
 20
27.35420547185249
 42
1.0
 10
261.3230227860075
 20
27.28690123567825
 42
1.0
 10
261.7108519014664
 20
26.95476897687368
 42
1.0
 10
261.8164781518313
 20
26.10478869315943
 42
1.0
 10
261.8719876284001
 20
25.65810454981779
 42
1.0
 10
261.8389787525148
 20
25.18024881635489
 42
1.0
 10
261.7413862071132
 20
24.73962656292206
 42
1.0
 10
261.608259863196
 20
24.13857044109259
 42
1.0
 10
261.1506181168165
 20
23.81517009427841
 42
1.0
 10
260.5489927438957
 20
23.74778168120397
 42
1.0
 10
260.1942113256325
 20
23.70804326575078
 42
1.0
 10
259.8313410453958
 20
23.74052094311722
 42
1.0
 10
259.4558811296203
 20
23.74052094311722
 42
1.0
 97
        0
 75
     0
 76
     1
 98
        1
 10
0.0
 20
0.0
  0
HATCH
  5
75
330
1F
100
AcDbEntity
  8
0
  6
Continuous
 62
     7
100
AcDbHatch
 10
0.0
 20
0.0
 30
0.0
210
0.0
220
0.0
230
1.0
  2
SOLID
 70
     1
 71
     0
 91
        2
 92
        0
 93
        2
 72
     4
 94
        3
 73
     1
 74
     0
 95
       14
 96
       10
 40
0.0
 40
0.0
 40
0.0
 40
0.0
 40
1.0
 40
1.0
 40
1.0
 40
2.0
 40
2.0
 40
2.0
 40
3.0
 40
3.0
 40
3.0
 40
3.0
 10
267.2336118279071
 20
20.23490821509466
 42
1.0
 10
268.1650050112285
 20
19.98240211471103
 42
1.0
 10
269.1482911393735
 20
20.33660467264827
 42
1.0
 10
269.7215189161771
 20
21.13111084177937
 42
1.0
 10
270.3723808569537
 20
22.03321892002499
 42
1.0
 10
270.372934348899
 20
23.32205720159637
 42
1.0
 10
269.7103360726668
 20
24.21398909980579
 42
1.0
 10
269.2464106552308
 20
24.83848445240961
 42
1.0
 10
268.6216197225536
 20
25.16033694362372
 42
1.0
 10
267.7758432870376
 20
25.16748813643033
 42
1.0
 72
     4
 94
        3
 73
     1
 74
     0
 95
       14
 96
       10
 40
3.0
 40
3.0
 40
3.0
 40
3.0
 40
4.0
 40
4.0
 40
4.0
 40
5.0
 40
5.0
 40
5.0
 40
6.0
 40
6.0
 40
6.0
 40
6.0
 10
267.7758432870376
 20
25.16748813643033
 42
1.0
 10
266.9062728477855
 20
25.1505801106106
 42
1.0
 10
266.225828300013
 20
24.723612195973
 42
1.0
 10
265.7739382574312
 20
23.92202056120339
 42
1.0
 10
265.4879189885011
 20
23.41465794151554
 42
1.0
 10
265.4259332718035
 20
22.86561853145873
 42
1.0
 10
265.4837047623288
 20
22.29272284982232
 42
1.0
 10
265.5792320909092
 20
21.34541139190241
 42
1.0
 10
266.3034040398354
 20
20.48709452013179
 42
1.0
 10
267.2336118279071
 20
20.23490821509466
 42
1.0
 97
        0
 92
        0
 93
        2
 72
     4
 94
        3
 73
     1
 74
     0
 95
       17
 96
       13
 40
0.0
 40
0.0
 40
0.0
 40
0.0
 40
1.0
 40
1.0
 40
1.0
 40
2.0
 40
2.0
 40
2.0
 40
3.0
 40
3.0
 40
3.0
 40
4.0
 40
4.0
 40
4.0
 40
4.0
 10
266.4699528411193
 20
22.82140374989816
 42
1.0
 10
266.4968487059656
 20
23.23360918874381
 42
1.0
 10
266.5993976948625
 20
23.64490674705059
 42
1.0
 10
266.7072125446274
 20
24.04607386528146
 42
1.0
 10
266.7597204805012
 20
24.2414496033099
 42
1.0
 10
266.882078331128
 20
24.42789874624283
 42
1.0
 10
267.0072628343699
 20
24.59213287496141
 42
1.0
 10
267.4640605055332
 20
25.19142205062979
 42
1.0
 10
268.2143234497673
 20
25.18405330473933
 42
1.0
 10
268.6683621173312
 20
24.58056604641373
 42
1.0
 10
269.0963628325642
 20
24.01168817818241
 42
1.0
 10
269.195680043492
 20
23.34551372899321
 42
1.0
 10
269.218762963826
 20
22.68351122534059
 42
1.0
 72
     4
 94
        3
 73
     1
 74
     0
 95
       17
 96
       13
 40
4.0
 40
4.0
 40
4.0
 40
4.0
 40
5.0
 40
5.0
 40
5.0
 40
6.0
 40
6.0
 40
6.0
 40
7.0
 40
7.0
 40
7.0
 40
8.0
 40
8.0
 40
8.0
 40
8.0
 10
269.218762963826
 20
22.68351122534059
 42
1.0
 10
269.202432645224
 20
22.05765558940843
 42
1.0
 10
269.1208448575376
 20
21.47214721006825
 42
1.0
 10
268.810867074766
 20
20.94311038392242
 42
1.0
 10
268.6078393105943
 20
20.5966013640246
 42
1.0
 10
268.3388937306983
 20
20.33416469565678
 42
1.0
 10
267.9076604687568
 20
20.30531315927085
 42
1.0
 10
267.4153070900211
 20
20.27237193240103
 42
1.0
 10
267.1048165584612
 20
20.54785025472892
 42
1.0
 10
266.8746830637486
 20
20.93428603108956
 42
1.0
 10
266.5287029361534
 20
21.51524885782822
 42
1.0
 10
266.4269741915698
 20
22.16270989809668
 42
1.0
 10
266.4699528411193
 20
22.82140374989816
 42
1.0
 97
        0
 75
     0
 76
     1
 98
        1
 10
0.0
 20
0.0
  0
HATCH
  5
76
330
1F
100
AcDbEntity
  8
0
  6
Continuous
 62
     7
100
AcDbHatch
 10
0.0
 20
0.0
 30
0.0
210
0.0
220
0.0
230
1.0
  2
SOLID
 70
     1
 71
     0
 91
        1
 92
        0
 93
        4
 72
     1
 10
273.9540333846496
 20
27.87257450949275
 11
272.4594267850394
 21
27.32510813123116
 72
     4
 94
        3
 73
     1
 74
     0
 95
       14
 96
       10
 40
6.0
 40
6.0
 40
6.0
 40
6.0
 40
7.0
 40
7.0
 40
7.0
 40
8.0
 40
8.0
 40
8.0
 40
9.0
 40
9.0
 40
9.0
 40
9.0
 10
272.4594267850394
 20
27.32510813123116
 42
1.0
 10
272.9826104338649
 20
27.28380667758701
 42
1.0
 10
273.0476395875227
 20
27.23250104921648
 42
1.0
 10
273.0527409382852
 20
26.65700799131587
 42
1.0
 10
273.0685846452182
 20
24.86961337752774
 42
1.0
 10
273.0702866329497
 20
23.08209538116094
 42
1.0
 10
273.0783845276048
 20
21.29462927466367
 42
1.0
 10
273.0805785081768
 20
20.81042375860576
 42
1.0
 10
273.0059923935969
 20
20.37668517687364
 42
1.0
 10
272.426404840594
 20
20.2590796695872
 42
1.0
 72
     1
 10
272.426404840594
 20
20.2590796695872
 11
274.6224502449564
 21
20.2590796695872
 72
     4
 94
        3
 73
     1
 74
     0
 95
       17
 96
       13
 40
1.0
 40
1.0
 40
1.0
 40
1.0
 40
2.0
 40
2.0
 40
2.0
 40
3.0
 40
3.0
 40
3.0
 40
4.0
 40
4.0
 40
4.0
 40
5.0
 40
5.0
 40
5.0
 40
5.0
 10
274.6224502449564
 20
20.2590796695872
 42
1.0
 10
274.1836818051716
 20
20.38260600321025
 42
1.0
 10
274.0006220316647
 20
20.58964274029083
 42
1.0
 10
273.9590578615309
 20
21.04279505200226
 42
1.0
 10
273.9506540088286
 20
21.13443409966764
 42
1.0
 10
273.954217881965
 20
21.22727776105204
 42
1.0
 10
273.9542086570993
 20
21.31956562427539
 42
1.0
 10
273.9539872603212
 20
23.41776441505853
 42
1.0
 10
273.9540349221275
 20
25.51596282147274
 42
1.0
 10
273.9540333846496
 20
27.61416161225588
 42
1.0
 10
273.9540333846496
 20
27.71082379150879
 42
1.0
 10
273.9540333846496
 20
27.8074859707617
 42
1.0
 10
273.9540333846496
 20
27.87257450949275
 42
1.0
 97
        0
 75
     0
 76
     1
 98
        1
 10
0.0
 20
0.0
  0
HATCH
  5
77
330
1F
100
AcDbEntity
  8
0
  6
Continuous
 62
     7
100
AcDbHatch
 10
0.0
 20
0.0
 30
0.0
210
0.0
220
0.0
230
1.0
  2
SOLID
 70
     1
 71
     0
 91
        1
 92
        0
 93
        4
 72
     1
 10
276.9460186560295
 20
20.2549177176549
 11
279.1055120673172
 21
20.2549177176549
 72
     4
 94
        3
 73
     1
 74
     0
 95
       14
 96
       10
 40
6.0
 40
6.0
 40
6.0
 40
6.0
 40
7.0
 40
7.0
 40
7.0
 40
8.0
 40
8.0
 40
8.0
 40
9.0
 40
9.0
 40
9.0
 40
9.0
 10
279.1055120673172
 20
20.2549177176549
 42
1.0
 10
278.6550987719953
 20
20.40793364087759
 42
1.0
 10
278.4823339486704
 20
20.63637283524633
 42
1.0
 10
278.4822124879378
 20
21.11904779232805
 42
1.0
 10
278.4816605334703
 20
23.30086999117493
 42
1.0
 10
278.4819664915176
 20
25.48269219002111
 42
1.0
 10
278.4819649540404
 20
27.66451419668386
 42
1.0
 10
278.4819649540404
 20
27.75219577693941
 42
1.0
 10
278.4819664915176
 20
27.83987735719566
 42
1.0
 10
278.4819664915176
 20
27.88441039662488
 42
1.0
 72
     1
 10
278.4819664915176
 20
27.88441039662488
 11
276.9846800684063
 21
27.3296354262854
 72
     4
 94
        3
 73
     1
 74
     0
 95
       17
 96
       13
 40
1.0
 40
1.0
 40
1.0
 40
1.0
 40
2.0
 40
2.0
 40
2.0
 40
3.0
 40
3.0
 40
3.0
 40
4.0
 40
4.0
 40
4.0
 40
5.0
 40
5.0
 40
5.0
 40
5.0
 10
276.9846800684063
 20
27.3296354262854
 42
1.0
 10
277.5366914227135
 20
27.25167954511983
 42
1.0
 10
277.5738092075535
 20
27.20775573119973
 42
1.0
 10
277.5772915943764
 20
26.57154691311976
 42
1.0
 10
277.5773838430334
 20
26.55476419172763
 42
1.0
 10
277.577359243392
 20
26.53798031722657
 42
1.0
 10
277.577359243392
 20
26.52119721146337
 42
1.0
 10
277.5773700057348
 20
24.72538990447762
 42
1.0
 10
277.5776652014392
 20
22.92958298186009
 42
1.0
 10
277.5771993457187
 20
21.13377529050539
 42
1.0
 10
277.5770686601204
 20
20.6342380475635
 42
1.0
 10
277.4179566381115
 20
20.4199152040148
 42
1.0
 10
276.9460186560295
 20
20.2549177176549
 42
1.0
 97
        0
 75
     0
 76
     1
 98
        1
 10
0.0
 20
0.0
  0
HATCH
  5
78
330
1F
100
AcDbEntity
  8
0
  6
Continuous
 62
     7
100
AcDbHatch
 10
0.0
 20
0.0
 30
0.0
210
0.0
220
0.0
230
1.0
  2
SOLID
 70
     1
 71
     0
 91
        3
 92
        0
 93
        9
 72
     4
 94
        3
 73
     1
 74
     0
 95
       14
 96
       10
 40
0.0
 40
0.0
 40
0.0
 40
0.0
 40
1.0
 40
1.0
 40
1.0
 40
2.0
 40
2.0
 40
2.0
 40
3.0
 40
3.0
 40
3.0
 40
3.0
 10
287.0539854214827
 20
21.61211917311517
 42
1.0
 10
287.2972697310664
 20
21.3082559388604
 42
1.0
 10
287.5152010346028
 20
21.01001756649998
 42
1.0
 10
287.7601488949774
 20
20.73592220529573
 42
1.0
 10
288.1784811821614
 20
20.26780485511384
 42
1.0
 10
288.7048673968812
 20
20.09831485913089
 42
1.0
 10
289.3271645408483
 20
20.20870037148624
 42
1.0
 10
289.9739444785289
 20
20.32342848939635
 42
1.0
 10
290.7160910783766
 20
21.04182259740494
 42
1.0
 10
290.8103661314317
 20
21.70506046432864
 42
1.0
 72
     4
 94
        3
 73
     1
 74
     0
 95
       14
 96
       10
 40
24.0
 40
24.0
 40
24.0
 40
24.0
 40
25.0
 40
25.0
 40
25.0
 40
26.0
 40
26.0
 40
26.0
 40
27.0
 40
27.0
 40
27.0
 40
27.0
 10
290.8103661314317
 20
21.70506046432864
 42
1.0
 10
290.6825002672103
 20
21.49939669476813
 42
1.0
 10
290.5884281612034
 20
21.32571784099438
 42
1.0
 10
290.4735170834558
 20
21.16713932372221
 42
1.0
 10
289.9836367374808
 20
20.49110656799653
 42
1.0
 10
289.3841588364346
 20
20.43289382139212
 42
1.0
 10
288.8166481701822
 20
21.05011190802389
 42
1.0
 10
288.4270667146001
 20
21.47381844824843
 42
1.0
 10
288.0996055050067
 20
21.95463920731319
 42
1.0
 10
287.7314564875268
 20
22.4264857094768
 42
1.0
 72
     4
 94
        3
 73
     1
 74
     0
 95
       11
 96
        7
 40
22.0
 40
22.0
 40
22.0
 40
22.0
 40
23.0
 40
23.0
 40
23.0
 40
24.0
 40
24.0
 40
24.0
 40
24.0
 10
287.7314564875268
 20
22.4264857094768
 42
1.0
 10
288.1508588591387
 20
23.00030157147278
 42
1.0
 10
288.5466855488353
 20
23.55949371503118
 42
1.0
 10
288.9612633156569
 20
24.10441845059237
 42
1.0
 10
289.4290162836425
 20
24.71923384406366
 42
1.0
 10
289.9536528488242
 20
25.26443186627322
 42
1.0
 10
290.7742138825406
 20
25.39867403457779
 42
1.0
 72
     1
 10
290.7742138825406
 20
25.39867403457779
 11
287.7715077796773
 21
25.39867403457779
 72
     4
 94
        3
 73
     1
 74
     0
 95
       17
 96
       13
 40
16.0
 40
16.0
 40
16.0
 40
16.0
 40
17.0
 40
17.0
 40
17.0
 40
18.0
 40
18.0
 40
18.0
 40
19.0
 40
19.0
 40
19.0
 40
20.0
 40
20.0
 40
20.0
 40
20.0
 10
287.7715077796773
 20
25.39867403457779
 42
1.0
 10
287.9710693005408
 20
25.34310267453518
 42
1.0
 10
288.1718392788191
 20
25.32949945687163
 42
1.0
 10
288.3670435880915
 20
25.28904726743022
 42
1.0
 10
288.7601181928394
 20
25.20759054971102
 42
1.0
 10
288.9174636530569
 20
24.97387165717582
 42
1.0
 10
288.8543009972361
 20
24.57697987985169
 42
1.0
 10
288.8373887433532
 20
24.47070865762303
 42
1.0
 10
288.8131334963293
 20
24.35736772890119
 42
1.0
 10
288.7595985254019
 20
24.26650702928458
 42
1.0
 10
288.4211781752921
 20
23.692108847638
 42
1.0
 10
288.0735790837579
 20
23.12311989664797
 42
1.0
 10
287.7233847299918
 20
22.54303496963325
 42
1.0
 72
     1
 10
287.7233847299918
 20
22.54303496963325
 11
285.8065406500284
 21
24.86455968857224
 72
     4
 94
        3
 73
     1
 74
     0
 95
       20
 96
       16
 40
10.0
 40
10.0
 40
10.0
 40
10.0
 40
11.0
 40
11.0
 40
11.0
 40
12.0
 40
12.0
 40
12.0
 40
13.0
 40
13.0
 40
13.0
 40
14.0
 40
14.0
 40
14.0
 40
15.0
 40
15.0
 40
15.0
 40
15.0
 10
285.8065406500283
 20
24.86455968857225
 42
1.0
 10
285.9002991106001
 20
24.9215528310502
 42
1.0
 10
286.0025259979348
 20
24.975621306713
 42
1.0
 10
286.0959738880259
 20
25.04203380586477
 42
1.0
 10
286.361711520857
 20
25.23088333574105
 42
1.0
 10
286.6551698752792
 20
25.39378370261948
 42
1.0
 10
286.8815726805328
 20
25.62247811827483
 42
1.0
 10
287.5614237619422
 20
26.30921056516709
 42
1.0
 10
287.361321048954
 20
27.32558686332681
 42
1.0
 10
286.4793408590448
 20
27.71426216803416
 42
1.0
 10
285.840402057257
 20
27.99583274545401
 42
1.0
 10
285.1912113546599
 20
27.99239110178883
 42
1.0
 10
284.558084218296
 20
27.68711127408746
 42
1.0
 10
283.9109291360762
 20
27.37506654483262
 42
1.0
 10
283.6309452355653
 20
26.8393466878164
 42
1.0
 10
283.7149530130354
 20
26.1296866058298
 42
1.0
 72
     4
 94
        3
 73
     1
 74
     0
 95
       11
 96
        7
 40
8.0
 40
8.0
 40
8.0
 40
8.0
 40
9.0
 40
9.0
 40
9.0
 40
10.0
 40
10.0
 40
10.0
 40
10.0
 10
283.7149530130354
 20
26.1296866058298
 42
1.0
 10
283.7707819005811
 20
25.65802498535045
 42
1.0
 10
284.0198409761273
 20
25.28515591156022
 42
1.0
 10
284.3077767109179
 20
24.93075271279267
 42
1.0
 10
284.4323277733789
 20
24.77744812814591
 42
1.0
 10
284.5641388051866
 20
24.6300390014551
 42
1.0
 10
284.7027239634148
 20
24.46818604120849
 42
1.0
 72
     4
 94
        3
 73
     1
 74
     0
 95
       20
 96
       16
 40
3.0
 40
3.0
 40
3.0
 40
3.0
 40
4.0
 40
4.0
 40
4.0
 40
5.0
 40
5.0
 40
5.0
 40
6.0
 40
6.0
 40
6.0
 40
7.0
 40
7.0
 40
7.0
 40
8.0
 40
8.0
 40
8.0
 40
8.0
 10
284.7027239634148
 20
24.46818604120849
 42
1.0
 10
284.5513685160267
 20
24.38851087568819
 42
1.0
 10
284.4255536469583
 20
24.32317807019961
 42
1.0
 10
284.3005597909425
 20
24.25632085564481
 42
1.0
 10
283.8607304915963
 20
24.02105948868024
 42
1.0
 10
283.460866385652
 20
23.73663343094009
 42
1.0
 10
283.1417229300147
 20
23.34576433784628
 42
1.0
 10
282.3522343191156
 20
22.37884389028816
 42
1.0
 10
282.6109241545095
 20
20.5355588898502
 42
1.0
 10
284.198169930981
 20
20.23446388406056
 42
1.0
 10
285.1515567317372
 20
20.05360962220845
 42
1.0
 10
285.9488126796034
 20
20.36759637788916
 42
1.0
 10
286.5896302790503
 20
21.09003174583673
 42
1.0
 10
286.7443651022574
 20
21.26447318851251
 42
1.0
 10
286.8995550188436
 20
21.43851181205056
 42
1.0
 10
287.0539854214827
 20
21.61211917311517
 42
1.0
 97
        0
 92
        0
 93
        2
 72
     4
 94
        3
 73
     1
 74
     0
 95
       14
 96
       10
 40
0.0
 40
0.0
 40
0.0
 40
0.0
 40
1.0
 40
1.0
 40
1.0
 40
2.0
 40
2.0
 40
2.0
 40
3.0
 40
3.0
 40
3.0
 40
3.0
 10
284.688382372121
 20
27.15085253116304
 42
1.0
 10
284.8337724063213
 20
27.5710895609412
 42
1.0
 10
285.1818973152029
 20
27.79269159230804
 42
1.0
 10
285.6158934244382
 20
27.76810636414938
 42
1.0
 10
285.9916529561654
 20
27.74682017860581
 42
1.0
 10
286.2400293916459
 20
27.5110460628537
 42
1.0
 10
286.3549927436335
 20
27.06650131962916
 42
1.0
 10
286.5713650448558
 20
26.2298440482801
 42
1.0
 10
286.3259713159692
 20
25.4295804098103
 42
1.0
 10
285.6520579731507
 20
24.9254318870995
 42
1.0
 72
     4
 94
        3
 73
     1
 74
     0
 95
       11
 96
        7
 40
3.0
 40
3.0
 40
3.0
 40
3.0
 40
4.0
 40
4.0
 40
4.0
 40
5.0
 40
5.0
 40
5.0
 40
5.0
 10
285.6520579731507
 20
24.9254318870995
 42
1.0
 10
285.3510444536752
 20
25.31853032275095
 42
1.0
 10
285.0380140090768
 20
25.68714980838475
 42
1.0
 10
284.7721626029031
 20
26.08712768767229
 42
1.0
 10
284.5571094574822
 20
26.41068293535724
 42
1.0
 10
284.5630810205802
 20
26.788679112661
 42
1.0
 10
284.688382372121
 20
27.15085253116304
 42
1.0
 97
        0
 92
        0
 93
        2
 72
     1
 10
284.845288113738
 20
24.3712657578988
 11
287.0009947176327
 21
21.77781006188367
 72
     4
 94
        3
 73
     1
 74
     0
 95
       14
 96
       10
 40
1.0
 40
1.0
 40
1.0
 40
1.0
 40
2.0
 40
2.0
 40
2.0
 40
3.0
 40
3.0
 40
3.0
 40
4.0
 40
4.0
 40
4.0
 40
4.0
 10
287.0009947176327
 20
21.77781006188367
 42
1.0
 10
286.5509442670314
 20
21.22618922689351
 42
1.0
 10
286.0339581905155
 20
20.90925282038733
 42
1.0
 10
285.3603677179978
 20
20.87638462370451
 42
1.0
 10
284.4974276510072
 20
20.83427541775252
 42
1.0
 10
283.8665083325146
 20
21.39392726712143
 42
1.0
 10
283.7780264951535
 20
22.28619625730053
 42
1.0
 10
283.6988925217564
 20
23.08417174469389
 42
1.0
 10
284.1054815548355
 20
23.90423117633508
 42
1.0
 10
284.845288113738
 20
24.3712657578988
 42
1.0
 97
        0
 75
     0
 76
     1
 98
        1
 10
0.0
 20
0.0
  0
HATCH
  5
79
330
1F
100
AcDbEntity
  8
0
  6
Continuous
 62
     7
100
AcDbHatch
 10
0.0
 20
0.0
 30
0.0
210
0.0
220
0.0
230
1.0
  2
SOLID
 70
     1
 71
     0
 91
        1
 92
        0
 93
        2
 72
     4
 94
        3
 73
     1
 74
     0
 95
       11
 96
        7
 40
0.0
 40
0.0
 40
0.0
 40
0.0
 40
1.0
 40
1.0
 40
1.0
 40
2.0
 40
2.0
 40
2.0
 40
2.0
 10
303.0570519104932
 20
26.35430478392947
 42
1.0
 10
303.0628482011429
 20
25.96449808787493
 42
1.0
 10
303.3259905717408
 20
25.69768229885988
 42
1.0
 10
303.6993639381942
 20
25.70301926806731
 42
1.0
 10
304.0680572227529
 20
25.70828897263022
 42
1.0
 10
304.3293945946187
 20
25.98752450590587
 42
1.0
 10
304.327448147944
 20
26.37412133304796
 42
1.0
 72
     4
 94
        3
 73
     1
 74
     0
 95
       11
 96
        7
 40
2.0
 40
2.0
 40
2.0
 40
2.0
 40
3.0
 40
3.0
 40
3.0
 40
4.0
 40
4.0
 40
4.0
 40
4.0
 10
304.327448147944
 20
26.37412133304796
 42
1.0
 10
304.3255386007336
 20
26.75299425696746
 42
1.0
 10
304.0507636744179
 20
27.04560238626284
 42
1.0
 10
303.6924299141011
 20
27.05034857969325
 42
1.0
 10
303.3266947364936
 20
27.05519259513757
 42
1.0
 10
303.0511172468595
 20
26.75330175249256
 42
1.0
 10
303.0570519104932
 20
26.35430478392947
 42
1.0
 97
        0
 75
     0
 76
     1
 98
        1
 10
0.0
 20
0.0
  0
HATCH
  5
7A
330
1F
100
AcDbEntity
  8
0
  6
Continuous
 62
     7
100
AcDbHatch
 10
0.0
 20
0.0
 30
0.0
210
0.0
220
0.0
230
1.0
  2
SOLID
 70
     1
 71
     0
 91
        1
 92
        0
 93
        4
 72
     1
 10
302.6973344203136
 20
20.2539775500868
 11
304.8038079156778
 21
20.2539775500868
 72
     4
 94
        3
 73
     1
 74
     0
 95
       17
 96
       13
 40
6.0
 40
6.0
 40
6.0
 40
6.0
 40
7.0
 40
7.0
 40
7.0
 40
8.0
 40
8.0
 40
8.0
 40
9.0
 40
9.0
 40
9.0
 40
10.0
 40
10.0
 40
10.0
 40
10.0
 10
304.8038079156778
 20
20.2539775500868
 42
1.0
 10
304.4578262506061
 20
20.33981031349822
 42
1.0
 10
304.2621822227331
 20
20.55023795748124
 42
1.0
 10
304.2107535961514
 20
20.89393877449616
 42
1.0
 10
304.1922454404932
 20
21.01764883669525
 42
1.0
 10
304.1821011631179
 20
21.14380579453512
 42
1.0
 10
304.1818797663412
 20
21.26887114326077
 42
1.0
 10
304.1797703470369
 20
22.46084295323946
 42
1.0
 10
304.1808527312862
 20
23.65282014439031
 42
1.0
 10
304.1800932173391
 20
24.84479541369365
 42
1.0
 10
304.1800409430993
 20
24.93136078519359
 42
1.0
 10
304.1727133247369
 20
25.01792115989102
 42
1.0
 10
304.1706223551654
 20
25.06377258638473
 42
1.0
 72
     1
 10
304.1706223551654
 20
25.06377258638473
 11
302.7125031745686
 21
24.50968064047992
 72
     4
 94
        3
 73
     1
 74
     0
 95
       17
 96
       13
 40
1.0
 40
1.0
 40
1.0
 40
1.0
 40
2.0
 40
2.0
 40
2.0
 40
3.0
 40
3.0
 40
3.0
 40
4.0
 40
4.0
 40
4.0
 40
5.0
 40
5.0
 40
5.0
 40
5.0
 10
302.7125031745686
 20
24.50968064047994
 42
1.0
 10
302.7604109773859
 20
24.50557288463289
 42
1.0
 10
302.8224697242704
 20
24.49650561033552
 42
1.0
 10
302.8846514693661
 20
24.49557889569631
 42
1.0
 10
303.1332831261333
 20
24.4918735746181
 42
1.0
 10
303.2632153602819
 20
24.35030186610297
 42
1.0
 10
303.2668591822546
 20
24.11891186780057
 42
1.0
 10
303.2829750227277
 20
23.09531768874206
 42
1.0
 10
303.296603224403
 20
22.071496731734
 42
1.0
 10
303.2916556214044
 20
21.04785181591346
 42
1.0
 10
303.2897768237453
 20
20.65853557522151
 42
1.0
 10
303.1321361678242
 20
20.3494649042487
 42
1.0
 10
302.6973344203136
 20
20.2539775500868
 42
1.0
 97
        0
 75
     0
 76
     1
 98
        1
 10
0.0
 20
0.0
  0
HATCH
  5
7B
330
1F
100
AcDbEntity
  8
0
  6
Continuous
 62
     7
100
AcDbHatch
 10
0.0
 20
0.0
 30
0.0
210
0.0
220
0.0
230
1.0
  2
SOLID
 70
     1
 71
     0
 91
        1
 92
        0
 93
        4
 72
     1
 10
308.65963267846
 20
27.88697759989075
 11
307.1608133901539
 21
27.32540717062984
 72
     4
 94
        3
 73
     1
 74
     0
 95
       20
 96
       16
 40
5.0
 40
5.0
 40
5.0
 40
5.0
 40
6.0
 40
6.0
 40
6.0
 40
7.0
 40
7.0
 40
7.0
 40
8.0
 40
8.0
 40
8.0
 40
9.0
 40
9.0
 40
9.0
 40
10.0
 40
10.0
 40
10.0
 40
10.0
 10
307.1608133901539
 20
27.32540717062984
 42
1.0
 10
307.6774858212348
 20
27.28280885460759
 42
1.0
 10
307.7501131893193
 20
27.20350460556406
 42
1.0
 10
307.7547502218385
 20
26.63215658734291
 42
1.0
 10
307.7552944889174
 20
26.56503146731187
 42
1.0
 10
307.7550361926765
 20
26.49789904426262
 42
1.0
 10
307.7550361926765
 20
26.43077008053731
 42
1.0
 10
307.7550484924979
 20
24.69380511724257
 42
1.0
 10
307.7587445887104
 20
22.95682170421714
 42
1.0
 10
307.7500732149022
 20
21.21990094340409
 42
1.0
 10
307.7490584796685
 20
21.01681475508336
 42
1.0
 10
307.7285516030971
 20
20.78446498637255
 42
1.0
 10
307.6283941606454
 20
20.61954360515536
 42
1.0
 10
307.5293898264143
 20
20.45652254628292
 42
1.0
 10
307.3179589782804
 20
20.36177625633667
 42
1.0
 10
307.178408284104
 20
20.25443648715803
 42
1.0
 72
     1
 10
307.178408284104
 20
20.25443648715803
 11
309.3620693061908
 21
20.25443648715802
 72
     4
 94
        3
 73
     1
 74
     0
 95
       14
 96
       10
 40
1.0
 40
1.0
 40
1.0
 40
1.0
 40
2.0
 40
2.0
 40
2.0
 40
3.0
 40
3.0
 40
3.0
 40
4.0
 40
4.0
 40
4.0
 40
4.0
 10
309.3620693061908
 20
20.25443648715802
 42
1.0
 10
308.807415027844
 20
20.43200746554105
 42
1.0
 10
308.6597679764911
 20
20.6374237012035
 42
1.0
 10
308.6597187772069
 20
21.15880542625192
 42
1.0
 10
308.6595035303402
 20
23.32371921490944
 42
1.0
 10
308.65963267846
 20
25.48863300356693
 42
1.0
 10
308.65963267846
 20
27.65354698440997
 42
1.0
 10
308.65963267846
 20
27.74275854708867
 42
1.0
 10
308.65963267846
 20
27.83196991758182
 42
1.0
 10
308.65963267846
 20
27.88697759989075
 42
1.0
 97
        0
 75
     0
 76
     1
 98
        1
 10
0.0
 20
0.0
  0
HATCH
  5
7C
330
1F
100
AcDbEntity
  8
0
  6
Continuous
 62
     7
100
AcDbHatch
 10
0.0
 20
0.0
 30
0.0
210
0.0
220
0.0
230
1.0
  2
SOLID
 70
     1
 71
     0
 91
        1
 92
        0
 93
        4
 72
     1
 10
313.1781318226163
 20
27.87703492426926
 11
311.6691528821608
 21
27.32445797038016
 72
     4
 94
        3
 73
     1
 74
     0
 95
       17
 96
       13
 40
6.0
 40
6.0
 40
6.0
 40
6.0
 40
7.0
 40
7.0
 40
7.0
 40
8.0
 40
8.0
 40
8.0
 40
9.0
 40
9.0
 40
9.0
 40
10.0
 40
10.0
 40
10.0
 40
10.0
 10
311.6691528821608
 20
27.32445797038016
 42
1.0
 10
312.2096131670664
 20
27.27631108979181
 42
1.0
 10
312.2683694120104
 20
27.21300429544448
 42
1.0
 10
312.2823973578678
 20
26.60716642601487
 42
1.0
 10
312.2845313768121
 20
26.51487279724974
 42
1.0
 10
312.2871512386867
 20
26.42255802816857
 42
1.0
 10
312.2871819882395
 20
26.33025248395311
 42
1.0
 10
312.2877662297369
 20
24.60974045310045
 42
1.0
 10
312.2890700107628
 20
22.88922803787955
 42
1.0
 10
312.2876555313485
 20
21.16871754450475
 42
1.0
 10
312.2872188877024
 20
20.63608302071405
 42
1.0
 10
312.1185268426077
 20
20.41647125413319
 42
1.0
 10
311.6156486607861
 20
20.25320881127337
 42
1.0
 72
     1
 10
311.6156486607861
 20
20.25320881127337
 11
313.8867245107604
 21
20.25320881127337
 72
     4
 94
        3
 73
     1
 74
     0
 95
       17
 96
       13
 40
1.0
 40
1.0
 40
1.0
 40
1.0
 40
2.0
 40
2.0
 40
2.0
 40
3.0
 40
3.0
 40
3.0
 40
4.0
 40
4.0
 40
4.0
 40
5.0
 40
5.0
 40
5.0
 40
5.0
 10
313.8867245107604
 20
20.25320881127337
 42
1.0
 10
313.3266152617988
 20
20.4348325806782
 42
1.0
 10
313.1888880160859
 20
20.62648762285203
 42
1.0
 10
313.1786115156352
 20
21.17082388885262
 42
1.0
 10
313.1771847363981
 20
21.24633325874564
 42
1.0
 10
313.1781441224363
 20
21.32188875296783
 42
1.0
 10
313.1781441224363
 20
21.39742349124222
 42
1.0
 10
313.1781256727049
 20
23.48721689184593
 42
1.0
 10
313.1781318226163
 20
25.57700952371036
 42
1.0
 10
313.1781318226163
 20
27.66680273212925
 42
1.0
 10
313.1781318226163
 20
27.75161518695077
 42
1.0
 10
313.1781318226163
 20
27.83642744958889
 42
1.0
 10
313.1781318226163
 20
27.87703492426926
 42
1.0
 97
        0
 75
     0
 76
     1
 98
        1
 10
0.0
 20
0.0
  0
HATCH
  5
7D
330
1F
100
AcDbEntity
  8
0
  6
Continuous
 62
     7
100
AcDbHatch
 10
0.0
 20
0.0
 30
0.0
210
0.0
220
0.0
230
1.0
  2
SOLID
 70
     1
 71
     0
 91
        1
 92
        0
 93
       12
 72
     1
 10
296.2715297073844
 20
27.50458020069891
 11
293.841527870193
 21
27.50458020069891
 72
     4
 94
        3
 73
     1
 74
     0
 95
       17
 96
       13
 40
21.0
 40
21.0
 40
21.0
 40
21.0
 40
22.0
 40
22.0
 40
22.0
 40
23.0
 40
23.0
 40
23.0
 40
24.0
 40
24.0
 40
24.0
 40
25.0
 40
25.0
 40
25.0
 40
25.0
 10
293.841527870193
 20
27.50458020069891
 42
1.0
 10
294.4654639653083
 20
27.35271373418588
 42
1.0
 10
294.541848928711
 20
26.88863860486635
 42
1.0
 10
294.5396718603926
 20
26.35648992400541
 42
1.0
 10
294.5326947869268
 20
24.65236702027423
 42
1.0
 10
294.54232862173
 20
22.9481603240125
 42
1.0
 10
294.5304592944584
 20
21.24409084762873
 42
1.0
 10
294.52894334152
 20
21.02641399663968
 42
1.0
 10
294.4888489999954
 20
20.77588586122133
 42
1.0
 10
294.3739502220706
 20
20.60171040217499
 42
1.0
 10
294.2655211499942
 20
20.43733713173098
 42
1.0
 10
294.0348564567621
 20
20.35359533789035
 42
1.0
 10
293.8906841048422
 20
20.25643828302682
 42
1.0
 72
     1
 10
293.8906841048422
 20
20.25643828302682
 11
296.2880237673525
 21
20.25643828302682
 72
     4
 94
        3
 73
     1
 74
     0
 95
       14
 96
       10
 40
17.0
 40
17.0
 40
17.0
 40
17.0
 40
18.0
 40
18.0
 40
18.0
 40
19.0
 40
19.0
 40
19.0
 40
20.0
 40
20.0
 40
20.0
 40
20.0
 10
296.2880237673525
 20
20.25643828302682
 42
1.0
 10
295.7413366980624
 20
20.4024294709773
 42
1.0
 10
295.5628078711177
 20
20.63015527572819
 42
1.0
 10
295.5619960829322
 20
21.2138824872384
 42
1.0
 10
295.560827599936
 20
22.05336910178782
 42
1.0
 10
295.561359567195
 20
22.89285956003151
 42
1.0
 10
295.5621928800676
 20
23.73234771205876
 42
1.0
 10
295.5622759038603
 20
23.81306182808445
 42
1.0
 10
295.5696219719554
 20
23.89376787235267
 42
1.0
 10
295.5733857171835
 20
23.97022240661697
 42
1.0
 72
     1
 10
295.5733857171835
 20
23.97022240661697
 11
298.4851131190222
 21
23.97022240661697
 72
     4
 94
        3
 73
     1
 74
     0
 95
       11
 96
        7
 40
14.0
 40
14.0
 40
14.0
 40
14.0
 40
15.0
 40
15.0
 40
15.0
 40
16.0
 40
16.0
 40
16.0
 40
16.0
 10
298.4851131190222
 20
23.97022240661697
 42
1.0
 10
298.4851131190222
 20
23.04419117651474
 42
1.0
 10
298.4852207424561
 20
22.13796342697173
 42
1.0
 10
298.485073144605
 20
21.23173567742801
 42
1.0
 10
298.4849747460367
 20
20.62384393007452
 42
1.0
 10
298.3307257657572
 20
20.41986831094703
 42
1.0
 10
297.7632396991476
 20
20.25412130424438
 42
1.0
 72
     1
 10
297.7632396991476
 20
20.25412130424438
 11
300.2193725060648
 21
20.25412130424438
 72
     4
 94
        3
 73
     1
 74
     0
 95
       17
 96
       13
 40
9.0
 40
9.0
 40
9.0
 40
9.0
 40
10.0
 40
10.0
 40
10.0
 40
11.0
 40
11.0
 40
11.0
 40
12.0
 40
12.0
 40
12.0
 40
13.0
 40
13.0
 40
13.0
 40
13.0
 10
300.2193725060648
 20
20.25412130424438
 42
1.0
 10
299.739442715284
 20
20.41422423058344
 42
1.0
 10
299.5427163031618
 20
20.62720562490344
 42
1.0
 10
299.542119761843
 20
21.03839632851544
 42
1.0
 10
299.5393769017586
 20
22.92724217217554
 42
1.0
 10
299.5395583241182
 20
24.8160968563317
 42
1.0
 10
299.5421628112159
 20
26.70494346873036
 42
1.0
 10
299.5426363543262
 20
27.0468754177367
 42
1.0
 10
299.7248336028849
 20
27.28837413924314
 42
1.0
 10
300.049118383702
 20
27.40930924651266
 42
1.0
 10
300.1052670665942
 20
27.43024796211264
 42
1.0
 10
300.1600043450263
 20
27.45496618208605
 42
1.0
 10
300.2549312885929
 20
27.49433829349534
 42
1.0
 72
     1
 10
300.2549312885929
 20
27.49433829349534
 11
297.7186989723292
 21
27.49433829349534
 72
     4
 94
        3
 73
     1
 74
     0
 95
       14
 96
       10
 40
5.0
 40
5.0
 40
5.0
 40
5.0
 40
6.0
 40
6.0
 40
6.0
 40
7.0
 40
7.0
 40
7.0
 40
8.0
 40
8.0
 40
8.0
 40
8.0
 10
297.7186989723292
 20
27.49433829349534
 42
1.0
 10
298.3648823686909
 20
27.26685790861022
 42
1.0
 10
298.4850762195593
 20
27.0944786077999
 42
1.0
 10
298.4851069691121
 20
26.45733654080182
 42
1.0
 10
298.4851377186649
 20
25.7773505457302
 42
1.0
 10
298.4851131190222
 20
25.09736416629037
 42
1.0
 10
298.4851131190222
 20
24.41737817121947
 42
1.0
 10
298.4851131190222
 20
24.32893553953832
 42
1.0
 10
298.4851131190222
 20
24.24049329222682
 42
1.0
 10
298.4851131190222
 20
24.16049564077468
 42
1.0
 72
     1
 10
298.4851131190222
 20
24.16049564077468
 11
295.5632814142282
 21
24.16049564077468
 72
     4
 94
        3
 73
     1
 74
     0
 95
       14
 96
       10
 40
1.0
 40
1.0
 40
1.0
 40
1.0
 40
2.0
 40
2.0
 40
2.0
 40
3.0
 40
3.0
 40
3.0
 40
4.0
 40
4.0
 40
4.0
 40
4.0
 10
295.5632814142282
 20
24.16049564077468
 42
1.0
 10
295.5632814142282
 20
25.01272602299438
 42
1.0
 10
295.5627432970579
 20
25.84365465270932
 42
1.0
 10
295.5644406723573
 20
26.67457866999212
 42
1.0
 10
295.5645605956114
 20
26.73240397223375
 42
1.0
 10
295.5792681065788
 20
26.79059327230427
 42
1.0
 10
295.5906023916358
 20
26.8479388815276
 42
1.0
 10
295.6648994604227
 20
27.22384581892186
 42
1.0
 10
295.9411319155254
 20
27.38780204855992
 42
1.0
 10
296.2715297073844
 20
27.50458020069891
 42
1.0
 97
        0
 75
     0
 76
     1
 98
        1
 10
0.0
 20
0.0
  0
SPLINE
  5
7E
330
1F
100
AcDbEntity
  8
0
  6
Continuous
 62
   179
370
     0
100
AcDbSpline
210
0.0
220
0.0
230
1.0
 70
     8
 71
     3
 72
    14
 73
    10
 74
     0
 42
0.000000001
 43
0.00000001
 40
24.0
 40
24.0
 40
24.0
 40
24.0
 40
25.0
 40
25.0
 40
25.0
 40
26.0
 40
26.0
 40
26.0
 40
27.0
 40
27.0
 40
27.0
 40
27.0
 10
287.7314564875268
 20
22.4264857094768
 30
0.0
 10
288.0996055050067
 20
21.95463920731319
 30
0.0
 10
288.4270667146001
 20
21.47381844824843
 30
0.0
 10
288.8166481701822
 20
21.05011190802389
 30
0.0
 10
289.3841588364346
 20
20.43289382139212
 30
0.0
 10
289.9836367374808
 20
20.49110656799653
 30
0.0
 10
290.4735170834558
 20
21.16713932372221
 30
0.0
 10
290.5884281612034
 20
21.32571784099438
 30
0.0
 10
290.6825002672103
 20
21.49939669476813
 30
0.0
 10
290.8103661314317
 20
21.70506046432864
 30
0.0
  0
SPLINE
  5
7F
330
1F
100
AcDbEntity
  8
0
  6
Continuous
 62
   179
370
     0
100
AcDbSpline
210
0.0
220
0.0
230
1.0
 70
     8
 71
     3
 72
    11
 73
     7
 74
     0
 42
0.000000001
 43
0.00000001
 40
22.0
 40
22.0
 40
22.0
 40
22.0
 40
23.0
 40
23.0
 40
23.0
 40
24.0
 40
24.0
 40
24.0
 40
24.0
 10
290.7742138825406
 20
25.39867403457779
 30
0.0
 10
289.9536528488242
 20
25.26443186627322
 30
0.0
 10
289.4290162836425
 20
24.71923384406366
 30
0.0
 10
288.9612633156569
 20
24.10441845059237
 30
0.0
 10
288.5466855488353
 20
23.55949371503118
 30
0.0
 10
288.1508588591387
 20
23.00030157147278
 30
0.0
 10
287.7314564875268
 20
22.4264857094768
 30
0.0
  0
SPLINE
  5
80
330
1F
100
AcDbEntity
  8
0
  6
Continuous
 62
   179
370
     0
100
AcDbSpline
210
0.0
220
0.0
230
1.0
 70
     8
 71
     3
 72
    11
 73
     7
 74
     0
 42
0.000000001
 43
0.00000001
 40
20.0
 40
20.0
 40
20.0
 40
20.0
 40
21.0
 40
21.0
 40
21.0
 40
22.0
 40
22.0
 40
22.0
 40
22.0
 10
287.7715077796773
 20
25.39867403457779
 30
0.0
 10
288.2706160663608
 20
25.39867403457779
 30
0.0
 10
288.76972127809
 20
25.39867441894744
 30
0.0
 10
289.2688295647749
 20
25.39867441894744
 30
0.0
 10
289.7706253623487
 20
25.39867441894744
 30
0.0
 10
290.2724180849667
 20
25.39867403457779
 30
0.0
 10
290.7742138825406
 20
25.39867403457779
 30
0.0
  0
SPLINE
  5
81
330
1F
100
AcDbEntity
  8
0
  6
Continuous
 62
   179
370
     0
100
AcDbSpline
210
0.0
220
0.0
230
1.0
 70
     8
 71
     3
 72
    17
 73
    13
 74
     0
 42
0.000000001
 43
0.00000001
 40
16.0
 40
16.0
 40
16.0
 40
16.0
 40
17.0
 40
17.0
 40
17.0
 40
18.0
 40
18.0
 40
18.0
 40
19.0
 40
19.0
 40
19.0
 40
20.0
 40
20.0
 40
20.0
 40
20.0
 10
287.7233847299918
 20
22.54303496963325
 30
0.0
 10
288.0735790837579
 20
23.12311989664797
 30
0.0
 10
288.4211781752921
 20
23.692108847638
 30
0.0
 10
288.7595985254019
 20
24.26650702928458
 30
0.0
 10
288.8131334963293
 20
24.35736772890119
 30
0.0
 10
288.8373887433532
 20
24.47070865762303
 30
0.0
 10
288.8543009972361
 20
24.57697987985169
 30
0.0
 10
288.9174636530569
 20
24.97387165717582
 30
0.0
 10
288.7601181928394
 20
25.20759054971102
 30
0.0
 10
288.3670435880915
 20
25.28904726743022
 30
0.0
 10
288.1718392788191
 20
25.32949945687163
 30
0.0
 10
287.9710693005408
 20
25.34310267453518
 30
0.0
 10
287.7715077796773
 20
25.39867403457779
 30
0.0
  0
SPLINE
  5
82
330
1F
100
AcDbEntity
  8
0
  6
Continuous
 62
   179
370
     0
100
AcDbSpline
210
0.0
220
0.0
230
1.0
 70
     8
 71
     3
 72
     8
 73
     4
 74
     0
 42
0.000000001
 43
0.00000001
 40
15.0
 40
15.0
 40
15.0
 40
15.0
 40
16.0
 40
16.0
 40
16.0
 40
16.0
 10
285.8065406500283
 20
24.86455968857225
 30
0.0
 10
286.4380688096612
 20
24.09970377545334
 30
0.0
 10
287.0596648638312
 20
23.34687900912474
 30
0.0
 10
287.7233847299918
 20
22.54303496963325
 30
0.0
  0
SPLINE
  5
83
330
1F
100
AcDbEntity
  8
0
  6
Continuous
 62
   179
370
     0
100
AcDbSpline
210
0.0
220
0.0
230
1.0
 70
     8
 71
     3
 72
    26
 73
    22
 74
     0
 42
0.000000001
 43
0.00000001
 40
8.0
 40
8.0
 40
8.0
 40
8.0
 40
9.0
 40
9.0
 40
9.0
 40
10.0
 40
10.0
 40
10.0
 40
11.0
 40
11.0
 40
11.0
 40
12.0
 40
12.0
 40
12.0
 40
13.0
 40
13.0
 40
13.0
 40
14.0
 40
14.0
 40
14.0
 40
15.0
 40
15.0
 40
15.0
 40
15.0
 10
284.7027239634148
 20
24.46818604120849
 30
0.0
 10
284.5641388051866
 20
24.6300390014551
 30
0.0
 10
284.4323277733789
 20
24.77744812814592
 30
0.0
 10
284.3077767109179
 20
24.93075271279267
 30
0.0
 10
284.0198409761273
 20
25.28515591156022
 30
0.0
 10
283.7707819005811
 20
25.65802498535045
 30
0.0
 10
283.7149530130354
 20
26.1296866058298
 30
0.0
 10
283.6309452355653
 20
26.8393466878164
 30
0.0
 10
283.9109291360762
 20
27.37506654483263
 30
0.0
 10
284.558084218296
 20
27.68711127408746
 30
0.0
 10
285.1912113546599
 20
27.99239110178883
 30
0.0
 10
285.840402057257
 20
27.99583274545401
 30
0.0
 10
286.4793408590448
 20
27.71426216803416
 30
0.0
 10
287.361321048954
 20
27.32558686332681
 30
0.0
 10
287.5614237619422
 20
26.30921056516709
 30
0.0
 10
286.8815726805328
 20
25.62247811827484
 30
0.0
 10
286.6551698752792
 20
25.39378370261948
 30
0.0
 10
286.361711520857
 20
25.23088333574105
 30
0.0
 10
286.0959738880259
 20
25.04203380586477
 30
0.0
 10
286.0025259979348
 20
24.975621306713
 30
0.0
 10
285.9002991106001
 20
24.9215528310502
 30
0.0
 10
285.8065406500283
 20
24.86455968857225
 30
0.0
  0
SPLINE
  5
84
330
1F
100
AcDbEntity
  8
0
  6
Continuous
 62
   179
370
     0
100
AcDbSpline
210
0.0
220
0.0
230
1.0
 70
     8
 71
     3
 72
    20
 73
    16
 74
     0
 42
0.000000001
 43
0.00000001
 40
3.0
 40
3.0
 40
3.0
 40
3.0
 40
4.0
 40
4.0
 40
4.0
 40
5.0
 40
5.0
 40
5.0
 40
6.0
 40
6.0
 40
6.0
 40
7.0
 40
7.0
 40
7.0
 40
8.0
 40
8.0
 40
8.0
 40
8.0
 10
287.0539854214827
 20
21.61211917311517
 30
0.0
 10
286.8995550188436
 20
21.43851181205056
 30
0.0
 10
286.7443651022574
 20
21.26447318851251
 30
0.0
 10
286.5896302790503
 20
21.09003174583673
 30
0.0
 10
285.9488126796034
 20
20.36759637788916
 30
0.0
 10
285.1515567317372
 20
20.05360962220845
 30
0.0
 10
284.198169930981
 20
20.23446388406056
 30
0.0
 10
282.6109241545095
 20
20.5355588898502
 30
0.0
 10
282.3522343191156
 20
22.37884389028816
 30
0.0
 10
283.1417229300147
 20
23.34576433784628
 30
0.0
 10
283.460866385652
 20
23.73663343094009
 30
0.0
 10
283.8607304915963
 20
24.02105948868024
 30
0.0
 10
284.3005597909425
 20
24.25632085564482
 30
0.0
 10
284.4255536469583
 20
24.32317807019961
 30
0.0
 10
284.5513685160267
 20
24.38851087568819
 30
0.0
 10
284.7027239634148
 20
24.46818604120849
 30
0.0
  0
SPLINE
  5
85
330
1F
100
AcDbEntity
  8
0
  6
Continuous
 62
   179
370
     0
100
AcDbSpline
210
0.0
220
0.0
230
1.0
 70
     8
 71
     3
 72
    14
 73
    10
 74
     0
 42
0.000000001
 43
0.00000001
 40
0.0
 40
0.0
 40
0.0
 40
0.0
 40
1.0
 40
1.0
 40
1.0
 40
2.0
 40
2.0
 40
2.0
 40
3.0
 40
3.0
 40
3.0
 40
3.0
 10
290.8103661314317
 20
21.70506046432864
 30
0.0
 10
290.7160910783766
 20
21.04182259740494
 30
0.0
 10
289.9739444785289
 20
20.32342848939635
 30
0.0
 10
289.3271645408483
 20
20.20870037148624
 30
0.0
 10
288.7048673968812
 20
20.09831485913089
 30
0.0
 10
288.1784811821614
 20
20.26780485511384
 30
0.0
 10
287.7601488949774
 20
20.73592220529573
 30
0.0
 10
287.5152010346028
 20
21.01001756649998
 30
0.0
 10
287.2972697310664
 20
21.3082559388604
 30
0.0
 10
287.0539854214827
 20
21.61211917311517
 30
0.0
  0
SPLINE
  5
86
330
1F
100
AcDbEntity
  8
0
  6
Continuous
 62
   179
370
     0
100
AcDbSpline
210
0.0
220
0.0
230
1.0
 70
     8
 71
     3
 72
    14
 73
    10
 74
     0
 42
0.000000001
 43
0.00000001
 40
1.0
 40
1.0
 40
1.0
 40
1.0
 40
2.0
 40
2.0
 40
2.0
 40
3.0
 40
3.0
 40
3.0
 40
4.0
 40
4.0
 40
4.0
 40
4.0
 10
284.845288113738
 20
24.3712657578988
 30
0.0
 10
284.1054815548355
 20
23.90423117633508
 30
0.0
 10
283.6988925217564
 20
23.08417174469389
 30
0.0
 10
283.7780264951535
 20
22.28619625730053
 30
0.0
 10
283.8665083325146
 20
21.39392726712143
 30
0.0
 10
284.4974276510072
 20
20.83427541775252
 30
0.0
 10
285.3603677179978
 20
20.87638462370451
 30
0.0
 10
286.0339581905155
 20
20.90925282038733
 30
0.0
 10
286.5509442670314
 20
21.22618922689351
 30
0.0
 10
287.0009947176327
 20
21.77781006188367
 30
0.0
  0
SPLINE
  5
87
330
1F
100
AcDbEntity
  8
0
  6
Continuous
 62
   179
370
     0
100
AcDbSpline
210
0.0
220
0.0
230
1.0
 70
     8
 71
     3
 72
     8
 73
     4
 74
     0
 42
0.000000001
 43
0.00000001
 40
0.0
 40
0.0
 40
0.0
 40
0.0
 40
1.0
 40
1.0
 40
1.0
 40
1.0
 10
287.0009947176327
 20
21.77781006188367
 30
0.0
 10
286.2819902310068
 20
22.64282111123716
 30
0.0
 10
285.5612360948443
 20
23.50993158628786
 30
0.0
 10
284.845288113738
 20
24.3712657578988
 30
0.0
  0
SPLINE
  5
88
330
1F
100
AcDbEntity
  8
0
  6
Continuous
 62
   179
370
     0
100
AcDbSpline
210
0.0
220
0.0
230
1.0
 70
     8
 71
     3
 72
    11
 73
     7
 74
     0
 42
0.000000001
 43
0.00000001
 40
3.0
 40
3.0
 40
3.0
 40
3.0
 40
4.0
 40
4.0
 40
4.0
 40
5.0
 40
5.0
 40
5.0
 40
5.0
 10
284.688382372121
 20
27.15085253116305
 30
0.0
 10
284.5630810205802
 20
26.788679112661
 30
0.0
 10
284.5571094574822
 20
26.41068293535724
 30
0.0
 10
284.7721626029031
 20
26.08712768767229
 30
0.0
 10
285.0380140090768
 20
25.68714980838475
 30
0.0
 10
285.3510444536752
 20
25.31853032275095
 30
0.0
 10
285.6520579731507
 20
24.9254318870995
 30
0.0
  0
SPLINE
  5
89
330
1F
100
AcDbEntity
  8
0
  6
Continuous
 62
   179
370
     0
100
AcDbSpline
210
0.0
220
0.0
230
1.0
 70
     8
 71
     3
 72
    14
 73
    10
 74
     0
 42
0.000000001
 43
0.00000001
 40
0.0
 40
0.0
 40
0.0
 40
0.0
 40
1.0
 40
1.0
 40
1.0
 40
2.0
 40
2.0
 40
2.0
 40
3.0
 40
3.0
 40
3.0
 40
3.0
 10
285.6520579731507
 20
24.9254318870995
 30
0.0
 10
286.3259713159692
 20
25.4295804098103
 30
0.0
 10
286.5713650448558
 20
26.2298440482801
 30
0.0
 10
286.3549927436335
 20
27.06650131962916
 30
0.0
 10
286.2400293916459
 20
27.5110460628537
 30
0.0
 10
285.9916529561654
 20
27.74682017860581
 30
0.0
 10
285.6158934244382
 20
27.76810636414938
 30
0.0
 10
285.1818973152029
 20
27.79269159230804
 30
0.0
 10
284.8337724063213
 20
27.5710895609412
 30
0.0
 10
284.688382372121
 20
27.15085253116305
 30
0.0
  0
SPLINE
  5
8A
330
1F
100
AcDbEntity
  8
0
  6
Continuous
 62
   179
370
     0
100
AcDbSpline
210
0.0
220
0.0
230
1.0
 70
     8
 71
     3
 72
    17
 73
    13
 74
     0
 42
0.000000001
 43
0.00000001
 40
21.0
 40
21.0
 40
21.0
 40
21.0
 40
22.0
 40
22.0
 40
22.0
 40
23.0
 40
23.0
 40
23.0
 40
24.0
 40
24.0
 40
24.0
 40
25.0
 40
25.0
 40
25.0
 40
25.0
 10
293.8906841048422
 20
20.25643828302682
 30
0.0
 10
294.0348564567621
 20
20.35359533789035
 30
0.0
 10
294.2655211499942
 20
20.43733713173098
 30
0.0
 10
294.3739502220706
 20
20.601710402175
 30
0.0
 10
294.4888489999954
 20
20.77588586122133
 30
0.0
 10
294.52894334152
 20
21.02641399663968
 30
0.0
 10
294.5304592944584
 20
21.24409084762873
 30
0.0
 10
294.54232862173
 20
22.9481603240125
 30
0.0
 10
294.5326947869268
 20
24.65236702027423
 30
0.0
 10
294.5396718603926
 20
26.35648992400541
 30
0.0
 10
294.541848928711
 20
26.88863860486635
 30
0.0
 10
294.4654639653083
 20
27.35271373418588
 30
0.0
 10
293.841527870193
 20
27.50458020069891
 30
0.0
  0
SPLINE
  5
8B
330
1F
100
AcDbEntity
  8
0
  6
Continuous
 62
   179
370
     0
100
AcDbSpline
210
0.0
220
0.0
230
1.0
 70
    24
 71
     3
 72
     8
 73
     4
 74
     0
 42
0.000000001
 43
0.00000001
 40
20.0
 40
20.0
 40
20.0
 40
20.0
 40
21.0
 40
21.0
 40
21.0
 40
21.0
 10
296.2880237673525
 20
20.25643828302682
 30
0.0
 10
295.4693261565182
 20
20.25643828302682
 30
0.0
 10
294.6506254707311
 20
20.25643828302682
 30
0.0
 10
293.8906841048422
 20
20.25643828302682
 30
0.0
  0
SPLINE
  5
8C
330
1F
100
AcDbEntity
  8
0
  6
Continuous
 62
   179
370
     0
100
AcDbSpline
210
0.0
220
0.0
230
1.0
 70
     8
 71
     3
 72
    14
 73
    10
 74
     0
 42
0.000000001
 43
0.00000001
 40
17.0
 40
17.0
 40
17.0
 40
17.0
 40
18.0
 40
18.0
 40
18.0
 40
19.0
 40
19.0
 40
19.0
 40
20.0
 40
20.0
 40
20.0
 40
20.0
 10
295.5733857171835
 20
23.97022240661697
 30
0.0
 10
295.5696219719554
 20
23.89376787235267
 30
0.0
 10
295.5622759038603
 20
23.81306182808446
 30
0.0
 10
295.5621928800676
 20
23.73234771205876
 30
0.0
 10
295.561359567195
 20
22.89285956003151
 30
0.0
 10
295.560827599936
 20
22.05336910178782
 30
0.0
 10
295.5619960829322
 20
21.2138824872384
 30
0.0
 10
295.5628078711177
 20
20.63015527572819
 30
0.0
 10
295.7413366980624
 20
20.4024294709773
 30
0.0
 10
296.2880237673525
 20
20.25643828302682
 30
0.0
  0
SPLINE
  5
8D
330
1F
100
AcDbEntity
  8
0
  6
Continuous
 62
   179
370
     0
100
AcDbSpline
210
0.0
220
0.0
230
1.0
 70
    24
 71
     3
 72
     8
 73
     4
 74
     0
 42
0.000000001
 43
0.00000001
 40
16.0
 40
16.0
 40
16.0
 40
16.0
 40
17.0
 40
17.0
 40
17.0
 40
17.0
 10
298.4851131190222
 20
23.97022240661697
 30
0.0
 10
297.5154382802974
 20
23.97022240661697
 30
0.0
 10
296.5557754958724
 20
23.97022240661697
 30
0.0
 10
295.5733857171835
 20
23.97022240661697
 30
0.0
  0
SPLINE
  5
8E
330
1F
100
AcDbEntity
  8
0
  6
Continuous
 62
   179
370
     0
100
AcDbSpline
210
0.0
220
0.0
230
1.0
 70
     8
 71
     3
 72
    11
 73
     7
 74
     0
 42
0.000000001
 43
0.00000001
 40
14.0
 40
14.0
 40
14.0
 40
14.0
 40
15.0
 40
15.0
 40
15.0
 40
16.0
 40
16.0
 40
16.0
 40
16.0
 10
297.7632396991476
 20
20.25412130424438
 30
0.0
 10
298.3307257657572
 20
20.41986831094704
 30
0.0
 10
298.4849747460367
 20
20.62384393007452
 30
0.0
 10
298.485073144605
 20
21.23173567742802
 30
0.0
 10
298.4852207424561
 20
22.13796342697173
 30
0.0
 10
298.4851131190222
 20
23.04419117651474
 30
0.0
 10
298.4851131190222
 20
23.97022240661697
 30
0.0
  0
SPLINE
  5
8F
330
1F
100
AcDbEntity
  8
0
  6
Continuous
 62
   179
370
     0
100
AcDbSpline
210
0.0
220
0.0
230
1.0
 70
    24
 71
     3
 72
     8
 73
     4
 74
     0
 42
0.000000001
 43
0.00000001
 40
13.0
 40
13.0
 40
13.0
 40
13.0
 40
14.0
 40
14.0
 40
14.0
 40
14.0
 10
300.2193725060648
 20
20.25412130424438
 30
0.0
 10
299.4006625954106
 20
20.25412130424438
 30
0.0
 10
298.5819526847563
 20
20.25412130424438
 30
0.0
 10
297.7632396991476
 20
20.25412130424438
 30
0.0
  0
SPLINE
  5
90
330
1F
100
AcDbEntity
  8
0
  6
Continuous
 62
   179
370
     0
100
AcDbSpline
210
0.0
220
0.0
230
1.0
 70
     8
 71
     3
 72
    17
 73
    13
 74
     0
 42
0.000000001
 43
0.00000001
 40
9.0
 40
9.0
 40
9.0
 40
9.0
 40
10.0
 40
10.0
 40
10.0
 40
11.0
 40
11.0
 40
11.0
 40
12.0
 40
12.0
 40
12.0
 40
13.0
 40
13.0
 40
13.0
 40
13.0
 10
300.2549312885929
 20
27.49433829349534
 30
0.0
 10
300.1600043450263
 20
27.45496618208605
 30
0.0
 10
300.1052670665942
 20
27.43024796211264
 30
0.0
 10
300.049118383702
 20
27.40930924651266
 30
0.0
 10
299.7248336028849
 20
27.28837413924314
 30
0.0
 10
299.5426363543262
 20
27.0468754177367
 30
0.0
 10
299.5421628112159
 20
26.70494346873036
 30
0.0
 10
299.5395583241182
 20
24.8160968563317
 30
0.0
 10
299.5393769017586
 20
22.92724217217554
 30
0.0
 10
299.542119761843
 20
21.03839632851544
 30
0.0
 10
299.5427163031618
 20
20.62720562490345
 30
0.0
 10
299.739442715284
 20
20.41422423058344
 30
0.0
 10
300.2193725060648
 20
20.25412130424438
 30
0.0
  0
SPLINE
  5
91
330
1F
100
AcDbEntity
  8
0
  6
Continuous
 62
   179
370
     0
100
AcDbSpline
210
0.0
220
0.0
230
1.0
 70
    24
 71
     3
 72
     8
 73
     4
 74
     0
 42
0.000000001
 43
0.00000001
 40
8.0
 40
8.0
 40
8.0
 40
8.0
 40
9.0
 40
9.0
 40
9.0
 40
9.0
 10
297.7186989723292
 20
27.49433829349534
 30
0.0
 10
298.5854396840106
 20
27.49433829349534
 30
0.0
 10
299.3949493285535
 20
27.49433829349534
 30
0.0
 10
300.2549312885929
 20
27.49433829349534
 30
0.0
  0
SPLINE
  5
92
330
1F
100
AcDbEntity
  8
0
  6
Continuous
 62
   179
370
     0
100
AcDbSpline
210
0.0
220
0.0
230
1.0
 70
     8
 71
     3
 72
    14
 73
    10
 74
     0
 42
0.000000001
 43
0.00000001
 40
5.0
 40
5.0
 40
5.0
 40
5.0
 40
6.0
 40
6.0
 40
6.0
 40
7.0
 40
7.0
 40
7.0
 40
8.0
 40
8.0
 40
8.0
 40
8.0
 10
298.4851131190222
 20
24.16049564077468
 30
0.0
 10
298.4851131190222
 20
24.24049329222683
 30
0.0
 10
298.4851131190222
 20
24.32893553953832
 30
0.0
 10
298.4851131190222
 20
24.41737817121947
 30
0.0
 10
298.4851131190222
 20
25.09736416629037
 30
0.0
 10
298.4851377186649
 20
25.7773505457302
 30
0.0
 10
298.4851069691121
 20
26.45733654080182
 30
0.0
 10
298.4850762195593
 20
27.0944786077999
 30
0.0
 10
298.3648823686909
 20
27.26685790861022
 30
0.0
 10
297.7186989723292
 20
27.49433829349534
 30
0.0
  0
SPLINE
  5
93
330
1F
100
AcDbEntity
  8
0
  6
Continuous
 62
   179
370
     0
100
AcDbSpline
210
0.0
220
0.0
230
1.0
 70
    24
 71
     3
 72
     8
 73
     4
 74
     0
 42
0.000000001
 43
0.00000001
 40
4.0
 40
4.0
 40
4.0
 40
4.0
 40
5.0
 40
5.0
 40
5.0
 40
5.0
 10
295.5632814142282
 20
24.16049564077468
 30
0.0
 10
296.5292663066504
 20
24.16049564077468
 30
0.0
 10
297.4889290910767
 20
24.16049564077468
 30
0.0
 10
298.4851131190222
 20
24.16049564077468
 30
0.0
  0
SPLINE
  5
94
330
1F
100
AcDbEntity
  8
0
  6
Continuous
 62
   179
370
     0
100
AcDbSpline
210
0.0
220
0.0
230
1.0
 70
     8
 71
     3
 72
    14
 73
    10
 74
     0
 42
0.000000001
 43
0.00000001
 40
1.0
 40
1.0
 40
1.0
 40
1.0
 40
2.0
 40
2.0
 40
2.0
 40
3.0
 40
3.0
 40
3.0
 40
4.0
 40
4.0
 40
4.0
 40
4.0
 10
296.2715297073844
 20
27.50458020069891
 30
0.0
 10
295.9411319155254
 20
27.38780204855992
 30
0.0
 10
295.6648994604227
 20
27.22384581892186
 30
0.0
 10
295.5906023916358
 20
26.8479388815276
 30
0.0
 10
295.5792681065788
 20
26.79059327230427
 30
0.0
 10
295.5645605956114
 20
26.73240397223375
 30
0.0
 10
295.5644406723573
 20
26.67457866999212
 30
0.0
 10
295.5627432970579
 20
25.84365465270932
 30
0.0
 10
295.5632814142282
 20
25.01272602299438
 30
0.0
 10
295.5632814142282
 20
24.16049564077468
 30
0.0
  0
SPLINE
  5
95
330
1F
100
AcDbEntity
  8
0
  6
Continuous
 62
   179
370
     0
100
AcDbSpline
210
0.0
220
0.0
230
1.0
 70
    24
 71
     3
 72
     8
 73
     4
 74
     0
 42
0.000000001
 43
0.00000001
 40
0.0
 40
0.0
 40
0.0
 40
0.0
 40
1.0
 40
1.0
 40
1.0
 40
1.0
 10
293.841527870193
 20
27.50458020069891
 30
0.0
 10
294.6515264326192
 20
27.50458020069891
 30
0.0
 10
295.4615280700011
 20
27.50458020069891
 30
0.0
 10
296.2715297073844
 20
27.50458020069891
 30
0.0
  0
SPLINE
  5
96
330
1F
100
AcDbEntity
  8
0
  6
Continuous
 62
   179
370
     0
100
AcDbSpline
210
0.0
220
0.0
230
1.0
 70
     8
 71
     3
 72
    14
 73
    10
 74
     0
 42
0.000000001
 43
0.00000001
 40
17.0
 40
17.0
 40
17.0
 40
17.0
 40
18.0
 40
18.0
 40
18.0
 40
19.0
 40
19.0
 40
19.0
 40
20.0
 40
20.0
 40
20.0
 40
20.0
 10
257.7053577757453
 20
20.25910042553502
 30
0.0
 10
258.2139995287706
 20
20.39587059142628
 30
0.0
 10
258.4104423723632
 20
20.62446660851326
 30
0.0
 10
258.4124688639662
 20
21.16843695483816
 30
0.0
 10
258.4191609275175
 20
22.96470127704905
 30
0.0
 10
258.4149081683119
 20
24.76100595804667
 30
0.0
 10
258.4151320634913
 20
26.55729487989966
 30
0.0
 10
258.4151924094879
 20
27.04153921726714
 30
0.0
 10
258.2057453879524
 20
27.36893835120056
 30
0.0
 10
257.7192638284546
 20
27.51463645747964
 30
0.0
  0
SPLINE
  5
97
330
1F
100
AcDbEntity
  8
0
  6
Continuous
 62
   179
370
     0
100
AcDbSpline
210
0.0
220
0.0
230
1.0
 70
    24
 71
     3
 72
     8
 73
     4
 74
     0
 42
0.000000001
 43
0.00000001
 40
16.0
 40
16.0
 40
16.0
 40
16.0
 40
17.0
 40
17.0
 40
17.0
 40
17.0
 10
260.1134120717832
 20
20.25910042553502
 30
0.0
 10
259.3107272904223
 20
20.25910042553502
 30
0.0
 10
258.5080426051526
 20
20.25910042553502
 30
0.0
 10
257.7053577757453
 20
20.25910042553502
 30
0.0
  0
SPLINE
  5
98
330
1F
100
AcDbEntity
  8
0
  6
Continuous
 62
   179
370
     0
100
AcDbSpline
210
0.0
220
0.0
230
1.0
 70
     8
 71
     3
 72
    14
 73
    10
 74
     0
 42
0.000000001
 43
0.00000001
 40
13.0
 40
13.0
 40
13.0
 40
13.0
 40
14.0
 40
14.0
 40
14.0
 40
15.0
 40
15.0
 40
15.0
 40
16.0
 40
16.0
 40
16.0
 40
16.0
 10
259.4607286043899
 20
23.57138302951071
 30
0.0
 10
259.4539911852495
 20
23.51939476107442
 30
0.0
 10
259.4406539512153
 20
23.46398560492077
 30
0.0
 10
259.4405559370167
 20
23.40855338660287
 30
0.0
 10
259.4392191002215
 20
22.65310606781492
 30
0.0
 10
259.4366701545022
 20
21.89763799307775
 30
0.0
 10
259.4408326829897
 20
21.14221143023692
 30
0.0
 10
259.4435911100346
 20
20.64162793377141
 30
0.0
 10
259.6377614656041
 20
20.40079128856704
 30
0.0
 10
260.1134120717832
 20
20.25910042553502
 30
0.0
  0
SPLINE
  5
99
330
1F
100
AcDbEntity
  8
0
  6
Continuous
 62
   179
370
     0
100
AcDbSpline
210
0.0
220
0.0
230
1.0
 70
     8
 71
     3
 72
    20
 73
    16
 74
     0
 42
0.000000001
 43
0.00000001
 40
8.0
 40
8.0
 40
8.0
 40
8.0
 40
9.0
 40
9.0
 40
9.0
 40
10.0
 40
10.0
 40
10.0
 40
11.0
 40
11.0
 40
11.0
 40
12.0
 40
12.0
 40
12.0
 40
13.0
 40
13.0
 40
13.0
 40
13.0
 10
263.9554858268652
 20
20.24609336482204
 30
0.0
 10
263.8909540472192
 20
20.24131411562171
 30
0.0
 10
263.8264337986554
 20
20.23257048036439
 30
0.0
 10
263.7618904879274
 20
20.2323936704376
 30
0.0
 10
263.3170171088603
 20
20.2311736819415
 30
0.0
 10
262.8718696744063
 20
20.24067529366942
 30
0.0
 10
262.427398730108
 20
20.22724465786873
 30
0.0
 10
262.2549406335689
 20
20.22203337745712
 30
0.0
 10
262.1765046750147
 20
20.28890135435546
 30
0.0
 10
262.1067370153144
 20
20.43629933433309
 30
0.0
 10
261.7451764738302
 20
21.200166649339
 30
0.0
 10
261.378026816807
 20
21.9614848264415
 30
0.0
 10
261.0037355762117
 20
22.71920223094413
 30
0.0
 10
260.6054131759577
 20
23.52556773374194
 30
0.0
 10
260.3725694925604
 20
23.65083910446931
 30
0.0
 10
259.4607286043899
 20
23.57138302951071
 30
0.0
  0
SPLINE
  5
9A
330
1F
100
AcDbEntity
  8
0
  6
Continuous
 62
   179
370
     0
100
AcDbSpline
210
0.0
220
0.0
230
1.0
 70
     8
 71
     3
 72
    14
 73
    10
 74
     0
 42
0.000000001
 43
0.00000001
 40
5.0
 40
5.0
 40
5.0
 40
5.0
 40
6.0
 40
6.0
 40
6.0
 40
7.0
 40
7.0
 40
7.0
 40
8.0
 40
8.0
 40
8.0
 40
8.0
 10
261.0219043336847
 20
23.63056361828031
 30
0.0
 10
261.7521543160346
 20
23.35408286053947
 30
0.0
 10
262.033208300972
 20
22.73079019980925
 30
0.0
 10
262.3739921385617
 20
22.16106556577573
 30
0.0
 10
262.6276890153665
 20
21.7369354504649
 30
0.0
 10
262.8739775562312
 20
21.30835818112304
 30
0.0
 10
263.1292772534607
 20
20.88520667032095
 30
0.0
 10
263.3178377375433
 20
20.57267359973515
 30
0.0
 10
263.5606000734738
 20
20.32757122285868
 30
0.0
 10
263.9554858268652
 20
20.24609336482204
 30
0.0
  0
SPLINE
  5
9B
330
1F
100
AcDbEntity
  8
0
  6
Continuous
 62
   179
370
     0
100
AcDbSpline
210
0.0
220
0.0
230
1.0
 70
     8
 71
     3
 72
    20
 73
    16
 74
     0
 42
0.000000001
 43
0.00000001
 40
0.0
 40
0.0
 40
0.0
 40
0.0
 40
1.0
 40
1.0
 40
1.0
 40
2.0
 40
2.0
 40
2.0
 40
3.0
 40
3.0
 40
3.0
 40
4.0
 40
4.0
 40
4.0
 40
5.0
 40
5.0
 40
5.0
 40
5.0
 10
257.7192638284546
 20
27.51463645747964
 30
0.0
 10
258.1174764912431
 20
27.51463645747964
 30
0.0
 10
258.5159962651877
 20
27.52468175973202
 30
0.0
 10
258.913837050576
 20
27.51251762112626
 30
0.0
 10
259.7094699986221
 20
27.48819126576296
 30
0.0
 10
260.5093946232761
 20
27.49481913962259
 30
0.0
 10
261.2989762515715
 20
27.40941936834727
 30
0.0
 10
262.3071445332423
 20
27.30037799580671
 30
0.0
 10
262.8488620904764
 20
26.74717259793779
 30
0.0
 10
262.9131259646454
 20
25.88395655371281
 30
0.0
 10
262.9966382899503
 20
24.76217905347502
 30
0.0
 10
262.5617362220245
 20
24.08644572151765
 30
0.0
 10
261.5515161764629
 20
23.77337299628437
 30
0.0
 10
261.3945785321864
 20
23.72473719781129
 30
0.0
 10
261.2341319795987
 20
23.68742184709604
 30
0.0
 10
261.0219043336847
 20
23.63056361828031
 30
0.0
  0
SPLINE
  5
9C
330
1F
100
AcDbEntity
  8
0
  6
Continuous
 62
   179
370
     0
100
AcDbSpline
210
0.0
220
0.0
230
1.0
 70
     8
 71
     3
 72
    20
 73
    16
 74
     0
 42
0.000000001
 43
0.00000001
 40
1.0
 40
1.0
 40
1.0
 40
1.0
 40
2.0
 40
2.0
 40
2.0
 40
3.0
 40
3.0
 40
3.0
 40
4.0
 40
4.0
 40
4.0
 40
5.0
 40
5.0
 40
5.0
 40
6.0
 40
6.0
 40
6.0
 40
6.0
 10
259.4558811296203
 20
23.74052094311723
 30
0.0
 10
259.8313410453958
 20
23.74052094311723
 30
0.0
 10
260.1942113256325
 20
23.70804326575078
 30
0.0
 10
260.5489927438957
 20
23.74778168120397
 30
0.0
 10
261.1506181168165
 20
23.81517009427841
 30
0.0
 10
261.608259863196
 20
24.13857044109259
 30
0.0
 10
261.7413862071132
 20
24.73962656292206
 30
0.0
 10
261.8389787525148
 20
25.18024881635489
 30
0.0
 10
261.8719876284001
 20
25.65810454981779
 30
0.0
 10
261.8164781518313
 20
26.10478869315943
 30
0.0
 10
261.7108519014664
 20
26.95476897687368
 30
0.0
 10
261.3230227860075
 20
27.28690123567825
 30
0.0
 10
260.4792308497364
 20
27.35420547185249
 30
0.0
 10
260.1467440101549
 20
27.38072599997261
 30
0.0
 10
259.8103733099057
 20
27.35855230546976
 30
0.0
 10
259.4558811296203
 20
27.35855230546976
 30
0.0
  0
SPLINE
  5
9D
330
1F
100
AcDbEntity
  8
0
  6
Continuous
 62
   179
370
     0
100
AcDbSpline
210
0.0
220
0.0
230
1.0
 70
    24
 71
     3
 72
     8
 73
     4
 74
     0
 42
0.000000001
 43
0.00000001
 40
0.0
 40
0.0
 40
0.0
 40
0.0
 40
1.0
 40
1.0
 40
1.0
 40
1.0
 10
259.4558811296203
 20
27.35855230546976
 30
0.0
 10
259.4558811296203
 20
26.13864548795525
 30
0.0
 10
259.4558811296203
 20
24.94385548148867
 30
0.0
 10
259.4558811296203
 20
23.74052094311723
 30
0.0
  0
SPLINE
  5
9E
330
1F
100
AcDbEntity
  8
0
  6
Continuous
 62
   179
370
     0
100
AcDbSpline
210
0.0
220
0.0
230
1.0
 70
     8
 71
     3
 72
    14
 73
    10
 74
     0
 42
0.000000001
 43
0.00000001
 40
3.0
 40
3.0
 40
3.0
 40
3.0
 40
4.0
 40
4.0
 40
4.0
 40
5.0
 40
5.0
 40
5.0
 40
6.0
 40
6.0
 40
6.0
 40
6.0
 10
267.2336118279071
 20
20.23490821509466
 30
0.0
 10
266.3034040398354
 20
20.48709452013179
 30
0.0
 10
265.5792320909092
 20
21.34541139190241
 30
0.0
 10
265.4837047623288
 20
22.29272284982232
 30
0.0
 10
265.4259332718035
 20
22.86561853145873
 30
0.0
 10
265.4879189885011
 20
23.41465794151554
 30
0.0
 10
265.7739382574312
 20
23.92202056120339
 30
0.0
 10
266.225828300013
 20
24.72361219597301
 30
0.0
 10
266.9062728477855
 20
25.15058011061061
 30
0.0
 10
267.7758432870376
 20
25.16748813643033
 30
0.0
  0
SPLINE
  5
9F
330
1F
100
AcDbEntity
  8
0
  6
Continuous
 62
   179
370
     0
100
AcDbSpline
210
0.0
220
0.0
230
1.0
 70
     8
 71
     3
 72
    14
 73
    10
 74
     0
 42
0.000000001
 43
0.00000001
 40
0.0
 40
0.0
 40
0.0
 40
0.0
 40
1.0
 40
1.0
 40
1.0
 40
2.0
 40
2.0
 40
2.0
 40
3.0
 40
3.0
 40
3.0
 40
3.0
 10
267.7758432870376
 20
25.16748813643033
 30
0.0
 10
268.6216197225536
 20
25.16033694362372
 30
0.0
 10
269.2464106552308
 20
24.83848445240961
 30
0.0
 10
269.7103360726668
 20
24.21398909980579
 30
0.0
 10
270.372934348899
 20
23.32205720159637
 30
0.0
 10
270.3723808569537
 20
22.03321892002499
 30
0.0
 10
269.7215189161771
 20
21.13111084177937
 30
0.0
 10
269.1482911393735
 20
20.33660467264827
 30
0.0
 10
268.1650050112285
 20
19.98240211471103
 30
0.0
 10
267.2336118279071
 20
20.23490821509466
 30
0.0
  0
SPLINE
  5
A0
330
1F
100
AcDbEntity
  8
0
  6
Continuous
 62
   179
370
     0
100
AcDbSpline
210
0.0
220
0.0
230
1.0
 70
     8
 71
     3
 72
    17
 73
    13
 74
     0
 42
0.000000001
 43
0.00000001
 40
4.0
 40
4.0
 40
4.0
 40
4.0
 40
5.0
 40
5.0
 40
5.0
 40
6.0
 40
6.0
 40
6.0
 40
7.0
 40
7.0
 40
7.0
 40
8.0
 40
8.0
 40
8.0
 40
8.0
 10
266.4699528411193
 20
22.82140374989816
 30
0.0
 10
266.4269741915698
 20
22.16270989809668
 30
0.0
 10
266.5287029361534
 20
21.51524885782823
 30
0.0
 10
266.8746830637486
 20
20.93428603108956
 30
0.0
 10
267.1048165584612
 20
20.54785025472892
 30
0.0
 10
267.4153070900211
 20
20.27237193240104
 30
0.0
 10
267.9076604687568
 20
20.30531315927085
 30
0.0
 10
268.3388937306983
 20
20.33416469565678
 30
0.0
 10
268.6078393105943
 20
20.5966013640246
 30
0.0
 10
268.810867074766
 20
20.94311038392242
 30
0.0
 10
269.1208448575376
 20
21.47214721006825
 30
0.0
 10
269.202432645224
 20
22.05765558940843
 30
0.0
 10
269.218762963826
 20
22.68351122534059
 30
0.0
  0
SPLINE
  5
A1
330
1F
100
AcDbEntity
  8
0
  6
Continuous
 62
   179
370
     0
100
AcDbSpline
210
0.0
220
0.0
230
1.0
 70
     8
 71
     3
 72
    17
 73
    13
 74
     0
 42
0.000000001
 43
0.00000001
 40
0.0
 40
0.0
 40
0.0
 40
0.0
 40
1.0
 40
1.0
 40
1.0
 40
2.0
 40
2.0
 40
2.0
 40
3.0
 40
3.0
 40
3.0
 40
4.0
 40
4.0
 40
4.0
 40
4.0
 10
269.218762963826
 20
22.68351122534059
 30
0.0
 10
269.195680043492
 20
23.34551372899321
 30
0.0
 10
269.0963628325642
 20
24.01168817818241
 30
0.0
 10
268.6683621173312
 20
24.58056604641373
 30
0.0
 10
268.2143234497673
 20
25.18405330473933
 30
0.0
 10
267.4640605055332
 20
25.1914220506298
 30
0.0
 10
267.0072628343699
 20
24.59213287496141
 30
0.0
 10
266.882078331128
 20
24.42789874624283
 30
0.0
 10
266.7597204805012
 20
24.2414496033099
 30
0.0
 10
266.7072125446274
 20
24.04607386528146
 30
0.0
 10
266.5993976948625
 20
23.64490674705059
 30
0.0
 10
266.4968487059656
 20
23.23360918874381
 30
0.0
 10
266.4699528411193
 20
22.82140374989816
 30
0.0
  0
SPLINE
  5
A2
330
1F
100
AcDbEntity
  8
0
  6
Continuous
 62
   179
370
     0
100
AcDbSpline
210
0.0
220
0.0
230
1.0
 70
     8
 71
     3
 72
    17
 73
    13
 74
     0
 42
0.000000001
 43
0.00000001
 40
6.0
 40
6.0
 40
6.0
 40
6.0
 40
7.0
 40
7.0
 40
7.0
 40
8.0
 40
8.0
 40
8.0
 40
9.0
 40
9.0
 40
9.0
 40
10.0
 40
10.0
 40
10.0
 40
10.0
 10
311.6156486607861
 20
20.25320881127337
 30
0.0
 10
312.1185268426077
 20
20.41647125413319
 30
0.0
 10
312.2872188877024
 20
20.63608302071405
 30
0.0
 10
312.2876555313485
 20
21.16871754450475
 30
0.0
 10
312.2890700107628
 20
22.88922803787956
 30
0.0
 10
312.2877662297369
 20
24.60974045310045
 30
0.0
 10
312.2871819882395
 20
26.33025248395311
 30
0.0
 10
312.2871512386867
 20
26.42255802816857
 30
0.0
 10
312.2845313768121
 20
26.51487279724974
 30
0.0
 10
312.2823973578678
 20
26.60716642601487
 30
0.0
 10
312.2683694120104
 20
27.21300429544448
 30
0.0
 10
312.2096131670664
 20
27.27631108979181
 30
0.0
 10
311.6691528821608
 20
27.32445797038016
 30
0.0
  0
SPLINE
  5
A3
330
1F
100
AcDbEntity
  8
0
  6
Continuous
 62
   179
370
     0
100
AcDbSpline
210
0.0
220
0.0
230
1.0
 70
    24
 71
     3
 72
     8
 73
     4
 74
     0
 42
0.000000001
 43
0.00000001
 40
5.0
 40
5.0
 40
5.0
 40
5.0
 40
6.0
 40
6.0
 40
6.0
 40
6.0
 10
313.8867245107604
 20
20.25320881127337
 30
0.0
 10
313.0865658051385
 20
20.25320881127337
 30
0.0
 10
312.3511103079174
 20
20.25320881127337
 30
0.0
 10
311.6156486607861
 20
20.25320881127337
 30
0.0
  0
SPLINE
  5
A4
330
1F
100
AcDbEntity
  8
0
  6
Continuous
 62
   179
370
     0
100
AcDbSpline
210
0.0
220
0.0
230
1.0
 70
     8
 71
     3
 72
    17
 73
    13
 74
     0
 42
0.000000001
 43
0.00000001
 40
1.0
 40
1.0
 40
1.0
 40
1.0
 40
2.0
 40
2.0
 40
2.0
 40
3.0
 40
3.0
 40
3.0
 40
4.0
 40
4.0
 40
4.0
 40
5.0
 40
5.0
 40
5.0
 40
5.0
 10
313.1781318226163
 20
27.87703492426926
 30
0.0
 10
313.1781318226163
 20
27.83642744958889
 30
0.0
 10
313.1781318226163
 20
27.75161518695077
 30
0.0
 10
313.1781318226163
 20
27.66680273212925
 30
0.0
 10
313.1781318226163
 20
25.57700952371036
 30
0.0
 10
313.1781256727049
 20
23.48721689184593
 30
0.0
 10
313.1781441224363
 20
21.39742349124223
 30
0.0
 10
313.1781441224363
 20
21.32188875296783
 30
0.0
 10
313.1771847363981
 20
21.24633325874564
 30
0.0
 10
313.1786115156352
 20
21.17082388885262
 30
0.0
 10
313.1888880160859
 20
20.62648762285203
 30
0.0
 10
313.3266152617988
 20
20.4348325806782
 30
0.0
 10
313.8867245107604
 20
20.25320881127337
 30
0.0
  0
SPLINE
  5
A5
330
1F
100
AcDbEntity
  8
0
  6
Continuous
 62
   179
370
     0
100
AcDbSpline
210
0.0
220
0.0
230
1.0
 70
     8
 71
     3
 72
     8
 73
     4
 74
     0
 42
0.000000001
 43
0.00000001
 40
0.0
 40
0.0
 40
0.0
 40
0.0
 40
1.0
 40
1.0
 40
1.0
 40
1.0
 10
311.6691528821608
 20
27.32445797038016
 30
0.0
 10
312.1410908642435
 20
27.49727756634619
 30
0.0
 10
312.6458878181427
 20
27.68213176842718
 30
0.0
 10
313.1781318226163
 20
27.87703492426926
 30
0.0
  0
SPLINE
  5
A6
330
1F
100
AcDbEntity
  8
0
  6
Continuous
 62
   179
370
     0
100
AcDbSpline
210
0.0
220
0.0
230
1.0
 70
     8
 71
     3
 72
    14
 73
    10
 74
     0
 42
0.000000001
 43
0.00000001
 40
6.0
 40
6.0
 40
6.0
 40
6.0
 40
7.0
 40
7.0
 40
7.0
 40
8.0
 40
8.0
 40
8.0
 40
9.0
 40
9.0
 40
9.0
 40
9.0
 10
278.4819664915176
 20
27.88441039662488
 30
0.0
 10
278.4819664915176
 20
27.83987735719566
 30
0.0
 10
278.4819649540404
 20
27.75219577693941
 30
0.0
 10
278.4819649540404
 20
27.66451419668386
 30
0.0
 10
278.4819664915176
 20
25.48269219002111
 30
0.0
 10
278.4816605334703
 20
23.30086999117493
 30
0.0
 10
278.4822124879378
 20
21.11904779232805
 30
0.0
 10
278.4823339486704
 20
20.63637283524633
 30
0.0
 10
278.6550987719953
 20
20.40793364087759
 30
0.0
 10
279.1055120673172
 20
20.25491771765491
 30
0.0
  0
SPLINE
  5
A7
330
1F
100
AcDbEntity
  8
0
  6
Continuous
 62
   179
370
     0
100
AcDbSpline
210
0.0
220
0.0
230
1.0
 70
     8
 71
     3
 72
     8
 73
     4
 74
     0
 42
0.000000001
 43
0.00000001
 40
5.0
 40
5.0
 40
5.0
 40
5.0
 40
6.0
 40
6.0
 40
6.0
 40
6.0
 10
276.9846800684063
 20
27.3296354262854
 30
0.0
 10
277.4478728777531
 20
27.5012575193644
 30
0.0
 10
277.9568994326009
 20
27.68986239811422
 30
0.0
 10
278.4819664915176
 20
27.88441039662488
 30
0.0
  0
SPLINE
  5
A8
330
1F
100
AcDbEntity
  8
0
  6
Continuous
 62
   179
370
     0
100
AcDbSpline
210
0.0
220
0.0
230
1.0
 70
     8
 71
     3
 72
    17
 73
    13
 74
     0
 42
0.000000001
 43
0.00000001
 40
1.0
 40
1.0
 40
1.0
 40
1.0
 40
2.0
 40
2.0
 40
2.0
 40
3.0
 40
3.0
 40
3.0
 40
4.0
 40
4.0
 40
4.0
 40
5.0
 40
5.0
 40
5.0
 40
5.0
 10
276.9460186560295
 20
20.25491771765491
 30
0.0
 10
277.4179566381115
 20
20.4199152040148
 30
0.0
 10
277.5770686601204
 20
20.6342380475635
 30
0.0
 10
277.5771993457187
 20
21.1337752905054
 30
0.0
 10
277.5776652014392
 20
22.92958298186009
 30
0.0
 10
277.5773700057348
 20
24.72538990447762
 30
0.0
 10
277.577359243392
 20
26.52119721146338
 30
0.0
 10
277.577359243392
 20
26.53798031722657
 30
0.0
 10
277.5773838430334
 20
26.55476419172764
 30
0.0
 10
277.5772915943764
 20
26.57154691311976
 30
0.0
 10
277.5738092075535
 20
27.20775573119973
 30
0.0
 10
277.5366914227135
 20
27.25167954511983
 30
0.0
 10
276.9846800684063
 20
27.3296354262854
 30
0.0
  0
SPLINE
  5
A9
330
1F
100
AcDbEntity
  8
0
  6
Continuous
 62
   179
370
     0
100
AcDbSpline
210
0.0
220
0.0
230
1.0
 70
    24
 71
     3
 72
     8
 73
     4
 74
     0
 42
0.000000001
 43
0.00000001
 40
0.0
 40
0.0
 40
0.0
 40
0.0
 40
1.0
 40
1.0
 40
1.0
 40
1.0
 10
279.1055120673172
 20
20.25491771765491
 30
0.0
 10
278.3856819552066
 20
20.25491771765491
 30
0.0
 10
277.6658503056181
 20
20.25491771765491
 30
0.0
 10
276.9460186560295
 20
20.25491771765491
 30
0.0
  0
SPLINE
  5
AA
330
1F
100
AcDbEntity
  8
0
  6
Continuous
 62
   179
370
     0
100
AcDbSpline
210
0.0
220
0.0
230
1.0
 70
     8
 71
     3
 72
    20
 73
    16
 74
     0
 42
0.000000001
 43
0.00000001
 40
5.0
 40
5.0
 40
5.0
 40
5.0
 40
6.0
 40
6.0
 40
6.0
 40
7.0
 40
7.0
 40
7.0
 40
8.0
 40
8.0
 40
8.0
 40
9.0
 40
9.0
 40
9.0
 40
10.0
 40
10.0
 40
10.0
 40
10.0
 10
307.178408284104
 20
20.25443648715803
 30
0.0
 10
307.3179589782804
 20
20.36177625633667
 30
0.0
 10
307.5293898264143
 20
20.45652254628292
 30
0.0
 10
307.6283941606454
 20
20.61954360515536
 30
0.0
 10
307.7285516030971
 20
20.78446498637255
 30
0.0
 10
307.7490584796685
 20
21.01681475508337
 30
0.0
 10
307.7500732149022
 20
21.21990094340409
 30
0.0
 10
307.7587445887104
 20
22.95682170421714
 30
0.0
 10
307.7550484924979
 20
24.69380511724257
 30
0.0
 10
307.7550361926765
 20
26.43077008053731
 30
0.0
 10
307.7550361926765
 20
26.49789904426263
 30
0.0
 10
307.7552944889174
 20
26.56503146731187
 30
0.0
 10
307.7547502218385
 20
26.63215658734292
 30
0.0
 10
307.7501131893193
 20
27.20350460556406
 30
0.0
 10
307.6774858212348
 20
27.2828088546076
 30
0.0
 10
307.1608133901539
 20
27.32540717062984
 30
0.0
  0
SPLINE
  5
AB
330
1F
100
AcDbEntity
  8
0
  6
Continuous
 62
   179
370
     0
100
AcDbSpline
210
0.0
220
0.0
230
1.0
 70
    24
 71
     3
 72
     8
 73
     4
 74
     0
 42
0.000000001
 43
0.00000001
 40
4.0
 40
4.0
 40
4.0
 40
4.0
 40
5.0
 40
5.0
 40
5.0
 40
5.0
 10
309.3620693061908
 20
20.25443648715802
 30
0.0
 10
308.5715044609524
 20
20.25443648715802
 30
0.0
 10
307.8517004859624
 20
20.25443648715802
 30
0.0
 10
307.178408284104
 20
20.25443648715803
 30
0.0
  0
SPLINE
  5
AC
330
1F
100
AcDbEntity
  8
0
  6
Continuous
 62
   179
370
     0
100
AcDbSpline
210
0.0
220
0.0
230
1.0
 70
     8
 71
     3
 72
    14
 73
    10
 74
     0
 42
0.000000001
 43
0.00000001
 40
1.0
 40
1.0
 40
1.0
 40
1.0
 40
2.0
 40
2.0
 40
2.0
 40
3.0
 40
3.0
 40
3.0
 40
4.0
 40
4.0
 40
4.0
 40
4.0
 10
308.65963267846
 20
27.88697759989075
 30
0.0
 10
308.65963267846
 20
27.83196991758182
 30
0.0
 10
308.65963267846
 20
27.74275854708867
 30
0.0
 10
308.65963267846
 20
27.65354698440997
 30
0.0
 10
308.65963267846
 20
25.48863300356693
 30
0.0
 10
308.6595035303402
 20
23.32371921490944
 30
0.0
 10
308.6597187772069
 20
21.15880542625192
 30
0.0
 10
308.6597679764911
 20
20.6374237012035
 30
0.0
 10
308.807415027844
 20
20.43200746554105
 30
0.0
 10
309.3620693061908
 20
20.25443648715802
 30
0.0
  0
SPLINE
  5
AD
330
1F
100
AcDbEntity
  8
0
  6
Continuous
 62
   179
370
     0
100
AcDbSpline
210
0.0
220
0.0
230
1.0
 70
     8
 71
     3
 72
     8
 73
     4
 74
     0
 42
0.000000001
 43
0.00000001
 40
0.0
 40
0.0
 40
0.0
 40
0.0
 40
1.0
 40
1.0
 40
1.0
 40
1.0
 10
307.1608133901539
 20
27.32540717062984
 30
0.0
 10
307.6336123597077
 20
27.50255342081908
 30
0.0
 10
308.1420254609839
 20
27.69304267058278
 30
0.0
 10
308.65963267846
 20
27.88697759989075
 30
0.0
  0
SPLINE
  5
AE
330
1F
100
AcDbEntity
  8
0
  6
Continuous
 62
   179
370
     0
100
AcDbSpline
210
0.0
220
0.0
230
1.0
 70
     8
 71
     3
 72
    14
 73
    10
 74
     0
 42
0.000000001
 43
0.00000001
 40
6.0
 40
6.0
 40
6.0
 40
6.0
 40
7.0
 40
7.0
 40
7.0
 40
8.0
 40
8.0
 40
8.0
 40
9.0
 40
9.0
 40
9.0
 40
9.0
 10
272.426404840594
 20
20.2590796695872
 30
0.0
 10
273.0059923935969
 20
20.37668517687364
 30
0.0
 10
273.0805785081768
 20
20.81042375860576
 30
0.0
 10
273.0783845276048
 20
21.29462927466368
 30
0.0
 10
273.0702866329497
 20
23.08209538116095
 30
0.0
 10
273.0685846452182
 20
24.86961337752775
 30
0.0
 10
273.0527409382852
 20
26.65700799131587
 30
0.0
 10
273.0476395875227
 20
27.23250104921648
 30
0.0
 10
272.9826104338649
 20
27.28380667758701
 30
0.0
 10
272.4594267850394
 20
27.32510813123116
 30
0.0
  0
SPLINE
  5
AF
330
1F
100
AcDbEntity
  8
0
  6
Continuous
 62
   179
370
     0
100
AcDbSpline
210
0.0
220
0.0
230
1.0
 70
    24
 71
     3
 72
     8
 73
     4
 74
     0
 42
0.000000001
 43
0.00000001
 40
5.0
 40
5.0
 40
5.0
 40
5.0
 40
6.0
 40
6.0
 40
6.0
 40
6.0
 10
274.6224502449564
 20
20.2590796695872
 30
0.0
 10
273.8904356226618
 20
20.2590796695872
 30
0.0
 10
273.1584194628893
 20
20.2590796695872
 30
0.0
 10
272.426404840594
 20
20.2590796695872
 30
0.0
  0
SPLINE
  5
B0
330
1F
100
AcDbEntity
  8
0
  6
Continuous
 62
   179
370
     0
100
AcDbSpline
210
0.0
220
0.0
230
1.0
 70
     8
 71
     3
 72
    17
 73
    13
 74
     0
 42
0.000000001
 43
0.00000001
 40
1.0
 40
1.0
 40
1.0
 40
1.0
 40
2.0
 40
2.0
 40
2.0
 40
3.0
 40
3.0
 40
3.0
 40
4.0
 40
4.0
 40
4.0
 40
5.0
 40
5.0
 40
5.0
 40
5.0
 10
273.9540333846496
 20
27.87257450949275
 30
0.0
 10
273.9540333846496
 20
27.8074859707617
 30
0.0
 10
273.9540333846496
 20
27.71082379150879
 30
0.0
 10
273.9540333846496
 20
27.61416161225588
 30
0.0
 10
273.9540349221275
 20
25.51596282147274
 30
0.0
 10
273.9539872603212
 20
23.41776441505854
 30
0.0
 10
273.9542086570993
 20
21.31956562427539
 30
0.0
 10
273.954217881965
 20
21.22727776105204
 30
0.0
 10
273.9506540088286
 20
21.13443409966764
 30
0.0
 10
273.9590578615309
 20
21.04279505200226
 30
0.0
 10
274.0006220316647
 20
20.58964274029083
 30
0.0
 10
274.1836818051716
 20
20.38260600321025
 30
0.0
 10
274.6224502449564
 20
20.2590796695872
 30
0.0
  0
SPLINE
  5
B1
330
1F
100
AcDbEntity
  8
0
  6
Continuous
 62
   179
370
     0
100
AcDbSpline
210
0.0
220
0.0
230
1.0
 70
     8
 71
     3
 72
     8
 73
     4
 74
     0
 42
0.000000001
 43
0.00000001
 40
0.0
 40
0.0
 40
0.0
 40
0.0
 40
1.0
 40
1.0
 40
1.0
 40
1.0
 10
272.4594267850394
 20
27.32510813123116
 30
0.0
 10
272.932774634105
 20
27.4984925580398
 30
0.0
 10
273.4351023989377
 20
27.68249307566929
 30
0.0
 10
273.9540333846496
 20
27.87257450949275
 30
0.0
  0
SPLINE
  5
B2
330
1F
100
AcDbEntity
  8
0
  6
Continuous
 62
   179
370
     0
100
AcDbSpline
210
0.0
220
0.0
230
1.0
 70
     8
 71
     3
 72
    17
 73
    13
 74
     0
 42
0.000000001
 43
0.00000001
 40
6.0
 40
6.0
 40
6.0
 40
6.0
 40
7.0
 40
7.0
 40
7.0
 40
8.0
 40
8.0
 40
8.0
 40
9.0
 40
9.0
 40
9.0
 40
10.0
 40
10.0
 40
10.0
 40
10.0
 10
304.1706223551654
 20
25.06377258638473
 30
0.0
 10
304.1727133247369
 20
25.01792115989103
 30
0.0
 10
304.1800409430993
 20
24.93136078519359
 30
0.0
 10
304.1800932173391
 20
24.84479541369365
 30
0.0
 10
304.1808527312862
 20
23.65282014439031
 30
0.0
 10
304.1797703470369
 20
22.46084295323946
 30
0.0
 10
304.1818797663412
 20
21.26887114326077
 30
0.0
 10
304.1821011631179
 20
21.14380579453512
 30
0.0
 10
304.1922454404932
 20
21.01764883669525
 30
0.0
 10
304.2107535961514
 20
20.89393877449616
 30
0.0
 10
304.2621822227331
 20
20.55023795748124
 30
0.0
 10
304.4578262506061
 20
20.33981031349823
 30
0.0
 10
304.8038079156778
 20
20.2539775500868
 30
0.0
  0
SPLINE
  5
B3
330
1F
100
AcDbEntity
  8
0
  6
Continuous
 62
   179
370
     0
100
AcDbSpline
210
0.0
220
0.0
230
1.0
 70
     8
 71
     3
 72
     8
 73
     4
 74
     0
 42
0.000000001
 43
0.00000001
 40
5.0
 40
5.0
 40
5.0
 40
5.0
 40
6.0
 40
6.0
 40
6.0
 40
6.0
 10
302.7125031745686
 20
24.50968064047994
 30
0.0
 10
303.1898069535648
 20
24.69105879783349
 30
0.0
 10
303.6729961969132
 20
24.874672832025
 30
0.0
 10
304.1706223551654
 20
25.06377258638473
 30
0.0
  0
SPLINE
  5
B4
330
1F
100
AcDbEntity
  8
0
  6
Continuous
 62
   179
370
     0
100
AcDbSpline
210
0.0
220
0.0
230
1.0
 70
     8
 71
     3
 72
    17
 73
    13
 74
     0
 42
0.000000001
 43
0.00000001
 40
1.0
 40
1.0
 40
1.0
 40
1.0
 40
2.0
 40
2.0
 40
2.0
 40
3.0
 40
3.0
 40
3.0
 40
4.0
 40
4.0
 40
4.0
 40
5.0
 40
5.0
 40
5.0
 40
5.0
 10
302.6973344203136
 20
20.2539775500868
 30
0.0
 10
303.1321361678242
 20
20.3494649042487
 30
0.0
 10
303.2897768237453
 20
20.65853557522151
 30
0.0
 10
303.2916556214044
 20
21.04785181591346
 30
0.0
 10
303.296603224403
 20
22.071496731734
 30
0.0
 10
303.2829750227277
 20
23.09531768874206
 30
0.0
 10
303.2668591822546
 20
24.11891186780057
 30
0.0
 10
303.2632153602819
 20
24.35030186610297
 30
0.0
 10
303.1332831261333
 20
24.4918735746181
 30
0.0
 10
302.8846514693661
 20
24.49557889569631
 30
0.0
 10
302.8224697242704
 20
24.49650561033552
 30
0.0
 10
302.7604109773859
 20
24.5055728846329
 30
0.0
 10
302.7125031745686
 20
24.50968064047994
 30
0.0
  0
SPLINE
  5
B5
330
1F
100
AcDbEntity
  8
0
  6
Continuous
 62
   179
370
     0
100
AcDbSpline
210
0.0
220
0.0
230
1.0
 70
    24
 71
     3
 72
     8
 73
     4
 74
     0
 42
0.000000001
 43
0.00000001
 40
0.0
 40
0.0
 40
0.0
 40
0.0
 40
1.0
 40
1.0
 40
1.0
 40
1.0
 10
304.8038079156778
 20
20.2539775500868
 30
0.0
 10
304.1016511088749
 20
20.2539775500868
 30
0.0
 10
303.3994912271164
 20
20.2539775500868
 30
0.0
 10
302.6973344203136
 20
20.2539775500868
 30
0.0
  0
SPLINE
  5
B6
330
1F
100
AcDbEntity
  8
0
  6
Continuous
 62
   179
370
     0
100
AcDbSpline
210
0.0
220
0.0
230
1.0
 70
     8
 71
     3
 72
    11
 73
     7
 74
     0
 42
0.000000001
 43
0.00000001
 40
2.0
 40
2.0
 40
2.0
 40
2.0
 40
3.0
 40
3.0
 40
3.0
 40
4.0
 40
4.0
 40
4.0
 40
4.0
 10
303.0570519104932
 20
26.35430478392947
 30
0.0
 10
303.0511172468595
 20
26.75330175249256
 30
0.0
 10
303.3266947364936
 20
27.05519259513757
 30
0.0
 10
303.6924299141011
 20
27.05034857969325
 30
0.0
 10
304.0507636744179
 20
27.04560238626284
 30
0.0
 10
304.3255386007336
 20
26.75299425696746
 30
0.0
 10
304.327448147944
 20
26.37412133304796
 30
0.0
  0
SPLINE
  5
B7
330
1F
100
AcDbEntity
  8
0
  6
Continuous
 62
   179
370
     0
100
AcDbSpline
210
0.0
220
0.0
230
1.0
 70
     8
 71
     3
 72
    11
 73
     7
 74
     0
 42
0.000000001
 43
0.00000001
 40
0.0
 40
0.0
 40
0.0
 40
0.0
 40
1.0
 40
1.0
 40
1.0
 40
2.0
 40
2.0
 40
2.0
 40
2.0
 10
304.327448147944
 20
26.37412133304796
 30
0.0
 10
304.3293945946187
 20
25.98752450590587
 30
0.0
 10
304.0680572227529
 20
25.70828897263022
 30
0.0
 10
303.6993639381942
 20
25.70301926806731
 30
0.0
 10
303.3259905717408
 20
25.69768229885988
 30
0.0
 10
303.0628482011429
 20
25.96449808787493
 30
0.0
 10
303.0570519104932
 20
26.35430478392947
 30
0.0
  0
MTEXT
  5
B9
330
1F
100
AcDbEntity
  8
0
  6
Continuous
 62
     7
370
     0
100
AcDbMText
 10
257.9690483454
 20
40.3166048975
 30
0.0
 40
3.7041666667
 41
0.0
 71
     1
 72
     1
  1
EXCF - Excel Floor Lamp
  7
SLDTEXTSTYLE0
 73
     1
 44
1.0
  0
MTEXT
  5
BA
330
1F
100
AcDbEntity
  8
0
  6
Continuous
 62
     7
370
     0
100
AcDbMText
 10
258.6105142387
 20
44.3546043689
 30
0.0
 40
1.5875
 41
0.0
 71
     1
 72
     1
  1
\LDESCRIPTION
  7
SLDTEXTSTYLE0
 73
     1
 44
1.0
  0
INSERT
  5
C1
330
1F
100
AcDbEntity
  8
0
  6
Continuous
 62
     7
370
     0
100
AcDbBlockReference
  2
SW_NOTE_0
 10
317.1049495712
 20
24.1495665419
 30
0.0
  0
MTEXT
  5
C2
330
1F
100
AcDbEntity
  8
0
  6
Continuous
 62
     7
370
     0
100
AcDbMText
 10
273.8792930731
 20
32.371143085
 30
0.0
 40
1.5875
 41
0.0
 71
     2
 72
     1
  1
\LSCALE
  7
SLDTEXTSTYLE0
 73
     1
 44
1.0
  0
MTEXT
  5
C3
330
1F
100
AcDbEntity
  8
0
  6
Continuous
 62
     7
370
     0
100
AcDbMText
 10
278.3960862508
 20
33.4394651033
 30
0.0
 40
2.6458333333
 41
0.0
 71
     1
 72
     1
  1
1:25
  7
SLDTEXTSTYLE0
 73
     1
 44
1.0
  0
MTEXT
  5
C4
330
1F
100
AcDbEntity
  8
0
  6
Continuous
 62
     7
370
     0
100
AcDbMText
 10
261.5657280329
 20
32.371143085
 30
0.0
 40
1.5875
 41
0.0
 71
     2
 72
     1
  1
\LSIZE
  7
SLDTEXTSTYLE0
 73
     1
 44
1.0
  0
MTEXT
  5
C5
330
1F
100
AcDbEntity
  8
0
  6
Continuous
 62
     7
370
     0
100
AcDbMText
 10
264.7495209372
 20
33.4394651033
 30
0.0
 40
2.6458333333
 41
0.0
 71
     1
 72
     1
  1
B
  7
SLDTEXTSTYLE0
 73
     1
 44
1.0
  0
INSERT
  5
CC
330
1F
100
AcDbEntity
  8
0
  6
Continuous
 62
     7
370
     0
100
AcDbBlockReference
  2
SW_NOTE_1
 10
258.0900415808
 20
15.6806800849
 30
0.0
  0
LINE
  5
CD
330
1F
100
AcDbEntity
  8
0
  6
Continuous
 62
     7
370
    15
100
AcDbLine
 10
110.6215154863
 20
141.46650543
 30
0.0
 11
110.6215154863
 21
148.5611809554
 31
0.0
  0
LINE
  5
CE
330
1F
100
AcDbEntity
  8
0
  6
Continuous
 62
     7
370
    15
100
AcDbLine
 10
86.2375154863
 20
148.2064471791
 30
0.0
 11
86.2375154863
 21
141.46650543
 31
0.0
  0
LINE
  5
CF
330
1F
100
AcDbEntity
  8
0
  6
Continuous
 62
     7
370
    15
100
AcDbLine
 10
86.2375154863
 20
148.5611809554
 30
0.0
 11
86.2375154863
 21
148.4602708117
 31
0.0
  0
LINE
  5
D0
330
1F
100
AcDbEntity
  8
0
  6
Continuous
 62
     7
370
    15
100
AcDbLine
 10
86.0413146741
 20
148.3077996867
 30
0.0
 11
86.0413146741
 21
148.2064471791
 31
0.0
  0
LINE
  5
D1
330
1F
100
AcDbEntity
  8
0
  6
Continuous
 62
     7
370
    15
100
AcDbLine
 10
81.0911397176
 20
62.3033221171
 30
0.0
 11
98.2248855027
 21
93.2001456891
 31
0.0
  0
LINE
  5
D2
330
1F
100
AcDbEntity
  8
0
  6
Continuous
 62
     7
370
    15
100
AcDbLine
 10
97.7588033379
 20
93.7737835284
 30
0.0
 11
80.491386086
 21
62.6359137906
 31
0.0
  0
LINE
  5
D3
330
1F
100
AcDbEntity
  8
0
  6
Continuous
 62
     7
370
    15
100
AcDbLine
 10
113.8151221513
 20
62.1310705574
 30
0.0
 11
98.8678179636
 21
87.2410560334
 31
0.0
  0
LINE
  5
D4
330
1F
100
AcDbEntity
  8
0
  6
Continuous
 62
     7
370
    15
100
AcDbLine
 10
98.4086961327
 20
86.671588875
 30
0.0
 11
113.2258282123
 21
61.7802796034
 31
0.0
  0
LINE
  5
D5
330
1F
100
AcDbEntity
  8
0
  6
Continuous
 62
     7
370
    15
100
AcDbLine
 10
99.0130946741
 20
61.4813612483
 30
0.0
 11
99.0130946741
 21
85.6562593945
 31
0.0
  0
LINE
  5
D6
330
1F
100
AcDbEntity
  8
0
  6
Continuous
 62
     7
370
    15
100
AcDbLine
 10
99.0130946741
 20
86.9970055982
 30
0.0
 11
99.0130946741
 21
140.6170093304
 31
0.0
  0
LINE
  5
D7
330
1F
100
AcDbEntity
  8
0
  6
Continuous
 62
     7
370
    15
100
AcDbLine
 10
97.6160946741
 20
140.6179294367
 30
0.0
 11
97.6160946741
 21
93.5164408281
 31
0.0
  0
LINE
  5
D8
330
1F
100
AcDbEntity
  8
0
  6
Continuous
 62
     7
370
    15
100
AcDbLine
 10
97.6160946741
 20
92.1023295396
 30
0.0
 11
97.6160946741
 21
61.4813612483
 31
0.0
  0
LINE
  5
D9
330
1F
100
AcDbEntity
  8
0
  6
Continuous
 62
     7
370
    15
100
AcDbLine
 10
99.0130946741
 20
94.621502117
 30
0.0
 11
99.9873861302
 21
96.3784157309
 31
0.0
  0
LINE
  5
DA
330
1F
100
AcDbEntity
  8
0
  6
Continuous
 62
     7
370
    15
100
AcDbLine
 10
99.3876324985
 20
96.7110074044
 30
0.0
 11
99.0130946741
 21
96.0356134055
 31
0.0
  0
LINE
  5
DB
330
1F
100
AcDbEntity
  8
0
  6
Continuous
 62
     7
370
    15
100
AcDbLine
 10
97.6160946741
 20
89.3438267554
 30
0.0
 11
96.8241437182
 21
90.6742256521
 31
0.0
  0
LINE
  5
DC
330
1F
100
AcDbEntity
  8
0
  6
Continuous
 62
     7
370
    15
100
AcDbLine
 10
96.4392228677
 20
89.9801082212
 30
0.0
 11
97.6160946741
 21
88.0030805516
 31
0.0
  0
LWPOLYLINE
  5
DD
330
1F
100
AcDbEntity
  8
0
  6
Continuous
 62
     7
370
    15
100
AcDbPolyline
 90
      186
 70
   128
 43
0.0
 10
99.7274675908
 20
142.3121431809
 10
100.1383656287
 20
142.3085810549
 10
100.5472927034
 20
142.304047691
 10
100.9537771643
 20
142.2985483179
 10
101.3573501781
 20
142.2920892784
 10
101.7575462695
 20
142.2846780225
 10
102.153903858
 20
142.276323098
 10
102.5459657905
 20
142.2670341415
 10
102.9332798684
 20
142.2568218666
 10
103.3153993692
 20
142.2456980522
 10
103.6918835618
 20
142.2336755282
 10
104.0622982148
 20
142.2207681612
 10
104.4262160971
 20
142.2069908384
 10
104.7832174712
 20
142.1923594504
 10
105.1328905767
 20
142.1768908729
 10
105.4748321058
 20
142.1606029469
 10
105.808647668
 20
142.1435144589
 10
106.1339522453
 20
142.1256451184
 10
106.450370636
 20
142.1070155356
 10
106.7575378877
 20
142.0876471977
 10
107.0550997181
 20
142.0675624439
 10
107.3427129236
 20
142.0467844395
 10
107.6200457754
 20
142.0253371496
 10
107.8867784017
 20
142.0032453113
 10
108.1426031569
 20
141.9805344049
 10
108.3872249765
 20
141.9572306248
 10
108.6203617171
 20
141.9333608494
 10
108.8417444822
 20
141.9089526097
 10
109.0511179321
 20
141.8840340578
 10
109.2482405785
 20
141.8586339343
 10
109.4328850629
 20
141.8327815354
 10
109.604838419
 20
141.806506679
 10
109.7639023183
 20
141.77983967
 10
109.9098932989
 20
141.7528112658
 10
110.0426429767
 20
141.7254526406
 10
110.1619982403
 20
141.6977953494
 10
110.2678214269
 20
141.6698712917
 10
110.3599904818
 20
141.6417126747
 10
110.4383990982
 20
141.6133519762
 10
110.502956841
 20
141.5848219071
 10
110.5535892502
 20
141.5561553734
 10
110.5902379269
 20
141.5273854388
 10
110.6128606013
 20
141.498545286
 10
110.6214311806
 20
141.4696681789
 10
110.6159397796
 20
141.440787424
 10
110.5963927321
 20
141.4119363318
 10
110.5628125833
 20
141.3831481788
 10
110.5152380641
 20
141.3544561689
 10
110.4537240462
 20
141.325893395
 10
110.3783414791
 20
141.297492801
 10
110.2891773079
 20
141.2692871438
 10
110.1863343732
 20
141.2413089553
 10
110.0699312927
 20
141.2135905051
 10
109.940102324
 20
141.1861637634
 10
109.7969972099
 20
141.1590603637
 10
109.6407810058
 20
141.1323115668
 10
109.4716338893
 20
141.1059482243
 10
109.2897509522
 20
141.0800007432
 10
109.0953419757
 20
141.0544990511
 10
108.8886311882
 20
141.0294725612
 10
108.6698570071
 20
141.0049501388
 10
108.4392717633
 20
140.9809600676
 10
108.1971414106
 20
140.9575300174
 10
107.9437452185
 20
140.9346870122
 10
107.6793754507
 20
140.9124573987
 10
107.4043370274
 20
140.8908668162
 10
107.118947174
 20
140.869940167
 10
106.823535055
 20
140.8497015876
 10
106.5184413945
 20
140.8301744209
 10
106.2040180832
 20
140.8113811892
 10
105.8806277723
 20
140.7933435684
 10
105.5486434557
 20
140.7760823628
 10
105.2084480393
 20
140.7596174813
 10
104.8604338995
 20
140.7439679141
 10
104.5050024309
 20
140.7291517113
 10
104.142563583
 20
140.7151859618
 10
103.7735353876
 20
140.7020867732
 10
103.3983434765
 20
140.6898692542
 10
103.0174205906
 20
140.6785474962
 10
102.6312060809
 20
140.6681345575
 10
102.2401454017
 20
140.6586424483
 10
101.8446895967
 20
140.6500821166
 10
101.4452947791
 20
140.6424634359
 10
101.0424216049
 20
140.6357951933
 10
100.6365347424
 20
140.63008508
 10
100.2281023357
 20
140.6253396819
 10
99.8175954647
 20
140.6215644723
 10
99.4054876022
 20
140.6187638054
 10
98.9922540676
 20
140.6169409116
 10
98.5783714783
 20
140.6160978932
 10
98.1643172007
 20
140.6162357226
 10
97.750568799
 20
140.617354241
 10
97.3376034846
 20
140.619452158
 10
96.9258975658
 20
140.6225270542
 10
96.5159258983
 20
140.6265753828
 10
96.1081613376
 20
140.6315924748
 10
95.7030741933
 20
140.6375725433
 10
95.3011316872
 20
140.644508691
 10
94.902797414
 20
140.652392918
 10
94.5085308067
 20
140.6612161307
 10
94.1187866068
 20
140.6709681525
 10
93.7340143396
 20
140.6816377355
 10
93.3546577958
 20
140.6932125736
 10
92.98115452
 20
140.7056793166
 10
92.6139353054
 20
140.7190235855
 10
92.2534236974
 20
140.7332299892
 10
91.9000355048
 20
140.7482821423
 10
91.5541783205
 20
140.7641626837
 10
91.2162510513
 20
140.7808532972
 10
90.8866434575
 20
140.798334732
 10
90.5657357039
 20
140.8165868253
 10
90.2538979208
 20
140.8355885254
 10
89.9514897775
 20
140.8553179159
 10
89.6588600671
 20
140.8757522414
 10
89.3763463046
 20
140.896867933
 10
89.1042743373
 20
140.9186406364
 10
88.842957969
 20
140.9410452391
 10
88.5926985983
 20
140.9640559001
 10
88.3537848707
 20
140.9876460791
 10
88.126492346
 20
141.0117885677
 10
87.91108318
 20
141.0364555201
 10
87.7078058227
 20
141.0616184859
 10
87.516894731
 20
141.0872484424
 10
87.3385700993
 20
141.1133158286
 10
87.1730376045
 20
141.1397905785
 10
87.0204881694
 20
141.1666421567
 10
86.8810977424
 20
141.1938395928
 10
86.7550270944
 20
141.2213515178
 10
86.6424216334
 20
141.2491461998
 10
86.543411237
 20
141.2771915808
 10
86.4581101023
 20
141.3054553137
 10
86.3866166145
 20
141.3339047994
 10
86.3290132331
 20
141.3625072249
 10
86.285366397
 20
141.3912296003
 10
86.2557264478
 20
141.4200387978
 10
86.2401275719
 20
141.4489015893
 10
86.2385877607
 20
141.4777846848
 10
86.2511087903
 20
141.5066547709
 10
86.277676219
 20
141.5354785494
 10
86.3182594045
 20
141.5642227753
 10
86.3728115385
 20
141.5928542954
 10
86.4412697016
 20
141.6213400865
 10
86.5235549349
 20
141.6496472936
 10
86.619572332
 20
141.6777432674
 10
86.7292111477
 20
141.7055956026
 10
86.8523449262
 20
141.7331721746
 10
86.9888316467
 20
141.7604411771
 10
87.1385138875
 20
141.7873711582
 10
87.3012190072
 20
141.8139310575
 10
87.4767593441
 20
141.840090241
 10
87.6649324324
 20
141.8658185372
 10
87.865521236
 20
141.8910862714
 10
88.0782943986
 20
141.9158643001
 10
88.3030065109
 20
141.9401240448
 10
88.539398393
 20
141.9638375246
 10
88.787197394
 20
141.9869773886
 10
89.046117706
 20
142.0095169479
 10
89.315860694
 20
142.0314302054
 10
89.5961152405
 20
142.0526918868
 10
89.8865581038
 20
142.0732774692
 10
90.1868542914
 20
142.0931632095
 10
90.4966574458
 20
142.1123261717
 10
90.8156102446
 20
142.1307442535
 10
91.1433448123
 20
142.1483962118
 10
91.4794831444
 20
142.1652616871
 10
91.823637544
 20
142.181321227
 10
92.1754110681
 20
142.1965563086
 10
92.5343979864
 20
142.21094936
 10
92.9001842484
 20
142.2244837805
 10
93.2723479616
 20
142.2371439597
 10
93.6504598777
 20
142.2489152954
 10
94.0340838878
 20
142.2597842109
 10
94.4227775254
 20
142.26973817
 10
94.8160924771
 20
142.2787656921
 10
95.2135750989
 20
142.2868563648
 10
95.61476694
 20
142.2940008566
 10
96.0192052717
 20
142.300190927
 10
96.4264236206
 20
142.3054194366
 10
96.8359523067
 20
142.3096803548
 10
97.2473189858
 20
142.3129687672
 10
97.6600491933
 20
142.3152808809
 10
98.0736668921
 20
142.3166140293
 10
98.4876950216
 20
142.3169666746
 10
98.9016560477
 20
142.3163384101
 10
99.3150725136
 20
142.3147299605
 10
99.7274675908
 20
142.3121431809
  0
LWPOLYLINE
  5
DE
330
1F
100
AcDbEntity
  8
0
  6
Continuous
 62
     7
370
    15
100
AcDbPolyline
 90
       45
 70
   128
 43
0.0
 10
99.7274675908
 20
149.4068187064
 10
100.1383656287
 20
149.4032565804
 10
100.5472927034
 20
149.3987232164
 10
100.9537771643
 20
149.3932238433
 10
101.3573501781
 20
149.3867648039
 10
101.7575462695
 20
149.3793535479
 10
102.153903858
 20
149.3709986234
 10
102.5459657905
 20
149.3617096669
 10
102.9332798684
 20
149.3514973921
 10
103.3153993692
 20
149.3403735776
 10
103.6918835618
 20
149.3283510536
 10
104.0622982148
 20
149.3154436866
 10
104.4262160971
 20
149.3016663639
 10
104.7832174712
 20
149.2870349759
 10
105.1328905767
 20
149.2715663983
 10
105.4748321058
 20
149.2552784724
 10
105.808647668
 20
149.2381899843
 10
106.1339522453
 20
149.2203206438
 10
106.450370636
 20
149.2016910611
 10
106.7575378877
 20
149.1823227232
 10
107.0550997181
 20
149.1622379693
 10
107.3427129236
 20
149.1414599649
 10
107.6200457754
 20
149.120012675
 10
107.8867784017
 20
149.0979208367
 10
108.1426031569
 20
149.0752099303
 10
108.3872249765
 20
149.0519061503
 10
108.6203617171
 20
149.0280363749
 10
108.8417444822
 20
149.0036281352
 10
109.0511179321
 20
148.9787095832
 10
109.2482405785
 20
148.9533094597
 10
109.4328850629
 20
148.9274570609
 10
109.604838419
 20
148.9011822044
 10
109.7639023183
 20
148.8745151955
 10
109.9098932989
 20
148.8474867913
 10
110.0426429767
 20
148.820128166
 10
110.1619982403
 20
148.7924708748
 10
110.2678214269
 20
148.7645468171
 10
110.3599904818
 20
148.7363882002
 10
110.4383990982
 20
148.7080275017
 10
110.502956841
 20
148.6794974325
 10
110.5535892502
 20
148.6508308988
 10
110.5902379269
 20
148.6220609642
 10
110.6128606013
 20
148.5932208114
 10
110.6214311806
 20
148.5643437044
 10
110.6215154863
 20
148.5611809554
  0
LWPOLYLINE
  5
DF
330
1F
100
AcDbEntity
  8
0
  6
Continuous
 62
     7
370
    15
100
AcDbPolyline
 90
       51
 70
   128
 43
0.0
 10
86.2375154863
 20
148.5611809554
 10
86.2385877607
 20
148.5724602102
 10
86.2511087903
 20
148.6013302964
 10
86.277676219
 20
148.6301540749
 10
86.3182594045
 20
148.6588983007
 10
86.3728115385
 20
148.6875298208
 10
86.4412697016
 20
148.716015612
 10
86.5235549349
 20
148.744322819
 10
86.619572332
 20
148.7724187929
 10
86.7292111477
 20
148.8002711281
 10
86.8523449262
 20
148.8278477001
 10
86.9888316467
 20
148.8551167025
 10
87.1385138875
 20
148.8820466837
 10
87.3012190072
 20
148.9086065829
 10
87.4767593441
 20
148.9347657665
 10
87.6649324324
 20
148.9604940626
 10
87.865521236
 20
148.9857617968
 10
88.0782943986
 20
149.0105398255
 10
88.3030065109
 20
149.0347995702
 10
88.539398393
 20
149.05851305
 10
88.787197394
 20
149.0816529141
 10
89.046117706
 20
149.1041924733
 10
89.315860694
 20
149.1261057309
 10
89.5961152405
 20
149.1473674123
 10
89.8865581038
 20
149.1679529947
 10
90.1868542914
 20
149.1878387349
 10
90.4966574458
 20
149.2070016971
 10
90.8156102446
 20
149.2254197789
 10
91.1433448123
 20
149.2430717372
 10
91.4794831444
 20
149.2599372125
 10
91.823637544
 20
149.2759967524
 10
92.1754110681
 20
149.291231834
 10
92.5343979864
 20
149.3056248854
 10
92.9001842484
 20
149.3191593059
 10
93.2723479616
 20
149.3318194851
 10
93.6504598777
 20
149.3435908209
 10
94.0340838878
 20
149.3544597363
 10
94.4227775254
 20
149.3644136955
 10
94.8160924771
 20
149.3734412175
 10
95.2135750989
 20
149.3815318903
 10
95.61476694
 20
149.388676382
 10
96.0192052717
 20
149.3948664525
 10
96.4264236206
 20
149.400094962
 10
96.8359523067
 20
149.4043558803
 10
97.2473189858
 20
149.4076442926
 10
97.6600491933
 20
149.4099564064
 10
98.0736668921
 20
149.4112895547
 10
98.4876950216
 20
149.4116422
 10
98.9016560477
 20
149.4110139356
 10
99.3150725136
 20
149.409405486
 10
99.7274675908
 20
149.4068187064
  0
LWPOLYLINE
  5
E0
330
1F
100
AcDbEntity
  8
0
  6
Continuous
 62
     7
370
    15
100
AcDbPolyline
 90
       70
 70
   128
 43
0.0
 10
86.2375154863
 20
148.2064471791
 10
86.2446044853
 20
148.2354450635
 10
86.2658632387
 20
148.2644092263
 10
86.3012670246
 20
148.2933059855
 10
86.3507746724
 20
148.3221017371
 10
86.4143286099
 20
148.3507629948
 10
86.4918549306
 20
148.3792564285
 10
86.5832634796
 20
148.4075489035
 10
86.6884479586
 20
148.4356075186
 10
86.8072860492
 20
148.4633996446
 10
86.9396395553
 20
148.4908929622
 10
87.0853545639
 20
148.5180554997
 10
87.244261624
 20
148.5448556699
 10
87.4161759436
 20
148.571262307
 10
87.6008976046
 20
148.597244703
 10
87.7982117954
 20
148.6227726431
 10
88.0078890607
 20
148.647816441
 10
88.2296855679
 20
148.6723469734
 10
88.4633433915
 20
148.6963357139
 10
88.7085908123
 20
148.7197547662
 10
88.9651426336
 20
148.7425768965
 10
89.2327005129
 20
148.764775565
 10
89.510953309
 20
148.7863249569
 10
89.7995774434
 20
148.8072000128
 10
90.0982372771
 20
148.8273764571
 10
90.4065855004
 20
148.8468308267
 10
90.7242635371
 20
148.8655404984
 10
91.0509019616
 20
148.8834837146
 10
91.386120928
 20
148.9006396095
 10
91.7295306126
 20
148.9169882324
 10
92.0807316662
 20
148.9325105718
 10
92.4393156796
 20
148.9471885767
 10
92.8048656576
 20
148.9610051782
 10
93.1769565046
 20
148.9739443091
 10
93.5551555185
 20
148.9859909226
 10
93.9390228941
 20
148.9971310097
 10
94.3281122345
 20
149.0073516156
 10
94.7219710703
 20
149.016640855
 10
95.1201413856
 20
149.0249879253
 10
95.5221601506
 20
149.0323831199
 10
95.9275598604
 20
149.038817839
 10
96.3358690782
 20
149.0442845996
 10
96.7466129839
 20
149.0487770444
 10
97.1593139261
 20
149.0522899493
 10
97.5734919774
 20
149.0548192291
 10
97.9886654929
 20
149.0563619425
 10
98.4043516701
 20
149.0569162956
 10
98.8200671101
 20
149.0564816435
 10
99.2353283801
 20
149.0550584919
 10
99.6496525756
 20
149.0526484957
 10
100.0625578815
 20
149.0492544575
 10
100.4735641329
 20
149.0448803241
 10
100.8821933733
 20
149.0395311822
 10
101.2879704105
 20
149.0332132523
 10
101.6904233689
 20
149.0259338815
 10
102.0890842387
 20
149.0177015349
 10
102.4834894195
 20
149.0085257858
 10
102.8731802602
 20
148.9984173047
 10
103.2577035919
 20
148.9873878466
 10
103.6366122548
 20
148.9754502377
 10
104.0094656185
 20
148.9626183602
 10
104.3758300942
 20
148.948907136
 10
104.7352796391
 20
148.9343325099
 10
105.0873962516
 20
148.9189114307
 10
105.4317704575
 20
148.9026618314
 10
105.7680017863
 20
148.8856026086
 10
106.0956992369
 20
148.8677536003
 10
106.4144817318
 20
148.8491355631
 10
106.7239785611
 20
148.8297701477
 10
107.0238298128
 20
148.809679874
  0
LINE
  5
E1
330
1F
100
AcDbEntity
  8
0
  6
Continuous
 62
     7
370
    15
100
AcDbLine
 10
107.0238298128
 20
148.809679874
 30
0.0
 11
107.0238298128
 21
148.9110323815
 31
0.0
  0
LWPOLYLINE
  5
E2
330
1F
100
AcDbEntity
  8
0
  6
Continuous
 62
     7
370
    15
100
AcDbPolyline
 90
       76
 70
   128
 43
0.0
 10
86.2375154863
 20
148.0539760541
 10
86.1842927225
 20
148.0761467071
 10
86.1278740873
 20
148.1049462771
 10
86.0855031077
 20
148.1338628474
 10
86.0572286248
 20
148.1628630859
 10
86.0430832306
 20
148.1919135637
 10
86.0430832306
 20
148.2209807946
 10
86.0572286248
 20
148.2500312724
 10
86.0855031077
 20
148.2790315109
 10
86.1278740873
 20
148.3079480812
 10
86.1842927225
 20
148.3367476512
 10
86.2546939794
 20
148.3653970237
 10
86.3389967063
 20
148.3938631743
 10
86.4371037274
 20
148.4221132902
 10
86.5489019546
 20
148.4501148074
 10
86.6742625176
 20
148.4778354484
 10
86.8130409133
 20
148.5052432597
 10
86.9650771715
 20
148.5323066482
 10
87.1301960398
 20
148.5589944178
 10
87.3082071852
 20
148.5852758056
 10
87.4989054141
 20
148.611120517
 10
87.7020709081
 20
148.6364987606
 10
87.9174694782
 20
148.6613812829
 10
88.1448528338
 20
148.6857394019
 10
88.3839588699
 20
148.7095450398
 10
88.6345119684
 20
148.7327707559
 10
88.8962233164
 20
148.7553897778
 10
89.1687912386
 20
148.7773760325
 10
89.4519015455
 20
148.7987041765
 10
89.7452278953
 20
148.8193496248
 10
90.0484321702
 20
148.8392885792
 10
90.3611648661
 20
148.8584980562
 10
90.6830654954
 20
148.876955913
 10
91.0137630026
 20
148.894640873
 10
91.3528761921
 20
148.9115325509
 10
91.7000141675
 20
148.9276114756
 10
92.0547767823
 20
148.9428591128
 10
92.4167551008
 20
148.9572578867
 10
92.7855318699
 20
148.9707911996
 10
93.1606820002
 20
148.9834434517
 10
93.5417730551
 20
148.9952000588
 10
93.9283657505
 20
149.006047469
 10
94.3200144602
 20
149.0159731784
 10
94.7162677299
 20
149.0249657457
 10
95.1166687978
 20
149.0330148051
 10
95.5207561209
 20
149.0401110785
 10
95.9280639068
 20
149.0462463859
 10
96.3381226513
 20
149.0514136552
 10
96.7504596787
 20
149.0556069301
 10
97.1645996875
 20
149.058821377
 10
97.5800652976
 20
149.0610532905
 10
97.9963776011
 20
149.0623000979
 10
98.4130567141
 20
149.0625603621
 10
98.8296223296
 20
149.0618337831
 10
99.2455942718
 20
149.0601211983
 10
99.6604930491
 20
149.0574245818
 10
100.0738404068
 20
149.0537470422
 10
100.4851598786
 20
149.0490928184
 10
100.8939773358
 20
149.0434672753
 10
101.2998215339
 20
149.0368768977
 10
101.7022246554
 20
149.0293292822
 10
102.1007228494
 20
149.0208331289
 10
102.4948567665
 20
149.0113982314
 10
102.8841720876
 20
149.0010354654
 10
103.2682200483
 20
148.9897567759
 10
103.6465579558
 20
148.977575164
 10
104.0187496992
 20
148.9645046715
 10
104.3843662525
 20
148.9505603646
 10
104.7429861688
 20
148.9357583171
 10
105.0941960661
 20
148.9201155913
 10
105.4375911043
 20
148.9036502186
 10
105.7727754512
 20
148.8863811786
 10
106.0993627392
 20
148.8683283774
 10
106.4169765105
 20
148.8495126246
 10
106.7252506511
 20
148.829955609
 10
107.0238298128
 20
148.809679874
  0
LWPOLYLINE
  5
E3
330
1F
100
AcDbEntity
  8
0
  6
Continuous
 62
     7
370
    15
100
AcDbPolyline
 90
       71
 70
   128
 43
0.0
 10
86.0413146741
 20
148.3077996867
 10
86.0430832306
 20
148.3223333021
 10
86.0572286248
 20
148.3513837799
 10
86.0855031077
 20
148.3803840184
 10
86.1278740873
 20
148.4093005887
 10
86.1842927225
 20
148.4381001587
 10
86.2546939794
 20
148.4667495312
 10
86.3389967063
 20
148.4952156818
 10
86.4371037274
 20
148.5234657977
 10
86.5489019546
 20
148.5514673149
 10
86.6742625176
 20
148.5791879559
 10
86.8130409133
 20
148.6065957672
 10
86.9650771715
 20
148.6336591557
 10
87.1301960398
 20
148.6603469253
 10
87.3082071852
 20
148.6866283131
 10
87.4989054141
 20
148.7124730245
 10
87.7020709081
 20
148.7378512681
 10
87.9174694782
 20
148.7627337904
 10
88.1448528338
 20
148.7870919094
 10
88.3839588699
 20
148.8108975473
 10
88.6345119684
 20
148.8341232634
 10
88.8962233164
 20
148.8567422853
 10
89.1687912386
 20
148.8787285401
 10
89.4519015455
 20
148.900056684
 10
89.7452278953
 20
148.9207021323
 10
90.0484321702
 20
148.9406410867
 10
90.3611648661
 20
148.9598505637
 10
90.6830654954
 20
148.9783084205
 10
91.0137630026
 20
148.9959933805
 10
91.3528761921
 20
149.0128850584
 10
91.7000141675
 20
149.0289639831
 10
92.0547767823
 20
149.0442116203
 10
92.4167551008
 20
149.0586103942
 10
92.7855318699
 20
149.0721437071
 10
93.1606820002
 20
149.0847959592
 10
93.5417730551
 20
149.0965525663
 10
93.9283657505
 20
149.1073999765
 10
94.3200144602
 20
149.1173256859
 10
94.7162677299
 20
149.1263182532
 10
95.1166687978
 20
149.1343673126
 10
95.5207561209
 20
149.141463586
 10
95.9280639068
 20
149.1475988934
 10
96.3381226513
 20
149.1527661627
 10
96.7504596787
 20
149.1569594376
 10
97.1645996875
 20
149.1601738845
 10
97.5800652976
 20
149.162405798
 10
97.9963776011
 20
149.1636526055
 10
98.4130567141
 20
149.1639128697
 10
98.8296223296
 20
149.1631862906
 10
99.2455942718
 20
149.1614737058
 10
99.6604930491
 20
149.1587770894
 10
100.0738404068
 20
149.1550995497
 10
100.4851598786
 20
149.1504453259
 10
100.8939773358
 20
149.1448197829
 10
101.2998215339
 20
149.1382294052
 10
101.7022246554
 20
149.1306817897
 10
102.1007228494
 20
149.1221856364
 10
102.4948567665
 20
149.1127507389
 10
102.8841720876
 20
149.1023879729
 10
103.2682200483
 20
149.0911092834
 10
103.6465579558
 20
149.0789276715
 10
104.0187496992
 20
149.065857179
 10
104.3843662525
 20
149.0519128721
 10
104.7429861688
 20
149.0371108246
 10
105.0941960661
 20
149.0214680988
 10
105.4375911043
 20
149.0050027261
 10
105.7727754512
 20
148.9877336861
 10
106.0993627392
 20
148.9696808849
 10
106.4169765105
 20
148.9508651321
 10
106.7252506511
 20
148.9313081165
 10
107.0238298128
 20
148.9110323815
  0
LWPOLYLINE
  5
E4
330
1F
100
AcDbEntity
  8
0
  6
Continuous
 62
     7
370
    15
100
AcDbPolyline
 90
       32
 70
   128
 43
0.0
 10
80.6829014779
 20
62.7142720456
 10
80.7448972734
 20
62.7056564097
 10
80.8087912833
 20
62.6873773316
 10
80.8719676791
 20
62.660183159
 10
80.9318400119
 20
62.6251872246
 10
80.9859571013
 20
62.5838222659
 10
81.0321033873
 20
62.5377817693
 10
81.0683896355
 20
62.488950638
 10
81.0933302826
 20
62.4393280244
 10
81.1059042557
 20
62.3909454841
 10
81.1055967748
 20
62.3457838039
 10
81.0924204283
 20
62.3056919084
 10
81.0669146571
 20
62.2723111644
 10
81.0301236708
 20
62.2470081836
 10
80.9835536965
 20
62.2308188729
 10
80.9291113144
 20
62.2244060247
 10
80.8690254022
 20
62.2280321816
 10
80.805755884
 20
62.2415488885
 10
80.7418930215
 20
62.2644027697
 10
80.6800513677
 20
62.2956581846
 10
80.6227627271
 20
62.3340355329
 10
80.5723725035
 20
62.3779636415
 10
80.5309436785
 20
62.4256440884
 10
80.5001723531
 20
62.4751248305
 10
80.4813183089
 20
62.5243801204
 10
80.4751534328
 20
62.5713934408
 10
80.4819301156
 20
62.6142400608
 10
80.5013709189
 20
62.6511658348
 10
80.5326799341
 20
62.6806590172
 10
80.5745753663
 20
62.7015121536
 10
80.6253420117
 20
62.7128715143
 10
80.6829014779
 20
62.7142720456
  0
SPLINE
  5
E5
330
1F
100
AcDbEntity
  8
0
  6
Continuous
 62
     7
370
    15
100
AcDbSpline
210
0.0
220
0.0
230
1.0
 70
     8
 71
     3
 72
    19
 73
    15
 74
     0
 42
0.000000001
 43
0.00000001
 40
0.0
 40
0.0
 40
0.0
 40
0.0
 40
0.0216666731795056
 40
0.110123522894234
 40
0.1992146654262635
 40
0.2912897356799441
 40
0.395770586371914
 40
0.5009229195558162
 40
0.5937410134694234
 40
0.6844505694374484
 40
0.7775196126801336
 40
0.8716349154628159
 40
0.965165911610295
 40
0.9999999999999999
 40
0.9999999999999999
 40
0.9999999999999999
 40
0.9999999999999999
 10
98.2235483142232
 20
93.20094563936215
 30
0.0
 10
98.22810062047118
 20
93.20820280135017
 30
0.0
 10
98.25123827511564
 20
93.24508821692436
 30
0.0
 10
98.27891910335984
 20
93.32033943669484
 30
0.0
 10
98.30503848636373
 20
93.4247011086603
 30
0.0
 10
98.31089768895443
 20
93.539359767393
 30
0.0
 10
98.28619216443384
 20
93.65918535982516
 30
0.0
 10
98.21940580559612
 20
93.76405086259187
 30
0.0
 10
98.12609790443669
 20
93.83560311640646
 30
0.0
 10
98.02539195068572
 20
93.87490138112398
 30
0.0
 10
97.92577708820059
 20
93.88471343688329
 30
0.0
 10
97.84006154839778
 20
93.86137526031138
 30
0.0
 10
97.7845953390918
 20
93.822033243885
 30
0.0
 10
97.7669235167715
 20
93.78270510148221
 30
0.0
 10
97.76212796178912
 20
93.7720327290563
 30
0.0
  0
LWPOLYLINE
  5
E6
330
1F
100
AcDbEntity
  8
0
  6
Continuous
 62
     7
370
    15
100
AcDbPolyline
 90
       32
 70
   128
 43
0.0
 10
113.417293996
 20
61.7020039647
 10
113.3596284901
 20
61.7035890751
 10
113.3085480666
 20
61.7154946161
 10
113.2661439642
 20
61.7372331735
 10
113.2341522116
 20
61.7679147683
 10
113.2138825551
 20
61.8062832923
 10
113.2061648368
 20
61.8507679337
 10
113.2113150209
 20
61.8995474859
 10
113.2291222583
 20
61.9506249085
 10
113.2588575186
 20
62.0019090858
 10
113.2993034368
 20
62.0513004374
 10
113.3488041523
 20
62.0967768756
 10
113.4053330998
 20
62.1364765898
 10
113.4665759777
 20
62.168774269
 10
113.5300254954
 20
62.1923476423
 10
113.5930840221
 20
62.2062316132
 10
113.6531699343
 20
62.2098577701
 10
113.7078233078
 20
62.2030776579
 10
113.754806627
 20
62.186168855
 10
113.7921963893
 20
62.15982361
 10
113.8184618534
 20
62.1251205002
 10
113.8325277082
 20
62.083480275
 10
113.8338180959
 20
62.0366076901
 10
113.8222801879
 20
61.9864217146
 10
113.7983863474
 20
61.9349769683
 10
113.7631147912
 20
61.8843796052
 10
113.7179095409
 20
61.8367010872
 10
113.6646213047
 20
61.7938933785
 10
113.6054317093
 20
61.7577090316
 10
113.5427639836
 20
61.7296294381
 10
113.4791837518
 20
61.7108041797
 10
113.417293996
 20
61.7020039647
  0
SPLINE
  5
E7
330
1F
100
AcDbEntity
  8
0
  6
Continuous
 62
     7
370
    15
100
AcDbSpline
210
0.0
220
0.0
230
1.0
 70
     8
 71
     3
 72
    16
 73
    12
 74
     0
 42
0.000000001
 43
0.00000001
 40
0.0
 40
0.0
 40
0.0
 40
0.0
 40
0.1280792216514808
 40
0.2562159182180525
 40
0.3825145180184278
 40
0.5050328821778913
 40
0.6322335724721219
 40
0.7319969317376849
 40
0.8345741054521046
 40
0.9378826413650887
 40
1.0
 40
1.0
 40
1.0
 40
1.0
 10
98.66384467411103
 20
87.34034303850237
 30
0.0
 10
98.63005911488803
 20
87.33533186883678
 30
0.0
 10
98.56247283533996
 20
87.32530728076807
 30
0.0
 10
98.46214878875242
 20
87.27117362254413
 30
0.0
 10
98.38210987078094
 20
87.1913371548708
 30
0.0
 10
98.33298592006527
 20
87.08985615735183
 30
0.0
 10
98.31852476913748
 20
86.98701312106593
 30
0.0
 10
98.32608259109372
 20
86.89016497183408
 30
0.0
 10
98.34773449756982
 20
86.80300470090106
 30
0.0
 10
98.37565620297497
 20
86.72907995344283
 30
0.0
 10
98.40073537194827
 20
86.68789786401973
 30
0.0
 10
98.41015259007871
 20
86.67243400556504
 30
0.0
  0
SPLINE
  5
E8
330
1F
100
AcDbEntity
  8
0
  6
Continuous
 62
     7
370
    15
100
AcDbSpline
210
0.0
220
0.0
230
1.0
 70
     8
 71
     3
 72
    11
 73
     7
 74
     0
 42
0.000000001
 43
0.00000001
 40
0.0
 40
0.0
 40
0.0
 40
0.0
 40
0.1474937702017091
 40
0.5053560089329642
 40
0.8695378993718679
 40
1.0
 40
1.0
 40
1.0
 40
1.0
 10
98.86394373758117
 20
87.23887834442579
 30
0.0
 10
98.85864655877022
 20
87.25008794377497
 30
0.0
 10
98.84049690310107
 20
87.28849524993501
 30
0.0
 10
98.78413259649363
 20
87.32434782354927
 30
0.0
 10
98.71810739258443
 20
87.3418620658348
 30
0.0
 10
98.67516951693672
 20
87.34066006548281
 30
0.0
 10
98.66384467411103
 20
87.34034303850238
 30
0.0
  0
LWPOLYLINE
  5
E9
330
1F
100
AcDbEntity
  8
0
  6
Continuous
 62
     7
370
    15
100
AcDbPolyline
 90
       12
 70
   128
 43
0.0
 10
98.3145946741
 20
61.4083481167
 10
98.4140015886
 20
61.4090912851
 10
98.5113848651
 20
61.4113056615
 10
98.6047620607
 20
61.4149461677
 10
98.6922322851
 20
61.4199386934
 10
98.7720148968
 20
61.4261816052
 10
98.8424857518
 20
61.4335478153
 10
98.9022102668
 20
61.4418873691
 10
98.9499726229
 20
61.4510304973
 10
98.9848005162
 20
61.460791072
 10
99.0059849513
 20
61.4709703963
 10
99.0130946741
 20
61.4813612483
  0
LWPOLYLINE
  5
EA
330
1F
100
AcDbEntity
  8
0
  6
Continuous
 62
     7
370
    15
100
AcDbPolyline
 90
       12
 70
   128
 43
0.0
 10
97.6160946741
 20
61.4813612483
 10
97.623204397
 20
61.4709703963
 10
97.644388832
 20
61.460791072
 10
97.6792167254
 20
61.4510304973
 10
97.7269790814
 20
61.4418873691
 10
97.7867035964
 20
61.4335478153
 10
97.8571744515
 20
61.4261816052
 10
97.9369570631
 20
61.4199386934
 10
98.0244272875
 20
61.4149461677
 10
98.1178044832
 20
61.4113056615
 10
98.2151877596
 20
61.4090912851
 10
98.3145946741
 20
61.4083481167
  0
LWPOLYLINE
  5
EB
330
1F
100
AcDbEntity
  8
0
  6
Continuous
 62
     7
370
    15
100
AcDbPolyline
 90
       13
 70
   128
 43
0.0
 10
99.5791478904
 20
96.7893656594
 10
99.641143686
 20
96.7807500234
 10
99.7050376958
 20
96.7624709454
 10
99.7682140917
 20
96.7352767728
 10
99.8280864245
 20
96.7002808384
 10
99.8822035139
 20
96.6589158797
 10
99.9283497998
 20
96.612875383
 10
99.964636048
 20
96.5640442518
 10
99.9895766952
 20
96.5144216382
 10
100.0021506683
 20
96.4660390979
 10
100.0018431874
 20
96.4208774177
 10
99.9886668408
 20
96.3807855221
 10
99.9873861302
 20
96.3784157309
  0
ARC
  5
EC
330
1F
100
AcDbEntity
  8
0
  6
Continuous
 62
     7
370
    15
100
AcDbCircle
 10
99.5456846358
 20
96.5979327031
 30
0.0
 40
0.1943357047592568
100
AcDbArc
 50
80.0846487524
 51
144.4190618422
  0
LINE
  5
ED
330
1F
100
AcDbEntity
  8
0
  6
Continuous
 62
     7
370
    15
100
AcDbLine
 10
110.6215154863
 20
203.3987165788
 30
0.0
 11
110.6215154863
 21
203.8948246201
 31
0.0
  0
LINE
  5
EE
330
1F
100
AcDbEntity
  8
0
  6
Continuous
 62
     7
370
    15
100
AcDbLine
 10
86.2375154863
 20
203.8948246201
 30
0.0
 11
86.2375154863
 21
203.8771064758
 31
0.0
  0
LINE
  5
EF
330
1F
100
AcDbEntity
  8
0
  6
Continuous
 62
     7
370
    15
100
AcDbLine
 10
86.0413146741
 20
203.8771064758
 30
0.0
 11
86.0413146741
 21
203.870019218
 31
0.0
  0
LINE
  5
F0
330
1F
100
AcDbEntity
  8
0
  6
Continuous
 62
     7
370
    15
100
AcDbLine
 10
98.6320946741
 20
203.8771064758
 30
0.0
 11
98.6320946741
 21
203.8912809912
 31
0.0
  0
LINE
  5
F1
330
1F
100
AcDbEntity
  8
0
  6
Continuous
 62
     7
370
    15
100
AcDbLine
 10
97.9970946741
 20
203.8912809912
 30
0.0
 11
97.9970946741
 21
203.8771064758
 31
0.0
  0
LINE
  5
F2
330
1F
100
AcDbEntity
  8
0
  6
Continuous
 62
     7
370
    15
100
AcDbLine
 10
97.6160946741
 20
241.657071766
 30
0.0
 11
97.6160946741
 21
240.6524139736
 31
0.0
  0
LINE
  5
F3
330
1F
100
AcDbEntity
  8
0
  6
Continuous
 62
     7
370
    15
100
AcDbLine
 10
97.6160946741
 20
239.3787246276
 30
0.0
 11
97.6160946741
 21
232.5237927595
 31
0.0
  0
LINE
  5
F4
330
1F
100
AcDbEntity
  8
0
  6
Continuous
 62
     7
370
    15
100
AcDbLine
 10
99.0130946741
 20
232.5237927595
 30
0.0
 11
99.0130946741
 21
238.682987285
 31
0.0
  0
LINE
  5
F5
330
1F
100
AcDbEntity
  8
0
  6
Continuous
 62
     7
370
    15
100
AcDbLine
 10
99.0130946741
 20
239.9491920605
 30
0.0
 11
99.0130946741
 21
241.657071766
 31
0.0
  0
LINE
  5
F6
330
1F
100
AcDbEntity
  8
0
  6
Continuous
 62
     7
370
    15
100
AcDbLine
 10
97.8827946741
 20
219.762741113
 30
0.0
 11
97.8827946741
 21
216.1129097198
 31
0.0
  0
LINE
  5
F7
330
1F
100
AcDbEntity
  8
0
  6
Continuous
 62
     7
370
    15
100
AcDbLine
 10
98.7463946741
 20
216.1129097198
 30
0.0
 11
98.7463946741
 21
219.762741113
 31
0.0
  0
LINE
  5
F8
330
1F
100
AcDbEntity
  8
0
  6
Continuous
 62
     7
370
    15
100
AcDbLine
 10
98.7413146741
 20
219.7673478305
 30
0.0
 11
98.7413146741
 21
231.9738191915
 31
0.0
  0
LINE
  5
F9
330
1F
100
AcDbEntity
  8
0
  6
Continuous
 62
     7
370
    15
100
AcDbLine
 10
97.8878746741
 20
231.9738191915
 30
0.0
 11
97.8878746741
 21
219.7673478305
 31
0.0
  0
LINE
  5
FA
330
1F
100
AcDbEntity
  8
0
  6
Continuous
 62
     7
370
    15
100
AcDbLine
 10
98.4449270918
 20
226.8554948053
 30
0.0
 11
98.4480368305
 21
226.8681020426
 31
0.0
  0
LINE
  5
FB
330
1F
100
AcDbEntity
  8
0
  6
Continuous
 62
     7
370
    15
100
AcDbLine
 10
98.2014282201
 20
226.9289312569
 30
0.0
 11
98.1983269408
 21
226.916358315
 31
0.0
  0
LINE
  5
FC
330
1F
100
AcDbEntity
  8
0
  6
Continuous
 62
     7
370
    15
100
AcDbLine
 10
98.7413146741
 20
233.6701842234
 30
0.0
 11
98.7413146741
 21
243.0738178395
 31
0.0
  0
LINE
  5
FD
330
1F
100
AcDbEntity
  8
0
  6
Continuous
 62
     7
370
    15
100
AcDbLine
 10
97.8878746741
 20
243.0738178395
 30
0.0
 11
97.8878746741
 21
233.6704388467
 31
0.0
  0
LINE
  5
FE
330
1F
100
AcDbEntity
  8
0
  6
Continuous
 62
     7
370
    15
100
AcDbLine
 10
98.915808498
 20
238.5319933237
 30
0.0
 11
99.9757594129
 21
240.1771005108
 31
0.0
  0
LINE
  5
FF
330
1F
100
AcDbEntity
  8
0
  6
Continuous
 62
     7
370
    15
100
AcDbLine
 10
99.3992592158
 20
240.5485425154
 30
0.0
 11
98.7413146741
 21
239.5273732526
 31
0.0
  0
LINE
  5
100
330
1F
100
AcDbEntity
  8
0
  6
Continuous
 62
     7
370
    15
100
AcDbLine
 10
97.8273759876
 20
238.7313010304
 30
0.0
 11
97.8156644064
 21
238.7312639553
 31
0.0
  0
LINE
  5
101
330
1F
100
AcDbEntity
  8
0
  6
Continuous
 62
     7
370
    15
100
AcDbLine
 10
97.6318743866
 20
238.4111768323
 30
0.0
 11
97.6379192524
 21
238.4007450374
 31
0.0
  0
LINE
  5
102
330
1F
100
AcDbEntity
  8
0
  6
Continuous
 62
     7
370
    15
100
AcDbLine
 10
81.0795130003
 20
210.8489964001
 30
0.0
 11
97.6160946741
 21
236.5147597679
 31
0.0
  0
LINE
  5
103
330
1F
100
AcDbEntity
  8
0
  6
Continuous
 62
     7
370
    15
100
AcDbLine
 10
97.6160946741
 20
237.7809645434
 30
0.0
 11
80.5030128033
 21
211.2204384047
 31
0.0
  0
LINE
  5
104
330
1F
100
AcDbEntity
  8
0
  6
Continuous
 62
     7
370
    15
100
AcDbLine
 10
97.8878746741
 20
240.2270710013
 30
0.0
 11
96.7697382843
 21
241.9769843708
 31
0.0
  0
LINE
  5
105
330
1F
100
AcDbEntity
  8
0
  6
Continuous
 62
     7
370
    15
100
AcDbLine
 10
96.1918375945
 20
241.6077250679
 30
0.0
 11
97.7135436413
 21
239.2262143864
 31
0.0
  0
LINE
  5
106
330
1F
100
AcDbEntity
  8
0
  6
Continuous
 62
     7
370
    15
100
AcDbLine
 10
113.8094255267
 20
215.309417883
 30
0.0
 11
99.0130946741
 21
238.4660715923
 31
0.0
  0
LINE
  5
107
330
1F
100
AcDbEntity
  8
0
  6
Continuous
 62
     7
370
    15
100
AcDbLine
 10
99.0130946741
 20
237.1923822462
 30
0.0
 11
113.2315248369
 21
214.9401585801
 31
0.0
  0
LWPOLYLINE
  5
108
330
1F
100
AcDbEntity
  8
0
  6
Continuous
 62
     7
370
    15
100
AcDbPolyline
 90
      186
 70
   128
 43
0.0
 10
99.7274675908
 20
191.8016413697
 10
100.1383656287
 20
191.8525821448
 10
100.5472927034
 20
191.9174122693
 10
100.9537771643
 20
191.996056969
 10
101.3573501781
 20
192.0884255363
 10
101.7575462695
 20
192.1944114344
 10
102.153903858
 20
192.3138924209
 10
102.5459657905
 20
192.4467306881
 10
102.9332798684
 20
192.5927730222
 10
103.3153993692
 20
192.7518509802
 10
103.6918835618
 20
192.9237810837
 10
104.0622982148
 20
193.108365031
 10
104.4262160971
 20
193.3053899258
 10
104.7832174712
 20
193.5146285223
 10
105.1328905767
 20
193.7358394877
 10
105.4748321058
 20
193.9687676805
 10
105.808647668
 20
194.2131444447
 10
106.1339522453
 20
194.4686879195
 10
106.450370636
 20
194.7351033649
 10
106.7575378877
 20
195.0120835011
 10
107.0550997181
 20
195.2993088632
 10
107.3427129236
 20
195.5964481696
 10
107.6200457754
 20
195.903158704
 10
107.8867784017
 20
196.219086711
 10
108.1426031569
 20
196.5438678037
 10
108.3872249765
 20
196.8771273844
 10
108.6203617171
 20
197.2184810761
 10
108.8417444822
 20
197.5675351665
 10
109.0511179321
 20
197.9238870615
 10
109.2482405785
 20
198.2871257501
 10
109.4328850629
 20
198.6568322779
 10
109.604838419
 20
199.0325802308
 10
109.7639023183
 20
199.4139362265
 10
109.9098932989
 20
199.8004604144
 10
110.0426429767
 20
200.1917069831
 10
110.1619982403
 20
200.5872246744
 10
110.2678214269
 20
200.986557304
 10
110.3599904818
 20
201.3892442872
 10
110.4383990982
 20
201.7948211708
 10
110.502956841
 20
202.2028201682
 10
110.5535892502
 20
202.6127706992
 10
110.5902379269
 20
203.0241999327
 10
110.6128606013
 20
203.4366333323
 10
110.6214311806
 20
203.849595203
 10
110.6159397796
 20
204.2626092408
 10
110.5963927321
 20
204.675199081
 10
110.5628125833
 20
205.0868888486
 10
110.5152380641
 20
205.4972037064
 10
110.4537240462
 20
205.9056704032
 10
110.3783414791
 20
206.3118178194
 10
110.2891773079
 20
206.7151775104
 10
110.1863343732
 20
207.115284247
 10
110.0699312927
 20
207.5116765517
 10
109.940102324
 20
207.9038972314
 10
109.7969972099
 20
208.2914939044
 10
109.6407810058
 20
208.6740195222
 10
109.4716338893
 20
209.0510328854
 10
109.2897509522
 20
209.4220991521
 10
109.0953419757
 20
209.7867903398
 10
108.8886311882
 20
210.144685819
 10
108.6698570071
 20
210.4953727981
 10
108.4392717633
 20
210.8384467999
 10
108.1971414106
 20
211.1735121277
 10
107.9437452185
 20
211.5001823219
 10
107.6793754507
 20
211.818080606
 10
107.4043370274
 20
212.1268403205
 10
107.118947174
 20
212.4261053465
 10
106.823535055
 20
212.7155305159
 10
106.5184413945
 20
212.99478201
 10
106.2040180832
 20
213.2635377441
 10
105.8806277723
 20
213.5214877392
 10
105.5486434557
 20
213.7683344795
 10
105.2084480393
 20
214.0037932554
 10
104.8604338995
 20
214.2275924923
 10
104.5050024309
 20
214.4394740633
 10
104.142563583
 20
214.6391935872
 10
103.7735353876
 20
214.8265207104
 10
103.3983434765
 20
215.0012393726
 10
103.0174205906
 20
215.1631480557
 10
102.6312060809
 20
215.3120600165
 10
102.2401454017
 20
215.4478035022
 10
101.8446895967
 20
215.5702219482
 10
101.4452947791
 20
215.6791741588
 10
101.0424216049
 20
215.77453447
 10
100.6365347424
 20
215.8561928947
 10
100.2281023357
 20
215.9240552493
 10
99.8175954647
 20
215.9780432621
 10
99.4054876022
 20
216.0180946644
 10
98.9922540676
 20
216.0441632613
 10
98.5783714783
 20
216.0562189857
 10
98.1643172007
 20
216.0542479327
 10
97.750568799
 20
216.0382523756
 10
97.3376034846
 20
216.0082507636
 10
96.9258975658
 20
215.9642777001
 10
96.5159258983
 20
215.9063839029
 10
96.1081613376
 20
215.834636146
 10
95.7030741933
 20
215.7491171821
 10
95.3011316872
 20
215.6499256476
 10
94.902797414
 20
215.5371759486
 10
94.5085308067
 20
215.410998129
 10
94.1187866068
 20
215.2715377204
 10
93.7340143396
 20
215.1189555746
 10
93.3546577958
 20
214.9534276774
 10
92.98115452
 20
214.7751449466
 10
92.6139353054
 20
214.5843130106
 10
92.2534236974
 20
214.3811519725
 10
91.9000355048
 20
214.1658961552
 10
91.5541783205
 20
213.9387938317
 10
91.2162510513
 20
213.7001069385
 10
90.8866434575
 20
213.4501107736
 10
90.5657357039
 20
213.1890936791
 10
90.2538979208
 20
212.9173567083
 10
89.9514897775
 20
212.6352132787
 10
89.6588600671
 20
212.3429888105
 10
89.3763463046
 20
212.0410203512
 10
89.1042743373
 20
211.7296561869
 10
88.842957969
 20
211.4092554405
 10
88.5926985983
 20
211.0801876576
 10
88.3537848707
 20
210.7428323803
 10
88.126492346
 20
210.3975787094
 10
87.91108318
 20
210.0448248553
 10
87.7078058227
 20
209.6849776795
 10
87.516894731
 20
209.3184522243
 10
87.3385700993
 20
208.945671235
 10
87.1730376045
 20
208.5670646719
 10
87.0204881694
 20
208.1830692143
 10
86.8810977424
 20
207.794127757
 10
86.7550270944
 20
207.4006888996
 10
86.6424216334
 20
207.0032064287
 10
86.543411237
 20
206.6021387949
 10
86.4581101023
 20
206.1979485839
 10
86.3866166145
 20
205.7911019828
 10
86.3290132331
 20
205.3820682426
 10
86.285366397
 20
204.9713191371
 10
86.2557264478
 20
204.5593284182
 10
86.2401275719
 20
204.1465712703
 10
86.2385877607
 20
203.7335237613
 10
86.2511087903
 20
203.3206622945
 10
86.277676219
 20
202.9084630582
 10
86.3182594045
 20
202.4974014772
 10
86.3728115385
 20
202.0879516639
 10
86.4412697016
 20
201.6805858719
 10
86.5235549349
 20
201.2757739511
 10
86.619572332
 20
200.8739828056
 10
86.7292111477
 20
200.4756758557
 10
86.8523449262
 20
200.0813125028
 10
86.9888316467
 20
199.6913475999
 10
87.1385138875
 20
199.3062309269
 10
87.3012190072
 20
198.926406672
 10
87.4767593441
 20
198.5523129189
 10
87.6649324324
 20
198.184381142
 10
87.865521236
 20
197.8230357084
 10
88.0782943986
 20
197.4686933889
 10
88.3030065109
 20
197.1217628768
 10
88.539398393
 20
196.7826443167
 10
88.787197394
 20
196.451728843
 10
89.046117706
 20
196.1293981291
 10
89.315860694
 20
195.8160239464
 10
89.5961152405
 20
195.5119677362
 10
89.8865581038
 20
195.2175801926
 10
90.1868542914
 20
194.933200858
 10
90.4966574458
 20
194.6591577314
 10
90.8156102446
 20
194.3957668902
 10
91.1433448123
 20
194.1433321256
 10
91.4794831444
 20
193.9021445922
 10
91.823637544
 20
193.6724824723
 10
92.1754110681
 20
193.4546106548
 10
92.5343979864
 20
193.24878043
 10
92.9001842484
 20
193.0552291995
 10
93.2723479616
 20
192.8741802025
 10
93.6504598777
 20
192.7058422583
 10
94.0340838878
 20
192.5504095255
 10
94.4227775254
 20
192.408061278
 10
94.8160924771
 20
192.2789616981
 10
95.2135750989
 20
192.1632596875
 10
95.61476694
 20
192.0610886952
 10
96.0192052717
 20
191.9725665638
 10
96.4264236206
 20
191.8977953934
 10
96.8359523067
 20
191.836861424
 10
97.2473189858
 20
191.789834936
 10
97.6600491933
 20
191.756770169
 10
98.0736668921
 20
191.7377052595
 10
98.4876950216
 20
191.7326621967
 10
98.9016560477
 20
191.7416467971
 10
99.3150725136
 20
191.7646486982
 10
99.7274675908
 20
191.8016413697
  0
ARC
  5
109
330
1F
100
AcDbEntity
  8
0
  6
Continuous
 62
     7
370
    15
100
AcDbCircle
 10
98.4484829306
 20
203.4111962835
 30
0.0
 40
12.17303895273008
100
AcDbArc
 50
276.0310266181
 51
359.9412608028
  0
ARC
  5
10A
330
1F
100
AcDbEntity
  8
0
  6
Continuous
 62
     7
370
    15
100
AcDbCircle
 10
98.4242932953
 20
203.4307426034
 30
0.0
 40
12.19503846686275
100
AcDbArc
 50
202.2694413229
 51
276.1343987218
  0
LINE
  5
10B
330
1F
100
AcDbEntity
  8
0
  6
Continuous
 62
     7
370
    15
100
AcDbLine
 10
107.0238298128
 20
195.2433897735
 30
0.0
 11
107.0238298128
 21
195.2504770313
 31
0.0
  0
LWPOLYLINE
  5
10C
330
1F
100
AcDbEntity
  8
0
  6
Continuous
 62
     7
370
    15
100
AcDbPolyline
 90
       70
 70
   128
 43
0.0
 10
86.2375154863
 20
203.8771064758
 10
86.2446044853
 20
203.4624174102
 10
86.2658632387
 20
203.0482105838
 10
86.3012670246
 20
202.6349676752
 10
86.3507746724
 20
202.2231692417
 10
86.4143286099
 20
201.8132941612
 10
86.4918549306
 20
201.4058190746
 10
86.5832634796
 20
201.0012178323
 10
86.6884479586
 20
200.5999609422
 10
86.8072860492
 20
200.2025150235
 10
86.9396395553
 20
199.8093422635
 10
87.0853545639
 20
199.4208998803
 10
87.244261624
 20
199.0376395909
 10
87.4161759436
 20
198.6600070862
 10
87.6008976046
 20
198.2884415128
 10
87.7982117954
 20
197.9233749618
 10
88.0078890607
 20
197.5652319666
 10
88.2296855679
 20
197.2144290096
 10
88.4633433915
 20
196.8713740372
 10
88.7085908123
 20
196.5364659858
 10
88.9651426336
 20
196.2100943178
 10
89.2327005129
 20
195.8926385687
 10
89.510953309
 20
195.5844679058
 10
89.7995774434
 20
195.2859406987
 10
90.0982372771
 20
194.9974041028
 10
90.4065855004
 20
194.7191936554
 10
90.7242635371
 20
194.4516328858
 10
91.0509019616
 20
194.1950329384
 10
91.386120928
 20
193.9496922119
 10
91.7295306126
 20
193.7158960113
 10
92.0807316662
 20
193.4939162167
 10
92.4393156796
 20
193.284010967
 10
92.8048656576
 20
193.0864243597
 10
93.1769565046
 20
192.9013861669
 10
93.5551555185
 20
192.7291115683
 10
93.9390228941
 20
192.5698009011
 10
94.3281122345
 20
192.4236394264
 10
94.7219710703
 20
192.2907971147
 10
95.1201413856
 20
192.1714284472
 10
95.5221601506
 20
192.0656722371
 10
95.9275598604
 20
191.9736514676
 10
96.3358690782
 20
191.8954731491
 10
96.7466129839
 20
191.8312281946
 10
97.1593139261
 20
191.7809913141
 10
97.5734919774
 20
191.7448209278
 10
97.9886654929
 20
191.722759098
 10
98.4043516701
 20
191.7148314803
 10
98.8200671101
 20
191.7210472937
 10
99.2353283801
 20
191.7413993097
 10
99.6496525756
 20
191.7758638613
 10
100.0625578815
 20
191.8244008697
 10
100.4735641329
 20
191.8869538916
 10
100.8821933733
 20
191.9634501845
 10
101.2879704105
 20
192.0538007914
 10
101.6904233689
 20
192.1579006441
 10
102.0890842387
 20
192.2756286855
 10
102.4834894195
 20
192.4068480106
 10
102.8731802602
 20
192.5514060251
 10
103.2577035919
 20
192.7091346236
 10
103.6366122548
 20
192.8798503844
 10
104.0094656185
 20
193.0633547832
 10
104.3758300942
 20
193.2594344241
 10
104.7352796391
 20
193.4678612872
 10
105.0873962516
 20
193.6883929944
 10
105.4317704575
 20
193.9207730906
 10
105.7680017863
 20
194.1647313426
 10
106.0956992369
 20
194.419984053
 10
106.4144817318
 20
194.6862343899
 10
106.7239785611
 20
194.9631727326
 10
107.0238298128
 20
195.2504770313
  0
LWPOLYLINE
  5
10D
330
1F
100
AcDbEntity
  8
0
  6
Continuous
 62
     7
370
    15
100
AcDbPolyline
 90
      186
 70
   128
 43
0.0
 10
110.5017177512
 20
205.1842200187
 10
110.4508653553
 20
205.592409225
 10
110.3861477074
 20
205.9986404616
 10
110.3076394518
 20
206.4024451873
 10
110.2154311388
 20
206.8033576594
 10
110.1096291201
 20
207.2009154714
 10
109.9903554264
 20
207.5946600858
 10
109.857747626
 20
207.9841373631
 10
109.711958667
 20
208.3688980858
 10
109.5531567003
 20
208.7484984766
 10
109.3815248858
 20
209.1225007098
 10
109.1972611811
 20
209.4904734165
 10
109.0005781133
 20
209.8519921823
 10
108.7917025339
 20
210.2066400367
 10
108.5708753569
 20
210.554007934
 10
108.3383512813
 20
210.893695225
 10
108.0943984969
 20
211.2253101193
 10
107.8392983755
 20
211.548470137
 10
107.5733451457
 20
211.86280255
 10
107.2968455543
 20
212.1679448118
 10
107.0101185119
 20
212.4635449757
 10
106.7134947254
 20
212.7492621008
 10
106.4073163163
 20
213.0247666451
 10
106.0919364264
 20
213.2897408454
 10
105.7677188104
 20
213.5438790845
 10
105.4350374162
 20
213.7868882429
 10
105.0942759537
 20
214.0184880373
 10
104.7458274524
 20
214.2384113439
 10
104.3900938076
 20
214.4464045064
 10
104.0274853175
 20
214.6422276283
 10
103.6584202095
 20
214.82565485
 10
103.2833241579
 20
214.9964746094
 10
102.9026297932
 20
215.1544898853
 10
102.5167762029
 20
215.2995184252
 10
102.1262084247
 20
215.4313929552
 10
101.7313769341
 20
215.5499613732
 10
101.3327371239
 20
215.655086924
 10
100.9307487797
 20
215.7466483574
 10
100.525875549
 20
215.8245400677
 10
100.1185844067
 20
215.8886722157
 10
99.7093451165
 20
215.9389708324
 10
99.2986296893
 20
215.975377904
 10
98.8869118383
 20
215.9978514392
 10
98.4746664329
 20
216.0063655172
 10
98.062368951
 20
216.0009103181
 10
97.6504949307
 20
215.9814921338
 10
97.2395194215
 20
215.948133361
 10
96.8299164366
 20
215.9008724752
 10
96.4221584063
 20
215.8397639865
 10
96.0167156328
 20
215.7648783764
 10
95.6140557479
 20
215.676302017
 10
95.2146431738
 20
215.574137071
 10
94.8189385872
 20
215.4585013739
 10
94.4273983881
 20
215.3295282983
 10
94.0404741733
 20
215.1873665999
 10
93.6586122157
 20
215.032180246
 10
93.2822529493
 20
214.8641482262
 10
92.9118304615
 20
214.6834643463
 10
92.5477719922
 20
214.4903370044
 10
92.1904974414
 20
214.2849889509
 10
91.8404188842
 20
214.0676570313
 10
91.4979400963
 20
213.838591913
 10
91.1634560878
 20
213.5980577965
 10
90.8373526478
 20
213.3463321104
 10
90.5200058992
 20
213.0837051915
 10
90.2117818652
 20
212.8104799498
 10
89.9130360471
 20
212.5269715194
 10
89.6241130138
 20
212.233506895
 10
89.3453460052
 20
211.9304245542
 10
89.077056547
 20
211.6180740681
 10
88.8195540805
 20
211.2968156971
 10
88.5731356053
 20
210.967019976
 10
88.338085337
 20
210.6290672865
 10
88.1146743791
 20
210.2833474184
 10
87.9031604106
 20
209.9302591198
 10
87.7037873887
 20
209.570209638
 10
87.5167852673
 20
209.2036142486
 10
87.3423697321
 20
208.8308957776
 10
87.1807419514
 20
208.4524841131
 10
87.0320883443
 20
208.0688157097
 10
86.8965803659
 20
207.680333085
 10
86.774374309
 20
207.2874843092
 10
86.6656111243
 20
206.8907224885
 10
86.5704162578
 20
206.4905052424
 10
86.4888995058
 20
206.0872941755
 10
86.4211548886
 20
205.6815543457
 10
86.3672605418
 20
205.2737537276
 10
86.3272786265
 20
204.8643626724
 10
86.3012552571
 20
204.4538533661
 10
86.2892204487
 20
204.0426992839
 10
86.2911880821
 20
203.6313746453
 10
86.3071558877
 20
203.2203538661
 10
86.3371054486
 20
202.8101110118
 10
86.3810022214
 20
202.4011192505
 10
86.4387955761
 20
201.9938503076
 10
86.5104188548
 20
201.5887739211
 10
86.5957894481
 20
201.1863573003
 10
86.6948088909
 20
200.7870645867
 10
86.8073629756
 20
200.3913563189
 10
86.9333218839
 20
199.9996889011
 10
87.0725403366
 20
199.6125140768
 10
87.2248577611
 20
199.2302784079
 10
87.3900984767
 20
198.8534227595
 10
87.5680718972
 20
198.4823817916
 10
87.7585727505
 20
198.1175834574
 10
87.9613813158
 20
197.7594485101
 10
88.1762636765
 20
197.4083900173
 10
88.4029719904
 20
197.064812885
 10
88.6412447754
 20
196.72911339
 10
88.8908072111
 20
196.4016787233
 10
89.1513714558
 20
196.0828865434
 10
89.4226369784
 20
195.7731045405
 10
89.7042909052
 20
195.4726900128
 10
89.9960083806
 20
195.181989454
 10
90.2974529418
 20
194.901338154
 10
90.608276907
 20
194.631059812
 10
90.9281217763
 20
194.3714661631
 10
91.2566186452
 20
194.122856619
 10
91.5933886303
 20
193.8855179222
 10
91.9380433058
 20
193.6597238159
 10
92.2901851519
 20
193.4457347277
 10
92.6494080134
 20
193.2437974695
 10
93.0152975677
 20
193.0541449528
 10
93.3874318032
 20
192.8769959203
 10
93.7653815054
 20
192.7125546929
 10
94.1487107527
 20
192.5610109349
 10
94.5369774187
 20
192.4225394346
 10
94.9297336821
 20
192.2972999032
 10
95.3265265435
 20
192.1854367899
 10
95.7268983477
 20
192.0870791162
 10
96.1303873117
 20
192.0023403265
 10
96.5365280571
 20
191.9313181571
 10
96.9448521469
 20
191.874094524
 10
97.3548886261
 20
191.8307354282
 10
97.7661645645
 20
191.8012908794
 10
98.1782056022
 20
191.7857948385
 10
98.5905364972
 20
191.7842651785
 10
99.0026816729
 20
191.7967036636
 10
99.4141657669
 20
191.8230959475
 10
99.8245141795
 20
191.8634115896
 10
100.2332536206
 20
191.9176040906
 10
100.6399126561
 20
191.9856109455
 10
101.0440222513
 20
192.0673537162
 10
101.4451163119
 20
192.1627381218
 10
101.8427322219
 20
192.2716541472
 10
102.2364113769
 20
192.3939761704
 10
102.6256997128
 20
192.5295631068
 10
103.0101482302
 20
192.6782585724
 10
103.3893135116
 20
192.839891064
 10
103.7627582334
 20
193.0142741571
 10
104.1300516696
 20
193.2012067206
 10
104.4907701893
 20
193.4004731492
 10
104.844497745
 20
193.6118436119
 10
105.1908263525
 20
193.835074317
 10
105.5293565612
 20
194.0699077936
 10
105.8596979152
 20
194.3160731879
 10
106.1814694037
 20
194.5732865764
 10
106.4942999
 20
194.8412512928
 10
106.79782859
 20
195.1196582705
 10
107.0917053879
 20
195.408186399
 10
107.3755913405
 20
195.7065028939
 10
107.6491590179
 20
196.0142636814
 10
107.912092891
 20
196.3311137945
 10
108.1640896956
 20
196.656687783
 10
108.4048587823
 20
196.9906101344
 10
108.6341224515
 20
197.3324957076
 10
108.8516162738
 20
197.6819501765
 10
109.0570893948
 20
198.0385704855
 10
109.250304825
 20
198.4019453138
 10
109.4310397122
 20
198.7716555501
 10
109.5990855997
 20
199.147274776
 10
109.7542486655
 20
199.5283697576
 10
109.8963499469
 20
199.9145009455
 10
110.0252255464
 20
200.3052229814
 10
110.1407268206
 20
200.7000852123
 10
110.242720552
 20
201.0986322096
 10
110.3310891026
 20
201.5004042951
 10
110.4057305492
 20
201.9049380706
 10
110.4665588016
 20
202.3117669526
 10
110.5135037014
 20
202.7204217105
 10
110.5465111028
 20
203.1304310079
 10
110.5655429358
 20
203.5413219459
 10
110.5705772492
 20
203.9526206088
 10
110.5616082365
 20
204.3638526106
 10
110.5386462425
 20
204.7745436423
 10
110.5017177512
 20
205.1842200187
  0
LWPOLYLINE
  5
10E
330
1F
100
AcDbEntity
  8
0
  6
Continuous
 62
     7
370
    15
100
AcDbPolyline
 90
       94
 70
   128
 43
0.0
 10
110.5707122381
 20
203.8859659091
 10
110.5667768404
 20
204.1855849333
 10
110.5492769001
 20
204.5965436336
 10
110.5177982012
 20
205.0066725455
 10
110.4723770509
 20
205.415498632
 10
110.4130658372
 20
205.8225503592
 10
110.3399329688
 20
206.2273582394
 10
110.2530627961
 20
206.6294553729
 10
110.152555514
 20
207.0283779869
 10
110.0385270461
 20
207.4236659696
 10
109.9111089112
 20
207.8148634015
 10
109.7704480715
 20
208.2015190813
 10
109.6167067632
 20
208.5831870457
 10
109.4500623094
 20
208.9594270844
 10
109.2707069153
 20
209.3298052477
 10
109.0788474469
 20
209.6938943466
 10
108.8747051921
 20
210.0512744459
 10
108.6585156057
 20
210.4015333488
 10
108.4305280376
 20
210.7442670714
 10
108.1910054455
 20
211.0790803098
 10
107.9402240912
 20
211.4055868951
 10
107.6784732224
 20
211.7234102394
 10
107.4060547387
 20
212.0321837697
 10
107.1232828436
 20
212.3315513511
 10
106.8304836823
 20
212.6211676974
 10
106.5279949651
 20
212.9006987691
 10
106.2161655781
 20
213.1698221593
 10
105.8953551809
 20
213.4282274648
 10
105.5659337914
 20
213.6756166447
 10
105.2282813598
 20
213.9117043638
 10
104.8827873293
 20
214.1362183221
 10
104.5298501878
 20
214.3488995682
 10
104.1698770081
 20
214.5495027987
 10
103.8032829779
 20
214.7377966408
 10
103.4304909215
 20
214.913563919
 10
103.051930812
 20
215.0766019059
 10
102.668039275
 20
215.2267225558
 10
102.2792590857
 20
215.3637527216
 10
101.8860386575
 20
215.4875343549
 10
101.4888315252
 20
215.5979246876
 10
101.0880958217
 20
215.6947963971
 10
100.6842937499
 20
215.7780377529
 10
100.2778910493
 20
215.8475527457
 10
99.8693564589
 20
215.9032611979
 10
99.4591611765
 20
215.9450988562
 10
99.0477783157
 20
215.9730174656
 10
98.6356823594
 20
215.9869848252
 10
98.2233486132
 20
215.9869848252
 10
97.8112526569
 20
215.9730174656
 10
97.3998697961
 20
215.9450988562
 10
96.9896745138
 20
215.9032611979
 10
96.5811399233
 20
215.8475527457
 10
96.1747372227
 20
215.7780377529
 10
95.7709351509
 20
215.6947963971
 10
95.3701994474
 20
215.5979246876
 10
94.9729923151
 20
215.4875343549
 10
94.5797718869
 20
215.3637527216
 10
94.1909916976
 20
215.2267225558
 10
93.8071001607
 20
215.0766019059
 10
93.4285400511
 20
214.913563919
 10
93.0557479948
 20
214.7377966408
 10
92.6891539645
 20
214.5495027987
 10
92.3291807848
 20
214.3488995682
 10
91.9762436433
 20
214.1362183221
 10
91.6307496129
 20
213.9117043638
 10
91.2930971812
 20
213.6756166447
 10
90.9636757918
 20
213.4282274648
 10
90.6428653945
 20
213.1698221593
 10
90.3310360075
 20
212.9006987691
 10
90.0285472903
 20
212.6211676974
 10
89.735748129
 20
212.3315513511
 10
89.452976234
 20
212.0321837697
 10
89.1805577502
 20
211.7234102394
 10
88.9188068814
 20
211.4055868951
 10
88.6680255271
 20
211.0790803098
 10
88.428502935
 20
210.7442670714
 10
88.2005153669
 20
210.4015333488
 10
87.9843257805
 20
210.0512744459
 10
87.7801835257
 20
209.6938943466
 10
87.5883240573
 20
209.3298052477
 10
87.4089686632
 20
208.9594270844
 10
87.2423242094
 20
208.5831870457
 10
87.0885829011
 20
208.2015190813
 10
86.9479220614
 20
207.8148634015
 10
86.8205039265
 20
207.4236659696
 10
86.7064754586
 20
207.0283779869
 10
86.6059681765
 20
206.6294553729
 10
86.5190980038
 20
206.2273582394
 10
86.4459651354
 20
205.8225503592
 10
86.3866539217
 20
205.415498632
 10
86.3412327714
 20
205.0066725455
 10
86.3097540725
 20
204.5965436336
 10
86.2922541322
 20
204.1855849333
 10
86.2883187355
 20
203.8859672974
  0
LWPOLYLINE
  5
10F
330
1F
100
AcDbEntity
  8
0
  6
Continuous
 62
     7
370
    15
100
AcDbPolyline
 90
      137
 70
   128
 43
0.0
 10
105.5066678654
 20
213.7981046486
 10
105.4375911043
 20
213.8475744555
 10
105.0941960661
 20
214.0830402557
 10
104.7429861688
 20
214.306741657
 10
104.3843662525
 20
214.5184207983
 10
104.0187496992
 20
214.7178336768
 10
103.6465579558
 20
214.9047504287
 10
103.2682200483
 20
215.0789555948
 10
102.8841720876
 20
215.2402483686
 10
102.4948567665
 20
215.3884428274
 10
102.1007228494
 20
215.5233681474
 10
101.7022246554
 20
215.6448687997
 10
101.2998215339
 20
215.7528047305
 10
100.8939773358
 20
215.8470515216
 10
100.4851598786
 20
215.9275005348
 10
100.0738404067
 20
215.9940590362
 10
99.6604930491
 20
216.0466503038
 10
99.2455942718
 20
216.0852137155
 10
98.8296223296
 20
216.1097048191
 10
98.4130567141
 20
216.1200953838
 10
97.9963776011
 20
216.1163734323
 10
97.5800652976
 20
216.098543255
 10
97.1645996875
 20
216.0666254046
 10
96.7504596787
 20
216.020656673
 10
96.3381226513
 20
215.9606900483
 10
95.9280639068
 20
215.8867946544
 10
95.5207561209
 20
215.7990556704
 10
95.1166687978
 20
215.6975742333
 10
94.7162677299
 20
215.582467321
 10
94.3200144602
 20
215.4538676173
 10
93.9283657505
 20
215.3119233595
 10
93.5417730551
 20
215.1567981669
 10
93.1606820002
 20
214.9886708526
 10
92.7855318699
 20
214.8077352173
 10
92.4167551008
 20
214.6141998258
 10
92.0547767822
 20
214.4082877667
 10
91.7000141675
 20
214.1902363953
 10
91.3528761921
 20
213.9602970598
 10
91.0137630026
 20
213.7187348117
 10
90.6830654954
 20
213.4658281002
 10
90.3611648661
 20
213.2018684513
 10
90.0484321702
 20
212.9271601319
 10
89.7452278953
 20
212.6420197988
 10
89.4519015455
 20
212.3467761337
 10
89.1687912386
 20
212.0417694646
 10
88.8962233164
 20
211.7273513732
 10
88.6345119684
 20
211.4038842898
 10
88.3839588699
 20
211.0717410756
 10
88.1448528338
 20
210.7313045926
 10
87.9174694782
 20
210.3829672627
 10
87.7020709081
 20
210.0271306149
 10
87.4989054141
 20
209.6642048228
 10
87.3082071852
 20
209.2946082316
 10
87.1301960398
 20
208.918766876
 10
86.9650771715
 20
208.537113989
 10
86.8130409133
 20
208.1500895027
 10
86.6742625176
 20
207.7581395409
 10
86.5489019546
 20
207.361715905
 10
86.4371037274
 20
206.9612755533
 10
86.3389967063
 20
206.5572800741
 10
86.2546939794
 20
206.1501951539
 10
86.1842927225
 20
205.74049004
 10
86.1278740873
 20
205.3286370005
 10
86.0855031077
 20
204.915110779
 10
86.0572286248
 20
204.500388048
 10
86.0430832306
 20
204.0849468592
 10
86.0430832306
 20
203.6692660923
 10
86.0572286248
 20
203.2538249035
 10
86.0855031077
 20
202.8391021725
 10
86.1278740873
 20
202.425575951
 10
86.1842927225
 20
202.0137229115
 10
86.2546939794
 20
201.6040177977
 10
86.3389967063
 20
201.1969328774
 10
86.4371037274
 20
200.7929373982
 10
86.5489019546
 20
200.3924970465
 10
86.6742625176
 20
199.9960734106
 10
86.8130409133
 20
199.6041234488
 10
86.9650771715
 20
199.2170989625
 10
87.1301960398
 20
198.8354460755
 10
87.3082071852
 20
198.4596047199
 10
87.4989054141
 20
198.0900081287
 10
87.7020709081
 20
197.7270823366
 10
87.9174694782
 20
197.3712456888
 10
88.1448528338
 20
197.0229083589
 10
88.3839588699
 20
196.6824718759
 10
88.6345119684
 20
196.3503286617
 10
88.8962233164
 20
196.0268615783
 10
89.1687912386
 20
195.7124434869
 10
89.4519015455
 20
195.4074368178
 10
89.7452278953
 20
195.1121931527
 10
90.0484321702
 20
194.8270528196
 10
90.3611648661
 20
194.5523445002
 10
90.6830654954
 20
194.2883848514
 10
91.0137630026
 20
194.0354781399
 10
91.3528761921
 20
193.7939158917
 10
91.7000141675
 20
193.5639765562
 10
92.0547767823
 20
193.3459251848
 10
92.4167551008
 20
193.1400131258
 10
92.7855318699
 20
192.9464777343
 10
93.1606820002
 20
192.7655420989
 10
93.5417730551
 20
192.5974147846
 10
93.9283657505
 20
192.442289592
 10
94.3200144602
 20
192.3003453342
 10
94.7162677299
 20
192.1717456305
 10
95.1166687978
 20
192.0566387182
 10
95.5207561209
 20
191.9551572811
 10
95.9280639068
 20
191.8674182971
 10
96.3381226513
 20
191.7935229032
 10
96.7504596787
 20
191.7335562786
 10
97.1645996875
 20
191.6875875469
 10
97.5800652976
 20
191.6556696966
 10
97.9963776011
 20
191.6378395192
 10
98.4130567141
 20
191.6341175677
 10
98.8296223296
 20
191.6445081324
 10
99.2455942718
 20
191.668999236
 10
99.6604930491
 20
191.7075626477
 10
100.0738404068
 20
191.7601539153
 10
100.4851598786
 20
191.8267124167
 10
100.8939773358
 20
191.9071614299
 10
101.2998215339
 20
192.0014082211
 10
101.7022246554
 20
192.1093441518
 10
102.1007228494
 20
192.2308448042
 10
102.4948567665
 20
192.3657701241
 10
102.8841720876
 20
192.513964583
 10
103.2682200483
 20
192.6752573567
 10
103.6465579558
 20
192.8494625228
 10
104.0187496992
 20
193.0363792748
 10
104.3843662525
 20
193.2357921532
 10
104.7429861688
 20
193.4474712945
 10
105.0941960661
 20
193.6711726958
 10
105.4375911043
 20
193.906638496
 10
105.7727754512
 20
194.1535972733
 10
106.0993627392
 20
194.4117643578
 10
106.4169765105
 20
194.6808421598
 10
106.7252506511
 20
194.9605205129
 10
107.0238298128
 20
195.2504770313
 10
107.0238298128
 20
195.2504770313
  0
LWPOLYLINE
  5
110
330
1F
100
AcDbEntity
  8
0
  6
Continuous
 62
     7
370
    15
100
AcDbPolyline
 90
       71
 70
   128
 43
0.0
 10
86.0413146741
 20
203.870019218
 10
86.0430832306
 20
203.6621788346
 10
86.0572286248
 20
203.2467376458
 10
86.0855031077
 20
202.8320149148
 10
86.1278740873
 20
202.4184886933
 10
86.1842927225
 20
202.0066356538
 10
86.2546939794
 20
201.5969305399
 10
86.3389967063
 20
201.1898456197
 10
86.4371037274
 20
200.7858501405
 10
86.5489019546
 20
200.3854097888
 10
86.6742625176
 20
199.9889861529
 10
86.8130409133
 20
199.5970361911
 10
86.9650771715
 20
199.2100117048
 10
87.1301960398
 20
198.8283588178
 10
87.3082071852
 20
198.4525174622
 10
87.4989054141
 20
198.082920871
 10
87.7020709081
 20
197.7199950789
 10
87.9174694782
 20
197.3641584311
 10
88.1448528338
 20
197.0158211011
 10
88.3839588699
 20
196.6753846182
 10
88.6345119684
 20
196.343241404
 10
88.8962233164
 20
196.0197743206
 10
89.1687912386
 20
195.7053562292
 10
89.4519015455
 20
195.4003495601
 10
89.7452278953
 20
195.105105895
 10
90.0484321702
 20
194.8199655618
 10
90.3611648661
 20
194.5452572425
 10
90.6830654954
 20
194.2812975936
 10
91.0137630026
 20
194.0283908821
 10
91.3528761921
 20
193.786828634
 10
91.7000141675
 20
193.5568892985
 10
92.0547767823
 20
193.3388379271
 10
92.4167551008
 20
193.132925868
 10
92.7855318699
 20
192.9393904765
 10
93.1606820002
 20
192.7584548412
 10
93.5417730551
 20
192.5903275269
 10
93.9283657505
 20
192.4352023343
 10
94.3200144602
 20
192.2932580764
 10
94.7162677299
 20
192.1646583728
 10
95.1166687978
 20
192.0495514605
 10
95.5207561209
 20
191.9480700234
 10
95.9280639068
 20
191.8603310394
 10
96.3381226513
 20
191.7864356454
 10
96.7504596787
 20
191.7264690208
 10
97.1645996875
 20
191.6805002892
 10
97.5800652976
 20
191.6485824388
 10
97.9963776011
 20
191.6307522615
 10
98.4130567141
 20
191.62703031
 10
98.8296223296
 20
191.6374208747
 10
99.2455942718
 20
191.6619119783
 10
99.6604930491
 20
191.70047539
 10
100.0738404068
 20
191.7530666576
 10
100.4851598786
 20
191.819625159
 10
100.8939773358
 20
191.9000741722
 10
101.2998215339
 20
191.9943209633
 10
101.7022246554
 20
192.1022568941
 10
102.1007228494
 20
192.2237575464
 10
102.4948567665
 20
192.3586828664
 10
102.8841720876
 20
192.5068773252
 10
103.2682200483
 20
192.668170099
 10
103.6465579558
 20
192.8423752651
 10
104.0187496992
 20
193.029292017
 10
104.3843662525
 20
193.2287048955
 10
104.7429861688
 20
193.4403840368
 10
105.0941960661
 20
193.6640854381
 10
105.4375911043
 20
193.8995512383
 10
105.7727754512
 20
194.1465100155
 10
106.0993627392
 20
194.4046771
 10
106.4169765105
 20
194.6737549021
 10
106.7252506511
 20
194.9534332551
 10
107.0238298128
 20
195.2433897735
  0
ARC
  5
111
330
1F
100
AcDbEntity
  8
0
  6
Continuous
 62
     7
370
    15
100
AcDbCircle
 10
98.314166839
 20
203.8774519543
 30
0.0
 40
0.3170723531435922
100
AcDbArc
 50
180.0624288621
 51
270.0773109075
  0
ARC
  5
112
330
1F
100
AcDbEntity
  8
0
  6
Continuous
 62
     7
370
    15
100
AcDbCircle
 10
98.3150225092
 20
203.8774519543
 30
0.0
 40
0.3170723531436009
100
AcDbArc
 50
269.9226890925
 51
359.9375711379
  0
CIRCLE
  5
113
330
1F
100
AcDbEntity
  8
0
  6
Continuous
 62
     7
370
    15
100
AcDbCircle
 10
98.3144868019
 20
203.8918173131
 30
0.0
 40
0.3172629261628607
  0
SPLINE
  5
114
330
1F
100
AcDbEntity
  8
0
  6
Continuous
 62
     7
370
    15
100
AcDbSpline
210
0.0
220
0.0
230
1.0
 70
     8
 71
     3
 72
    13
 73
     9
 74
     0
 42
0.000000001
 43
0.00000001
 40
0.0
 40
0.0
 40
0.0
 40
0.0
 40
0.0870175039322365
 40
0.3136697077144726
 40
0.4984044726900224
 40
0.6833838944669405
 40
0.876997006785026
 40
1.0
 40
1.0
 40
1.0
 40
1.0
 10
98.74131467411105
 20
238.677614139024
 30
0.0
 10
98.75287411450174
 20
238.6694986720124
 30
0.0
 10
98.79454212524482
 20
238.6402450615267
 30
0.0
 10
98.83694126373076
 20
238.601666430861
 30
0.0
 10
98.8744745684524
 20
238.5655018002959
 30
0.0
 10
98.89755102576122
 20
238.5420449773673
 30
0.0
 10
98.9116875060613
 20
238.5288827833609
 30
0.0
 10
98.91339266127326
 20
238.5319759044923
 30
0.0
 10
98.9140551013428
 20
238.5331775589593
 30
0.0
  0
SPLINE
  5
115
330
1F
100
AcDbEntity
  8
0
  6
Continuous
 62
     7
370
    15
100
AcDbSpline
210
0.0
220
0.0
230
1.0
 70
     8
 71
     3
 72
    14
 73
    10
 74
     0
 42
0.000000001
 43
0.00000001
 40
0.0
 40
0.0
 40
0.0
 40
0.0
 40
0.0571848369945352
 40
0.2474590942048422
 40
0.4378925689769947
 40
0.5988279538885499
 40
0.7594897782641412
 40
0.9438023688160845
 40
0.9999999999999999
 40
0.9999999999999999
 40
0.9999999999999999
 40
0.9999999999999999
 10
97.71455674708352
 20
239.2268479874752
 30
0.0
 10
97.71473769766239
 20
239.2260732128251
 30
0.0
 10
97.71552073506697
 20
239.2227204878164
 30
0.0
 10
97.7253418718171
 20
239.2310552391279
 30
0.0
 10
97.74490340074834
 20
239.2505774991069
 30
0.0
 10
97.7722139899357
 20
239.2785063580676
 30
0.0
 10
97.8099032505597
 20
239.3133438049878
 30
0.0
 10
97.84771073214007
 20
239.3463619585945
 30
0.0
 10
97.8802674659581
 20
239.3686594952076
 30
0.0
 10
97.88787467411106
 20
239.3738695387968
 30
0.0
  0
SPLINE
  5
116
330
1F
100
AcDbEntity
  8
0
  6
Continuous
 62
     7
370
    15
100
AcDbSpline
210
0.0
220
0.0
230
1.0
 70
     8
 71
     3
 72
    13
 73
     9
 74
     0
 42
0.000000001
 43
0.00000001
 40
0.0
 40
0.0
 40
0.0
 40
0.0
 40
0.2016313560070337
 40
0.4028563291168316
 40
0.6147703001102556
 40
0.7260267889091319
 40
0.8371422980935113
 40
1.0
 40
1.0
 40
1.0
 40
1.0
 10
98.31459467411112
 20
233.7701530607848
 30
0.0
 10
98.36020150675746
 20
233.7679048606917
 30
0.0
 10
98.45132325263273
 20
233.763412991696
 30
0.0
 10
98.57383821480917
 20
233.7314400397742
 30
0.0
 10
98.65583910171206
 20
233.6986142962297
 30
0.0
 10
98.70346236286572
 20
233.6769765672081
 30
0.0
 10
98.73471749987287
 20
233.6629766927575
 30
0.0
 10
98.73715671184975
 20
233.6674847963794
 30
0.0
 10
98.73860665089832
 20
233.6701645452238
 30
0.0
  0
SPLINE
  5
117
330
1F
100
AcDbEntity
  8
0
  6
Continuous
 62
     7
370
    15
100
AcDbSpline
210
0.0
220
0.0
230
1.0
 70
     8
 71
     3
 72
    14
 73
    10
 74
     0
 42
0.000000001
 43
0.00000001
 40
0.0
 40
0.0
 40
0.0
 40
0.0
 40
0.1575305701672317
 40
0.3288228505136837
 40
0.5157077384295848
 40
0.73145398132403
 40
0.8411043783116512
 40
0.9507088872935934
 40
1.0
 40
1.0
 40
1.0
 40
1.0
 10
97.89090774419817
 20
233.670418542746
 30
0.0
 10
97.89218557577955
 20
233.6677241773297
 30
0.0
 10
97.89485286900792
 20
233.6621000694783
 30
0.0
 10
97.9419587494099
 20
233.6847182288373
 30
0.0
 10
98.02020771648318
 20
233.718724831365
 30
0.0
 10
98.1158517806942
 20
233.7484527476005
 30
0.0
 10
98.20782093011599
 20
233.7641966425998
 30
0.0
 10
98.26769876087754
 20
233.7695905150382
 30
0.0
 10
98.30349141265027
 20
233.7700198702341
 30
0.0
 10
98.31459467411112
 20
233.7701530607848
 30
0.0
  0
ARC
  5
118
330
1F
100
AcDbEntity
  8
0
  6
Continuous
 62
     7
370
    15
100
AcDbCircle
 10
98.3193895018
 20
241.6564034705
 30
0.0
 40
0.6937054942360701
100
AcDbArc
 50
0.0551970721
 51
52.5391315289
  0
ARC
  5
119
330
1F
100
AcDbEntity
  8
0
  6
Continuous
 62
     7
370
    15
100
AcDbCircle
 10
98.309411302
 20
241.6565954772
 30
0.0
 40
0.6933167914915757
100
AcDbArc
 50
127.4450319561
 51
179.9606394428
  0
LWPOLYLINE
  5
11A
330
1F
100
AcDbEntity
  8
0
  6
Continuous
 62
     7
370
    15
100
AcDbPolyline
 90
       45
 70
   128
 43
0.0
 10
98.3145946741
 20
231.8291192156
 10
98.4140015886
 20
231.8361899906
 10
98.5113848651
 20
231.8572583751
 10
98.6047620607
 20
231.8918954776
 10
98.6922322851
 20
231.9393961865
 10
98.7720148968
 20
231.9987935244
 10
98.8424857518
 20
232.0688783327
 10
98.9022102668
 20
232.1482238868
 10
98.9499726229
 20
232.2352149402
 10
98.9848005162
 20
232.3280806058
 10
99.0059849513
 20
232.4249304064
 10
99.0130946741
 20
232.5237927595
 10
99.0059849513
 20
232.6226551125
 10
98.9848005162
 20
232.7195049132
 10
98.9499726229
 20
232.8123705788
 10
98.9022102668
 20
232.8993616321
 10
98.8424857518
 20
232.9787071863
 10
98.7720148968
 20
233.0487919946
 10
98.6922322851
 20
233.1081893325
 10
98.6047620607
 20
233.1556900414
 10
98.5113848651
 20
233.1903271438
 10
98.4140015886
 20
233.2113955284
 10
98.3145946741
 20
233.2184663034
 10
98.2151877596
 20
233.2113955284
 10
98.1178044832
 20
233.1903271438
 10
98.0244272875
 20
233.1556900414
 10
97.9369570631
 20
233.1081893325
 10
97.8571744515
 20
233.0487919946
 10
97.7867035964
 20
232.9787071863
 10
97.7269790814
 20
232.8993616321
 10
97.6792167254
 20
232.8123705788
 10
97.644388832
 20
232.7195049132
 10
97.623204397
 20
232.6226551125
 10
97.6160946741
 20
232.5237927595
 10
97.623204397
 20
232.4249304064
 10
97.644388832
 20
232.3280806058
 10
97.6792167254
 20
232.2352149402
 10
97.7269790814
 20
232.1482238868
 10
97.7867035964
 20
232.0688783327
 10
97.8571744515
 20
231.9987935244
 10
97.9369570631
 20
231.9393961865
 10
98.0244272875
 20
231.8918954776
 10
98.1178044832
 20
231.8572583751
 10
98.2151877596
 20
231.8361899906
 10
98.3145946741
 20
231.8291192156
  0
LINE
  5
11B
330
1F
100
AcDbEntity
  8
0
  6
Continuous
 62
     7
370
    15
100
AcDbLine
 10
97.6484116166
 20
238.4519042117
 30
0.0
 11
97.6484116166
 21
238.4297581023
 31
0.0
  0
SPLINE
  5
11C
330
1F
100
AcDbEntity
  8
0
  6
Continuous
 62
     7
370
    15
100
AcDbSpline
210
0.0
220
0.0
230
1.0
 70
     8
 71
     3
 72
     9
 73
     5
 74
     0
 42
0.000000001
 43
0.00000001
 40
0.0
 40
0.0
 40
0.0
 40
0.0
 40
0.604123291466539
 40
1.0
 40
1.0
 40
1.0
 40
1.0
 10
97.64841161660382
 20
238.4297581022544
 30
0.0
 10
97.64484967608797
 20
238.4194753682065
 30
0.0
 10
97.63895362710893
 20
238.4024544484819
 30
0.0
 10
97.63832328621238
 20
238.4033041861646
 30
0.0
 10
97.63807374893301
 20
238.4036405775215
 30
0.0
  0
LINE
  5
11D
330
1F
100
AcDbEntity
  8
0
  6
Continuous
 62
     7
370
    15
100
AcDbLine
 10
97.7996328951
 20
238.6902461986
 30
0.0
 11
97.7996328951
 21
238.7123923081
 31
0.0
  0
SPLINE
  5
11E
330
1F
100
AcDbEntity
  8
0
  6
Continuous
 62
     7
370
    15
100
AcDbSpline
210
0.0
220
0.0
230
1.0
 70
     8
 71
     3
 72
    10
 73
     6
 74
     0
 42
0.000000001
 43
0.00000001
 40
0.0
 40
0.0
 40
0.0
 40
0.0
 40
0.369319713131651
 40
0.7429716873368665
 40
1.0
 40
1.0
 40
1.0
 40
1.0
 10
97.8260263100263
 20
238.7308388557227
 30
0.0
 10
97.82684975719079
 20
238.7298433105984
 30
0.0
 10
97.82850631086905
 20
238.7278405422259
 30
0.0
 10
97.8164318747721
 20
238.7115221990835
 30
0.0
 10
97.80449689373731
 20
238.6964064796886
 30
0.0
 10
97.79963289512993
 20
238.6902461985894
 30
0.0
  0
LWPOLYLINE
  5
11F
330
1F
100
AcDbEntity
  8
0
  6
Continuous
 62
     7
370
    15
100
AcDbPolyline
 90
       19
 70
   128
 43
0.0
 10
98.7463946741
 20
219.762741113
 10
98.744883998
 20
219.7652584788
 10
98.7309263673
 20
219.7707309433
 10
98.7027910601
 20
219.7759313236
 10
98.6614361906
 20
219.7806825272
 10
98.6082700492
 20
219.7848227574
 10
98.5451031452
 20
219.7882110237
 10
98.4740865516
 20
219.7907319428
 10
98.3976386534
 20
219.7922996677
 10
98.3183627921
 20
219.7928608114
 10
98.2389586121
 20
219.792396265
 10
98.1621301275
 20
219.790921848
 10
98.0904936401
 20
219.7884877698
 10
98.0264886447
 20
219.7851769201
 10
97.9722947545
 20
219.7811020458
 10
97.9297574776
 20
219.7764019121
 10
97.9003253698
 20
219.7712365762
 10
97.8850007063
 20
219.7657819375
 10
97.8827946741
 20
219.762741113
  0
SPLINE
  5
120
330
1F
100
AcDbEntity
  8
0
  6
Continuous
 62
     7
370
    15
100
AcDbSpline
210
0.0
220
0.0
230
1.0
 70
     8
 71
     3
 72
    11
 73
     7
 74
     0
 42
0.000000001
 43
0.00000001
 40
0.0
 40
0.0
 40
0.0
 40
0.0
 40
0.246044867228553
 40
0.4918500374594809
 40
0.7439491312059496
 40
1.0
 40
1.0
 40
1.0
 40
1.0
 10
98.3219358766925
 20
226.7604880812113
 30
0.0
 10
98.33588025878235
 20
226.7617782129137
 30
0.0
 10
98.36375543834004
 20
226.7643572194718
 30
0.0
 10
98.4007443311261
 20
226.784771401091
 30
0.0
 10
98.43054167720636
 20
226.815048566803
 30
0.0
 10
98.44008058156693
 20
226.8419545813864
 30
0.0
 10
98.44488712477055
 20
226.8555122098774
 30
0.0
  0
SPLINE
  5
121
330
1F
100
AcDbEntity
  8
0
  6
Continuous
 62
     7
370
    15
100
AcDbSpline
210
0.0
220
0.0
230
1.0
 70
     8
 71
     3
 72
    13
 73
     9
 74
     0
 42
0.000000001
 43
0.00000001
 40
0.0
 40
0.0
 40
0.0
 40
0.0
 40
0.1012845379254111
 40
0.2809853565862649
 40
0.4585991170371403
 40
0.6426231607942323
 40
0.8318235207327329
 40
1.0
 40
1.0
 40
1.0
 40
1.0
 10
98.20010509630087
 20
226.9159454841304
 30
0.0
 10
98.19794077409989
 20
226.9084206319212
 30
0.0
 10
98.1919364731684
 20
226.8875450538263
 30
0.0
 10
98.19744261606074
 20
226.8516620803794
 30
0.0
 10
98.21458529143743
 20
226.814044862231
 30
0.0
 10
98.24402207504423
 20
226.7838281458717
 30
0.0
 10
98.28141932323066
 20
226.7640961258734
 30
0.0
 10
98.30897062450258
 20
226.7616426515032
 30
0.0
 10
98.3219358766925
 20
226.7604880812113
 30
0.0
  0
CIRCLE
  5
122
330
1F
100
AcDbEntity
  8
0
  6
Continuous
 62
     7
370
    15
100
AcDbCircle
 10
98.324646209
 20
226.8982754384
 30
0.0
 40
0.1269318750371526
  0
LWPOLYLINE
  5
123
330
1F
100
AcDbEntity
  8
0
  6
Continuous
 62
     7
370
    15
100
AcDbPolyline
 90
       19
 70
   128
 43
0.0
 10
97.8878746741
 20
243.0738178395
 10
97.887937827
 20
243.0743299359
 10
97.8965514131
 20
243.0797899838
 10
97.919400961
 20
243.0850466575
 10
97.9557083568
 20
243.0899209473
 10
98.0042371957
 20
243.094246865
 10
98.0633348864
 20
243.0978770968
 10
98.1309889277
 20
243.1006880194
 10
98.2048954425
 20
243.1025839103
 10
98.2825376331
 20
243.1035002071
 10
98.3612714877
 20
243.1034057065
 10
98.4384158195
 20
243.1023036266
 10
98.5113435707
 20
243.1002314974
 10
98.5775712741
 20
243.0972598827
 10
98.6348436249
 20
243.0934899774
 10
98.6812102817
 20
243.089050161
 10
98.7150922837
 20
243.0840916261
 10
98.73533582
 20
243.0787832298
 10
98.7413146741
 20
243.0738178395
  0
LWPOLYLINE
  5
124
330
1F
100
AcDbEntity
  8
0
  6
Continuous
 62
     7
370
    15
100
AcDbPolyline
 90
       32
 70
   128
 43
0.0
 10
99.5791478904
 20
240.1483860049
 10
99.641143686
 20
240.1184519449
 10
99.7050376958
 20
240.0985224037
 10
99.7682140917
 20
240.0894132991
 10
99.8280864245
 20
240.0914975589
 10
99.8822035139
 20
240.1046898533
 10
99.9283497998
 20
240.1284500882
 10
99.964636048
 20
240.1618055167
 10
99.9895766952
 20
240.2033905638
 10
100.0021506683
 20
240.2515027326
 10
100.0018431874
 20
240.3041723054
 10
99.9886668408
 20
240.3592429837
 10
99.9631610697
 20
240.4144601674
 10
99.9263700833
 20
240.4675632585
 10
99.879800109
 20
240.5163782102
 10
99.825357727
 20
240.5589065327
 10
99.7652718148
 20
240.5934071115
 10
99.7020022966
 20
240.6184674888
 10
99.6381394341
 20
240.6330616898
 10
99.5762977802
 20
240.6365922262
 10
99.5190091397
 20
240.6289145575
 10
99.468618916
 20
240.6103430082
 10
99.427190091
 20
240.5816378999
 10
99.3964187656
 20
240.543974423
 10
99.3775647215
 20
240.4988945247
 10
99.3713998454
 20
240.4482437812
 10
99.3781765281
 20
240.3940958401
 10
99.3976173314
 20
240.3386675244
 10
99.4289263466
 20
240.2842280758
 10
99.4708217789
 20
240.2330062518
 10
99.5215884243
 20
240.1870990798
 10
99.5791478904
 20
240.1483860049
  0
LWPOLYLINE
  5
125
330
1F
100
AcDbEntity
  8
0
  6
Continuous
 62
     7
370
    15
100
AcDbPolyline
 90
        9
 70
   128
 43
0.0
 10
97.7996328951
 20
238.6902461986
 10
97.8068125091
 20
238.7051479136
 10
97.8120636997
 20
238.7169266889
 10
97.8152641514
 20
238.7253081631
 10
97.8163393165
 20
238.7300971075
 10
97.8152641514
 20
238.7311819737
 10
97.8120636997
 20
238.728537492
 10
97.8068125091
 20
238.7222252601
 10
97.7996328951
 20
238.7123923081
  0
LWPOLYLINE
  5
126
330
1F
100
AcDbEntity
  8
0
  6
Continuous
 62
     7
370
    15
100
AcDbPolyline
 90
        9
 70
   128
 43
0.0
 10
97.6484116166
 20
238.4519042117
 10
97.6412320026
 20
238.4370024968
 10
97.6359808121
 20
238.4252237214
 10
97.6327803604
 20
238.4168422472
 10
97.6317051952
 20
238.4120533028
 10
97.6327803604
 20
238.4109684367
 10
97.6359808121
 20
238.4136129183
 10
97.6412320026
 20
238.4199251502
 10
97.6484116166
 20
238.4297581023
  0
LWPOLYLINE
  5
127
330
1F
100
AcDbEntity
  8
0
  6
Continuous
 62
     7
370
    15
100
AcDbPolyline
 90
        9
 70
   128
 43
0.0
 10
80.6829014779
 20
210.8202818942
 10
80.7448972734
 20
210.7903478342
 10
80.8087912833
 20
210.770418293
 10
80.8719676791
 20
210.7613091884
 10
80.9318400119
 20
210.7633934482
 10
80.9859571013
 20
210.7765857426
 10
81.0321033873
 20
210.8003459775
 10
81.0683896355
 20
210.833701406
 10
81.0795130003
 20
210.8489964001
  0
LWPOLYLINE
  5
128
330
1F
100
AcDbEntity
  8
0
  6
Continuous
 62
     7
370
    15
100
AcDbPolyline
 90
       10
 70
   128
 43
0.0
 10
80.5030128033
 20
211.2204384047
 10
80.5001723531
 20
211.2158703123
 10
80.4813183089
 20
211.1707904139
 10
80.4751534328
 20
211.1201396705
 10
80.4819301156
 20
211.0659917294
 10
80.5013709189
 20
211.0105634137
 10
80.5326799341
 20
210.9561239651
 10
80.5745753663
 20
210.9049021411
 10
80.6253420117
 20
210.8589949691
 10
80.6829014779
 20
210.8202818942
  0
LWPOLYLINE
  5
129
330
1F
100
AcDbEntity
  8
0
  6
Continuous
 62
     7
370
    15
100
AcDbPolyline
 90
       32
 70
   128
 43
0.0
 10
96.3776067537
 20
241.9987160965
 10
96.3199412478
 20
241.9601682996
 10
96.2688608243
 20
241.9147501949
 10
96.2264567218
 20
241.8643212051
 10
96.1944649693
 20
241.8109458989
 10
96.1741953127
 20
241.7568094676
 10
96.1664775944
 20
241.7041282631
 10
96.1716277785
 20
241.6550590601
 10
96.1894350159
 20
241.6116107575
 10
96.2191702762
 20
241.575562134
 10
96.2596161945
 20
241.5483890244
 10
96.3091169099
 20
241.5312038989
 10
96.3656458574
 20
241.5247103188
 10
96.4268887353
 20
241.5291741319
 10
96.490338253
 20
241.5444125891
 10
96.5533967797
 20
241.5698018263
 10
96.6134826919
 20
241.6043024051
 10
96.6681360654
 20
241.6465018677
 10
96.7151193846
 20
241.6946725632
 10
96.7525091469
 20
241.7468423777
 10
96.778774611
 20
241.8008754727
 10
96.7928404658
 20
241.8545597271
 10
96.7941308535
 20
241.9056973012
 10
96.7825929455
 20
241.9521946167
 10
96.758699105
 20
241.992148068
 10
96.7234275488
 20
242.0239219562
 10
96.6782222985
 20
242.0462154544
 10
96.6249340623
 20
242.0581158643
 10
96.5657444669
 20
242.0591359818
 10
96.5030767413
 20
242.049234043
 10
96.4394965095
 20
242.0288154345
 10
96.3776067537
 20
241.9987160965
  0
LWPOLYLINE
  5
12A
330
1F
100
AcDbEntity
  8
0
  6
Continuous
 62
     7
370
    15
100
AcDbPolyline
 90
       17
 70
   128
 43
0.0
 10
113.2315248369
 20
214.9401585801
 10
113.2588575186
 20
214.9079956462
 10
113.2993034368
 20
214.8808225366
 10
113.3488041523
 20
214.8636374112
 10
113.4053330998
 20
214.857143831
 10
113.4665759777
 20
214.8616076441
 10
113.5300254954
 20
214.8768461013
 10
113.5930840221
 20
214.9022353385
 10
113.6531699343
 20
214.9367359173
 10
113.7078233078
 20
214.9789353799
 10
113.754806627
 20
215.0271060754
 10
113.7921963893
 20
215.0792758899
 10
113.8184618534
 20
215.1333089849
 10
113.8325277082
 20
215.1869932394
 10
113.8338180959
 20
215.2381308135
 10
113.8222801879
 20
215.2846281289
 10
113.8094255267
 20
215.309417883
  0
LINE
  5
12B
330
1F
100
AcDbEntity
  8
0
  6
Continuous
 62
     7
370
    15
100
AcDbLine
 10
246.4906815668
 20
61.7219381677
 30
0.0
 11
269.5966261908
 21
86.5238722843
 31
0.0
  0
LINE
  5
12C
330
1F
100
AcDbEntity
  8
0
  6
Continuous
 62
     7
370
    15
100
AcDbLine
 10
269.3995739254
 20
87.3184481936
 30
0.0
 11
245.9888948964
 21
62.1894119931
 31
0.0
  0
LINE
  5
12D
330
1F
100
AcDbEntity
  8
0
  6
Continuous
 62
     7
370
    15
100
AcDbLine
 10
247.1544073765
 20
147.4573287588
 30
0.0
 11
247.1721255209
 21
147.7107100275
 31
0.0
  0
LINE
  5
12E
330
1F
100
AcDbEntity
  8
0
  6
Continuous
 62
     7
370
    15
100
AcDbLine
 10
246.9678179408
 20
144.7889755114
 30
0.0
 11
247.1473201188
 21
147.3559762513
 31
0.0
  0
LINE
  5
12F
330
1F
100
AcDbEntity
  8
0
  6
Continuous
 62
     7
370
    15
100
AcDbLine
 10
246.6760174796
 20
140.6160345021
 30
0.0
 11
246.8795264225
 21
143.5263479745
 31
0.0
  0
LINE
  5
130
330
1F
100
AcDbEntity
  8
0
  6
Continuous
 62
     7
370
    15
100
AcDbLine
 10
222.8227183173
 20
149.056918107
 30
0.0
 11
222.3514156781
 21
142.3169763579
 31
0.0
  0
LINE
  5
131
330
1F
100
AcDbEntity
  8
0
  6
Continuous
 62
     7
370
    15
100
AcDbLine
 10
222.8475237193
 20
149.4116518833
 30
0.0
 11
222.829805575
 21
149.1582706145
 31
0.0
  0
LINE
  5
132
330
1F
100
AcDbEntity
  8
0
  6
Continuous
 62
     7
370
    15
100
AcDbLine
 10
247.2284021248
 20
147.3503064451
 30
0.0
 11
247.2354893825
 21
147.4516589526
 31
0.0
  0
LINE
  5
133
330
1F
100
AcDbEntity
  8
0
  6
Continuous
 62
     7
370
    15
100
AcDbLine
 10
222.748723569
 20
149.1639404207
 30
0.0
 11
222.7416363113
 21
149.0625879132
 31
0.0
  0
LINE
  5
134
330
1F
100
AcDbEntity
  8
0
  6
Continuous
 62
     7
370
    15
100
AcDbLine
 10
269.9833972606
 20
94.2827565919
 30
0.0
 11
271.7377144992
 21
96.3210241835
 31
0.0
  0
LINE
  5
135
330
1F
100
AcDbEntity
  8
0
  6
Continuous
 62
     7
370
    15
100
AcDbLine
 10
271.2179285271
 20
96.7683989517
 30
0.0
 11
269.7781051381
 21
95.0955285684
 31
0.0
  0
LINE
  5
136
330
1F
100
AcDbEntity
  8
0
  6
Continuous
 62
     7
370
    15
100
AcDbLine
 10
246.8922752964
 20
143.3335476092
 30
0.0
 11
247.0189659308
 21
143.324688537
 31
0.0
  0
LINE
  5
137
330
1F
100
AcDbEntity
  8
0
  6
Continuous
 62
     7
370
    15
100
AcDbLine
 10
247.134133869
 20
144.971666784
 30
0.0
 11
247.0074432346
 21
144.9805258562
 31
0.0
  0
ARC
  5
138
330
1F
100
AcDbEntity
  8
0
  6
Continuous
 62
     7
370
    15
100
AcDbCircle
 10
247.0233954669
 20
143.3880338542
 30
0.0
 40
0.0634999999999789
100
AcDbArc
 50
266.0
 51
356.0
  0
ARC
  5
139
330
1F
100
AcDbEntity
  8
0
  6
Continuous
 62
     7
370
    15
100
AcDbCircle
 10
247.1297043329
 20
144.9083214668
 30
0.0
 40
0.0635000000000356
100
AcDbArc
 50
356.0
 51
86.0
  0
LINE
  5
13A
330
1F
100
AcDbEntity
  8
0
  6
Continuous
 62
     7
370
    15
100
AcDbLine
 10
246.8794022753
 20
143.5254129601
 30
0.0
 11
246.9055639047
 21
143.5235835608
 31
0.0
  0
LINE
  5
13B
330
1F
100
AcDbEntity
  8
0
  6
Continuous
 62
     7
370
    15
100
AcDbLine
 10
246.9941546263
 20
144.7904899046
 30
0.0
 11
246.967874083
 21
144.7923276192
 31
0.0
  0
LINE
  5
13C
330
1F
100
AcDbEntity
  8
0
  6
Continuous
 62
     7
370
    15
100
AcDbLine
 10
264.8851530608
 20
143.2027706352
 30
0.0
 11
264.3334663034
 21
148.4517195096
 31
0.0
  0
LINE
  5
13D
330
1F
100
AcDbEntity
  8
0
  6
Continuous
 62
     7
370
    15
100
AcDbLine
 10
273.4667453099
 20
61.5543743799
 30
0.0
 11
270.0221245024
 21
94.3277521492
 31
0.0
  0
LINE
  5
13E
330
1F
100
AcDbEntity
  8
0
  6
Continuous
 62
     7
370
    15
100
AcDbLine
 10
269.9236540667
 20
95.2646357616
 30
0.0
 11
264.9754335374
 21
142.3438092776
 31
0.0
  0
LINE
  5
13F
330
1F
100
AcDbEntity
  8
0
  6
Continuous
 62
     7
370
    15
100
AcDbLine
 10
263.5601433033
 20
142.444615563
 30
0.0
 11
269.3587434221
 21
87.2746207081
 31
0.0
  0
LINE
  5
140
330
1F
100
AcDbEntity
  8
0
  6
Continuous
 62
     7
370
    15
100
AcDbLine
 10
269.4537674353
 20
86.3705276149
 30
0.0
 11
272.077398222
 21
61.4083481167
 31
0.0
  0
LINE
  5
141
330
1F
100
AcDbEntity
  8
0
  6
Continuous
 62
     7
370
    15
100
AcDbLine
 10
262.9441192156
 20
148.3056932464
 30
0.0
 11
263.4700960354
 21
143.3013580884
 31
0.0
  0
LINE
  5
142
330
1F
100
AcDbEntity
  8
0
  6
Continuous
 62
     7
370
    15
100
AcDbLine
 10
250.9078619584
 20
144.1852504464
 30
0.0
 11
247.1611180172
 21
144.4472483054
 31
0.0
  0
LINE
  5
143
330
1F
100
AcDbEntity
  8
0
  6
Continuous
 62
     7
370
    15
100
AcDbLine
 10
247.1008763264
 20
143.5857519916
 30
0.0
 11
250.8476202676
 21
143.3237541326
 31
0.0
  0
LINE
  5
144
330
1F
100
AcDbEntity
  8
0
  6
Continuous
 62
     7
370
    15
100
AcDbLine
 10
264.9757380216
 20
142.3409123042
 30
0.0
 11
274.159051357
 21
141.6987524796
 31
0.0
  0
LINE
  5
145
330
1F
100
AcDbEntity
  8
0
  6
Continuous
 62
     7
370
    15
100
AcDbLine
 10
274.2185843219
 20
142.5501135426
 30
0.0
 11
264.8851530608
 21
143.2027706352
 31
0.0
  0
LINE
  5
146
330
1F
100
AcDbEntity
  8
0
  6
Continuous
 62
     7
370
    15
100
AcDbLine
 10
250.8479746305
 20
143.328821758
 30
0.0
 11
263.5629546088
 21
142.4397037442
 31
0.0
  0
LINE
  5
147
330
1F
100
AcDbEntity
  8
0
  6
Continuous
 62
     7
370
    15
100
AcDbLine
 10
257.8791230986
 20
143.6926799748
 30
0.0
 11
250.9075075955
 21
144.1801828211
 31
0.0
  0
LINE
  5
148
330
1F
100
AcDbEntity
  8
0
  6
Continuous
 62
     7
370
    15
100
AcDbLine
 10
263.4703129838
 20
143.3017058912
 30
0.0
 11
258.1270344152
 21
143.6753443268
 31
0.0
  0
LINE
  5
149
330
1F
100
AcDbEntity
  8
0
  6
Continuous
 62
     7
370
    15
100
AcDbLine
 10
258.1288339341
 20
143.6746462377
 30
0.0
 11
258.1402072841
 21
143.8372927209
 31
0.0
  0
LINE
  5
14A
330
1F
100
AcDbEntity
  8
0
  6
Continuous
 62
     7
370
    15
100
AcDbLine
 10
257.8868260154
 20
143.8550108652
 30
0.0
 11
257.8754880812
 21
143.6928708529
 31
0.0
  0
LINE
  5
14B
330
1F
100
AcDbEntity
  8
0
  6
Continuous
 62
     7
370
    15
100
AcDbLine
 10
242.4096103885
 20
62.2459305698
 30
0.0
 11
268.7702977617
 21
92.8733071835
 31
0.0
  0
LINE
  5
14C
330
1F
100
AcDbEntity
  8
0
  6
Continuous
 62
     7
370
    15
100
AcDbLine
 10
268.671827326
 20
93.8101907959
 30
0.0
 11
241.8898244163
 21
62.6933053379
 31
0.0
  0
LINE
  5
14D
330
1F
100
AcDbEntity
  8
0
  6
Continuous
 62
     7
370
    15
100
AcDbLine
 10
270.7160527977
 20
87.7254654417
 30
0.0
 11
273.1582480546
 21
90.346919221
 31
0.0
  0
LINE
  5
14E
330
1F
100
AcDbEntity
  8
0
  6
Continuous
 62
     7
370
    15
100
AcDbLine
 10
272.6564613842
 20
90.8143930464
 30
0.0
 11
270.6210287846
 21
88.629558535
 31
0.0
  0
SPLINE
  5
14F
330
1F
100
AcDbEntity
  8
0
  6
Continuous
 62
     7
370
    15
100
AcDbSpline
210
0.0
220
0.0
230
1.0
 70
     8
 71
     3
 72
     9
 73
     5
 74
     0
 42
0.000000001
 43
0.00000001
 40
0.0
 40
0.0
 40
0.0
 40
0.0
 40
0.9925464070473405
 40
1.0
 40
1.0
 40
1.0
 40
1.0
 10
269.4459324540425
 20
87.34034303850237
 30
0.0
 10
269.4268886525244
 20
87.33823538725574
 30
0.0
 10
269.4077018403182
 20
87.33611190846257
 30
0.0
 10
269.3997406753903
 20
87.31849186108434
 30
0.0
 10
269.3996813361074
 20
87.31836052842337
 30
0.0
  0
SPLINE
  5
150
330
1F
100
AcDbEntity
  8
0
  6
Continuous
 62
     7
370
    15
100
AcDbSpline
210
0.0
220
0.0
230
1.0
 70
     8
 71
     3
 72
    19
 73
    15
 74
     0
 42
0.000000001
 43
0.00000001
 40
0.0
 40
0.0
 40
0.0
 40
0.0
 40
0.0042117829093543
 40
0.1037131274051658
 40
0.181523507955925
 40
0.2614367506186885
 40
0.343734704449759
 40
0.4278292221578249
 40
0.5571333997339707
 40
0.6623968029962746
 40
0.7680597254779474
 40
0.8654228449381332
 40
0.9645053439180471
 40
1.0
 40
1.0
 40
1.0
 40
1.0
 10
269.5963455972016
 20
86.52415153842466
 30
0.0
 10
269.5971508068737
 20
86.52482761543962
 30
0.0
 10
269.6169787075777
 20
86.54147568660018
 30
0.0
 10
269.6478442861409
 20
86.59510475725263
 30
0.0
 10
269.6840790246993
 20
86.6736549355427
 30
0.0
 10
269.7104182207337
 20
86.75562214907629
 30
0.0
 10
269.7288982390023
 20
86.84358770844727
 30
0.0
 10
269.7385180286626
 20
86.95265690939132
 30
0.0
 10
269.7269956213561
 20
87.07257924886255
 30
0.0
 10
269.6794507029746
 20
87.190415222884
 30
0.0
 10
269.6100447413757
 20
87.27445374261686
 30
0.0
 10
269.5333405554015
 20
87.32546104001396
 30
0.0
 10
269.4785108808637
 20
87.34177740044127
 30
0.0
 10
269.4527316998901
 20
87.34064239548209
 30
0.0
 10
269.4459324540425
 20
87.34034303850238
 30
0.0
  0
LWPOLYLINE
  5
151
330
1F
100
AcDbEntity
  8
0
  6
Continuous
 62
     7
370
    15
100
AcDbPolyline
 90
       32
 70
   128
 43
0.0
 10
246.4461496087
 20
61.7020039647
 10
246.4076018118
 20
61.7035890751
 10
246.3621837071
 20
61.7154946161
 10
246.3117547173
 20
61.7372331735
 10
246.2583794111
 20
61.7679147683
 10
246.2042429798
 20
61.8062832923
 10
246.1515617753
 20
61.8507679337
 10
246.1024925723
 20
61.8995474859
 10
246.0590442697
 20
61.9506249085
 10
246.0229956462
 20
62.0019090858
 10
245.9958225366
 20
62.0513004374
 10
245.9786374112
 20
62.0967768756
 10
245.972143831
 20
62.1364765898
 10
245.9766076441
 20
62.168774269
 10
245.9918461013
 20
62.1923476423
 10
246.0172353385
 20
62.2062316132
 10
246.0517359173
 20
62.2098577701
 10
246.0939353799
 20
62.2030776579
 10
246.1421060754
 20
62.186168855
 10
246.1942758899
 20
62.15982361
 10
246.2483089849
 20
62.1251205002
 10
246.3019932394
 20
62.083480275
 10
246.3531308135
 20
62.0366076901
 10
246.3996281289
 20
61.9864217146
 10
246.4395815802
 20
61.9349769683
 10
246.4713554684
 20
61.8843796052
 10
246.4936489666
 20
61.8367010872
 10
246.5055493765
 20
61.7938933785
 10
246.506569494
 20
61.7577090316
 10
246.4966675552
 20
61.7296294381
 10
246.4762489467
 20
61.7108041797
 10
246.4461496087
 20
61.7020039647
  0
SPLINE
  5
152
330
1F
100
AcDbEntity
  8
0
  6
Continuous
 62
     7
370
    15
100
AcDbSpline
210
0.0
220
0.0
230
1.0
 70
     8
 71
     3
 72
    26
 73
    22
 74
     0
 42
0.000000001
 43
0.00000001
 40
0.0
 40
0.0
 40
0.0
 40
0.0
 40
0.0428582715093162
 40
0.0956018198796916
 40
0.1498763981412661
 40
0.2026194863101167
 40
0.256889693963872
 40
0.3096748989032749
 40
0.3639908842630685
 40
0.4167715577629368
 40
0.4710864538214651
 40
0.5238043172864537
 40
0.578052578809522
 40
0.630747081452025
 40
0.6849668570452225
 40
0.7377137232444104
 40
0.7919873957829506
 40
0.844780936917773
 40
0.8991070835767775
 40
0.9518691988578782
 40
1.0
 40
1.0
 40
1.0
 40
1.0
 10
246.9676449308871
 20
144.7889876094355
 30
0.0
 10
246.9676838069113
 20
144.7893674617299
 30
0.0
 10
246.9677705257296
 20
144.7902147793968
 30
0.0
 10
246.9648912947397
 20
144.7667868525037
 30
0.0
 10
246.9602218454442
 20
144.7278044953676
 30
0.0
 10
246.9537099555619
 20
144.6714635468398
 30
0.0
 10
246.9459935566574
 20
144.6014059711095
 30
0.0
 10
246.9373550428372
 20
144.5180303985441
 30
0.0
 10
246.9284319956181
 20
144.4252406597982
 30
0.0
 10
246.9195239311421
 20
144.3239750147636
 30
0.0
 10
246.9111975090874
 20
144.2189616673184
 30
0.0
 10
246.9036221848445
 20
144.1112846378088
 30
0.0
 10
246.8971526711847
 20
144.005953386428
 30
0.0
 10
246.8917752995641
 20
143.9040143671065
 30
0.0
 10
246.8875932720184
 20
143.8101582537934
 30
0.0
 10
246.8844462249343
 20
143.7253361324606
 30
0.0
 10
246.8822533918255
 20
143.6535110289356
 30
0.0
 10
246.8807955726836
 20
143.5953202710512
 30
0.0
 10
246.8799394849226
 20
143.5540774091705
 30
0.0
 10
246.8795001150904
 20
143.5290667812205
 30
0.0
 10
246.8794852144677
 20
143.5272283660259
 30
0.0
 10
246.8794781061499
 20
143.5263513530572
 30
0.0
  0
LINE
  5
153
330
1F
100
AcDbEntity
  8
0
  6
Continuous
 62
     7
370
    15
100
AcDbLine
 10
222.4205333284
 20
142.3121431809
 30
0.0
 11
246.6760174796
 21
140.6160345021
 31
0.0
  0
LINE
  5
154
330
1F
100
AcDbEntity
  8
0
  6
Continuous
 62
     7
370
    15
100
AcDbLine
 10
222.3514156781
 20
142.3169763579
 30
0.0
 11
222.4205333284
 21
142.3121431809
 31
0.0
  0
LINE
  5
155
330
1F
100
AcDbEntity
  8
0
  6
Continuous
 62
     7
370
    15
100
AcDbLine
 10
226.3583897735
 20
148.809679874
 30
0.0
 11
226.3654770313
 21
148.9110323815
 31
0.0
  0
LINE
  5
156
330
1F
100
AcDbEntity
  8
0
  6
Continuous
 62
     7
370
    15
100
AcDbLine
 10
243.6187359203
 20
147.7045669918
 30
0.0
 11
243.6116486625
 21
147.6032144843
 31
0.0
  0
LINE
  5
157
330
1F
100
AcDbEntity
  8
0
  6
Continuous
 62
     7
370
    15
100
AcDbLine
 10
222.9166413697
 20
149.4068187064
 30
0.0
 11
247.1721255209
 21
147.7107100275
 31
0.0
  0
LINE
  5
158
330
1F
100
AcDbEntity
  8
0
  6
Continuous
 62
     7
370
    15
100
AcDbLine
 10
222.8475237193
 20
149.4116518833
 30
0.0
 11
222.9166413697
 21
149.4068187064
 31
0.0
  0
LINE
  5
159
330
1F
100
AcDbEntity
  8
0
  6
Continuous
 62
     7
370
    15
100
AcDbLine
 10
243.6187359203
 20
147.7045669918
 30
0.0
 11
247.2354893825
 21
147.4516589526
 31
0.0
  0
LINE
  5
15A
330
1F
100
AcDbEntity
  8
0
  6
Continuous
 62
     7
370
    15
100
AcDbLine
 10
222.748723569
 20
149.1639404207
 30
0.0
 11
226.3654770313
 21
148.9110323815
 31
0.0
  0
LINE
  5
15B
330
1F
100
AcDbEntity
  8
0
  6
Continuous
 62
     7
370
    15
100
AcDbLine
 10
243.6116486625
 20
147.6032144843
 30
0.0
 11
247.2284021248
 21
147.3503064451
 31
0.0
  0
LINE
  5
15C
330
1F
100
AcDbEntity
  8
0
  6
Continuous
 62
     7
370
    15
100
AcDbLine
 10
222.7416363113
 20
149.0625879132
 30
0.0
 11
226.3583897735
 21
148.809679874
 31
0.0
  0
SPLINE
  5
15D
330
1F
100
AcDbEntity
  8
0
  6
Continuous
 62
     7
370
    15
100
AcDbSpline
210
0.0
220
0.0
230
1.0
 70
     8
 71
     3
 72
     9
 73
     5
 74
     0
 42
0.000000001
 43
0.00000001
 40
0.0
 40
0.0
 40
0.0
 40
0.0
 40
0.941553451093181
 40
1.0
 40
1.0
 40
1.0
 40
1.0
 10
269.935284893576
 20
94.2587052798688
 30
0.0
 10
269.9540063465569
 20
94.26105932500538
 30
0.0
 10
269.9738899261447
 20
94.26355949653983
 30
0.0
 10
269.9820751390052
 20
94.28230862929041
 30
0.0
 10
269.982553536449
 20
94.28340445139467
 30
0.0
  0
SPLINE
  5
15E
330
1F
100
AcDbEntity
  8
0
  6
Continuous
 62
     7
370
    15
100
AcDbSpline
210
0.0
220
0.0
230
1.0
 70
     8
 71
     3
 72
    19
 73
    15
 74
     0
 42
0.000000001
 43
0.00000001
 40
0.0
 40
0.0
 40
0.0
 40
0.0
 40
0.0188232281923166
 40
0.1288903269465899
 40
0.2174482151099676
 40
0.3084217562481366
 40
0.4009980350501107
 40
0.496286640628939
 40
0.6120283188068009
 40
0.6695029991343032
 40
0.7292147722463602
 40
0.8296906026016047
 40
0.9259670246069985
 40
0.9999999999999999
 40
0.9999999999999999
 40
0.9999999999999999
 40
0.9999999999999999
 10
269.7793249127238
 20
95.09443294120352
 30
0.0
 10
269.7757364735683
 20
95.09097093811498
 30
0.0
 10
269.7511649658942
 20
95.06726518980152
 30
0.0
 10
269.7169062260393
 20
94.997791492862
 30
0.0
 10
269.680764859454
 20
94.90283912402788
 30
0.0
 10
269.6567732825692
 20
94.8051637565855
 30
0.0
 10
269.6438246821371
 20
94.7016372504286
 30
0.0
 10
269.6459456740113
 20
94.58680846367353
 30
0.0
 10
269.6693568260621
 20
94.48669696859554
 30
0.0
 10
269.70737027776
 20
94.40941375040951
 30
0.0
 10
269.7527301461253
 20
94.34606512386553
 30
0.0
 10
269.8172698635994
 20
94.290640604705
 30
0.0
 10
269.8859463748801
 20
94.2594591833926
 30
0.0
 10
269.9203358804399
 20
94.25893370410972
 30
0.0
 10
269.935284893576
 20
94.25870527986882
 30
0.0
  0
LWPOLYLINE
  5
15F
330
1F
100
AcDbEntity
  8
0
  6
Continuous
 62
     7
370
    15
100
AcDbPolyline
 90
       32
 70
   128
 43
0.0
 10
271.2633860049
 20
96.7893656594
 10
271.2334519449
 20
96.7807500234
 10
271.2135224037
 20
96.7624709454
 10
271.2044132991
 20
96.7352767728
 10
271.2064975589
 20
96.7002808384
 10
271.2196898533
 20
96.6589158797
 10
271.2434500882
 20
96.612875383
 10
271.2768055167
 20
96.5640442518
 10
271.3183905638
 20
96.5144216382
 10
271.3665027326
 20
96.4660390979
 10
271.4191723054
 20
96.4208774177
 10
271.4742429837
 20
96.3807855221
 10
271.5294601674
 20
96.3474047782
 10
271.5825632585
 20
96.3221017974
 10
271.6313782102
 20
96.3059124867
 10
271.6739065327
 20
96.2994996384
 10
271.7084071115
 20
96.3031257954
 10
271.7334674888
 20
96.3166425022
 10
271.7480616898
 20
96.3394963834
 10
271.7515922262
 20
96.3707517984
 10
271.7439145575
 20
96.4091291467
 10
271.7253430082
 20
96.4530572553
 10
271.6966378999
 20
96.5007377021
 10
271.658974423
 20
96.5502184443
 10
271.6138945247
 20
96.5994737342
 10
271.5632437812
 20
96.6464870546
 10
271.5090958401
 20
96.6893336746
 10
271.4536675244
 20
96.7262594486
 10
271.3992280758
 20
96.7557526309
 10
271.3480062518
 20
96.7766057674
 10
271.3020990798
 20
96.787965128
 10
271.2633860049
 20
96.7893656594
  0
LINE
  5
160
330
1F
100
AcDbEntity
  8
0
  6
Continuous
 62
     7
370
    15
100
AcDbLine
 10
247.0069539253
 20
144.9735284075
 30
0.0
 11
247.0074432346
 21
144.9805258562
 31
0.0
  0
LINE
  5
161
330
1F
100
AcDbEntity
  8
0
  6
Continuous
 62
     7
370
    15
100
AcDbLine
 10
246.8922752964
 20
143.3335476092
 30
0.0
 11
247.0069539253
 21
144.9735284075
 31
0.0
  0
LINE
  5
162
330
1F
100
AcDbEntity
  8
0
  6
Continuous
 62
     7
370
    15
100
AcDbLine
 10
247.19259798
 20
144.8974327473
 30
0.0
 11
247.1930496501
 21
144.9038919307
 31
0.0
  0
LINE
  5
163
330
1F
100
AcDbEntity
  8
0
  6
Continuous
 62
     7
370
    15
100
AcDbLine
 10
247.0867407841
 20
143.3836043182
 30
0.0
 11
247.19259798
 21
144.8974327473
 31
0.0
  0
SPLINE
  5
164
330
1F
100
AcDbEntity
  8
0
  6
Continuous
 62
     7
370
    15
100
AcDbSpline
210
0.0
220
0.0
230
1.0
 70
     8
 71
     3
 72
    20
 73
    16
 74
     0
 42
0.000000001
 43
0.00000001
 40
0.0
 40
0.0
 40
0.0
 40
0.0
 40
0.0983701933096542
 40
0.196542123983226
 40
0.2999289121517902
 40
0.353193294766826
 40
0.4084272735102148
 40
0.5031549414037441
 40
0.5866518267159757
 40
0.6452444842833949
 40
0.7055202413552272
 40
0.7649782412353484
 40
0.8261004177899166
 40
0.9200436213814613
 40
1.0
 40
1.0
 40
1.0
 40
1.0
 10
264.8851530607848
 20
143.2027706351936
 30
0.0
 10
264.8829086960721
 20
143.1986212603591
 30
0.0
 10
264.8784244901073
 20
143.1903308736503
 30
0.0
 10
264.8463931388694
 20
143.1261115252854
 30
0.0
 10
264.8138924796563
 20
143.0452118084952
 30
0.0
 10
264.7918014741329
 20
142.962493625915
 30
0.0
 10
264.7779258480926
 20
142.8748626810389
 30
0.0
 10
264.7805078177719
 20
142.7647489945069
 30
0.0
 10
264.807093611465
 20
142.6589039065848
 30
0.0
 10
264.8389059808225
 20
142.5772791993923
 30
0.0
 10
264.8703113195677
 20
142.5124188993084
 30
0.0
 10
264.9026483444169
 20
142.4544763432323
 30
0.0
 10
264.9376396467091
 20
142.3974090750737
 30
0.0
 10
264.9696113269719
 20
142.3497284468459
 30
0.0
 10
264.972529148277
 20
142.3455611008796
 30
0.0
 10
264.9738707180614
 20
142.3436450186919
 30
0.0
  0
LINE
  5
165
330
1F
100
AcDbEntity
  8
0
  6
Continuous
 62
     7
370
    15
100
AcDbLine
 10
272.077398222
 20
61.4083481167
 30
0.0
 11
273.4667453099
 21
61.5543743799
 31
0.0
  0
LINE
  5
166
330
1F
100
AcDbEntity
  8
0
  6
Continuous
 62
     7
370
    15
100
AcDbLine
 10
262.9441192156
 20
148.3056932464
 30
0.0
 11
264.3334663034
 21
148.4517195096
 31
0.0
  0
SPLINE
  5
167
330
1F
100
AcDbEntity
  8
0
  6
Continuous
 62
     7
370
    15
100
AcDbSpline
210
0.0
220
0.0
230
1.0
 70
     8
 71
     3
 72
    16
 73
    12
 74
     0
 42
0.000000001
 43
0.00000001
 40
0.0
 40
0.0
 40
0.0
 40
0.0
 40
0.0950061496566222
 40
0.1933675816647053
 40
0.3845367441599872
 40
0.4969001409038529
 40
0.6121174749530179
 40
0.8032081045394462
 40
0.897982794825977
 40
0.9965641899701193
 40
1.0
 40
1.0
 40
1.0
 40
1.0
 10
263.6634615879064
 20
142.8530784892714
 30
0.0
 10
263.6605739496237
 20
142.8756751201164
 30
0.0
 10
263.654696691852
 20
142.9216664151648
 30
0.0
 10
263.6304820042072
 20
143.0088677915648
 30
0.0
 10
263.595545875018
 20
143.0913992578072
 30
0.0
 10
263.5565970173089
 20
143.1648096981342
 30
0.0
 10
263.5193050006324
 20
143.2278842705787
 30
0.0
 10
263.488768046579
 20
143.2742852198976
 30
0.0
 10
263.4741277710148
 20
143.2958146577757
 30
0.0
 10
263.4678725829684
 20
143.3049271407814
 30
0.0
 10
263.4702140703411
 20
143.3014943932669
 30
0.0
 10
263.4702929286649
 20
143.3013787826861
 30
0.0
  0
SPLINE
  5
168
330
1F
100
AcDbEntity
  8
0
  6
Continuous
 62
     7
370
    15
100
AcDbSpline
210
0.0
220
0.0
230
1.0
 70
     8
 71
     3
 72
    14
 73
    10
 74
     0
 42
0.000000001
 43
0.00000001
 40
0.0
 40
0.0
 40
0.0
 40
0.0
 40
0.1257782964908241
 40
0.3226077275969506
 40
0.5296927258205507
 40
0.639896020230894
 40
0.7535724809999734
 40
0.9310077410553924
 40
1.0
 40
1.0
 40
1.0
 40
1.0
 10
263.5633233926228
 20
142.4449498038891
 30
0.0
 10
263.5631030779018
 20
142.4445146967697
 30
0.0
 10
263.5625379944694
 20
142.4433986940653
 30
0.0
 10
263.5855381950928
 20
142.487664047508
 30
0.0
 10
263.6154287479363
 20
142.5544191600352
 30
0.0
 10
263.640360395873
 20
142.6273333014495
 30
0.0
 10
263.6594940769396
 20
142.7042589558129
 30
0.0
 10
263.6681564099862
 20
142.7830226922923
 30
0.0
 10
263.6644884936469
 20
142.8377550757644
 30
0.0
 10
263.6634615879064
 20
142.8530784892714
 30
0.0
  0
LINE
  5
169
330
1F
100
AcDbEntity
  8
0
  6
Continuous
 62
     7
370
    15
100
AcDbLine
 10
250.8476214145
 20
143.3237705342
 30
0.0
 11
250.9078619584
 21
144.1852504464
 31
0.0
  0
LINE
  5
16A
330
1F
100
AcDbEntity
  8
0
  6
Continuous
 62
     7
370
    15
100
AcDbLine
 10
274.2185843219
 20
142.5501135426
 30
0.0
 11
274.159051357
 21
141.6987524796
 31
0.0
  0
SPLINE
  5
16B
330
1F
100
AcDbEntity
  8
0
  6
Continuous
 62
     7
370
    15
100
AcDbSpline
210
0.0
220
0.0
230
1.0
 70
     8
 71
     3
 72
    17
 73
    13
 74
     0
 42
0.000000001
 43
0.00000001
 40
0.0
 40
0.0
 40
0.0
 40
0.0
 40
0.1042277673106308
 40
0.2083539958930818
 40
0.3151464113504631
 40
0.4242515077804286
 40
0.5303135946922004
 40
0.6326456232775785
 40
0.7363982297141094
 40
0.8444014752209793
 40
0.9530604771138138
 40
1.0
 40
1.0
 40
1.0
 40
1.0
 10
257.8754880812113
 20
143.6928708528559
 30
0.0
 10
257.8767822131715
 20
143.6921295310397
 30
0.0
 10
257.8793692163482
 20
143.6906476096032
 30
0.0
 10
257.8997229567795
 20
143.6828118963727
 30
0.0
 10
257.9302976981436
 20
143.6734308045216
 30
0.0
 10
257.9696689633088
 20
143.6651797066212
 30
0.0
 10
258.0125171537539
 20
143.6611262804241
 30
0.0
 10
258.0534210188979
 20
143.6618239163939
 30
0.0
 10
258.0891368722346
 20
143.6659699348523
 30
0.0
 10
258.1152534666763
 20
143.6711179613796
 30
0.0
 10
258.1287704048142
 20
143.6746714326794
 30
0.0
 10
258.1275031662873
 20
143.6747437126359
 30
0.0
 10
258.1271208774968
 20
143.6747655173841
 30
0.0
  0
LWPOLYLINE
  5
16C
330
1F
100
AcDbEntity
  8
0
  6
Continuous
 62
     7
370
    15
100
AcDbPolyline
 90
       19
 70
   128
 43
0.0
 10
258.1402072841
 20
143.8372927209
 10
258.1326190312
 20
143.8385724415
 10
258.1106652732
 20
143.8407663439
 10
258.0769939576
 20
143.8436098108
 10
258.0356663417
 20
143.8467598784
 10
257.9916671462
 20
143.8498366018
 10
257.9503033232
 20
143.852468883
 10
257.9165639603
 20
143.8543392299
 10
257.8945185227
 20
143.855222051
 10
257.8868260154
 20
143.8550108652
 10
257.8944142683
 20
143.8537311445
 10
257.9163680263
 20
143.8515372422
 10
257.9500393419
 20
143.8486937753
 10
257.9913669578
 20
143.8455437077
 10
258.0353661533
 20
143.8424669843
 10
258.0767299763
 20
143.8398347031
 10
258.1104693392
 20
143.8379643562
 10
258.1325147768
 20
143.8370815351
 10
258.1402072841
 20
143.8372927209
  0
LWPOLYLINE
  5
16D
330
1F
100
AcDbEntity
  8
0
  6
Continuous
 62
     7
370
    15
100
AcDbPolyline
 90
       18
 70
   128
 43
0.0
 10
241.8898244163
 20
62.6933053379
 10
241.885418293
 20
62.6873773316
 10
241.8763091884
 20
62.660183159
 10
241.8783934482
 20
62.6251872246
 10
241.8915857426
 20
62.5838222659
 10
241.9153459775
 20
62.5377817693
 10
241.948701406
 20
62.488950638
 10
241.9902864531
 20
62.4393280244
 10
242.0383986219
 20
62.3909454841
 10
242.0910681947
 20
62.3457838039
 10
242.146138873
 20
62.3056919084
 10
242.2013560567
 20
62.2723111644
 10
242.2544591478
 20
62.2470081836
 10
242.3032740995
 20
62.2308188729
 10
242.345802422
 20
62.2244060247
 10
242.3803030008
 20
62.2280321816
 10
242.4053633781
 20
62.2415488885
 10
242.4096103885
 20
62.2459305698
  0
LWPOLYLINE
  5
16E
330
1F
100
AcDbEntity
  8
0
  6
Continuous
 62
     7
370
    15
100
AcDbPolyline
 90
       18
 70
   128
 43
0.0
 10
272.6564613842
 20
90.8143930464
 10
272.6594125891
 20
90.8173286956
 10
272.6848018263
 20
90.8312126664
 10
272.7193024051
 20
90.8348388234
 10
272.7615018677
 20
90.8280587112
 10
272.8096725632
 20
90.8111499083
 10
272.8618423777
 20
90.7848046633
 10
272.9158754727
 20
90.7501015535
 10
272.9695597271
 20
90.7084613283
 10
273.0206973012
 20
90.6615887434
 10
273.0671946167
 20
90.6114027679
 10
273.107148068
 20
90.5599580216
 10
273.1389219562
 20
90.5093606585
 10
273.1612154544
 20
90.4616821405
 10
273.1731158643
 20
90.4188744318
 10
273.1741359818
 20
90.3826900849
 10
273.164234043
 20
90.3546104914
 10
273.1582480546
 20
90.346919221
  0
LINE
  5
16F
330
1F
100
AcDbEntity
  8
0
  6
Continuous
 62
     8
370
    15
100
AcDbLine
 10
247.1336445597
 20
144.9646693353
 30
0.0
 11
247.134133869
 21
144.971666784
 31
0.0
  0
LINE
  5
170
330
1F
100
AcDbEntity
  8
0
  6
Continuous
 62
     8
370
    15
100
AcDbLine
 10
247.0189659308
 20
143.324688537
 30
0.0
 11
247.1336445597
 21
144.9646693353
 31
0.0
  0
ENDSEC
  0
SECTION
  2
OBJECTS
  0
DICTIONARY
  5
C
330
0
100
AcDbDictionary
281
     1
  3
ACAD_GROUP
350
D
  3
ACAD_LAYOUT
350
1A
  3
ACAD_MLINESTYLE
350
17
  3
ACAD_PLOTSETTINGS
350
19
  3
ACAD_PLOTSTYLENAME
350
E
  3
ACAD_SCALELIST
350
47
  0
DICTIONARY
  5
D
102
{ACAD_REACTORS
330
C
102
}
330
C
100
AcDbDictionary
281
     1
  0
DICTIONARY
  5
1A
102
{ACAD_REACTORS
330
C
102
}
330
C
100
AcDbDictionary
281
     1
  3
Layout1
350
1E
  3
Layout2
350
26
  3
Model
350
22
  0
DICTIONARY
  5
17
102
{ACAD_REACTORS
330
C
102
}
330
C
100
AcDbDictionary
281
     1
  3
Standard
350
18
  0
DICTIONARY
  5
19
102
{ACAD_REACTORS
330
C
102
}
330
C
100
AcDbDictionary
281
     1
  0
ACDBDICTIONARYWDFLT
  5
E
102
{ACAD_REACTORS
330
C
102
}
330
C
100
AcDbDictionary
281
     1
  3
Normal
350
F
100
AcDbDictionaryWithDefault
340
F
  0
DICTIONARY
  5
47
102
{ACAD_REACTORS
330
C
102
}
330
C
100
AcDbDictionary
281
     1
  3
A0
350
48
  3
A1
350
49
  3
A2
350
4A
  3
A3
350
4B
  3
A4
350
4C
  3
A5
350
4D
  3
A6
350
4E
  3
A7
350
4F
  3
A8
350
50
  3
A9
350
51
  3
B0
350
52
  3
B1
350
53
  3
B2
350
54
  3
B3
350
55
  3
B4
350
56
  3
B5
350
57
  3
B6
350
58
  3
B7
350
59
  3
B8
350
5A
  3
B9
350
5B
  3
C0
350
5C
  3
C1
350
5D
  3
C2
350
5E
  3
C3
350
5F
  3
C4
350
60
  3
C5
350
61
  3
C6
350
62
  3
C7
350
63
  3
C8
350
64
  3
C9
350
65
  3
D0
350
66
  3
D1
350
67
  3
D2
350
68
  0
LAYOUT
  5
1E
102
{ACAD_REACTORS
330
1A
102
}
330
1A
100
AcDbPlotSettings
  1

  2
none_device
  4

  6

 40
0.0
 41
0.0
 42
0.0
 43
0.0
 44
0.0
 45
0.0
 46
0.0
 47
0.0
 48
0.0
 49
0.0
140
0.0
141
0.0
142
1.0
143
1.0
 70
   688
 72
     1
 73
     0
 74
     5
  7

 75
    16
147
1.0
148
0.0
149
0.0
100
AcDbLayout
  1
Layout1
 70
     1
 71
     1
 10
0.0
 20
0.0
 11
420.0
 21
297.0
 12
0.0
 22
0.0
 32
0.0
 14
1.0000000000E+20
 24
1.0000000000E+20
 34
1.0000000000E+20
 15
-1.0000000000E+20
 25
-1.0000000000E+20
 35
-1.0000000000E+20
146
0.0
 13
0.0
 23
0.0
 33
0.0
 16
1.0
 26
0.0
 36
0.0
 17
0.0
 27
1.0
 37
0.0
 76
     0
330
1B
  0
LAYOUT
  5
26
102
{ACAD_REACTORS
330
1A
102
}
330
1A
100
AcDbPlotSettings
  1

  2
none_device
  4

  6

 40
0.0
 41
0.0
 42
0.0
 43
0.0
 44
0.0
 45
0.0
 46
0.0
 47
0.0
 48
0.0
 49
0.0
140
0.0
141
0.0
142
1.0
143
1.0
 70
   688
 72
     1
 73
     0
 74
     5
  7

 75
    16
147
1.0
148
0.0
149
0.0
100
AcDbLayout
  1
Layout2
 70
     1
 71
     2
 10
0.0
 20
0.0
 11
0.0
 21
0.0
 12
0.0
 22
0.0
 32
0.0
 14
0.0
 24
0.0
 34
0.0
 15
0.0
 25
0.0
 35
0.0
146
0.0
 13
0.0
 23
0.0
 33
0.0
 16
1.0
 26
0.0
 36
0.0
 17
0.0
 27
1.0
 37
0.0
 76
     0
330
23
  0
LAYOUT
  5
22
102
{ACAD_REACTORS
330
1A
102
}
330
1A
100
AcDbPlotSettings
  1

  2
none_device
  4
Letter_(8.50_x_11.00_Inches)
  6

 40
6.35
 41
6.35
 42
6.35000508
 43
6.35000508
 44
215.9
 45
279.4
 46
0.0
 47
0.0
 48
0.0
 49
0.0
140
0.0
141
0.0
142
1.0
143
1.0
 70
  1712
 72
     1
 73
     0
 74
     0
  7

 75
     0
147
1.0
148
0.0
149
0.0
100
AcDbLayout
  1
Model
 70
     1
 71
     0
 10
0.0
 20
0.0
 11
431.8
 21
279.4
 12
0.0
 22
0.0
 32
0.0
 14
0.0
 24
0.0
 34
0.0
 15
431.8
 25
279.4
 35
0.0
146
0.0
 13
0.0
 23
0.0
 33
0.0
 16
1.0
 26
0.0
 36
0.0
 17
0.0
 27
1.0
 37
0.0
 76
     0
330
1F
331
29
  0
MLINESTYLE
  5
18
102
{ACAD_REACTORS
330
17
102
}
330
17
100
AcDbMlineStyle
  2
Standard
 70
     0
  3

 62
   256
 51
90.0
 52
90.0
 71
     2
 49
0.5
 62
   256
  6
BYLAYER
 49
-0.5
 62
   256
  6
BYLAYER
  0
ACDBPLACEHOLDER
  5
F
102
{ACAD_REACTORS
330
E
102
}
330
E
  0
SCALE
  5
48
102
{ACAD_REACTORS
330
47
102
}
330
47
100
AcDbScale
 70
     0
300
1:1
140
1.0
141
1.0
290
     1
  0
SCALE
  5
49
102
{ACAD_REACTORS
330
47
102
}
330
47
100
AcDbScale
 70
     0
300
1:2
140
1.0
141
2.0
290
     0
  0
SCALE
  5
4A
102
{ACAD_REACTORS
330
47
102
}
330
47
100
AcDbScale
 70
     0
300
1:4
140
1.0
141
4.0
290
     0
  0
SCALE
  5
4B
102
{ACAD_REACTORS
330
47
102
}
330
47
100
AcDbScale
 70
     0
300
1:5
140
1.0
141
5.0
290
     0
  0
SCALE
  5
4C
102
{ACAD_REACTORS
330
47
102
}
330
47
100
AcDbScale
 70
     0
300
1:8
140
1.0
141
8.0
290
     0
  0
SCALE
  5
4D
102
{ACAD_REACTORS
330
47
102
}
330
47
100
AcDbScale
 70
     0
300
1:10
140
1.0
141
10.0
290
     0
  0
SCALE
  5
4E
102
{ACAD_REACTORS
330
47
102
}
330
47
100
AcDbScale
 70
     0
300
1:16
140
1.0
141
16.0
290
     0
  0
SCALE
  5
4F
102
{ACAD_REACTORS
330
47
102
}
330
47
100
AcDbScale
 70
     0
300
1:20
140
1.0
141
20.0
290
     0
  0
SCALE
  5
50
102
{ACAD_REACTORS
330
47
102
}
330
47
100
AcDbScale
 70
     0
300
1:30
140
1.0
141
30.0
290
     0
  0
SCALE
  5
51
102
{ACAD_REACTORS
330
47
102
}
330
47
100
AcDbScale
 70
     0
300
1:40
140
1.0
141
40.0
290
     0
  0
SCALE
  5
52
102
{ACAD_REACTORS
330
47
102
}
330
47
100
AcDbScale
 70
     0
300
1:50
140
1.0
141
50.0
290
     0
  0
SCALE
  5
53
102
{ACAD_REACTORS
330
47
102
}
330
47
100
AcDbScale
 70
     0
300
1:100
140
1.0
141
100.0
290
     0
  0
SCALE
  5
54
102
{ACAD_REACTORS
330
47
102
}
330
47
100
AcDbScale
 70
     0
300
2:1
140
2.0
141
1.0
290
     0
  0
SCALE
  5
55
102
{ACAD_REACTORS
330
47
102
}
330
47
100
AcDbScale
 70
     0
300
4:1
140
4.0
141
1.0
290
     0
  0
SCALE
  5
56
102
{ACAD_REACTORS
330
47
102
}
330
47
100
AcDbScale
 70
     0
300
8:1
140
8.0
141
1.0
290
     0
  0
SCALE
  5
57
102
{ACAD_REACTORS
330
47
102
}
330
47
100
AcDbScale
 70
     0
300
10:1
140
10.0
141
1.0
290
     0
  0
SCALE
  5
58
102
{ACAD_REACTORS
330
47
102
}
330
47
100
AcDbScale
 70
     0
300
100:1
140
100.0
141
1.0
290
     0
  0
SCALE
  5
59
102
{ACAD_REACTORS
330
47
102
}
330
47
100
AcDbScale
 70
     0
300
1/128" = 1'-0"
140
0.0078125
141
12.0
290
     0
  0
SCALE
  5
5A
102
{ACAD_REACTORS
330
47
102
}
330
47
100
AcDbScale
 70
     0
300
1/64" = 1'-0"
140
0.015625
141
12.0
290
     0
  0
SCALE
  5
5B
102
{ACAD_REACTORS
330
47
102
}
330
47
100
AcDbScale
 70
     0
300
1/32" = 1'-0"
140
0.03125
141
12.0
290
     0
  0
SCALE
  5
5C
102
{ACAD_REACTORS
330
47
102
}
330
47
100
AcDbScale
 70
     0
300
1/16" = 1'-0"
140
0.0625
141
12.0
290
     0
  0
SCALE
  5
5D
102
{ACAD_REACTORS
330
47
102
}
330
47
100
AcDbScale
 70
     0
300
3/32" = 1'-0"
140
0.09375
141
12.0
290
     0
  0
SCALE
  5
5E
102
{ACAD_REACTORS
330
47
102
}
330
47
100
AcDbScale
 70
     0
300
1/8" = 1'-0"
140
0.125
141
12.0
290
     0
  0
SCALE
  5
5F
102
{ACAD_REACTORS
330
47
102
}
330
47
100
AcDbScale
 70
     0
300
3/16" = 1'-0"
140
0.1875
141
12.0
290
     0
  0
SCALE
  5
60
102
{ACAD_REACTORS
330
47
102
}
330
47
100
AcDbScale
 70
     0
300
1/4" = 1'-0"
140
0.25
141
12.0
290
     0
  0
SCALE
  5
61
102
{ACAD_REACTORS
330
47
102
}
330
47
100
AcDbScale
 70
     0
300
3/8" = 1'-0"
140
0.375
141
12.0
290
     0
  0
SCALE
  5
62
102
{ACAD_REACTORS
330
47
102
}
330
47
100
AcDbScale
 70
     0
300
1/2" = 1'-0"
140
0.5
141
12.0
290
     0
  0
SCALE
  5
63
102
{ACAD_REACTORS
330
47
102
}
330
47
100
AcDbScale
 70
     0
300
3/4" = 1'-0"
140
0.75
141
12.0
290
     0
  0
SCALE
  5
64
102
{ACAD_REACTORS
330
47
102
}
330
47
100
AcDbScale
 70
     0
300
1" = 1'-0"
140
1.0
141
12.0
290
     0
  0
SCALE
  5
65
102
{ACAD_REACTORS
330
47
102
}
330
47
100
AcDbScale
 70
     0
300
1-1/2" = 1'-0"
140
1.5
141
12.0
290
     0
  0
SCALE
  5
66
102
{ACAD_REACTORS
330
47
102
}
330
47
100
AcDbScale
 70
     0
300
3" = 1'-0"
140
3.0
141
12.0
290
     0
  0
SCALE
  5
67
102
{ACAD_REACTORS
330
47
102
}
330
47
100
AcDbScale
 70
     0
300
6" = 1'-0"
140
6.0
141
12.0
290
     0
  0
SCALE
  5
68
102
{ACAD_REACTORS
330
47
102
}
330
47
100
AcDbScale
 70
     0
300
1'-0" = 1'-0"
140
12.0
141
12.0
290
     0
  0
ENDSEC
  0
EOF
