  0
SECTION
  2
HEADER
  9
$ACADVER
  1
AC1015
  9
$ACADMAINTVER
 70
     6
  9
$DWGCODEPAGE
  3
ANSI_1252
  9
$INSBASE
 10
0.0
 20
0.0
 30
0.0
  9
$EXTMIN
 10
0.0
 20
0.0
 30
0.0
  9
$EXTMAX
 10
431.8
 20
279.4
 30
0.0
  9
$LIMMIN
 10
0.0
 20
0.0
  9
$LIMMAX
 10
431.8
 20
279.4
  9
$ORTHOMODE
 70
     0
  9
$REGENMODE
 70
     1
  9
$FILLMODE
 70
     1
  9
$QTEXTMODE
 70
     0
  9
$MIRRTEXT
 70
     1
  9
$LTSCALE
 40
1.0
  9
$ATTMODE
 70
     1
  9
$TEXTSIZE
 40
3.175
  9
$TRACEWID
 40
1.0
  9
$TEXTSTYLE
  7
Standard
  9
$CLAYER
  8
0
  9
$CELTYPE
  6
ByLayer
  9
$CECOLOR
 62
   256
  9
$CELTSCALE
 40
1.0
  9
$DISPSILH
 70
     0
  9
$DIMSCALE
 40
1.0
  9
$DIMASZ
 40
3.302
  9
$DIMEXO
 40
1.27
  9
$DIMDLI
 40
3.75
  9
$DIMRND
 40
0.0
  9
$DIMDLE
 40
0.0
  9
$DIMEXE
 40
3.175
  9
$DIMTP
 40
0.0
  9
$DIMTM
 40
0.0
  9
$DIMTXT
 40
3.175
  9
$DIMCEN
 40
2.5
  9
$DIMTSZ
 40
0.0
  9
$DIMTOL
 70
     0
  9
$DIMLIM
 70
     0
  9
$DIMTIH
 70
     1
  9
$DIMTOH
 70
     1
  9
$DIMSE1
 70
     0
  9
$DIMSE2
 70
     0
  9
$DIMTAD
 70
     0
  9
$DIMZIN
 70
     0
  9
$DIMBLK
  1

  9
$DIMASO
 70
     1
  9
$DIMSHO
 70
     1
  9
$DIMPOST
  1

  9
$DIMAPOST
  1

  9
$DIMALT
 70
     0
  9
$DIMALTD
 70
     3
  9
$DIMALTF
 40
0.0393700787
  9
$DIMLFAC
 40
5.0
  9
$DIMTOFL
 70
     1
  9
$DIMTVP
 40
0.0
  9
$DIMTIX
 70
     0
  9
$DIMSOXD
 70
     0
  9
$DIMSAH
 70
     0
  9
$DIMBLK1
  1

  9
$DIMBLK2
  1

  9
$DIMSTYLE
  2
ISO-25
  9
$DIMCLRD
 70
     0
  9
$DIMCLRE
 70
     0
  9
$DIMCLRT
 70
     0
  9
$DIMTFAC
 40
1.0
  9
$DIMGAP
 40
1.524
  9
$DIMJUST
 70
     0
  9
$DIMSD1
 70
     0
  9
$DIMSD2
 70
     0
  9
$DIMTOLJ
 70
     0
  9
$DIMTZIN
 70
     0
  9
$DIMALTZ
 70
     0
  9
$DIMALTTZ
 70
     0
  9
$DIMUPT
 70
     0
  9
$DIMDEC
 70
     0
  9
$DIMTDEC
 70
     0
  9
$DIMALTU
 70
     2
  9
$DIMALTTD
 70
     3
  9
$DIMTXSTY
  7
Standard
  9
$DIMAUNIT
 70
     0
  9
$DIMADEC
 70
     0
  9
$DIMALTRND
 40
0.0
  9
$DIMAZIN
 70
     0
  9
$DIMDSEP
 70
    44
  9
$DIMATFIT
 70
     3
  9
$DIMFRAC
 70
     0
  9
$DIMLDRBLK
  1

  9
$DIMLUNIT
 70
     2
  9
$DIMLWD
 70
    -2
  9
$DIMLWE
 70
    -2
  9
$DIMTMOVE
 70
     0
  9
$LUNITS
 70
     2
  9
$LUPREC
 70
     2
  9
$SKETCHINC
 40
1.0
  9
$FILLETRAD
 40
10.0
  9
$AUNITS
 70
     0
  9
$AUPREC
 70
     2
  9
$MENU
  1
.
  9
$ELEVATION
 40
0.0
  9
$PELEVATION
 40
0.0
  9
$THICKNESS
 40
0.0
  9
$LIMCHECK
 70
     0
  9
$CHAMFERA
 40
0.0
  9
$CHAMFERB
 40
0.0
  9
$CHAMFERC
 40
0.0
  9
$CHAMFERD
 40
0.0
  9
$SKPOLY
 70
     0
  9
$TDCREATE
 40
2458681.581051377
  9
$TDUCREATE
 40
2458681.747718044
  9
$TDUPDATE
 40
2458681.581052697
  9
$TDUUPDATE
 40
2458681.747719363
  9
$TDINDWG
 40
0.0000000116
  9
$TDUSRTIMER
 40
0.0000000116
  9
$USRTIMER
 70
     1
  9
$ANGBASE
 50
0.0
  9
$ANGDIR
 70
     0
  9
$PDMODE
 70
     0
  9
$PDSIZE
 40
-1.0
  9
$PLINEWID
 40
0.0
  9
$SPLFRAME
 70
     0
  9
$SPLINETYPE
 70
     6
  9
$SPLINESEGS
 70
     8
  9
$HANDSEED
  5
15E
  9
$SURFTAB1
 70
     6
  9
$SURFTAB2
 70
     6
  9
$SURFTYPE
 70
     6
  9
$SURFU
 70
     6
  9
$SURFV
 70
     6
  9
$UCSBASE
  2

  9
$UCSNAME
  2

  9
$UCSORG
 10
0.0
 20
0.0
 30
0.0
  9
$UCSXDIR
 10
1.0
 20
0.0
 30
0.0
  9
$UCSYDIR
 10
0.0
 20
1.0
 30
0.0
  9
$UCSORTHOREF
  2

  9
$UCSORTHOVIEW
 70
     0
  9
$UCSORGTOP
 10
0.0
 20
0.0
 30
0.0
  9
$UCSORGBOTTOM
 10
0.0
 20
0.0
 30
0.0
  9
$UCSORGLEFT
 10
0.0
 20
0.0
 30
0.0
  9
$UCSORGRIGHT
 10
0.0
 20
0.0
 30
0.0
  9
$UCSORGFRONT
 10
0.0
 20
0.0
 30
0.0
  9
$UCSORGBACK
 10
0.0
 20
0.0
 30
0.0
  9
$PUCSBASE
  2

  9
$PUCSNAME
  2

  9
$PUCSORG
 10
0.0
 20
0.0
 30
0.0
  9
$PUCSXDIR
 10
1.0
 20
0.0
 30
0.0
  9
$PUCSYDIR
 10
0.0
 20
1.0
 30
0.0
  9
$PUCSORTHOREF
  2

  9
$PUCSORTHOVIEW
 70
     0
  9
$PUCSORGTOP
 10
0.0
 20
0.0
 30
0.0
  9
$PUCSORGBOTTOM
 10
0.0
 20
0.0
 30
0.0
  9
$PUCSORGLEFT
 10
0.0
 20
0.0
 30
0.0
  9
$PUCSORGRIGHT
 10
0.0
 20
0.0
 30
0.0
  9
$PUCSORGFRONT
 10
0.0
 20
0.0
 30
0.0
  9
$PUCSORGBACK
 10
0.0
 20
0.0
 30
0.0
  9
$USERI1
 70
     0
  9
$USERI2
 70
     0
  9
$USERI3
 70
     0
  9
$USERI4
 70
     0
  9
$USERI5
 70
     0
  9
$USERR1
 40
0.0
  9
$USERR2
 40
0.0
  9
$USERR3
 40
0.0
  9
$USERR4
 40
0.0
  9
$USERR5
 40
0.0
  9
$WORLDVIEW
 70
     1
  9
$SHADEDGE
 70
     3
  9
$SHADEDIF
 70
    70
  9
$TILEMODE
 70
     1
  9
$MAXACTVP
 70
    64
  9
$PINSBASE
 10
0.0
 20
0.0
 30
0.0
  9
$PLIMCHECK
 70
     0
  9
$PEXTMIN
 10
1.0000000000E+20
 20
1.0000000000E+20
 30
1.0000000000E+20
  9
$PEXTMAX
 10
-1.0000000000E+20
 20
-1.0000000000E+20
 30
-1.0000000000E+20
  9
$PLIMMIN
 10
0.0
 20
0.0
  9
$PLIMMAX
 10
420.0
 20
297.0
  9
$UNITMODE
 70
     0
  9
$VISRETAIN
 70
     1
  9
$PLINEGEN
 70
     0
  9
$PSLTSCALE
 70
     1
  9
$TREEDEPTH
 70
  3020
  9
$CMLSTYLE
  2
Standard
  9
$CMLJUST
 70
     0
  9
$CMLSCALE
 40
20.0
  9
$PROXYGRAPHICS
 70
     1
  9
$MEASUREMENT
 70
     1
  9
$CELWEIGHT
370
    -1
  9
$ENDCAPS
280
     0
  9
$JOINSTYLE
280
     0
  9
$LWDISPLAY
290
     1
  9
$INSUNITS
 70
     4
  9
$HYPERLINKBASE
  1

  9
$STYLESHEET
  1

  9
$XEDIT
290
     1
  9
$CEPSNTYPE
380
     0
  9
$PSTYLEMODE
290
     1
  9
$FINGERPRINTGUID
  2
{088F3B79-C01A-4992-892B-9CDD1FA8DF6E}
  9
$VERSIONGUID
  2
{FAEB1C32-E019-11D5-929B-00C0DF256EC4}
  9
$EXTNAMES
290
     1
  9
$PSVPSCALE
 40
0.0
  9
$OLESTARTUP
290
     0
  0
ENDSEC
  0
SECTION
  2
CLASSES
  0
CLASS
  1
ACDBDICTIONARYWDFLT
  2
AcDbDictionaryWithDefault
  3
ObjectDBX Classes
 90
        0
280
     0
281
     0
  0
CLASS
  1
VISUALSTYLE
  2
AcDbVisualStyle
  3
ObjectDBX Classes
 90
     4095
280
     0
281
     0
  0
CLASS
  1
MATERIAL
  2
AcDbMaterial
  3
ObjectDBX Classes
 90
     1153
280
     0
281
     0
  0
CLASS
  1
SCALE
  2
AcDbScale
  3
ObjectDBX Classes
 90
     1153
280
     0
281
     0
  0
CLASS
  1
TABLESTYLE
  2
AcDbTableStyle
  3
ObjectDBX Classes
 90
     4095
280
     0
281
     0
  0
CLASS
  1
MLEADERSTYLE
  2
AcDbMLeaderStyle
  3
ACDB_MLEADERSTYLE_CLASS
 90
     4095
280
     0
281
     0
  0
CLASS
  1
SUN
  2
AcDbSun
  3
SCENEOE
 90
     1153
280
     0
281
     0
  0
CLASS
  1
ACDBPLACEHOLDER
  2
AcDbPlaceHolder
  3
ObjectDBX Classes
 90
        0
280
     0
281
     0
  0
CLASS
  1
LAYOUT
  2
AcDbLayout
  3
ObjectDBX Classes
 90
        0
280
     0
281
     0
  0
ENDSEC
  0
SECTION
  2
TABLES
  0
TABLE
  2
VPORT
  5
8
330
0
100
AcDbSymbolTable
 70
     1
  0
VPORT
  5
29
330
8
100
AcDbSymbolTableRecord
100
AcDbViewportTableRecord
  2
*Active
 70
     0
 10
0.0
 20
0.0
 11
1.0
 21
1.0
 12
215.9
 22
139.7
 13
0.0
 23
0.0
 14
10.0
 24
10.0
 15
10.0
 25
10.0
 16
0.0
 26
0.0
 36
1.0
 17
0.0
 27
0.0
 37
0.0
 40
279.4
 41
1.5454545455
 42
50.0
 43
0.0
 44
0.0
 50
0.0
 51
0.0
 71
     0
 72
  2000
 73
     1
 74
     3
 75
     0
 76
     0
 77
     0
 78
     0
281
     0
 65
     1
110
0.0
120
0.0
130
0.0
111
1.0
121
0.0
131
0.0
112
0.0
122
1.0
132
0.0
 79
     0
146
0.0
  0
ENDTAB
  0
TABLE
  2
LTYPE
  5
5
330
0
100
AcDbSymbolTable
 70
     6
  0
LTYPE
  5
14
330
5
100
AcDbSymbolTableRecord
100
AcDbLinetypeTableRecord
  2
ByBlock
 70
     0
  3

 72
    65
 73
     0
 40
0.0
  0
LTYPE
  5
15
330
5
100
AcDbSymbolTableRecord
100
AcDbLinetypeTableRecord
  2
ByLayer
 70
     0
  3

 72
    65
 73
     0
 40
0.0
  0
LTYPE
  5
16
330
5
100
AcDbSymbolTableRecord
100
AcDbLinetypeTableRecord
  2
Continuous
 70
     0
  3
Solid line
 72
    65
 73
     0
 40
0.0
  0
LTYPE
  5
6E
330
5
100
AcDbSymbolTableRecord
100
AcDbLinetypeTableRecord
  2
HIDDEN
 70
     0
  3
Hidden __ __ __ __ __ __ __ __ __ __ __ __ __ __
 72
    65
 73
     2
 40
1.905
 49
1.27
 74
     0
 49
-0.635
 74
     0
  0
LTYPE
  5
6F
330
5
100
AcDbSymbolTableRecord
100
AcDbLinetypeTableRecord
  2
PHANTOM
 70
     0
  3
Phantom ______  __  __  ______  __  __  ______
 72
    65
 73
     6
 40
12.7
 49
6.35
 74
     0
 49
-1.27
 74
     0
 49
1.27
 74
     0
 49
-1.27
 74
     0
 49
1.27
 74
     0
 49
-1.27
 74
     0
  0
LTYPE
  5
70
330
5
100
AcDbSymbolTableRecord
100
AcDbLinetypeTableRecord
  2
CENTER
 70
     0
  3
Center ____ _ ____ _ ____ _ ____ _ ____ _ ____
 72
    65
 73
     4
 40
10.16
 49
6.35
 74
     0
 49
-1.27
 74
     0
 49
1.27
 74
     0
 49
-1.27
 74
     0
  0
LTYPE
  5
71
330
5
100
AcDbSymbolTableRecord
100
AcDbLinetypeTableRecord
  2
CENTERX2
 70
     0
  3
Center (2x) ________  __  ________  __  _____
 72
    65
 73
     4
 40
20.32
 49
12.7
 74
     0
 49
-2.54
 74
     0
 49
2.54
 74
     0
 49
-2.54
 74
     0
  0
LTYPE
  5
72
330
5
100
AcDbSymbolTableRecord
100
AcDbLinetypeTableRecord
  2
DOT2
 70
     0
  3
Dot (.5x) ........................................
 72
    65
 73
     2
 40
0.635
 49
0.0
 74
     0
 49
-0.635
 74
     0
  0
ENDTAB
  0
TABLE
  2
LAYER
  5
2
330
0
100
AcDbSymbolTable
 70
     2
  0
LAYER
  5
10
330
2
100
AcDbSymbolTableRecord
100
AcDbLayerTableRecord
  2
0
 70
     0
 62
     7
  6
Continuous
370
    -3
390
F
  0
LAYER
  5
73
330
2
100
AcDbSymbolTableRecord
100
AcDbLayerTableRecord
  2
FORMAT
 70
     0
 62
     7
  6
Continuous
370
    -3
390
F
  0
ENDTAB
  0
TABLE
  2
STYLE
  5
3
330
0
100
AcDbSymbolTable
 70
     2
  0
STYLE
  5
11
330
3
100
AcDbSymbolTableRecord
100
AcDbTextStyleTableRecord
  2
Standard
 70
     0
 40
0.0
 41
1.0
 50
0.0
 71
     0
 42
3.175
  3
txt
  4

  0
STYLE
  5
B8
330
3
100
AcDbSymbolTableRecord
100
AcDbTextStyleTableRecord
  2
SLDTEXTSTYLE0
 70
     0
 40
0.0
 41
0.7
 50
0.0
 71
     0
 42
3.175
  3
TXT
  4

  0
ENDTAB
  0
TABLE
  2
VIEW
  5
6
330
0
100
AcDbSymbolTable
 70
     0
  0
ENDTAB
  0
TABLE
  2
UCS
  5
7
330
0
100
AcDbSymbolTable
 70
     0
  0
ENDTAB
  0
TABLE
  2
APPID
  5
9
330
0
100
AcDbSymbolTable
 70
     1
  0
APPID
  5
12
330
9
100
AcDbSymbolTableRecord
100
AcDbRegAppTableRecord
  2
ACAD
 70
     0
  0
ENDTAB
  0
TABLE
  2
DIMSTYLE
  5
A
330
0
100
AcDbSymbolTable
 70
     1
100
AcDbDimStyleTable
  0
DIMSTYLE
105
27
330
A
100
AcDbSymbolTableRecord
100
AcDbDimStyleTableRecord
  2
ISO-25
 70
     0
 41
2.5
 42
0.625
 43
3.75
 44
1.25
 73
     0
 74
     0
 77
     1
 78
     8
140
2.5
141
2.5
143
0.0393700787
147
0.625
171
     3
172
     1
178
     0
271
     2
272
     2
274
     3
278
    44
283
     0
284
     8
340
11
  0
ENDTAB
  0
TABLE
  2
BLOCK_RECORD
  5
1
330
0
100
AcDbSymbolTable
 70
     4
  0
BLOCK_RECORD
  5
1F
330
1
100
AcDbSymbolTableRecord
100
AcDbBlockTableRecord
  2
*Model_Space
340
22
  0
BLOCK_RECORD
  5
1B
330
1
100
AcDbSymbolTableRecord
100
AcDbBlockTableRecord
  2
*Paper_Space
340
1E
  0
BLOCK_RECORD
  5
23
330
1
100
AcDbSymbolTableRecord
100
AcDbBlockTableRecord
  2
*Paper_Space0
340
26
  0
BLOCK_RECORD
  5
BB
330
1
100
AcDbSymbolTableRecord
100
AcDbBlockTableRecord
  2
SW_NOTE_0
340
0
102
{BLKREFS
331
C1
102
}
  0
BLOCK_RECORD
  5
C6
330
1
100
AcDbSymbolTableRecord
100
AcDbBlockTableRecord
  2
SW_NOTE_1
340
0
102
{BLKREFS
331
CC
102
}
  0
BLOCK_RECORD
  5
125
330
1
100
AcDbSymbolTableRecord
100
AcDbBlockTableRecord
  2
SW_CENTERMARKSYMBOL_0
340
0
102
{BLKREFS
331
130
102
}
  0
ENDTAB
  0
ENDSEC
  0
SECTION
  2
BLOCKS
  0
BLOCK
  5
20
330
1F
100
AcDbEntity
  8
0
100
AcDbBlockBegin
  2
*Model_Space
 70
     0
 10
0.0
 20
0.0
 30
0.0
  3
*Model_Space
  1

  0
ENDBLK
  5
21
330
1F
100
AcDbEntity
  8
0
100
AcDbBlockEnd
  0
BLOCK
  5
1C
330
1B
100
AcDbEntity
 67
     1
  8
0
100
AcDbBlockBegin
  2
*Paper_Space
 70
     0
 10
0.0
 20
0.0
 30
0.0
  3
*Paper_Space
  1

  0
ENDBLK
  5
1D
330
1B
100
AcDbEntity
 67
     1
  8
0
100
AcDbBlockEnd
  0
BLOCK
  5
24
330
23
100
AcDbEntity
  8
0
100
AcDbBlockBegin
  2
*Paper_Space0
 70
     0
 10
0.0
 20
0.0
 30
0.0
  3
*Paper_Space0
  1

  0
ENDBLK
  5
25
330
23
100
AcDbEntity
  8
0
100
AcDbBlockEnd
  0
BLOCK
  5
BC
330
BB
100
AcDbEntity
  8
0
100
AcDbBlockBegin
  2
SW_NOTE_0
 70
     0
 10
0.0
 20
0.0
 30
0.0
  3
SW_NOTE_0
  1

  0
MTEXT
  5
BE
330
BB
100
AcDbEntity
  8
0
  6
Continuous
 62
     0
370
     0
100
AcDbMText
 10
0.0
 20
2.0463950369
 30
0.0
 40
1.5875
 41
0.0
 71
     1
 72
     1
  1
87 34th Street, Unit 11, Brooklyn, NY 11232
  7
SLDTEXTSTYLE0
 73
     1
 44
1.0
  0
MTEXT
  5
BF
330
BB
100
AcDbEntity
  8
0
  6
Continuous
 62
     0
370
     0
100
AcDbMText
 10
0.0
 20
-0.0702716042
 30
0.0
 40
1.5875
 41
0.0
 71
     1
 72
     1
  1
T +1 718-387-6132
  7
SLDTEXTSTYLE0
 73
     1
 44
1.0
  0
MTEXT
  5
C0
330
BB
100
AcDbEntity
  8
0
  6
Continuous
 62
     0
370
     0
100
AcDbMText
 10
0.0
 20
-2.1869382453
 30
0.0
 40
1.5875
 41
0.0
 71
     1
 72
     1
  1
www.rollandhill.com
  7
SLDTEXTSTYLE0
 73
     1
 44
1.0
  0
ENDBLK
  5
BD
330
BB
100
AcDbEntity
  8
0
100
AcDbBlockEnd
  0
BLOCK
  5
C7
330
C6
100
AcDbEntity
  8
0
100
AcDbBlockBegin
  2
SW_NOTE_1
 70
     0
 10
0.0
 20
0.0
 30
0.0
  3
SW_NOTE_1
  1

  0
MTEXT
  5
C9
330
C6
100
AcDbEntity
  8
0
  6
Continuous
 62
     0
370
     0
100
AcDbMText
 10
0.0
 20
2.0463950369
 30
0.0
 40
1.5875
 41
0.0
 71
     1
 72
     1
  1
\LPROPRIETARY AND CONFIDENTIAL
  7
SLDTEXTSTYLE0
 73
     1
 44
1.0
  0
MTEXT
  5
CA
330
C6
100
AcDbEntity
  8
0
  6
Continuous
 62
     0
370
     0
100
AcDbMText
 10
37.3117625713
 20
2.0463950369
 30
0.0
 40
1.5875
 41
0.0
 71
     1
 72
     1
  1
THE INFORMATION CONTAINED IN THIS DRAWING IS THE SOLE PROPERTY OF ROLL & HILL LLC. ANY REPRODUCTION IN
  7
SLDTEXTSTYLE0
 73
     1
 44
1.0
  0
MTEXT
  5
CB
330
C6
100
AcDbEntity
  8
0
  6
Continuous
 62
     0
370
     0
100
AcDbMText
 10
0.0
 20
-0.0702716042
 30
0.0
 40
1.5875
 41
0.0
 71
     1
 72
     1
  1
PART OR AS A WHOLE WITHOUT THE WRITTEN PERMISSION OF ROLL & HILL LLC. IS PROHIBITED.
  7
SLDTEXTSTYLE0
 73
     1
 44
1.0
  0
ENDBLK
  5
C8
330
C6
100
AcDbEntity
  8
0
100
AcDbBlockEnd
  0
BLOCK
  5
126
330
125
100
AcDbEntity
  8
0
100
AcDbBlockBegin
  2
SW_CENTERMARKSYMBOL_0
 70
     0
 10
0.0
 20
0.0
 30
0.0
  3
SW_CENTERMARKSYMBOL_0
  1

  0
LINE
  5
128
330
125
100
AcDbEntity
  8
0
  6
Continuous
 62
     0
370
     0
100
AcDbLine
 10
0.0
 20
0.0
 30
0.0
 11
0.0
 21
0.508
 31
0.0
  0
LINE
  5
129
330
125
100
AcDbEntity
  8
0
  6
Continuous
 62
     0
370
     0
100
AcDbLine
 10
0.0
 20
0.0
 30
0.0
 11
-0.508
 21
0.0
 31
0.0
  0
LINE
  5
12A
330
125
100
AcDbEntity
  8
0
  6
Continuous
 62
     0
370
     0
100
AcDbLine
 10
0.0
 20
0.0
 30
0.0
 11
0.0
 21
-0.508
 31
0.0
  0
LINE
  5
12B
330
125
100
AcDbEntity
  8
0
  6
Continuous
 62
     0
370
     0
100
AcDbLine
 10
0.0
 20
0.0
 30
0.0
 11
0.508
 21
0.0
 31
0.0
  0
LINE
  5
12C
330
125
100
AcDbEntity
  8
0
  6
Continuous
 62
     0
370
     0
100
AcDbLine
 10
0.0
 20
1.016
 30
0.0
 11
0.0
 21
25.273
 31
0.0
  0
LINE
  5
12D
330
125
100
AcDbEntity
  8
0
  6
Continuous
 62
     0
370
     0
100
AcDbLine
 10
-1.016
 20
0.0
 30
0.0
 11
-25.273
 21
0.0
 31
0.0
  0
LINE
  5
12E
330
125
100
AcDbEntity
  8
0
  6
Continuous
 62
     0
370
     0
100
AcDbLine
 10
0.0
 20
-1.016
 30
0.0
 11
0.0
 21
-25.273
 31
0.0
  0
LINE
  5
12F
330
125
100
AcDbEntity
  8
0
  6
Continuous
 62
     0
370
     0
100
AcDbLine
 10
1.016
 20
0.0
 30
0.0
 11
25.273
 21
0.0
 31
0.0
  0
ENDBLK
  5
127
330
125
100
AcDbEntity
  8
0
100
AcDbBlockEnd
  0
ENDSEC
  0
SECTION
  2
ENTITIES
  0
HATCH
  5
74
330
1F
100
AcDbEntity
  8
0
  6
Continuous
 62
     7
100
AcDbHatch
 10
0.0
 20
0.0
 30
0.0
210
0.0
220
0.0
230
1.0
  2
SOLID
 70
     1
 71
     0
 91
        2
 92
        0
 93
        6
 72
     4
 94
        3
 73
     1
 74
     0
 95
       20
 96
       16
 40
0.0
 40
0.0
 40
0.0
 40
0.0
 40
1.0
 40
1.0
 40
1.0
 40
2.0
 40
2.0
 40
2.0
 40
3.0
 40
3.0
 40
3.0
 40
4.0
 40
4.0
 40
4.0
 40
5.0
 40
5.0
 40
5.0
 40
5.0
 10
261.0219043336847
 20
23.63056361828031
 42
1.0
 10
261.2341319795987
 20
23.68742184709604
 42
1.0
 10
261.3945785321864
 20
23.72473719781129
 42
1.0
 10
261.5515161764629
 20
23.77337299628437
 42
1.0
 10
262.5617362220245
 20
24.08644572151765
 42
1.0
 10
262.9966382899503
 20
24.76217905347502
 42
1.0
 10
262.9131259646454
 20
25.88395655371281
 42
1.0
 10
262.8488620904764
 20
26.74717259793779
 42
1.0
 10
262.3071445332423
 20
27.30037799580671
 42
1.0
 10
261.2989762515715
 20
27.40941936834727
 42
1.0
 10
260.5093946232761
 20
27.49481913962259
 42
1.0
 10
259.7094699986221
 20
27.48819126576296
 42
1.0
 10
258.913837050576
 20
27.51251762112626
 42
1.0
 10
258.5159962651877
 20
27.52468175973202
 42
1.0
 10
258.1174764912431
 20
27.51463645747964
 42
1.0
 10
257.7192638284546
 20
27.51463645747964
 42
1.0
 72
     4
 94
        3
 73
     1
 74
     0
 95
       14
 96
       10
 40
17.0
 40
17.0
 40
17.0
 40
17.0
 40
18.0
 40
18.0
 40
18.0
 40
19.0
 40
19.0
 40
19.0
 40
20.0
 40
20.0
 40
20.0
 40
20.0
 10
257.7192638284546
 20
27.51463645747964
 42
1.0
 10
258.2057453879524
 20
27.36893835120056
 42
1.0
 10
258.4151924094879
 20
27.04153921726714
 42
1.0
 10
258.4151320634913
 20
26.55729487989966
 42
1.0
 10
258.4149081683119
 20
24.76100595804667
 42
1.0
 10
258.4191609275175
 20
22.96470127704905
 42
1.0
 10
258.4124688639662
 20
21.16843695483816
 42
1.0
 10
258.4104423723632
 20
20.62446660851326
 42
1.0
 10
258.2139995287706
 20
20.39587059142628
 42
1.0
 10
257.7053577757453
 20
20.25910042553502
 42
1.0
 72
     1
 10
257.7053577757453
 20
20.25910042553502
 11
260.1134120717832
 21
20.25910042553502
 72
     4
 94
        3
 73
     1
 74
     0
 95
       14
 96
       10
 40
13.0
 40
13.0
 40
13.0
 40
13.0
 40
14.0
 40
14.0
 40
14.0
 40
15.0
 40
15.0
 40
15.0
 40
16.0
 40
16.0
 40
16.0
 40
16.0
 10
260.1134120717832
 20
20.25910042553502
 42
1.0
 10
259.6377614656041
 20
20.40079128856704
 42
1.0
 10
259.4435911100346
 20
20.64162793377141
 42
1.0
 10
259.4408326829897
 20
21.14221143023692
 42
1.0
 10
259.4366701545022
 20
21.89763799307775
 42
1.0
 10
259.4392191002215
 20
22.65310606781492
 42
1.0
 10
259.4405559370167
 20
23.40855338660287
 42
1.0
 10
259.4406539512153
 20
23.46398560492077
 42
1.0
 10
259.4539911852495
 20
23.51939476107442
 42
1.0
 10
259.4607286043899
 20
23.57138302951071
 42
1.0
 72
     4
 94
        3
 73
     1
 74
     0
 95
       20
 96
       16
 40
8.0
 40
8.0
 40
8.0
 40
8.0
 40
9.0
 40
9.0
 40
9.0
 40
10.0
 40
10.0
 40
10.0
 40
11.0
 40
11.0
 40
11.0
 40
12.0
 40
12.0
 40
12.0
 40
13.0
 40
13.0
 40
13.0
 40
13.0
 10
259.4607286043899
 20
23.57138302951071
 42
1.0
 10
260.3725694925604
 20
23.65083910446931
 42
1.0
 10
260.6054131759577
 20
23.52556773374194
 42
1.0
 10
261.0037355762117
 20
22.71920223094413
 42
1.0
 10
261.378026816807
 20
21.9614848264415
 42
1.0
 10
261.7451764738302
 20
21.200166649339
 42
1.0
 10
262.1067370153144
 20
20.43629933433309
 42
1.0
 10
262.1765046750147
 20
20.28890135435546
 42
1.0
 10
262.2549406335689
 20
20.22203337745712
 42
1.0
 10
262.427398730108
 20
20.22724465786873
 42
1.0
 10
262.8718696744063
 20
20.24067529366942
 42
1.0
 10
263.3170171088603
 20
20.2311736819415
 42
1.0
 10
263.7618904879274
 20
20.2323936704376
 42
1.0
 10
263.8264337986554
 20
20.23257048036439
 42
1.0
 10
263.8909540472192
 20
20.24131411562171
 42
1.0
 10
263.9554858268652
 20
20.24609336482204
 42
1.0
 72
     4
 94
        3
 73
     1
 74
     0
 95
       14
 96
       10
 40
5.0
 40
5.0
 40
5.0
 40
5.0
 40
6.0
 40
6.0
 40
6.0
 40
7.0
 40
7.0
 40
7.0
 40
8.0
 40
8.0
 40
8.0
 40
8.0
 10
263.9554858268652
 20
20.24609336482204
 42
1.0
 10
263.5606000734738
 20
20.32757122285868
 42
1.0
 10
263.3178377375433
 20
20.57267359973515
 42
1.0
 10
263.1292772534607
 20
20.88520667032095
 42
1.0
 10
262.8739775562312
 20
21.30835818112304
 42
1.0
 10
262.6276890153665
 20
21.7369354504649
 42
1.0
 10
262.3739921385617
 20
22.16106556577572
 42
1.0
 10
262.033208300972
 20
22.73079019980925
 42
1.0
 10
261.7521543160346
 20
23.35408286053947
 42
1.0
 10
261.0219043336847
 20
23.63056361828031
 42
1.0
 97
        0
 92
        0
 93
        2
 72
     1
 10
259.4558811296203
 20
23.74052094311722
 11
259.4558811296203
 21
27.35855230546976
 72
     4
 94
        3
 73
     1
 74
     0
 95
       20
 96
       16
 40
1.0
 40
1.0
 40
1.0
 40
1.0
 40
2.0
 40
2.0
 40
2.0
 40
3.0
 40
3.0
 40
3.0
 40
4.0
 40
4.0
 40
4.0
 40
5.0
 40
5.0
 40
5.0
 40
6.0
 40
6.0
 40
6.0
 40
6.0
 10
259.4558811296203
 20
27.35855230546976
 42
1.0
 10
259.8103733099057
 20
27.35855230546976
 42
1.0
 10
260.1467440101549
 20
27.38072599997261
 42
1.0
 10
260.4792308497364
 20
27.35420547185249
 42
1.0
 10
261.3230227860075
 20
27.28690123567825
 42
1.0
 10
261.7108519014664
 20
26.95476897687368
 42
1.0
 10
261.8164781518313
 20
26.10478869315943
 42
1.0
 10
261.8719876284001
 20
25.65810454981779
 42
1.0
 10
261.8389787525148
 20
25.18024881635489
 42
1.0
 10
261.7413862071132
 20
24.73962656292206
 42
1.0
 10
261.608259863196
 20
24.13857044109259
 42
1.0
 10
261.1506181168165
 20
23.81517009427841
 42
1.0
 10
260.5489927438957
 20
23.74778168120397
 42
1.0
 10
260.1942113256325
 20
23.70804326575078
 42
1.0
 10
259.8313410453958
 20
23.74052094311722
 42
1.0
 10
259.4558811296203
 20
23.74052094311722
 42
1.0
 97
        0
 75
     0
 76
     1
 98
        1
 10
0.0
 20
0.0
  0
HATCH
  5
75
330
1F
100
AcDbEntity
  8
0
  6
Continuous
 62
     7
100
AcDbHatch
 10
0.0
 20
0.0
 30
0.0
210
0.0
220
0.0
230
1.0
  2
SOLID
 70
     1
 71
     0
 91
        2
 92
        0
 93
        2
 72
     4
 94
        3
 73
     1
 74
     0
 95
       14
 96
       10
 40
0.0
 40
0.0
 40
0.0
 40
0.0
 40
1.0
 40
1.0
 40
1.0
 40
2.0
 40
2.0
 40
2.0
 40
3.0
 40
3.0
 40
3.0
 40
3.0
 10
267.2336118279071
 20
20.23490821509466
 42
1.0
 10
268.1650050112285
 20
19.98240211471103
 42
1.0
 10
269.1482911393735
 20
20.33660467264827
 42
1.0
 10
269.7215189161771
 20
21.13111084177937
 42
1.0
 10
270.3723808569537
 20
22.03321892002499
 42
1.0
 10
270.372934348899
 20
23.32205720159637
 42
1.0
 10
269.7103360726668
 20
24.21398909980579
 42
1.0
 10
269.2464106552308
 20
24.83848445240961
 42
1.0
 10
268.6216197225536
 20
25.16033694362372
 42
1.0
 10
267.7758432870376
 20
25.16748813643033
 42
1.0
 72
     4
 94
        3
 73
     1
 74
     0
 95
       14
 96
       10
 40
3.0
 40
3.0
 40
3.0
 40
3.0
 40
4.0
 40
4.0
 40
4.0
 40
5.0
 40
5.0
 40
5.0
 40
6.0
 40
6.0
 40
6.0
 40
6.0
 10
267.7758432870376
 20
25.16748813643033
 42
1.0
 10
266.9062728477855
 20
25.1505801106106
 42
1.0
 10
266.225828300013
 20
24.723612195973
 42
1.0
 10
265.7739382574312
 20
23.92202056120339
 42
1.0
 10
265.4879189885011
 20
23.41465794151554
 42
1.0
 10
265.4259332718035
 20
22.86561853145873
 42
1.0
 10
265.4837047623288
 20
22.29272284982232
 42
1.0
 10
265.5792320909092
 20
21.34541139190241
 42
1.0
 10
266.3034040398354
 20
20.48709452013179
 42
1.0
 10
267.2336118279071
 20
20.23490821509466
 42
1.0
 97
        0
 92
        0
 93
        2
 72
     4
 94
        3
 73
     1
 74
     0
 95
       17
 96
       13
 40
0.0
 40
0.0
 40
0.0
 40
0.0
 40
1.0
 40
1.0
 40
1.0
 40
2.0
 40
2.0
 40
2.0
 40
3.0
 40
3.0
 40
3.0
 40
4.0
 40
4.0
 40
4.0
 40
4.0
 10
266.4699528411193
 20
22.82140374989816
 42
1.0
 10
266.4968487059656
 20
23.23360918874381
 42
1.0
 10
266.5993976948625
 20
23.64490674705059
 42
1.0
 10
266.7072125446274
 20
24.04607386528146
 42
1.0
 10
266.7597204805012
 20
24.2414496033099
 42
1.0
 10
266.882078331128
 20
24.42789874624283
 42
1.0
 10
267.0072628343699
 20
24.59213287496141
 42
1.0
 10
267.4640605055332
 20
25.19142205062979
 42
1.0
 10
268.2143234497673
 20
25.18405330473933
 42
1.0
 10
268.6683621173312
 20
24.58056604641373
 42
1.0
 10
269.0963628325642
 20
24.01168817818241
 42
1.0
 10
269.195680043492
 20
23.34551372899321
 42
1.0
 10
269.218762963826
 20
22.68351122534059
 42
1.0
 72
     4
 94
        3
 73
     1
 74
     0
 95
       17
 96
       13
 40
4.0
 40
4.0
 40
4.0
 40
4.0
 40
5.0
 40
5.0
 40
5.0
 40
6.0
 40
6.0
 40
6.0
 40
7.0
 40
7.0
 40
7.0
 40
8.0
 40
8.0
 40
8.0
 40
8.0
 10
269.218762963826
 20
22.68351122534059
 42
1.0
 10
269.202432645224
 20
22.05765558940843
 42
1.0
 10
269.1208448575376
 20
21.47214721006825
 42
1.0
 10
268.810867074766
 20
20.94311038392242
 42
1.0
 10
268.6078393105943
 20
20.5966013640246
 42
1.0
 10
268.3388937306983
 20
20.33416469565678
 42
1.0
 10
267.9076604687568
 20
20.30531315927085
 42
1.0
 10
267.4153070900211
 20
20.27237193240103
 42
1.0
 10
267.1048165584612
 20
20.54785025472892
 42
1.0
 10
266.8746830637486
 20
20.93428603108956
 42
1.0
 10
266.5287029361534
 20
21.51524885782822
 42
1.0
 10
266.4269741915698
 20
22.16270989809668
 42
1.0
 10
266.4699528411193
 20
22.82140374989816
 42
1.0
 97
        0
 75
     0
 76
     1
 98
        1
 10
0.0
 20
0.0
  0
HATCH
  5
76
330
1F
100
AcDbEntity
  8
0
  6
Continuous
 62
     7
100
AcDbHatch
 10
0.0
 20
0.0
 30
0.0
210
0.0
220
0.0
230
1.0
  2
SOLID
 70
     1
 71
     0
 91
        1
 92
        0
 93
        4
 72
     1
 10
273.9540333846496
 20
27.87257450949275
 11
272.4594267850394
 21
27.32510813123116
 72
     4
 94
        3
 73
     1
 74
     0
 95
       14
 96
       10
 40
6.0
 40
6.0
 40
6.0
 40
6.0
 40
7.0
 40
7.0
 40
7.0
 40
8.0
 40
8.0
 40
8.0
 40
9.0
 40
9.0
 40
9.0
 40
9.0
 10
272.4594267850394
 20
27.32510813123116
 42
1.0
 10
272.9826104338649
 20
27.28380667758701
 42
1.0
 10
273.0476395875227
 20
27.23250104921648
 42
1.0
 10
273.0527409382852
 20
26.65700799131587
 42
1.0
 10
273.0685846452182
 20
24.86961337752774
 42
1.0
 10
273.0702866329497
 20
23.08209538116094
 42
1.0
 10
273.0783845276048
 20
21.29462927466367
 42
1.0
 10
273.0805785081768
 20
20.81042375860576
 42
1.0
 10
273.0059923935969
 20
20.37668517687364
 42
1.0
 10
272.426404840594
 20
20.2590796695872
 42
1.0
 72
     1
 10
272.426404840594
 20
20.2590796695872
 11
274.6224502449564
 21
20.2590796695872
 72
     4
 94
        3
 73
     1
 74
     0
 95
       17
 96
       13
 40
1.0
 40
1.0
 40
1.0
 40
1.0
 40
2.0
 40
2.0
 40
2.0
 40
3.0
 40
3.0
 40
3.0
 40
4.0
 40
4.0
 40
4.0
 40
5.0
 40
5.0
 40
5.0
 40
5.0
 10
274.6224502449564
 20
20.2590796695872
 42
1.0
 10
274.1836818051716
 20
20.38260600321025
 42
1.0
 10
274.0006220316647
 20
20.58964274029083
 42
1.0
 10
273.9590578615309
 20
21.04279505200226
 42
1.0
 10
273.9506540088286
 20
21.13443409966764
 42
1.0
 10
273.954217881965
 20
21.22727776105204
 42
1.0
 10
273.9542086570993
 20
21.31956562427539
 42
1.0
 10
273.9539872603212
 20
23.41776441505853
 42
1.0
 10
273.9540349221275
 20
25.51596282147274
 42
1.0
 10
273.9540333846496
 20
27.61416161225588
 42
1.0
 10
273.9540333846496
 20
27.71082379150879
 42
1.0
 10
273.9540333846496
 20
27.8074859707617
 42
1.0
 10
273.9540333846496
 20
27.87257450949275
 42
1.0
 97
        0
 75
     0
 76
     1
 98
        1
 10
0.0
 20
0.0
  0
HATCH
  5
77
330
1F
100
AcDbEntity
  8
0
  6
Continuous
 62
     7
100
AcDbHatch
 10
0.0
 20
0.0
 30
0.0
210
0.0
220
0.0
230
1.0
  2
SOLID
 70
     1
 71
     0
 91
        1
 92
        0
 93
        4
 72
     1
 10
276.9460186560295
 20
20.2549177176549
 11
279.1055120673172
 21
20.2549177176549
 72
     4
 94
        3
 73
     1
 74
     0
 95
       14
 96
       10
 40
6.0
 40
6.0
 40
6.0
 40
6.0
 40
7.0
 40
7.0
 40
7.0
 40
8.0
 40
8.0
 40
8.0
 40
9.0
 40
9.0
 40
9.0
 40
9.0
 10
279.1055120673172
 20
20.2549177176549
 42
1.0
 10
278.6550987719953
 20
20.40793364087759
 42
1.0
 10
278.4823339486704
 20
20.63637283524633
 42
1.0
 10
278.4822124879378
 20
21.11904779232805
 42
1.0
 10
278.4816605334703
 20
23.30086999117493
 42
1.0
 10
278.4819664915176
 20
25.48269219002111
 42
1.0
 10
278.4819649540404
 20
27.66451419668386
 42
1.0
 10
278.4819649540404
 20
27.75219577693941
 42
1.0
 10
278.4819664915176
 20
27.83987735719566
 42
1.0
 10
278.4819664915176
 20
27.88441039662488
 42
1.0
 72
     1
 10
278.4819664915176
 20
27.88441039662488
 11
276.9846800684063
 21
27.3296354262854
 72
     4
 94
        3
 73
     1
 74
     0
 95
       17
 96
       13
 40
1.0
 40
1.0
 40
1.0
 40
1.0
 40
2.0
 40
2.0
 40
2.0
 40
3.0
 40
3.0
 40
3.0
 40
4.0
 40
4.0
 40
4.0
 40
5.0
 40
5.0
 40
5.0
 40
5.0
 10
276.9846800684063
 20
27.3296354262854
 42
1.0
 10
277.5366914227135
 20
27.25167954511983
 42
1.0
 10
277.5738092075535
 20
27.20775573119973
 42
1.0
 10
277.5772915943764
 20
26.57154691311976
 42
1.0
 10
277.5773838430334
 20
26.55476419172763
 42
1.0
 10
277.577359243392
 20
26.53798031722657
 42
1.0
 10
277.577359243392
 20
26.52119721146337
 42
1.0
 10
277.5773700057348
 20
24.72538990447762
 42
1.0
 10
277.5776652014392
 20
22.92958298186009
 42
1.0
 10
277.5771993457187
 20
21.13377529050539
 42
1.0
 10
277.5770686601204
 20
20.6342380475635
 42
1.0
 10
277.4179566381115
 20
20.4199152040148
 42
1.0
 10
276.9460186560295
 20
20.2549177176549
 42
1.0
 97
        0
 75
     0
 76
     1
 98
        1
 10
0.0
 20
0.0
  0
HATCH
  5
78
330
1F
100
AcDbEntity
  8
0
  6
Continuous
 62
     7
100
AcDbHatch
 10
0.0
 20
0.0
 30
0.0
210
0.0
220
0.0
230
1.0
  2
SOLID
 70
     1
 71
     0
 91
        3
 92
        0
 93
        9
 72
     4
 94
        3
 73
     1
 74
     0
 95
       14
 96
       10
 40
0.0
 40
0.0
 40
0.0
 40
0.0
 40
1.0
 40
1.0
 40
1.0
 40
2.0
 40
2.0
 40
2.0
 40
3.0
 40
3.0
 40
3.0
 40
3.0
 10
287.0539854214827
 20
21.61211917311517
 42
1.0
 10
287.2972697310664
 20
21.3082559388604
 42
1.0
 10
287.5152010346028
 20
21.01001756649998
 42
1.0
 10
287.7601488949774
 20
20.73592220529573
 42
1.0
 10
288.1784811821614
 20
20.26780485511384
 42
1.0
 10
288.7048673968812
 20
20.09831485913089
 42
1.0
 10
289.3271645408483
 20
20.20870037148624
 42
1.0
 10
289.9739444785289
 20
20.32342848939635
 42
1.0
 10
290.7160910783766
 20
21.04182259740494
 42
1.0
 10
290.8103661314317
 20
21.70506046432864
 42
1.0
 72
     4
 94
        3
 73
     1
 74
     0
 95
       14
 96
       10
 40
24.0
 40
24.0
 40
24.0
 40
24.0
 40
25.0
 40
25.0
 40
25.0
 40
26.0
 40
26.0
 40
26.0
 40
27.0
 40
27.0
 40
27.0
 40
27.0
 10
290.8103661314317
 20
21.70506046432864
 42
1.0
 10
290.6825002672103
 20
21.49939669476813
 42
1.0
 10
290.5884281612034
 20
21.32571784099438
 42
1.0
 10
290.4735170834558
 20
21.16713932372221
 42
1.0
 10
289.9836367374808
 20
20.49110656799653
 42
1.0
 10
289.3841588364346
 20
20.43289382139212
 42
1.0
 10
288.8166481701822
 20
21.05011190802389
 42
1.0
 10
288.4270667146001
 20
21.47381844824843
 42
1.0
 10
288.0996055050067
 20
21.95463920731319
 42
1.0
 10
287.7314564875268
 20
22.4264857094768
 42
1.0
 72
     4
 94
        3
 73
     1
 74
     0
 95
       11
 96
        7
 40
22.0
 40
22.0
 40
22.0
 40
22.0
 40
23.0
 40
23.0
 40
23.0
 40
24.0
 40
24.0
 40
24.0
 40
24.0
 10
287.7314564875268
 20
22.4264857094768
 42
1.0
 10
288.1508588591387
 20
23.00030157147278
 42
1.0
 10
288.5466855488353
 20
23.55949371503118
 42
1.0
 10
288.9612633156569
 20
24.10441845059237
 42
1.0
 10
289.4290162836425
 20
24.71923384406366
 42
1.0
 10
289.9536528488242
 20
25.26443186627322
 42
1.0
 10
290.7742138825406
 20
25.39867403457779
 42
1.0
 72
     1
 10
290.7742138825406
 20
25.39867403457779
 11
287.7715077796773
 21
25.39867403457779
 72
     4
 94
        3
 73
     1
 74
     0
 95
       17
 96
       13
 40
16.0
 40
16.0
 40
16.0
 40
16.0
 40
17.0
 40
17.0
 40
17.0
 40
18.0
 40
18.0
 40
18.0
 40
19.0
 40
19.0
 40
19.0
 40
20.0
 40
20.0
 40
20.0
 40
20.0
 10
287.7715077796773
 20
25.39867403457779
 42
1.0
 10
287.9710693005408
 20
25.34310267453518
 42
1.0
 10
288.1718392788191
 20
25.32949945687163
 42
1.0
 10
288.3670435880915
 20
25.28904726743022
 42
1.0
 10
288.7601181928394
 20
25.20759054971102
 42
1.0
 10
288.9174636530569
 20
24.97387165717582
 42
1.0
 10
288.8543009972361
 20
24.57697987985169
 42
1.0
 10
288.8373887433532
 20
24.47070865762303
 42
1.0
 10
288.8131334963293
 20
24.35736772890119
 42
1.0
 10
288.7595985254019
 20
24.26650702928458
 42
1.0
 10
288.4211781752921
 20
23.692108847638
 42
1.0
 10
288.0735790837579
 20
23.12311989664797
 42
1.0
 10
287.7233847299918
 20
22.54303496963325
 42
1.0
 72
     1
 10
287.7233847299918
 20
22.54303496963325
 11
285.8065406500284
 21
24.86455968857224
 72
     4
 94
        3
 73
     1
 74
     0
 95
       20
 96
       16
 40
10.0
 40
10.0
 40
10.0
 40
10.0
 40
11.0
 40
11.0
 40
11.0
 40
12.0
 40
12.0
 40
12.0
 40
13.0
 40
13.0
 40
13.0
 40
14.0
 40
14.0
 40
14.0
 40
15.0
 40
15.0
 40
15.0
 40
15.0
 10
285.8065406500283
 20
24.86455968857225
 42
1.0
 10
285.9002991106001
 20
24.9215528310502
 42
1.0
 10
286.0025259979348
 20
24.975621306713
 42
1.0
 10
286.0959738880259
 20
25.04203380586477
 42
1.0
 10
286.361711520857
 20
25.23088333574105
 42
1.0
 10
286.6551698752792
 20
25.39378370261948
 42
1.0
 10
286.8815726805328
 20
25.62247811827483
 42
1.0
 10
287.5614237619422
 20
26.30921056516709
 42
1.0
 10
287.361321048954
 20
27.32558686332681
 42
1.0
 10
286.4793408590448
 20
27.71426216803416
 42
1.0
 10
285.840402057257
 20
27.99583274545401
 42
1.0
 10
285.1912113546599
 20
27.99239110178883
 42
1.0
 10
284.558084218296
 20
27.68711127408746
 42
1.0
 10
283.9109291360762
 20
27.37506654483262
 42
1.0
 10
283.6309452355653
 20
26.8393466878164
 42
1.0
 10
283.7149530130354
 20
26.1296866058298
 42
1.0
 72
     4
 94
        3
 73
     1
 74
     0
 95
       11
 96
        7
 40
8.0
 40
8.0
 40
8.0
 40
8.0
 40
9.0
 40
9.0
 40
9.0
 40
10.0
 40
10.0
 40
10.0
 40
10.0
 10
283.7149530130354
 20
26.1296866058298
 42
1.0
 10
283.7707819005811
 20
25.65802498535045
 42
1.0
 10
284.0198409761273
 20
25.28515591156022
 42
1.0
 10
284.3077767109179
 20
24.93075271279267
 42
1.0
 10
284.4323277733789
 20
24.77744812814591
 42
1.0
 10
284.5641388051866
 20
24.6300390014551
 42
1.0
 10
284.7027239634148
 20
24.46818604120849
 42
1.0
 72
     4
 94
        3
 73
     1
 74
     0
 95
       20
 96
       16
 40
3.0
 40
3.0
 40
3.0
 40
3.0
 40
4.0
 40
4.0
 40
4.0
 40
5.0
 40
5.0
 40
5.0
 40
6.0
 40
6.0
 40
6.0
 40
7.0
 40
7.0
 40
7.0
 40
8.0
 40
8.0
 40
8.0
 40
8.0
 10
284.7027239634148
 20
24.46818604120849
 42
1.0
 10
284.5513685160267
 20
24.38851087568819
 42
1.0
 10
284.4255536469583
 20
24.32317807019961
 42
1.0
 10
284.3005597909425
 20
24.25632085564481
 42
1.0
 10
283.8607304915963
 20
24.02105948868024
 42
1.0
 10
283.460866385652
 20
23.73663343094009
 42
1.0
 10
283.1417229300147
 20
23.34576433784628
 42
1.0
 10
282.3522343191156
 20
22.37884389028816
 42
1.0
 10
282.6109241545095
 20
20.5355588898502
 42
1.0
 10
284.198169930981
 20
20.23446388406056
 42
1.0
 10
285.1515567317372
 20
20.05360962220845
 42
1.0
 10
285.9488126796034
 20
20.36759637788916
 42
1.0
 10
286.5896302790503
 20
21.09003174583673
 42
1.0
 10
286.7443651022574
 20
21.26447318851251
 42
1.0
 10
286.8995550188436
 20
21.43851181205056
 42
1.0
 10
287.0539854214827
 20
21.61211917311517
 42
1.0
 97
        0
 92
        0
 93
        2
 72
     4
 94
        3
 73
     1
 74
     0
 95
       14
 96
       10
 40
0.0
 40
0.0
 40
0.0
 40
0.0
 40
1.0
 40
1.0
 40
1.0
 40
2.0
 40
2.0
 40
2.0
 40
3.0
 40
3.0
 40
3.0
 40
3.0
 10
284.688382372121
 20
27.15085253116304
 42
1.0
 10
284.8337724063213
 20
27.5710895609412
 42
1.0
 10
285.1818973152029
 20
27.79269159230804
 42
1.0
 10
285.6158934244382
 20
27.76810636414938
 42
1.0
 10
285.9916529561654
 20
27.74682017860581
 42
1.0
 10
286.2400293916459
 20
27.5110460628537
 42
1.0
 10
286.3549927436335
 20
27.06650131962916
 42
1.0
 10
286.5713650448558
 20
26.2298440482801
 42
1.0
 10
286.3259713159692
 20
25.4295804098103
 42
1.0
 10
285.6520579731507
 20
24.9254318870995
 42
1.0
 72
     4
 94
        3
 73
     1
 74
     0
 95
       11
 96
        7
 40
3.0
 40
3.0
 40
3.0
 40
3.0
 40
4.0
 40
4.0
 40
4.0
 40
5.0
 40
5.0
 40
5.0
 40
5.0
 10
285.6520579731507
 20
24.9254318870995
 42
1.0
 10
285.3510444536752
 20
25.31853032275095
 42
1.0
 10
285.0380140090768
 20
25.68714980838475
 42
1.0
 10
284.7721626029031
 20
26.08712768767229
 42
1.0
 10
284.5571094574822
 20
26.41068293535724
 42
1.0
 10
284.5630810205802
 20
26.788679112661
 42
1.0
 10
284.688382372121
 20
27.15085253116304
 42
1.0
 97
        0
 92
        0
 93
        2
 72
     1
 10
284.845288113738
 20
24.3712657578988
 11
287.0009947176327
 21
21.77781006188367
 72
     4
 94
        3
 73
     1
 74
     0
 95
       14
 96
       10
 40
1.0
 40
1.0
 40
1.0
 40
1.0
 40
2.0
 40
2.0
 40
2.0
 40
3.0
 40
3.0
 40
3.0
 40
4.0
 40
4.0
 40
4.0
 40
4.0
 10
287.0009947176327
 20
21.77781006188367
 42
1.0
 10
286.5509442670314
 20
21.22618922689351
 42
1.0
 10
286.0339581905155
 20
20.90925282038733
 42
1.0
 10
285.3603677179978
 20
20.87638462370451
 42
1.0
 10
284.4974276510072
 20
20.83427541775252
 42
1.0
 10
283.8665083325146
 20
21.39392726712143
 42
1.0
 10
283.7780264951535
 20
22.28619625730053
 42
1.0
 10
283.6988925217564
 20
23.08417174469389
 42
1.0
 10
284.1054815548355
 20
23.90423117633508
 42
1.0
 10
284.845288113738
 20
24.3712657578988
 42
1.0
 97
        0
 75
     0
 76
     1
 98
        1
 10
0.0
 20
0.0
  0
HATCH
  5
79
330
1F
100
AcDbEntity
  8
0
  6
Continuous
 62
     7
100
AcDbHatch
 10
0.0
 20
0.0
 30
0.0
210
0.0
220
0.0
230
1.0
  2
SOLID
 70
     1
 71
     0
 91
        1
 92
        0
 93
        2
 72
     4
 94
        3
 73
     1
 74
     0
 95
       11
 96
        7
 40
0.0
 40
0.0
 40
0.0
 40
0.0
 40
1.0
 40
1.0
 40
1.0
 40
2.0
 40
2.0
 40
2.0
 40
2.0
 10
303.0570519104932
 20
26.35430478392947
 42
1.0
 10
303.0628482011429
 20
25.96449808787493
 42
1.0
 10
303.3259905717408
 20
25.69768229885988
 42
1.0
 10
303.6993639381942
 20
25.70301926806731
 42
1.0
 10
304.0680572227529
 20
25.70828897263022
 42
1.0
 10
304.3293945946187
 20
25.98752450590587
 42
1.0
 10
304.327448147944
 20
26.37412133304796
 42
1.0
 72
     4
 94
        3
 73
     1
 74
     0
 95
       11
 96
        7
 40
2.0
 40
2.0
 40
2.0
 40
2.0
 40
3.0
 40
3.0
 40
3.0
 40
4.0
 40
4.0
 40
4.0
 40
4.0
 10
304.327448147944
 20
26.37412133304796
 42
1.0
 10
304.3255386007336
 20
26.75299425696746
 42
1.0
 10
304.0507636744179
 20
27.04560238626284
 42
1.0
 10
303.6924299141011
 20
27.05034857969325
 42
1.0
 10
303.3266947364936
 20
27.05519259513757
 42
1.0
 10
303.0511172468595
 20
26.75330175249256
 42
1.0
 10
303.0570519104932
 20
26.35430478392947
 42
1.0
 97
        0
 75
     0
 76
     1
 98
        1
 10
0.0
 20
0.0
  0
HATCH
  5
7A
330
1F
100
AcDbEntity
  8
0
  6
Continuous
 62
     7
100
AcDbHatch
 10
0.0
 20
0.0
 30
0.0
210
0.0
220
0.0
230
1.0
  2
SOLID
 70
     1
 71
     0
 91
        1
 92
        0
 93
        4
 72
     1
 10
302.6973344203136
 20
20.2539775500868
 11
304.8038079156778
 21
20.2539775500868
 72
     4
 94
        3
 73
     1
 74
     0
 95
       17
 96
       13
 40
6.0
 40
6.0
 40
6.0
 40
6.0
 40
7.0
 40
7.0
 40
7.0
 40
8.0
 40
8.0
 40
8.0
 40
9.0
 40
9.0
 40
9.0
 40
10.0
 40
10.0
 40
10.0
 40
10.0
 10
304.8038079156778
 20
20.2539775500868
 42
1.0
 10
304.4578262506061
 20
20.33981031349822
 42
1.0
 10
304.2621822227331
 20
20.55023795748124
 42
1.0
 10
304.2107535961514
 20
20.89393877449616
 42
1.0
 10
304.1922454404932
 20
21.01764883669525
 42
1.0
 10
304.1821011631179
 20
21.14380579453512
 42
1.0
 10
304.1818797663412
 20
21.26887114326077
 42
1.0
 10
304.1797703470369
 20
22.46084295323946
 42
1.0
 10
304.1808527312862
 20
23.65282014439031
 42
1.0
 10
304.1800932173391
 20
24.84479541369365
 42
1.0
 10
304.1800409430993
 20
24.93136078519359
 42
1.0
 10
304.1727133247369
 20
25.01792115989102
 42
1.0
 10
304.1706223551654
 20
25.06377258638473
 42
1.0
 72
     1
 10
304.1706223551654
 20
25.06377258638473
 11
302.7125031745686
 21
24.50968064047992
 72
     4
 94
        3
 73
     1
 74
     0
 95
       17
 96
       13
 40
1.0
 40
1.0
 40
1.0
 40
1.0
 40
2.0
 40
2.0
 40
2.0
 40
3.0
 40
3.0
 40
3.0
 40
4.0
 40
4.0
 40
4.0
 40
5.0
 40
5.0
 40
5.0
 40
5.0
 10
302.7125031745686
 20
24.50968064047994
 42
1.0
 10
302.7604109773859
 20
24.50557288463289
 42
1.0
 10
302.8224697242704
 20
24.49650561033552
 42
1.0
 10
302.8846514693661
 20
24.49557889569631
 42
1.0
 10
303.1332831261333
 20
24.4918735746181
 42
1.0
 10
303.2632153602819
 20
24.35030186610297
 42
1.0
 10
303.2668591822546
 20
24.11891186780057
 42
1.0
 10
303.2829750227277
 20
23.09531768874206
 42
1.0
 10
303.296603224403
 20
22.071496731734
 42
1.0
 10
303.2916556214044
 20
21.04785181591346
 42
1.0
 10
303.2897768237453
 20
20.65853557522151
 42
1.0
 10
303.1321361678242
 20
20.3494649042487
 42
1.0
 10
302.6973344203136
 20
20.2539775500868
 42
1.0
 97
        0
 75
     0
 76
     1
 98
        1
 10
0.0
 20
0.0
  0
HATCH
  5
7B
330
1F
100
AcDbEntity
  8
0
  6
Continuous
 62
     7
100
AcDbHatch
 10
0.0
 20
0.0
 30
0.0
210
0.0
220
0.0
230
1.0
  2
SOLID
 70
     1
 71
     0
 91
        1
 92
        0
 93
        4
 72
     1
 10
308.65963267846
 20
27.88697759989075
 11
307.1608133901539
 21
27.32540717062984
 72
     4
 94
        3
 73
     1
 74
     0
 95
       20
 96
       16
 40
5.0
 40
5.0
 40
5.0
 40
5.0
 40
6.0
 40
6.0
 40
6.0
 40
7.0
 40
7.0
 40
7.0
 40
8.0
 40
8.0
 40
8.0
 40
9.0
 40
9.0
 40
9.0
 40
10.0
 40
10.0
 40
10.0
 40
10.0
 10
307.1608133901539
 20
27.32540717062984
 42
1.0
 10
307.6774858212348
 20
27.28280885460759
 42
1.0
 10
307.7501131893193
 20
27.20350460556406
 42
1.0
 10
307.7547502218385
 20
26.63215658734291
 42
1.0
 10
307.7552944889174
 20
26.56503146731187
 42
1.0
 10
307.7550361926765
 20
26.49789904426262
 42
1.0
 10
307.7550361926765
 20
26.43077008053731
 42
1.0
 10
307.7550484924979
 20
24.69380511724257
 42
1.0
 10
307.7587445887104
 20
22.95682170421714
 42
1.0
 10
307.7500732149022
 20
21.21990094340409
 42
1.0
 10
307.7490584796685
 20
21.01681475508336
 42
1.0
 10
307.7285516030971
 20
20.78446498637255
 42
1.0
 10
307.6283941606454
 20
20.61954360515536
 42
1.0
 10
307.5293898264143
 20
20.45652254628292
 42
1.0
 10
307.3179589782804
 20
20.36177625633667
 42
1.0
 10
307.178408284104
 20
20.25443648715803
 42
1.0
 72
     1
 10
307.178408284104
 20
20.25443648715803
 11
309.3620693061908
 21
20.25443648715802
 72
     4
 94
        3
 73
     1
 74
     0
 95
       14
 96
       10
 40
1.0
 40
1.0
 40
1.0
 40
1.0
 40
2.0
 40
2.0
 40
2.0
 40
3.0
 40
3.0
 40
3.0
 40
4.0
 40
4.0
 40
4.0
 40
4.0
 10
309.3620693061908
 20
20.25443648715802
 42
1.0
 10
308.807415027844
 20
20.43200746554105
 42
1.0
 10
308.6597679764911
 20
20.6374237012035
 42
1.0
 10
308.6597187772069
 20
21.15880542625192
 42
1.0
 10
308.6595035303402
 20
23.32371921490944
 42
1.0
 10
308.65963267846
 20
25.48863300356693
 42
1.0
 10
308.65963267846
 20
27.65354698440997
 42
1.0
 10
308.65963267846
 20
27.74275854708867
 42
1.0
 10
308.65963267846
 20
27.83196991758182
 42
1.0
 10
308.65963267846
 20
27.88697759989075
 42
1.0
 97
        0
 75
     0
 76
     1
 98
        1
 10
0.0
 20
0.0
  0
HATCH
  5
7C
330
1F
100
AcDbEntity
  8
0
  6
Continuous
 62
     7
100
AcDbHatch
 10
0.0
 20
0.0
 30
0.0
210
0.0
220
0.0
230
1.0
  2
SOLID
 70
     1
 71
     0
 91
        1
 92
        0
 93
        4
 72
     1
 10
313.1781318226163
 20
27.87703492426926
 11
311.6691528821608
 21
27.32445797038016
 72
     4
 94
        3
 73
     1
 74
     0
 95
       17
 96
       13
 40
6.0
 40
6.0
 40
6.0
 40
6.0
 40
7.0
 40
7.0
 40
7.0
 40
8.0
 40
8.0
 40
8.0
 40
9.0
 40
9.0
 40
9.0
 40
10.0
 40
10.0
 40
10.0
 40
10.0
 10
311.6691528821608
 20
27.32445797038016
 42
1.0
 10
312.2096131670664
 20
27.27631108979181
 42
1.0
 10
312.2683694120104
 20
27.21300429544448
 42
1.0
 10
312.2823973578678
 20
26.60716642601487
 42
1.0
 10
312.2845313768121
 20
26.51487279724974
 42
1.0
 10
312.2871512386867
 20
26.42255802816857
 42
1.0
 10
312.2871819882395
 20
26.33025248395311
 42
1.0
 10
312.2877662297369
 20
24.60974045310045
 42
1.0
 10
312.2890700107628
 20
22.88922803787955
 42
1.0
 10
312.2876555313485
 20
21.16871754450475
 42
1.0
 10
312.2872188877024
 20
20.63608302071405
 42
1.0
 10
312.1185268426077
 20
20.41647125413319
 42
1.0
 10
311.6156486607861
 20
20.25320881127337
 42
1.0
 72
     1
 10
311.6156486607861
 20
20.25320881127337
 11
313.8867245107604
 21
20.25320881127337
 72
     4
 94
        3
 73
     1
 74
     0
 95
       17
 96
       13
 40
1.0
 40
1.0
 40
1.0
 40
1.0
 40
2.0
 40
2.0
 40
2.0
 40
3.0
 40
3.0
 40
3.0
 40
4.0
 40
4.0
 40
4.0
 40
5.0
 40
5.0
 40
5.0
 40
5.0
 10
313.8867245107604
 20
20.25320881127337
 42
1.0
 10
313.3266152617988
 20
20.4348325806782
 42
1.0
 10
313.1888880160859
 20
20.62648762285203
 42
1.0
 10
313.1786115156352
 20
21.17082388885262
 42
1.0
 10
313.1771847363981
 20
21.24633325874564
 42
1.0
 10
313.1781441224363
 20
21.32188875296783
 42
1.0
 10
313.1781441224363
 20
21.39742349124222
 42
1.0
 10
313.1781256727049
 20
23.48721689184593
 42
1.0
 10
313.1781318226163
 20
25.57700952371036
 42
1.0
 10
313.1781318226163
 20
27.66680273212925
 42
1.0
 10
313.1781318226163
 20
27.75161518695077
 42
1.0
 10
313.1781318226163
 20
27.83642744958889
 42
1.0
 10
313.1781318226163
 20
27.87703492426926
 42
1.0
 97
        0
 75
     0
 76
     1
 98
        1
 10
0.0
 20
0.0
  0
HATCH
  5
7D
330
1F
100
AcDbEntity
  8
0
  6
Continuous
 62
     7
100
AcDbHatch
 10
0.0
 20
0.0
 30
0.0
210
0.0
220
0.0
230
1.0
  2
SOLID
 70
     1
 71
     0
 91
        1
 92
        0
 93
       12
 72
     1
 10
296.2715297073844
 20
27.50458020069891
 11
293.841527870193
 21
27.50458020069891
 72
     4
 94
        3
 73
     1
 74
     0
 95
       17
 96
       13
 40
21.0
 40
21.0
 40
21.0
 40
21.0
 40
22.0
 40
22.0
 40
22.0
 40
23.0
 40
23.0
 40
23.0
 40
24.0
 40
24.0
 40
24.0
 40
25.0
 40
25.0
 40
25.0
 40
25.0
 10
293.841527870193
 20
27.50458020069891
 42
1.0
 10
294.4654639653083
 20
27.35271373418588
 42
1.0
 10
294.541848928711
 20
26.88863860486635
 42
1.0
 10
294.5396718603926
 20
26.35648992400541
 42
1.0
 10
294.5326947869268
 20
24.65236702027423
 42
1.0
 10
294.54232862173
 20
22.9481603240125
 42
1.0
 10
294.5304592944584
 20
21.24409084762873
 42
1.0
 10
294.52894334152
 20
21.02641399663968
 42
1.0
 10
294.4888489999954
 20
20.77588586122133
 42
1.0
 10
294.3739502220706
 20
20.60171040217499
 42
1.0
 10
294.2655211499942
 20
20.43733713173098
 42
1.0
 10
294.0348564567621
 20
20.35359533789035
 42
1.0
 10
293.8906841048422
 20
20.25643828302682
 42
1.0
 72
     1
 10
293.8906841048422
 20
20.25643828302682
 11
296.2880237673525
 21
20.25643828302682
 72
     4
 94
        3
 73
     1
 74
     0
 95
       14
 96
       10
 40
17.0
 40
17.0
 40
17.0
 40
17.0
 40
18.0
 40
18.0
 40
18.0
 40
19.0
 40
19.0
 40
19.0
 40
20.0
 40
20.0
 40
20.0
 40
20.0
 10
296.2880237673525
 20
20.25643828302682
 42
1.0
 10
295.7413366980624
 20
20.4024294709773
 42
1.0
 10
295.5628078711177
 20
20.63015527572819
 42
1.0
 10
295.5619960829322
 20
21.2138824872384
 42
1.0
 10
295.560827599936
 20
22.05336910178782
 42
1.0
 10
295.561359567195
 20
22.89285956003151
 42
1.0
 10
295.5621928800676
 20
23.73234771205876
 42
1.0
 10
295.5622759038603
 20
23.81306182808445
 42
1.0
 10
295.5696219719554
 20
23.89376787235267
 42
1.0
 10
295.5733857171835
 20
23.97022240661697
 42
1.0
 72
     1
 10
295.5733857171835
 20
23.97022240661697
 11
298.4851131190222
 21
23.97022240661697
 72
     4
 94
        3
 73
     1
 74
     0
 95
       11
 96
        7
 40
14.0
 40
14.0
 40
14.0
 40
14.0
 40
15.0
 40
15.0
 40
15.0
 40
16.0
 40
16.0
 40
16.0
 40
16.0
 10
298.4851131190222
 20
23.97022240661697
 42
1.0
 10
298.4851131190222
 20
23.04419117651474
 42
1.0
 10
298.4852207424561
 20
22.13796342697173
 42
1.0
 10
298.485073144605
 20
21.23173567742801
 42
1.0
 10
298.4849747460367
 20
20.62384393007452
 42
1.0
 10
298.3307257657572
 20
20.41986831094703
 42
1.0
 10
297.7632396991476
 20
20.25412130424438
 42
1.0
 72
     1
 10
297.7632396991476
 20
20.25412130424438
 11
300.2193725060648
 21
20.25412130424438
 72
     4
 94
        3
 73
     1
 74
     0
 95
       17
 96
       13
 40
9.0
 40
9.0
 40
9.0
 40
9.0
 40
10.0
 40
10.0
 40
10.0
 40
11.0
 40
11.0
 40
11.0
 40
12.0
 40
12.0
 40
12.0
 40
13.0
 40
13.0
 40
13.0
 40
13.0
 10
300.2193725060648
 20
20.25412130424438
 42
1.0
 10
299.739442715284
 20
20.41422423058344
 42
1.0
 10
299.5427163031618
 20
20.62720562490344
 42
1.0
 10
299.542119761843
 20
21.03839632851544
 42
1.0
 10
299.5393769017586
 20
22.92724217217554
 42
1.0
 10
299.5395583241182
 20
24.8160968563317
 42
1.0
 10
299.5421628112159
 20
26.70494346873036
 42
1.0
 10
299.5426363543262
 20
27.0468754177367
 42
1.0
 10
299.7248336028849
 20
27.28837413924314
 42
1.0
 10
300.049118383702
 20
27.40930924651266
 42
1.0
 10
300.1052670665942
 20
27.43024796211264
 42
1.0
 10
300.1600043450263
 20
27.45496618208605
 42
1.0
 10
300.2549312885929
 20
27.49433829349534
 42
1.0
 72
     1
 10
300.2549312885929
 20
27.49433829349534
 11
297.7186989723292
 21
27.49433829349534
 72
     4
 94
        3
 73
     1
 74
     0
 95
       14
 96
       10
 40
5.0
 40
5.0
 40
5.0
 40
5.0
 40
6.0
 40
6.0
 40
6.0
 40
7.0
 40
7.0
 40
7.0
 40
8.0
 40
8.0
 40
8.0
 40
8.0
 10
297.7186989723292
 20
27.49433829349534
 42
1.0
 10
298.3648823686909
 20
27.26685790861022
 42
1.0
 10
298.4850762195593
 20
27.0944786077999
 42
1.0
 10
298.4851069691121
 20
26.45733654080182
 42
1.0
 10
298.4851377186649
 20
25.7773505457302
 42
1.0
 10
298.4851131190222
 20
25.09736416629037
 42
1.0
 10
298.4851131190222
 20
24.41737817121947
 42
1.0
 10
298.4851131190222
 20
24.32893553953832
 42
1.0
 10
298.4851131190222
 20
24.24049329222682
 42
1.0
 10
298.4851131190222
 20
24.16049564077468
 42
1.0
 72
     1
 10
298.4851131190222
 20
24.16049564077468
 11
295.5632814142282
 21
24.16049564077468
 72
     4
 94
        3
 73
     1
 74
     0
 95
       14
 96
       10
 40
1.0
 40
1.0
 40
1.0
 40
1.0
 40
2.0
 40
2.0
 40
2.0
 40
3.0
 40
3.0
 40
3.0
 40
4.0
 40
4.0
 40
4.0
 40
4.0
 10
295.5632814142282
 20
24.16049564077468
 42
1.0
 10
295.5632814142282
 20
25.01272602299438
 42
1.0
 10
295.5627432970579
 20
25.84365465270932
 42
1.0
 10
295.5644406723573
 20
26.67457866999212
 42
1.0
 10
295.5645605956114
 20
26.73240397223375
 42
1.0
 10
295.5792681065788
 20
26.79059327230427
 42
1.0
 10
295.5906023916358
 20
26.8479388815276
 42
1.0
 10
295.6648994604227
 20
27.22384581892186
 42
1.0
 10
295.9411319155254
 20
27.38780204855992
 42
1.0
 10
296.2715297073844
 20
27.50458020069891
 42
1.0
 97
        0
 75
     0
 76
     1
 98
        1
 10
0.0
 20
0.0
  0
SPLINE
  5
7E
330
1F
100
AcDbEntity
  8
0
  6
Continuous
 62
   179
370
     0
100
AcDbSpline
210
0.0
220
0.0
230
1.0
 70
     8
 71
     3
 72
    14
 73
    10
 74
     0
 42
0.000000001
 43
0.00000001
 40
24.0
 40
24.0
 40
24.0
 40
24.0
 40
25.0
 40
25.0
 40
25.0
 40
26.0
 40
26.0
 40
26.0
 40
27.0
 40
27.0
 40
27.0
 40
27.0
 10
287.7314564875268
 20
22.42648570947681
 30
0.0
 10
288.0996055050067
 20
21.95463920731319
 30
0.0
 10
288.4270667146001
 20
21.47381844824843
 30
0.0
 10
288.8166481701822
 20
21.05011190802389
 30
0.0
 10
289.3841588364346
 20
20.43289382139212
 30
0.0
 10
289.9836367374808
 20
20.49110656799654
 30
0.0
 10
290.4735170834558
 20
21.16713932372222
 30
0.0
 10
290.5884281612034
 20
21.32571784099438
 30
0.0
 10
290.6825002672103
 20
21.49939669476814
 30
0.0
 10
290.8103661314317
 20
21.70506046432864
 30
0.0
  0
SPLINE
  5
7F
330
1F
100
AcDbEntity
  8
0
  6
Continuous
 62
   179
370
     0
100
AcDbSpline
210
0.0
220
0.0
230
1.0
 70
     8
 71
     3
 72
    11
 73
     7
 74
     0
 42
0.000000001
 43
0.00000001
 40
22.0
 40
22.0
 40
22.0
 40
22.0
 40
23.0
 40
23.0
 40
23.0
 40
24.0
 40
24.0
 40
24.0
 40
24.0
 10
290.7742138825406
 20
25.39867403457779
 30
0.0
 10
289.9536528488242
 20
25.26443186627322
 30
0.0
 10
289.4290162836425
 20
24.71923384406366
 30
0.0
 10
288.9612633156569
 20
24.10441845059237
 30
0.0
 10
288.5466855488353
 20
23.55949371503119
 30
0.0
 10
288.1508588591388
 20
23.00030157147279
 30
0.0
 10
287.7314564875268
 20
22.42648570947681
 30
0.0
  0
SPLINE
  5
80
330
1F
100
AcDbEntity
  8
0
  6
Continuous
 62
   179
370
     0
100
AcDbSpline
210
0.0
220
0.0
230
1.0
 70
     8
 71
     3
 72
    11
 73
     7
 74
     0
 42
0.000000001
 43
0.00000001
 40
20.0
 40
20.0
 40
20.0
 40
20.0
 40
21.0
 40
21.0
 40
21.0
 40
22.0
 40
22.0
 40
22.0
 40
22.0
 10
287.7715077796773
 20
25.39867403457779
 30
0.0
 10
288.2706160663608
 20
25.39867403457779
 30
0.0
 10
288.76972127809
 20
25.39867441894744
 30
0.0
 10
289.2688295647749
 20
25.39867441894744
 30
0.0
 10
289.7706253623487
 20
25.39867441894744
 30
0.0
 10
290.2724180849667
 20
25.39867403457779
 30
0.0
 10
290.7742138825406
 20
25.39867403457779
 30
0.0
  0
SPLINE
  5
81
330
1F
100
AcDbEntity
  8
0
  6
Continuous
 62
   179
370
     0
100
AcDbSpline
210
0.0
220
0.0
230
1.0
 70
     8
 71
     3
 72
    17
 73
    13
 74
     0
 42
0.000000001
 43
0.00000001
 40
16.0
 40
16.0
 40
16.0
 40
16.0
 40
17.0
 40
17.0
 40
17.0
 40
18.0
 40
18.0
 40
18.0
 40
19.0
 40
19.0
 40
19.0
 40
20.0
 40
20.0
 40
20.0
 40
20.0
 10
287.7233847299918
 20
22.54303496963325
 30
0.0
 10
288.0735790837579
 20
23.12311989664797
 30
0.0
 10
288.4211781752921
 20
23.692108847638
 30
0.0
 10
288.7595985254019
 20
24.26650702928458
 30
0.0
 10
288.8131334963293
 20
24.3573677289012
 30
0.0
 10
288.8373887433532
 20
24.47070865762303
 30
0.0
 10
288.8543009972361
 20
24.57697987985169
 30
0.0
 10
288.9174636530569
 20
24.97387165717582
 30
0.0
 10
288.7601181928394
 20
25.20759054971102
 30
0.0
 10
288.3670435880915
 20
25.28904726743022
 30
0.0
 10
288.1718392788191
 20
25.32949945687163
 30
0.0
 10
287.9710693005408
 20
25.34310267453518
 30
0.0
 10
287.7715077796773
 20
25.39867403457779
 30
0.0
  0
SPLINE
  5
82
330
1F
100
AcDbEntity
  8
0
  6
Continuous
 62
   179
370
     0
100
AcDbSpline
210
0.0
220
0.0
230
1.0
 70
     8
 71
     3
 72
     8
 73
     4
 74
     0
 42
0.000000001
 43
0.00000001
 40
15.0
 40
15.0
 40
15.0
 40
15.0
 40
16.0
 40
16.0
 40
16.0
 40
16.0
 10
285.8065406500283
 20
24.86455968857225
 30
0.0
 10
286.4380688096612
 20
24.09970377545334
 30
0.0
 10
287.0596648638312
 20
23.34687900912474
 30
0.0
 10
287.7233847299918
 20
22.54303496963325
 30
0.0
  0
SPLINE
  5
83
330
1F
100
AcDbEntity
  8
0
  6
Continuous
 62
   179
370
     0
100
AcDbSpline
210
0.0
220
0.0
230
1.0
 70
     8
 71
     3
 72
    26
 73
    22
 74
     0
 42
0.000000001
 43
0.00000001
 40
8.0
 40
8.0
 40
8.0
 40
8.0
 40
9.0
 40
9.0
 40
9.0
 40
10.0
 40
10.0
 40
10.0
 40
11.0
 40
11.0
 40
11.0
 40
12.0
 40
12.0
 40
12.0
 40
13.0
 40
13.0
 40
13.0
 40
14.0
 40
14.0
 40
14.0
 40
15.0
 40
15.0
 40
15.0
 40
15.0
 10
284.7027239634148
 20
24.4681860412085
 30
0.0
 10
284.5641388051866
 20
24.63003900145511
 30
0.0
 10
284.4323277733789
 20
24.77744812814592
 30
0.0
 10
284.3077767109179
 20
24.93075271279267
 30
0.0
 10
284.0198409761273
 20
25.28515591156022
 30
0.0
 10
283.7707819005811
 20
25.65802498535045
 30
0.0
 10
283.7149530130354
 20
26.1296866058298
 30
0.0
 10
283.6309452355654
 20
26.8393466878164
 30
0.0
 10
283.9109291360762
 20
27.37506654483262
 30
0.0
 10
284.558084218296
 20
27.68711127408746
 30
0.0
 10
285.1912113546599
 20
27.99239110178883
 30
0.0
 10
285.840402057257
 20
27.99583274545402
 30
0.0
 10
286.4793408590448
 20
27.71426216803416
 30
0.0
 10
287.361321048954
 20
27.32558686332681
 30
0.0
 10
287.5614237619422
 20
26.30921056516709
 30
0.0
 10
286.8815726805328
 20
25.62247811827483
 30
0.0
 10
286.6551698752792
 20
25.39378370261948
 30
0.0
 10
286.361711520857
 20
25.23088333574105
 30
0.0
 10
286.0959738880259
 20
25.04203380586477
 30
0.0
 10
286.0025259979348
 20
24.97562130671301
 30
0.0
 10
285.9002991106001
 20
24.9215528310502
 30
0.0
 10
285.8065406500283
 20
24.86455968857225
 30
0.0
  0
SPLINE
  5
84
330
1F
100
AcDbEntity
  8
0
  6
Continuous
 62
   179
370
     0
100
AcDbSpline
210
0.0
220
0.0
230
1.0
 70
     8
 71
     3
 72
    20
 73
    16
 74
     0
 42
0.000000001
 43
0.00000001
 40
3.0
 40
3.0
 40
3.0
 40
3.0
 40
4.0
 40
4.0
 40
4.0
 40
5.0
 40
5.0
 40
5.0
 40
6.0
 40
6.0
 40
6.0
 40
7.0
 40
7.0
 40
7.0
 40
8.0
 40
8.0
 40
8.0
 40
8.0
 10
287.0539854214827
 20
21.61211917311518
 30
0.0
 10
286.8995550188436
 20
21.43851181205056
 30
0.0
 10
286.7443651022574
 20
21.26447318851252
 30
0.0
 10
286.5896302790503
 20
21.09003174583674
 30
0.0
 10
285.9488126796034
 20
20.36759637788917
 30
0.0
 10
285.1515567317372
 20
20.05360962220845
 30
0.0
 10
284.198169930981
 20
20.23446388406056
 30
0.0
 10
282.6109241545095
 20
20.5355588898502
 30
0.0
 10
282.3522343191156
 20
22.37884389028816
 30
0.0
 10
283.1417229300147
 20
23.34576433784628
 30
0.0
 10
283.460866385652
 20
23.7366334309401
 30
0.0
 10
283.8607304915963
 20
24.02105948868025
 30
0.0
 10
284.3005597909425
 20
24.25632085564482
 30
0.0
 10
284.4255536469583
 20
24.32317807019961
 30
0.0
 10
284.5513685160267
 20
24.38851087568819
 30
0.0
 10
284.7027239634148
 20
24.4681860412085
 30
0.0
  0
SPLINE
  5
85
330
1F
100
AcDbEntity
  8
0
  6
Continuous
 62
   179
370
     0
100
AcDbSpline
210
0.0
220
0.0
230
1.0
 70
     8
 71
     3
 72
    14
 73
    10
 74
     0
 42
0.000000001
 43
0.00000001
 40
0.0
 40
0.0
 40
0.0
 40
0.0
 40
1.0
 40
1.0
 40
1.0
 40
2.0
 40
2.0
 40
2.0
 40
3.0
 40
3.0
 40
3.0
 40
3.0
 10
290.8103661314317
 20
21.70506046432864
 30
0.0
 10
290.7160910783766
 20
21.04182259740494
 30
0.0
 10
289.9739444785289
 20
20.32342848939635
 30
0.0
 10
289.3271645408483
 20
20.20870037148624
 30
0.0
 10
288.7048673968812
 20
20.0983148591309
 30
0.0
 10
288.1784811821614
 20
20.26780485511384
 30
0.0
 10
287.7601488949774
 20
20.73592220529573
 30
0.0
 10
287.5152010346028
 20
21.01001756649998
 30
0.0
 10
287.2972697310665
 20
21.30825593886041
 30
0.0
 10
287.0539854214827
 20
21.61211917311518
 30
0.0
  0
SPLINE
  5
86
330
1F
100
AcDbEntity
  8
0
  6
Continuous
 62
   179
370
     0
100
AcDbSpline
210
0.0
220
0.0
230
1.0
 70
     8
 71
     3
 72
    14
 73
    10
 74
     0
 42
0.000000001
 43
0.00000001
 40
1.0
 40
1.0
 40
1.0
 40
1.0
 40
2.0
 40
2.0
 40
2.0
 40
3.0
 40
3.0
 40
3.0
 40
4.0
 40
4.0
 40
4.0
 40
4.0
 10
284.845288113738
 20
24.3712657578988
 30
0.0
 10
284.1054815548355
 20
23.90423117633508
 30
0.0
 10
283.6988925217564
 20
23.08417174469389
 30
0.0
 10
283.7780264951535
 20
22.28619625730053
 30
0.0
 10
283.8665083325146
 20
21.39392726712143
 30
0.0
 10
284.4974276510072
 20
20.83427541775253
 30
0.0
 10
285.3603677179978
 20
20.87638462370452
 30
0.0
 10
286.0339581905155
 20
20.90925282038733
 30
0.0
 10
286.5509442670314
 20
21.22618922689351
 30
0.0
 10
287.0009947176327
 20
21.77781006188367
 30
0.0
  0
SPLINE
  5
87
330
1F
100
AcDbEntity
  8
0
  6
Continuous
 62
   179
370
     0
100
AcDbSpline
210
0.0
220
0.0
230
1.0
 70
     8
 71
     3
 72
     8
 73
     4
 74
     0
 42
0.000000001
 43
0.00000001
 40
0.0
 40
0.0
 40
0.0
 40
0.0
 40
1.0
 40
1.0
 40
1.0
 40
1.0
 10
287.0009947176327
 20
21.77781006188367
 30
0.0
 10
286.2819902310068
 20
22.64282111123716
 30
0.0
 10
285.5612360948443
 20
23.50993158628786
 30
0.0
 10
284.845288113738
 20
24.3712657578988
 30
0.0
  0
SPLINE
  5
88
330
1F
100
AcDbEntity
  8
0
  6
Continuous
 62
   179
370
     0
100
AcDbSpline
210
0.0
220
0.0
230
1.0
 70
     8
 71
     3
 72
    11
 73
     7
 74
     0
 42
0.000000001
 43
0.00000001
 40
3.0
 40
3.0
 40
3.0
 40
3.0
 40
4.0
 40
4.0
 40
4.0
 40
5.0
 40
5.0
 40
5.0
 40
5.0
 10
284.6883823721211
 20
27.15085253116305
 30
0.0
 10
284.5630810205802
 20
26.788679112661
 30
0.0
 10
284.5571094574822
 20
26.41068293535724
 30
0.0
 10
284.7721626029031
 20
26.08712768767229
 30
0.0
 10
285.0380140090768
 20
25.68714980838475
 30
0.0
 10
285.3510444536753
 20
25.31853032275096
 30
0.0
 10
285.6520579731507
 20
24.9254318870995
 30
0.0
  0
SPLINE
  5
89
330
1F
100
AcDbEntity
  8
0
  6
Continuous
 62
   179
370
     0
100
AcDbSpline
210
0.0
220
0.0
230
1.0
 70
     8
 71
     3
 72
    14
 73
    10
 74
     0
 42
0.000000001
 43
0.00000001
 40
0.0
 40
0.0
 40
0.0
 40
0.0
 40
1.0
 40
1.0
 40
1.0
 40
2.0
 40
2.0
 40
2.0
 40
3.0
 40
3.0
 40
3.0
 40
3.0
 10
285.6520579731507
 20
24.9254318870995
 30
0.0
 10
286.3259713159692
 20
25.4295804098103
 30
0.0
 10
286.5713650448558
 20
26.2298440482801
 30
0.0
 10
286.3549927436335
 20
27.06650131962916
 30
0.0
 10
286.2400293916459
 20
27.5110460628537
 30
0.0
 10
285.9916529561654
 20
27.74682017860582
 30
0.0
 10
285.6158934244382
 20
27.76810636414938
 30
0.0
 10
285.1818973152029
 20
27.79269159230804
 30
0.0
 10
284.8337724063213
 20
27.5710895609412
 30
0.0
 10
284.6883823721211
 20
27.15085253116305
 30
0.0
  0
SPLINE
  5
8A
330
1F
100
AcDbEntity
  8
0
  6
Continuous
 62
   179
370
     0
100
AcDbSpline
210
0.0
220
0.0
230
1.0
 70
     8
 71
     3
 72
    17
 73
    13
 74
     0
 42
0.000000001
 43
0.00000001
 40
21.0
 40
21.0
 40
21.0
 40
21.0
 40
22.0
 40
22.0
 40
22.0
 40
23.0
 40
23.0
 40
23.0
 40
24.0
 40
24.0
 40
24.0
 40
25.0
 40
25.0
 40
25.0
 40
25.0
 10
293.8906841048423
 20
20.25643828302682
 30
0.0
 10
294.0348564567621
 20
20.35359533789035
 30
0.0
 10
294.2655211499942
 20
20.43733713173099
 30
0.0
 10
294.3739502220706
 20
20.601710402175
 30
0.0
 10
294.4888489999955
 20
20.77588586122134
 30
0.0
 10
294.5289433415201
 20
21.02641399663968
 30
0.0
 10
294.5304592944584
 20
21.24409084762874
 30
0.0
 10
294.5423286217301
 20
22.94816032401251
 30
0.0
 10
294.5326947869268
 20
24.65236702027423
 30
0.0
 10
294.5396718603926
 20
26.35648992400541
 30
0.0
 10
294.541848928711
 20
26.88863860486636
 30
0.0
 10
294.4654639653083
 20
27.35271373418588
 30
0.0
 10
293.841527870193
 20
27.50458020069892
 30
0.0
  0
SPLINE
  5
8B
330
1F
100
AcDbEntity
  8
0
  6
Continuous
 62
   179
370
     0
100
AcDbSpline
210
0.0
220
0.0
230
1.0
 70
    24
 71
     3
 72
     8
 73
     4
 74
     0
 42
0.000000001
 43
0.00000001
 40
20.0
 40
20.0
 40
20.0
 40
20.0
 40
21.0
 40
21.0
 40
21.0
 40
21.0
 10
296.2880237673526
 20
20.25643828302682
 30
0.0
 10
295.4693261565182
 20
20.25643828302682
 30
0.0
 10
294.6506254707311
 20
20.25643828302682
 30
0.0
 10
293.8906841048423
 20
20.25643828302682
 30
0.0
  0
SPLINE
  5
8C
330
1F
100
AcDbEntity
  8
0
  6
Continuous
 62
   179
370
     0
100
AcDbSpline
210
0.0
220
0.0
230
1.0
 70
     8
 71
     3
 72
    14
 73
    10
 74
     0
 42
0.000000001
 43
0.00000001
 40
17.0
 40
17.0
 40
17.0
 40
17.0
 40
18.0
 40
18.0
 40
18.0
 40
19.0
 40
19.0
 40
19.0
 40
20.0
 40
20.0
 40
20.0
 40
20.0
 10
295.5733857171836
 20
23.97022240661698
 30
0.0
 10
295.5696219719554
 20
23.89376787235267
 30
0.0
 10
295.5622759038603
 20
23.81306182808446
 30
0.0
 10
295.5621928800676
 20
23.73234771205876
 30
0.0
 10
295.561359567195
 20
22.89285956003151
 30
0.0
 10
295.560827599936
 20
22.05336910178782
 30
0.0
 10
295.5619960829322
 20
21.2138824872384
 30
0.0
 10
295.5628078711177
 20
20.63015527572819
 30
0.0
 10
295.7413366980624
 20
20.4024294709773
 30
0.0
 10
296.2880237673526
 20
20.25643828302682
 30
0.0
  0
SPLINE
  5
8D
330
1F
100
AcDbEntity
  8
0
  6
Continuous
 62
   179
370
     0
100
AcDbSpline
210
0.0
220
0.0
230
1.0
 70
    24
 71
     3
 72
     8
 73
     4
 74
     0
 42
0.000000001
 43
0.00000001
 40
16.0
 40
16.0
 40
16.0
 40
16.0
 40
17.0
 40
17.0
 40
17.0
 40
17.0
 10
298.4851131190222
 20
23.97022240661698
 30
0.0
 10
297.5154382802974
 20
23.97022240661698
 30
0.0
 10
296.5557754958725
 20
23.97022240661698
 30
0.0
 10
295.5733857171836
 20
23.97022240661698
 30
0.0
  0
SPLINE
  5
8E
330
1F
100
AcDbEntity
  8
0
  6
Continuous
 62
   179
370
     0
100
AcDbSpline
210
0.0
220
0.0
230
1.0
 70
     8
 71
     3
 72
    11
 73
     7
 74
     0
 42
0.000000001
 43
0.00000001
 40
14.0
 40
14.0
 40
14.0
 40
14.0
 40
15.0
 40
15.0
 40
15.0
 40
16.0
 40
16.0
 40
16.0
 40
16.0
 10
297.7632396991476
 20
20.25412130424438
 30
0.0
 10
298.3307257657572
 20
20.41986831094704
 30
0.0
 10
298.4849747460367
 20
20.62384393007452
 30
0.0
 10
298.485073144605
 20
21.23173567742802
 30
0.0
 10
298.4852207424561
 20
22.13796342697173
 30
0.0
 10
298.4851131190222
 20
23.04419117651474
 30
0.0
 10
298.4851131190222
 20
23.97022240661698
 30
0.0
  0
SPLINE
  5
8F
330
1F
100
AcDbEntity
  8
0
  6
Continuous
 62
   179
370
     0
100
AcDbSpline
210
0.0
220
0.0
230
1.0
 70
    24
 71
     3
 72
     8
 73
     4
 74
     0
 42
0.000000001
 43
0.00000001
 40
13.0
 40
13.0
 40
13.0
 40
13.0
 40
14.0
 40
14.0
 40
14.0
 40
14.0
 10
300.2193725060649
 20
20.25412130424438
 30
0.0
 10
299.4006625954106
 20
20.25412130424438
 30
0.0
 10
298.5819526847563
 20
20.25412130424438
 30
0.0
 10
297.7632396991476
 20
20.25412130424438
 30
0.0
  0
SPLINE
  5
90
330
1F
100
AcDbEntity
  8
0
  6
Continuous
 62
   179
370
     0
100
AcDbSpline
210
0.0
220
0.0
230
1.0
 70
     8
 71
     3
 72
    17
 73
    13
 74
     0
 42
0.000000001
 43
0.00000001
 40
9.0
 40
9.0
 40
9.0
 40
9.0
 40
10.0
 40
10.0
 40
10.0
 40
11.0
 40
11.0
 40
11.0
 40
12.0
 40
12.0
 40
12.0
 40
13.0
 40
13.0
 40
13.0
 40
13.0
 10
300.254931288593
 20
27.49433829349534
 30
0.0
 10
300.1600043450263
 20
27.45496618208605
 30
0.0
 10
300.1052670665943
 20
27.43024796211265
 30
0.0
 10
300.049118383702
 20
27.40930924651266
 30
0.0
 10
299.7248336028849
 20
27.28837413924314
 30
0.0
 10
299.5426363543262
 20
27.0468754177367
 30
0.0
 10
299.5421628112159
 20
26.70494346873036
 30
0.0
 10
299.5395583241182
 20
24.8160968563317
 30
0.0
 10
299.5393769017586
 20
22.92724217217554
 30
0.0
 10
299.542119761843
 20
21.03839632851544
 30
0.0
 10
299.5427163031618
 20
20.62720562490344
 30
0.0
 10
299.739442715284
 20
20.41422423058345
 30
0.0
 10
300.2193725060649
 20
20.25412130424438
 30
0.0
  0
SPLINE
  5
91
330
1F
100
AcDbEntity
  8
0
  6
Continuous
 62
   179
370
     0
100
AcDbSpline
210
0.0
220
0.0
230
1.0
 70
    24
 71
     3
 72
     8
 73
     4
 74
     0
 42
0.000000001
 43
0.00000001
 40
8.0
 40
8.0
 40
8.0
 40
8.0
 40
9.0
 40
9.0
 40
9.0
 40
9.0
 10
297.7186989723292
 20
27.49433829349534
 30
0.0
 10
298.5854396840106
 20
27.49433829349534
 30
0.0
 10
299.3949493285535
 20
27.49433829349534
 30
0.0
 10
300.254931288593
 20
27.49433829349534
 30
0.0
  0
SPLINE
  5
92
330
1F
100
AcDbEntity
  8
0
  6
Continuous
 62
   179
370
     0
100
AcDbSpline
210
0.0
220
0.0
230
1.0
 70
     8
 71
     3
 72
    14
 73
    10
 74
     0
 42
0.000000001
 43
0.00000001
 40
5.0
 40
5.0
 40
5.0
 40
5.0
 40
6.0
 40
6.0
 40
6.0
 40
7.0
 40
7.0
 40
7.0
 40
8.0
 40
8.0
 40
8.0
 40
8.0
 10
298.4851131190222
 20
24.16049564077469
 30
0.0
 10
298.4851131190222
 20
24.24049329222683
 30
0.0
 10
298.4851131190222
 20
24.32893553953833
 30
0.0
 10
298.4851131190222
 20
24.41737817121947
 30
0.0
 10
298.4851131190222
 20
25.09736416629037
 30
0.0
 10
298.4851377186649
 20
25.7773505457302
 30
0.0
 10
298.4851069691121
 20
26.45733654080182
 30
0.0
 10
298.4850762195594
 20
27.0944786077999
 30
0.0
 10
298.3648823686909
 20
27.26685790861022
 30
0.0
 10
297.7186989723292
 20
27.49433829349534
 30
0.0
  0
SPLINE
  5
93
330
1F
100
AcDbEntity
  8
0
  6
Continuous
 62
   179
370
     0
100
AcDbSpline
210
0.0
220
0.0
230
1.0
 70
    24
 71
     3
 72
     8
 73
     4
 74
     0
 42
0.000000001
 43
0.00000001
 40
4.0
 40
4.0
 40
4.0
 40
4.0
 40
5.0
 40
5.0
 40
5.0
 40
5.0
 10
295.5632814142282
 20
24.16049564077469
 30
0.0
 10
296.5292663066504
 20
24.16049564077469
 30
0.0
 10
297.4889290910767
 20
24.16049564077469
 30
0.0
 10
298.4851131190222
 20
24.16049564077469
 30
0.0
  0
SPLINE
  5
94
330
1F
100
AcDbEntity
  8
0
  6
Continuous
 62
   179
370
     0
100
AcDbSpline
210
0.0
220
0.0
230
1.0
 70
     8
 71
     3
 72
    14
 73
    10
 74
     0
 42
0.000000001
 43
0.00000001
 40
1.0
 40
1.0
 40
1.0
 40
1.0
 40
2.0
 40
2.0
 40
2.0
 40
3.0
 40
3.0
 40
3.0
 40
4.0
 40
4.0
 40
4.0
 40
4.0
 10
296.2715297073845
 20
27.50458020069892
 30
0.0
 10
295.9411319155254
 20
27.38780204855992
 30
0.0
 10
295.6648994604227
 20
27.22384581892186
 30
0.0
 10
295.5906023916359
 20
26.8479388815276
 30
0.0
 10
295.5792681065788
 20
26.79059327230428
 30
0.0
 10
295.5645605956114
 20
26.73240397223375
 30
0.0
 10
295.5644406723574
 20
26.67457866999212
 30
0.0
 10
295.562743297058
 20
25.84365465270932
 30
0.0
 10
295.5632814142282
 20
25.01272602299438
 30
0.0
 10
295.5632814142282
 20
24.16049564077469
 30
0.0
  0
SPLINE
  5
95
330
1F
100
AcDbEntity
  8
0
  6
Continuous
 62
   179
370
     0
100
AcDbSpline
210
0.0
220
0.0
230
1.0
 70
    24
 71
     3
 72
     8
 73
     4
 74
     0
 42
0.000000001
 43
0.00000001
 40
0.0
 40
0.0
 40
0.0
 40
0.0
 40
1.0
 40
1.0
 40
1.0
 40
1.0
 10
293.841527870193
 20
27.50458020069892
 30
0.0
 10
294.6515264326192
 20
27.50458020069892
 30
0.0
 10
295.4615280700011
 20
27.50458020069892
 30
0.0
 10
296.2715297073845
 20
27.50458020069892
 30
0.0
  0
SPLINE
  5
96
330
1F
100
AcDbEntity
  8
0
  6
Continuous
 62
   179
370
     0
100
AcDbSpline
210
0.0
220
0.0
230
1.0
 70
     8
 71
     3
 72
    14
 73
    10
 74
     0
 42
0.000000001
 43
0.00000001
 40
17.0
 40
17.0
 40
17.0
 40
17.0
 40
18.0
 40
18.0
 40
18.0
 40
19.0
 40
19.0
 40
19.0
 40
20.0
 40
20.0
 40
20.0
 40
20.0
 10
257.7053577757453
 20
20.25910042553502
 30
0.0
 10
258.2139995287706
 20
20.39587059142628
 30
0.0
 10
258.4104423723632
 20
20.62446660851326
 30
0.0
 10
258.4124688639662
 20
21.16843695483816
 30
0.0
 10
258.4191609275175
 20
22.96470127704906
 30
0.0
 10
258.4149081683119
 20
24.76100595804667
 30
0.0
 10
258.4151320634913
 20
26.55729487989966
 30
0.0
 10
258.4151924094879
 20
27.04153921726714
 30
0.0
 10
258.2057453879524
 20
27.36893835120057
 30
0.0
 10
257.7192638284546
 20
27.51463645747964
 30
0.0
  0
SPLINE
  5
97
330
1F
100
AcDbEntity
  8
0
  6
Continuous
 62
   179
370
     0
100
AcDbSpline
210
0.0
220
0.0
230
1.0
 70
    24
 71
     3
 72
     8
 73
     4
 74
     0
 42
0.000000001
 43
0.00000001
 40
16.0
 40
16.0
 40
16.0
 40
16.0
 40
17.0
 40
17.0
 40
17.0
 40
17.0
 10
260.1134120717832
 20
20.25910042553502
 30
0.0
 10
259.3107272904223
 20
20.25910042553502
 30
0.0
 10
258.5080426051526
 20
20.25910042553502
 30
0.0
 10
257.7053577757453
 20
20.25910042553502
 30
0.0
  0
SPLINE
  5
98
330
1F
100
AcDbEntity
  8
0
  6
Continuous
 62
   179
370
     0
100
AcDbSpline
210
0.0
220
0.0
230
1.0
 70
     8
 71
     3
 72
    14
 73
    10
 74
     0
 42
0.000000001
 43
0.00000001
 40
13.0
 40
13.0
 40
13.0
 40
13.0
 40
14.0
 40
14.0
 40
14.0
 40
15.0
 40
15.0
 40
15.0
 40
16.0
 40
16.0
 40
16.0
 40
16.0
 10
259.4607286043899
 20
23.57138302951071
 30
0.0
 10
259.4539911852495
 20
23.51939476107442
 30
0.0
 10
259.4406539512153
 20
23.46398560492077
 30
0.0
 10
259.4405559370167
 20
23.40855338660287
 30
0.0
 10
259.4392191002215
 20
22.65310606781493
 30
0.0
 10
259.4366701545022
 20
21.89763799307776
 30
0.0
 10
259.4408326829897
 20
21.14221143023692
 30
0.0
 10
259.4435911100346
 20
20.64162793377142
 30
0.0
 10
259.6377614656041
 20
20.40079128856705
 30
0.0
 10
260.1134120717832
 20
20.25910042553502
 30
0.0
  0
SPLINE
  5
99
330
1F
100
AcDbEntity
  8
0
  6
Continuous
 62
   179
370
     0
100
AcDbSpline
210
0.0
220
0.0
230
1.0
 70
     8
 71
     3
 72
    20
 73
    16
 74
     0
 42
0.000000001
 43
0.00000001
 40
8.0
 40
8.0
 40
8.0
 40
8.0
 40
9.0
 40
9.0
 40
9.0
 40
10.0
 40
10.0
 40
10.0
 40
11.0
 40
11.0
 40
11.0
 40
12.0
 40
12.0
 40
12.0
 40
13.0
 40
13.0
 40
13.0
 40
13.0
 10
263.9554858268652
 20
20.24609336482204
 30
0.0
 10
263.8909540472192
 20
20.24131411562172
 30
0.0
 10
263.8264337986555
 20
20.23257048036439
 30
0.0
 10
263.7618904879275
 20
20.2323936704376
 30
0.0
 10
263.3170171088603
 20
20.2311736819415
 30
0.0
 10
262.8718696744063
 20
20.24067529366942
 30
0.0
 10
262.427398730108
 20
20.22724465786874
 30
0.0
 10
262.2549406335689
 20
20.22203337745712
 30
0.0
 10
262.1765046750147
 20
20.28890135435546
 30
0.0
 10
262.1067370153144
 20
20.43629933433309
 30
0.0
 10
261.7451764738302
 20
21.20016664933901
 30
0.0
 10
261.3780268168071
 20
21.9614848264415
 30
0.0
 10
261.0037355762117
 20
22.71920223094413
 30
0.0
 10
260.6054131759577
 20
23.52556773374194
 30
0.0
 10
260.3725694925604
 20
23.65083910446932
 30
0.0
 10
259.4607286043899
 20
23.57138302951071
 30
0.0
  0
SPLINE
  5
9A
330
1F
100
AcDbEntity
  8
0
  6
Continuous
 62
   179
370
     0
100
AcDbSpline
210
0.0
220
0.0
230
1.0
 70
     8
 71
     3
 72
    14
 73
    10
 74
     0
 42
0.000000001
 43
0.00000001
 40
5.0
 40
5.0
 40
5.0
 40
5.0
 40
6.0
 40
6.0
 40
6.0
 40
7.0
 40
7.0
 40
7.0
 40
8.0
 40
8.0
 40
8.0
 40
8.0
 10
261.0219043336847
 20
23.63056361828031
 30
0.0
 10
261.7521543160346
 20
23.35408286053947
 30
0.0
 10
262.033208300972
 20
22.73079019980925
 30
0.0
 10
262.3739921385617
 20
22.16106556577573
 30
0.0
 10
262.6276890153665
 20
21.7369354504649
 30
0.0
 10
262.8739775562312
 20
21.30835818112305
 30
0.0
 10
263.1292772534608
 20
20.88520667032095
 30
0.0
 10
263.3178377375433
 20
20.57267359973515
 30
0.0
 10
263.5606000734738
 20
20.32757122285868
 30
0.0
 10
263.9554858268652
 20
20.24609336482204
 30
0.0
  0
SPLINE
  5
9B
330
1F
100
AcDbEntity
  8
0
  6
Continuous
 62
   179
370
     0
100
AcDbSpline
210
0.0
220
0.0
230
1.0
 70
     8
 71
     3
 72
    20
 73
    16
 74
     0
 42
0.000000001
 43
0.00000001
 40
0.0
 40
0.0
 40
0.0
 40
0.0
 40
1.0
 40
1.0
 40
1.0
 40
2.0
 40
2.0
 40
2.0
 40
3.0
 40
3.0
 40
3.0
 40
4.0
 40
4.0
 40
4.0
 40
5.0
 40
5.0
 40
5.0
 40
5.0
 10
257.7192638284546
 20
27.51463645747964
 30
0.0
 10
258.1174764912431
 20
27.51463645747964
 30
0.0
 10
258.5159962651877
 20
27.52468175973202
 30
0.0
 10
258.913837050576
 20
27.51251762112626
 30
0.0
 10
259.7094699986222
 20
27.48819126576296
 30
0.0
 10
260.5093946232761
 20
27.49481913962259
 30
0.0
 10
261.2989762515716
 20
27.40941936834727
 30
0.0
 10
262.3071445332423
 20
27.30037799580672
 30
0.0
 10
262.8488620904764
 20
26.74717259793779
 30
0.0
 10
262.9131259646454
 20
25.88395655371281
 30
0.0
 10
262.9966382899504
 20
24.76217905347503
 30
0.0
 10
262.5617362220245
 20
24.08644572151765
 30
0.0
 10
261.5515161764629
 20
23.77337299628438
 30
0.0
 10
261.3945785321864
 20
23.72473719781129
 30
0.0
 10
261.2341319795987
 20
23.68742184709605
 30
0.0
 10
261.0219043336847
 20
23.63056361828031
 30
0.0
  0
SPLINE
  5
9C
330
1F
100
AcDbEntity
  8
0
  6
Continuous
 62
   179
370
     0
100
AcDbSpline
210
0.0
220
0.0
230
1.0
 70
     8
 71
     3
 72
    20
 73
    16
 74
     0
 42
0.000000001
 43
0.00000001
 40
1.0
 40
1.0
 40
1.0
 40
1.0
 40
2.0
 40
2.0
 40
2.0
 40
3.0
 40
3.0
 40
3.0
 40
4.0
 40
4.0
 40
4.0
 40
5.0
 40
5.0
 40
5.0
 40
6.0
 40
6.0
 40
6.0
 40
6.0
 10
259.4558811296203
 20
23.74052094311723
 30
0.0
 10
259.8313410453958
 20
23.74052094311723
 30
0.0
 10
260.1942113256325
 20
23.70804326575078
 30
0.0
 10
260.5489927438957
 20
23.74778168120398
 30
0.0
 10
261.1506181168165
 20
23.81517009427841
 30
0.0
 10
261.6082598631961
 20
24.13857044109259
 30
0.0
 10
261.7413862071132
 20
24.73962656292206
 30
0.0
 10
261.8389787525148
 20
25.18024881635489
 30
0.0
 10
261.8719876284001
 20
25.65810454981779
 30
0.0
 10
261.8164781518313
 20
26.10478869315943
 30
0.0
 10
261.7108519014664
 20
26.95476897687368
 30
0.0
 10
261.3230227860075
 20
27.28690123567825
 30
0.0
 10
260.4792308497364
 20
27.35420547185249
 30
0.0
 10
260.146744010155
 20
27.38072599997261
 30
0.0
 10
259.8103733099057
 20
27.35855230546976
 30
0.0
 10
259.4558811296203
 20
27.35855230546976
 30
0.0
  0
SPLINE
  5
9D
330
1F
100
AcDbEntity
  8
0
  6
Continuous
 62
   179
370
     0
100
AcDbSpline
210
0.0
220
0.0
230
1.0
 70
    24
 71
     3
 72
     8
 73
     4
 74
     0
 42
0.000000001
 43
0.00000001
 40
0.0
 40
0.0
 40
0.0
 40
0.0
 40
1.0
 40
1.0
 40
1.0
 40
1.0
 10
259.4558811296203
 20
27.35855230546976
 30
0.0
 10
259.4558811296203
 20
26.13864548795524
 30
0.0
 10
259.4558811296203
 20
24.94385548148867
 30
0.0
 10
259.4558811296203
 20
23.74052094311723
 30
0.0
  0
SPLINE
  5
9E
330
1F
100
AcDbEntity
  8
0
  6
Continuous
 62
   179
370
     0
100
AcDbSpline
210
0.0
220
0.0
230
1.0
 70
     8
 71
     3
 72
    14
 73
    10
 74
     0
 42
0.000000001
 43
0.00000001
 40
3.0
 40
3.0
 40
3.0
 40
3.0
 40
4.0
 40
4.0
 40
4.0
 40
5.0
 40
5.0
 40
5.0
 40
6.0
 40
6.0
 40
6.0
 40
6.0
 10
267.2336118279071
 20
20.23490821509466
 30
0.0
 10
266.3034040398355
 20
20.48709452013179
 30
0.0
 10
265.5792320909092
 20
21.34541139190241
 30
0.0
 10
265.4837047623288
 20
22.29272284982233
 30
0.0
 10
265.4259332718035
 20
22.86561853145873
 30
0.0
 10
265.4879189885011
 20
23.41465794151554
 30
0.0
 10
265.7739382574312
 20
23.92202056120339
 30
0.0
 10
266.225828300013
 20
24.72361219597301
 30
0.0
 10
266.9062728477855
 20
25.1505801106106
 30
0.0
 10
267.7758432870376
 20
25.16748813643033
 30
0.0
  0
SPLINE
  5
9F
330
1F
100
AcDbEntity
  8
0
  6
Continuous
 62
   179
370
     0
100
AcDbSpline
210
0.0
220
0.0
230
1.0
 70
     8
 71
     3
 72
    14
 73
    10
 74
     0
 42
0.000000001
 43
0.00000001
 40
0.0
 40
0.0
 40
0.0
 40
0.0
 40
1.0
 40
1.0
 40
1.0
 40
2.0
 40
2.0
 40
2.0
 40
3.0
 40
3.0
 40
3.0
 40
3.0
 10
267.7758432870376
 20
25.16748813643033
 30
0.0
 10
268.6216197225536
 20
25.16033694362373
 30
0.0
 10
269.2464106552308
 20
24.83848445240962
 30
0.0
 10
269.7103360726668
 20
24.21398909980579
 30
0.0
 10
270.372934348899
 20
23.32205720159637
 30
0.0
 10
270.3723808569537
 20
22.03321892002499
 30
0.0
 10
269.7215189161772
 20
21.13111084177938
 30
0.0
 10
269.1482911393735
 20
20.33660467264828
 30
0.0
 10
268.1650050112285
 20
19.98240211471103
 30
0.0
 10
267.2336118279071
 20
20.23490821509466
 30
0.0
  0
SPLINE
  5
A0
330
1F
100
AcDbEntity
  8
0
  6
Continuous
 62
   179
370
     0
100
AcDbSpline
210
0.0
220
0.0
230
1.0
 70
     8
 71
     3
 72
    17
 73
    13
 74
     0
 42
0.000000001
 43
0.00000001
 40
4.0
 40
4.0
 40
4.0
 40
4.0
 40
5.0
 40
5.0
 40
5.0
 40
6.0
 40
6.0
 40
6.0
 40
7.0
 40
7.0
 40
7.0
 40
8.0
 40
8.0
 40
8.0
 40
8.0
 10
266.4699528411193
 20
22.82140374989816
 30
0.0
 10
266.4269741915698
 20
22.16270989809668
 30
0.0
 10
266.5287029361534
 20
21.51524885782823
 30
0.0
 10
266.8746830637486
 20
20.93428603108956
 30
0.0
 10
267.1048165584612
 20
20.54785025472892
 30
0.0
 10
267.4153070900211
 20
20.27237193240103
 30
0.0
 10
267.9076604687568
 20
20.30531315927085
 30
0.0
 10
268.3388937306983
 20
20.33416469565678
 30
0.0
 10
268.6078393105943
 20
20.59660136402461
 30
0.0
 10
268.810867074766
 20
20.94311038392242
 30
0.0
 10
269.1208448575376
 20
21.47214721006825
 30
0.0
 10
269.202432645224
 20
22.05765558940843
 30
0.0
 10
269.218762963826
 20
22.6835112253406
 30
0.0
  0
SPLINE
  5
A1
330
1F
100
AcDbEntity
  8
0
  6
Continuous
 62
   179
370
     0
100
AcDbSpline
210
0.0
220
0.0
230
1.0
 70
     8
 71
     3
 72
    17
 73
    13
 74
     0
 42
0.000000001
 43
0.00000001
 40
0.0
 40
0.0
 40
0.0
 40
0.0
 40
1.0
 40
1.0
 40
1.0
 40
2.0
 40
2.0
 40
2.0
 40
3.0
 40
3.0
 40
3.0
 40
4.0
 40
4.0
 40
4.0
 40
4.0
 10
269.218762963826
 20
22.6835112253406
 30
0.0
 10
269.195680043492
 20
23.34551372899321
 30
0.0
 10
269.0963628325642
 20
24.01168817818242
 30
0.0
 10
268.6683621173312
 20
24.58056604641373
 30
0.0
 10
268.2143234497673
 20
25.18405330473933
 30
0.0
 10
267.4640605055332
 20
25.19142205062979
 30
0.0
 10
267.0072628343699
 20
24.59213287496141
 30
0.0
 10
266.882078331128
 20
24.42789874624284
 30
0.0
 10
266.7597204805012
 20
24.2414496033099
 30
0.0
 10
266.7072125446275
 20
24.04607386528146
 30
0.0
 10
266.5993976948625
 20
23.64490674705059
 30
0.0
 10
266.4968487059656
 20
23.23360918874381
 30
0.0
 10
266.4699528411193
 20
22.82140374989816
 30
0.0
  0
SPLINE
  5
A2
330
1F
100
AcDbEntity
  8
0
  6
Continuous
 62
   179
370
     0
100
AcDbSpline
210
0.0
220
0.0
230
1.0
 70
     8
 71
     3
 72
    17
 73
    13
 74
     0
 42
0.000000001
 43
0.00000001
 40
6.0
 40
6.0
 40
6.0
 40
6.0
 40
7.0
 40
7.0
 40
7.0
 40
8.0
 40
8.0
 40
8.0
 40
9.0
 40
9.0
 40
9.0
 40
10.0
 40
10.0
 40
10.0
 40
10.0
 10
311.6156486607862
 20
20.25320881127337
 30
0.0
 10
312.1185268426077
 20
20.41647125413319
 30
0.0
 10
312.2872188877024
 20
20.63608302071405
 30
0.0
 10
312.2876555313485
 20
21.16871754450475
 30
0.0
 10
312.2890700107628
 20
22.88922803787956
 30
0.0
 10
312.287766229737
 20
24.60974045310045
 30
0.0
 10
312.2871819882396
 20
26.33025248395311
 30
0.0
 10
312.2871512386867
 20
26.42255802816858
 30
0.0
 10
312.2845313768121
 20
26.51487279724975
 30
0.0
 10
312.2823973578678
 20
26.60716642601487
 30
0.0
 10
312.2683694120104
 20
27.21300429544448
 30
0.0
 10
312.2096131670664
 20
27.27631108979181
 30
0.0
 10
311.6691528821609
 20
27.32445797038016
 30
0.0
  0
SPLINE
  5
A3
330
1F
100
AcDbEntity
  8
0
  6
Continuous
 62
   179
370
     0
100
AcDbSpline
210
0.0
220
0.0
230
1.0
 70
    24
 71
     3
 72
     8
 73
     4
 74
     0
 42
0.000000001
 43
0.00000001
 40
5.0
 40
5.0
 40
5.0
 40
5.0
 40
6.0
 40
6.0
 40
6.0
 40
6.0
 10
313.8867245107604
 20
20.25320881127337
 30
0.0
 10
313.0865658051385
 20
20.25320881127337
 30
0.0
 10
312.3511103079175
 20
20.25320881127337
 30
0.0
 10
311.6156486607862
 20
20.25320881127337
 30
0.0
  0
SPLINE
  5
A4
330
1F
100
AcDbEntity
  8
0
  6
Continuous
 62
   179
370
     0
100
AcDbSpline
210
0.0
220
0.0
230
1.0
 70
     8
 71
     3
 72
    17
 73
    13
 74
     0
 42
0.000000001
 43
0.00000001
 40
1.0
 40
1.0
 40
1.0
 40
1.0
 40
2.0
 40
2.0
 40
2.0
 40
3.0
 40
3.0
 40
3.0
 40
4.0
 40
4.0
 40
4.0
 40
5.0
 40
5.0
 40
5.0
 40
5.0
 10
313.1781318226163
 20
27.87703492426926
 30
0.0
 10
313.1781318226163
 20
27.83642744958889
 30
0.0
 10
313.1781318226163
 20
27.75161518695077
 30
0.0
 10
313.1781318226163
 20
27.66680273212925
 30
0.0
 10
313.1781318226163
 20
25.57700952371036
 30
0.0
 10
313.1781256727049
 20
23.48721689184594
 30
0.0
 10
313.1781441224363
 20
21.39742349124223
 30
0.0
 10
313.1781441224363
 20
21.32188875296784
 30
0.0
 10
313.1771847363982
 20
21.24633325874564
 30
0.0
 10
313.1786115156352
 20
21.17082388885262
 30
0.0
 10
313.1888880160859
 20
20.62648762285203
 30
0.0
 10
313.3266152617988
 20
20.4348325806782
 30
0.0
 10
313.8867245107604
 20
20.25320881127337
 30
0.0
  0
SPLINE
  5
A5
330
1F
100
AcDbEntity
  8
0
  6
Continuous
 62
   179
370
     0
100
AcDbSpline
210
0.0
220
0.0
230
1.0
 70
     8
 71
     3
 72
     8
 73
     4
 74
     0
 42
0.000000001
 43
0.00000001
 40
0.0
 40
0.0
 40
0.0
 40
0.0
 40
1.0
 40
1.0
 40
1.0
 40
1.0
 10
311.6691528821609
 20
27.32445797038016
 30
0.0
 10
312.1410908642435
 20
27.49727756634619
 30
0.0
 10
312.6458878181427
 20
27.68213176842718
 30
0.0
 10
313.1781318226163
 20
27.87703492426926
 30
0.0
  0
SPLINE
  5
A6
330
1F
100
AcDbEntity
  8
0
  6
Continuous
 62
   179
370
     0
100
AcDbSpline
210
0.0
220
0.0
230
1.0
 70
     8
 71
     3
 72
    14
 73
    10
 74
     0
 42
0.000000001
 43
0.00000001
 40
6.0
 40
6.0
 40
6.0
 40
6.0
 40
7.0
 40
7.0
 40
7.0
 40
8.0
 40
8.0
 40
8.0
 40
9.0
 40
9.0
 40
9.0
 40
9.0
 10
278.4819664915177
 20
27.88441039662488
 30
0.0
 10
278.4819664915177
 20
27.83987735719566
 30
0.0
 10
278.4819649540404
 20
27.75219577693941
 30
0.0
 10
278.4819649540404
 20
27.66451419668386
 30
0.0
 10
278.4819664915177
 20
25.48269219002111
 30
0.0
 10
278.4816605334703
 20
23.30086999117493
 30
0.0
 10
278.4822124879378
 20
21.11904779232805
 30
0.0
 10
278.4823339486704
 20
20.63637283524633
 30
0.0
 10
278.6550987719953
 20
20.40793364087759
 30
0.0
 10
279.1055120673173
 20
20.25491771765491
 30
0.0
  0
SPLINE
  5
A7
330
1F
100
AcDbEntity
  8
0
  6
Continuous
 62
   179
370
     0
100
AcDbSpline
210
0.0
220
0.0
230
1.0
 70
     8
 71
     3
 72
     8
 73
     4
 74
     0
 42
0.000000001
 43
0.00000001
 40
5.0
 40
5.0
 40
5.0
 40
5.0
 40
6.0
 40
6.0
 40
6.0
 40
6.0
 10
276.9846800684063
 20
27.3296354262854
 30
0.0
 10
277.4478728777531
 20
27.5012575193644
 30
0.0
 10
277.9568994326009
 20
27.68986239811422
 30
0.0
 10
278.4819664915177
 20
27.88441039662488
 30
0.0
  0
SPLINE
  5
A8
330
1F
100
AcDbEntity
  8
0
  6
Continuous
 62
   179
370
     0
100
AcDbSpline
210
0.0
220
0.0
230
1.0
 70
     8
 71
     3
 72
    17
 73
    13
 74
     0
 42
0.000000001
 43
0.00000001
 40
1.0
 40
1.0
 40
1.0
 40
1.0
 40
2.0
 40
2.0
 40
2.0
 40
3.0
 40
3.0
 40
3.0
 40
4.0
 40
4.0
 40
4.0
 40
5.0
 40
5.0
 40
5.0
 40
5.0
 10
276.9460186560295
 20
20.25491771765491
 30
0.0
 10
277.4179566381115
 20
20.4199152040148
 30
0.0
 10
277.5770686601204
 20
20.6342380475635
 30
0.0
 10
277.5771993457187
 20
21.13377529050539
 30
0.0
 10
277.5776652014392
 20
22.92958298186009
 30
0.0
 10
277.5773700057348
 20
24.72538990447762
 30
0.0
 10
277.577359243392
 20
26.52119721146338
 30
0.0
 10
277.577359243392
 20
26.53798031722657
 30
0.0
 10
277.5773838430334
 20
26.55476419172763
 30
0.0
 10
277.5772915943764
 20
26.57154691311976
 30
0.0
 10
277.5738092075535
 20
27.20775573119973
 30
0.0
 10
277.5366914227135
 20
27.25167954511983
 30
0.0
 10
276.9846800684063
 20
27.3296354262854
 30
0.0
  0
SPLINE
  5
A9
330
1F
100
AcDbEntity
  8
0
  6
Continuous
 62
   179
370
     0
100
AcDbSpline
210
0.0
220
0.0
230
1.0
 70
    24
 71
     3
 72
     8
 73
     4
 74
     0
 42
0.000000001
 43
0.00000001
 40
0.0
 40
0.0
 40
0.0
 40
0.0
 40
1.0
 40
1.0
 40
1.0
 40
1.0
 10
279.1055120673173
 20
20.25491771765491
 30
0.0
 10
278.3856819552066
 20
20.25491771765491
 30
0.0
 10
277.6658503056181
 20
20.25491771765491
 30
0.0
 10
276.9460186560295
 20
20.25491771765491
 30
0.0
  0
SPLINE
  5
AA
330
1F
100
AcDbEntity
  8
0
  6
Continuous
 62
   179
370
     0
100
AcDbSpline
210
0.0
220
0.0
230
1.0
 70
     8
 71
     3
 72
    20
 73
    16
 74
     0
 42
0.000000001
 43
0.00000001
 40
5.0
 40
5.0
 40
5.0
 40
5.0
 40
6.0
 40
6.0
 40
6.0
 40
7.0
 40
7.0
 40
7.0
 40
8.0
 40
8.0
 40
8.0
 40
9.0
 40
9.0
 40
9.0
 40
10.0
 40
10.0
 40
10.0
 40
10.0
 10
307.178408284104
 20
20.25443648715803
 30
0.0
 10
307.3179589782804
 20
20.36177625633667
 30
0.0
 10
307.5293898264143
 20
20.45652254628292
 30
0.0
 10
307.6283941606455
 20
20.61954360515536
 30
0.0
 10
307.7285516030972
 20
20.78446498637256
 30
0.0
 10
307.7490584796685
 20
21.01681475508337
 30
0.0
 10
307.7500732149022
 20
21.21990094340409
 30
0.0
 10
307.7587445887104
 20
22.95682170421714
 30
0.0
 10
307.7550484924979
 20
24.69380511724258
 30
0.0
 10
307.7550361926766
 20
26.43077008053731
 30
0.0
 10
307.7550361926766
 20
26.49789904426263
 30
0.0
 10
307.7552944889175
 20
26.56503146731187
 30
0.0
 10
307.7547502218385
 20
26.63215658734291
 30
0.0
 10
307.7501131893193
 20
27.20350460556406
 30
0.0
 10
307.6774858212348
 20
27.28280885460759
 30
0.0
 10
307.160813390154
 20
27.32540717062984
 30
0.0
  0
SPLINE
  5
AB
330
1F
100
AcDbEntity
  8
0
  6
Continuous
 62
   179
370
     0
100
AcDbSpline
210
0.0
220
0.0
230
1.0
 70
    24
 71
     3
 72
     8
 73
     4
 74
     0
 42
0.000000001
 43
0.00000001
 40
4.0
 40
4.0
 40
4.0
 40
4.0
 40
5.0
 40
5.0
 40
5.0
 40
5.0
 10
309.3620693061908
 20
20.25443648715802
 30
0.0
 10
308.5715044609525
 20
20.25443648715802
 30
0.0
 10
307.8517004859625
 20
20.25443648715802
 30
0.0
 10
307.178408284104
 20
20.25443648715803
 30
0.0
  0
SPLINE
  5
AC
330
1F
100
AcDbEntity
  8
0
  6
Continuous
 62
   179
370
     0
100
AcDbSpline
210
0.0
220
0.0
230
1.0
 70
     8
 71
     3
 72
    14
 73
    10
 74
     0
 42
0.000000001
 43
0.00000001
 40
1.0
 40
1.0
 40
1.0
 40
1.0
 40
2.0
 40
2.0
 40
2.0
 40
3.0
 40
3.0
 40
3.0
 40
4.0
 40
4.0
 40
4.0
 40
4.0
 10
308.65963267846
 20
27.88697759989075
 30
0.0
 10
308.65963267846
 20
27.83196991758182
 30
0.0
 10
308.65963267846
 20
27.74275854708867
 30
0.0
 10
308.65963267846
 20
27.65354698440997
 30
0.0
 10
308.65963267846
 20
25.48863300356693
 30
0.0
 10
308.6595035303402
 20
23.32371921490945
 30
0.0
 10
308.6597187772069
 20
21.15880542625192
 30
0.0
 10
308.6597679764911
 20
20.6374237012035
 30
0.0
 10
308.807415027844
 20
20.43200746554105
 30
0.0
 10
309.3620693061909
 20
20.25443648715802
 30
0.0
  0
SPLINE
  5
AD
330
1F
100
AcDbEntity
  8
0
  6
Continuous
 62
   179
370
     0
100
AcDbSpline
210
0.0
220
0.0
230
1.0
 70
     8
 71
     3
 72
     8
 73
     4
 74
     0
 42
0.000000001
 43
0.00000001
 40
0.0
 40
0.0
 40
0.0
 40
0.0
 40
1.0
 40
1.0
 40
1.0
 40
1.0
 10
307.160813390154
 20
27.32540717062984
 30
0.0
 10
307.6336123597078
 20
27.50255342081908
 30
0.0
 10
308.1420254609839
 20
27.69304267058278
 30
0.0
 10
308.65963267846
 20
27.88697759989075
 30
0.0
  0
SPLINE
  5
AE
330
1F
100
AcDbEntity
  8
0
  6
Continuous
 62
   179
370
     0
100
AcDbSpline
210
0.0
220
0.0
230
1.0
 70
     8
 71
     3
 72
    14
 73
    10
 74
     0
 42
0.000000001
 43
0.00000001
 40
6.0
 40
6.0
 40
6.0
 40
6.0
 40
7.0
 40
7.0
 40
7.0
 40
8.0
 40
8.0
 40
8.0
 40
9.0
 40
9.0
 40
9.0
 40
9.0
 10
272.426404840594
 20
20.25907966958721
 30
0.0
 10
273.005992393597
 20
20.37668517687365
 30
0.0
 10
273.0805785081768
 20
20.81042375860577
 30
0.0
 10
273.0783845276048
 20
21.29462927466368
 30
0.0
 10
273.0702866329497
 20
23.08209538116095
 30
0.0
 10
273.0685846452182
 20
24.86961337752775
 30
0.0
 10
273.0527409382852
 20
26.65700799131587
 30
0.0
 10
273.0476395875227
 20
27.23250104921648
 30
0.0
 10
272.9826104338649
 20
27.28380667758701
 30
0.0
 10
272.4594267850394
 20
27.32510813123116
 30
0.0
  0
SPLINE
  5
AF
330
1F
100
AcDbEntity
  8
0
  6
Continuous
 62
   179
370
     0
100
AcDbSpline
210
0.0
220
0.0
230
1.0
 70
    24
 71
     3
 72
     8
 73
     4
 74
     0
 42
0.000000001
 43
0.00000001
 40
5.0
 40
5.0
 40
5.0
 40
5.0
 40
6.0
 40
6.0
 40
6.0
 40
6.0
 10
274.6224502449564
 20
20.25907966958721
 30
0.0
 10
273.8904356226618
 20
20.25907966958721
 30
0.0
 10
273.1584194628893
 20
20.25907966958721
 30
0.0
 10
272.426404840594
 20
20.25907966958721
 30
0.0
  0
SPLINE
  5
B0
330
1F
100
AcDbEntity
  8
0
  6
Continuous
 62
   179
370
     0
100
AcDbSpline
210
0.0
220
0.0
230
1.0
 70
     8
 71
     3
 72
    17
 73
    13
 74
     0
 42
0.000000001
 43
0.00000001
 40
1.0
 40
1.0
 40
1.0
 40
1.0
 40
2.0
 40
2.0
 40
2.0
 40
3.0
 40
3.0
 40
3.0
 40
4.0
 40
4.0
 40
4.0
 40
5.0
 40
5.0
 40
5.0
 40
5.0
 10
273.9540333846496
 20
27.87257450949275
 30
0.0
 10
273.9540333846496
 20
27.8074859707617
 30
0.0
 10
273.9540333846496
 20
27.71082379150879
 30
0.0
 10
273.9540333846496
 20
27.61416161225588
 30
0.0
 10
273.9540349221275
 20
25.51596282147274
 30
0.0
 10
273.9539872603212
 20
23.41776441505854
 30
0.0
 10
273.9542086570993
 20
21.31956562427539
 30
0.0
 10
273.954217881965
 20
21.22727776105204
 30
0.0
 10
273.9506540088286
 20
21.13443409966764
 30
0.0
 10
273.9590578615309
 20
21.04279505200227
 30
0.0
 10
274.0006220316647
 20
20.58964274029083
 30
0.0
 10
274.1836818051717
 20
20.38260600321025
 30
0.0
 10
274.6224502449564
 20
20.25907966958721
 30
0.0
  0
SPLINE
  5
B1
330
1F
100
AcDbEntity
  8
0
  6
Continuous
 62
   179
370
     0
100
AcDbSpline
210
0.0
220
0.0
230
1.0
 70
     8
 71
     3
 72
     8
 73
     4
 74
     0
 42
0.000000001
 43
0.00000001
 40
0.0
 40
0.0
 40
0.0
 40
0.0
 40
1.0
 40
1.0
 40
1.0
 40
1.0
 10
272.4594267850394
 20
27.32510813123116
 30
0.0
 10
272.932774634105
 20
27.49849255803981
 30
0.0
 10
273.4351023989377
 20
27.68249307566929
 30
0.0
 10
273.9540333846496
 20
27.87257450949275
 30
0.0
  0
SPLINE
  5
B2
330
1F
100
AcDbEntity
  8
0
  6
Continuous
 62
   179
370
     0
100
AcDbSpline
210
0.0
220
0.0
230
1.0
 70
     8
 71
     3
 72
    17
 73
    13
 74
     0
 42
0.000000001
 43
0.00000001
 40
6.0
 40
6.0
 40
6.0
 40
6.0
 40
7.0
 40
7.0
 40
7.0
 40
8.0
 40
8.0
 40
8.0
 40
9.0
 40
9.0
 40
9.0
 40
10.0
 40
10.0
 40
10.0
 40
10.0
 10
304.1706223551654
 20
25.06377258638473
 30
0.0
 10
304.1727133247369
 20
25.01792115989103
 30
0.0
 10
304.1800409430993
 20
24.93136078519359
 30
0.0
 10
304.1800932173391
 20
24.84479541369365
 30
0.0
 10
304.1808527312862
 20
23.65282014439031
 30
0.0
 10
304.1797703470369
 20
22.46084295323947
 30
0.0
 10
304.1818797663413
 20
21.26887114326077
 30
0.0
 10
304.1821011631179
 20
21.14380579453512
 30
0.0
 10
304.1922454404933
 20
21.01764883669525
 30
0.0
 10
304.2107535961514
 20
20.89393877449616
 30
0.0
 10
304.2621822227331
 20
20.55023795748125
 30
0.0
 10
304.4578262506062
 20
20.33981031349823
 30
0.0
 10
304.8038079156779
 20
20.2539775500868
 30
0.0
  0
SPLINE
  5
B3
330
1F
100
AcDbEntity
  8
0
  6
Continuous
 62
   179
370
     0
100
AcDbSpline
210
0.0
220
0.0
230
1.0
 70
     8
 71
     3
 72
     8
 73
     4
 74
     0
 42
0.000000001
 43
0.00000001
 40
5.0
 40
5.0
 40
5.0
 40
5.0
 40
6.0
 40
6.0
 40
6.0
 40
6.0
 10
302.7125031745686
 20
24.50968064047994
 30
0.0
 10
303.1898069535648
 20
24.6910587978335
 30
0.0
 10
303.6729961969132
 20
24.87467283202501
 30
0.0
 10
304.1706223551654
 20
25.06377258638473
 30
0.0
  0
SPLINE
  5
B4
330
1F
100
AcDbEntity
  8
0
  6
Continuous
 62
   179
370
     0
100
AcDbSpline
210
0.0
220
0.0
230
1.0
 70
     8
 71
     3
 72
    17
 73
    13
 74
     0
 42
0.000000001
 43
0.00000001
 40
1.0
 40
1.0
 40
1.0
 40
1.0
 40
2.0
 40
2.0
 40
2.0
 40
3.0
 40
3.0
 40
3.0
 40
4.0
 40
4.0
 40
4.0
 40
5.0
 40
5.0
 40
5.0
 40
5.0
 10
302.6973344203136
 20
20.2539775500868
 30
0.0
 10
303.1321361678242
 20
20.3494649042487
 30
0.0
 10
303.2897768237453
 20
20.65853557522151
 30
0.0
 10
303.2916556214045
 20
21.04785181591347
 30
0.0
 10
303.2966032244031
 20
22.071496731734
 30
0.0
 10
303.2829750227277
 20
23.09531768874207
 30
0.0
 10
303.2668591822546
 20
24.11891186780057
 30
0.0
 10
303.2632153602819
 20
24.35030186610297
 30
0.0
 10
303.1332831261333
 20
24.4918735746181
 30
0.0
 10
302.8846514693662
 20
24.49557889569631
 30
0.0
 10
302.8224697242705
 20
24.49650561033552
 30
0.0
 10
302.760410977386
 20
24.5055728846329
 30
0.0
 10
302.7125031745686
 20
24.50968064047994
 30
0.0
  0
SPLINE
  5
B5
330
1F
100
AcDbEntity
  8
0
  6
Continuous
 62
   179
370
     0
100
AcDbSpline
210
0.0
220
0.0
230
1.0
 70
    24
 71
     3
 72
     8
 73
     4
 74
     0
 42
0.000000001
 43
0.00000001
 40
0.0
 40
0.0
 40
0.0
 40
0.0
 40
1.0
 40
1.0
 40
1.0
 40
1.0
 10
304.8038079156779
 20
20.2539775500868
 30
0.0
 10
304.101651108875
 20
20.2539775500868
 30
0.0
 10
303.3994912271164
 20
20.2539775500868
 30
0.0
 10
302.6973344203136
 20
20.2539775500868
 30
0.0
  0
SPLINE
  5
B6
330
1F
100
AcDbEntity
  8
0
  6
Continuous
 62
   179
370
     0
100
AcDbSpline
210
0.0
220
0.0
230
1.0
 70
     8
 71
     3
 72
    11
 73
     7
 74
     0
 42
0.000000001
 43
0.00000001
 40
2.0
 40
2.0
 40
2.0
 40
2.0
 40
3.0
 40
3.0
 40
3.0
 40
4.0
 40
4.0
 40
4.0
 40
4.0
 10
303.0570519104932
 20
26.35430478392947
 30
0.0
 10
303.0511172468595
 20
26.75330175249256
 30
0.0
 10
303.3266947364937
 20
27.05519259513757
 30
0.0
 10
303.6924299141011
 20
27.05034857969325
 30
0.0
 10
304.0507636744179
 20
27.04560238626284
 30
0.0
 10
304.3255386007336
 20
26.75299425696746
 30
0.0
 10
304.327448147944
 20
26.37412133304796
 30
0.0
  0
SPLINE
  5
B7
330
1F
100
AcDbEntity
  8
0
  6
Continuous
 62
   179
370
     0
100
AcDbSpline
210
0.0
220
0.0
230
1.0
 70
     8
 71
     3
 72
    11
 73
     7
 74
     0
 42
0.000000001
 43
0.00000001
 40
0.0
 40
0.0
 40
0.0
 40
0.0
 40
1.0
 40
1.0
 40
1.0
 40
2.0
 40
2.0
 40
2.0
 40
2.0
 10
304.327448147944
 20
26.37412133304796
 30
0.0
 10
304.3293945946187
 20
25.98752450590587
 30
0.0
 10
304.068057222753
 20
25.70828897263022
 30
0.0
 10
303.6993639381942
 20
25.70301926806731
 30
0.0
 10
303.3259905717408
 20
25.69768229885988
 30
0.0
 10
303.0628482011429
 20
25.96449808787493
 30
0.0
 10
303.0570519104932
 20
26.35430478392947
 30
0.0
  0
MTEXT
  5
B9
330
1F
100
AcDbEntity
  8
0
  6
Continuous
 62
     7
370
     0
100
AcDbMText
 10
257.9690483454
 20
40.3166048975
 30
0.0
 40
3.7041666667
 41
0.0
 71
     1
 72
     1
  1
EXCD_01_Excel Desk Lamp
  7
SLDTEXTSTYLE0
 73
     1
 44
1.0
  0
MTEXT
  5
BA
330
1F
100
AcDbEntity
  8
0
  6
Continuous
 62
     7
370
     0
100
AcDbMText
 10
258.6105142387
 20
44.3546043689
 30
0.0
 40
1.5875
 41
0.0
 71
     1
 72
     1
  1
\LDESCRIPTION
  7
SLDTEXTSTYLE0
 73
     1
 44
1.0
  0
INSERT
  5
C1
330
1F
100
AcDbEntity
  8
0
  6
Continuous
 62
     7
370
     0
100
AcDbBlockReference
  2
SW_NOTE_0
 10
317.1049495712
 20
24.1495665419
 30
0.0
  0
MTEXT
  5
C2
330
1F
100
AcDbEntity
  8
0
  6
Continuous
 62
     7
370
     0
100
AcDbMText
 10
273.8792930731
 20
32.371143085
 30
0.0
 40
1.5875
 41
0.0
 71
     2
 72
     1
  1
\LSCALE
  7
SLDTEXTSTYLE0
 73
     1
 44
1.0
  0
MTEXT
  5
C3
330
1F
100
AcDbEntity
  8
0
  6
Continuous
 62
     7
370
     0
100
AcDbMText
 10
278.3960862508
 20
33.4394651033
 30
0.0
 40
2.6458333333
 41
0.0
 71
     1
 72
     1
  1
1:5
  7
SLDTEXTSTYLE0
 73
     1
 44
1.0
  0
MTEXT
  5
C4
330
1F
100
AcDbEntity
  8
0
  6
Continuous
 62
     7
370
     0
100
AcDbMText
 10
261.5657280329
 20
32.371143085
 30
0.0
 40
1.5875
 41
0.0
 71
     2
 72
     1
  1
\LSIZE
  7
SLDTEXTSTYLE0
 73
     1
 44
1.0
  0
MTEXT
  5
C5
330
1F
100
AcDbEntity
  8
0
  6
Continuous
 62
     7
370
     0
100
AcDbMText
 10
264.7495209372
 20
33.4394651033
 30
0.0
 40
2.6458333333
 41
0.0
 71
     1
 72
     1
  1
B
  7
SLDTEXTSTYLE0
 73
     1
 44
1.0
  0
INSERT
  5
CC
330
1F
100
AcDbEntity
  8
0
  6
Continuous
 62
     7
370
     0
100
AcDbBlockReference
  2
SW_NOTE_1
 10
258.0900415808
 20
15.6806800849
 30
0.0
  0
LINE
  5
CD
330
1F
100
AcDbEntity
  8
0
  6
Continuous
 62
     7
370
    15
100
AcDbLine
 10
138.5932345597
 20
56.0193901549
 30
0.0
 11
138.5932345597
 21
57.2893901549
 31
0.0
  0
LINE
  5
CE
330
1F
100
AcDbEntity
  8
0
  6
Continuous
 62
     7
370
    15
100
AcDbLine
 10
89.0632345597
 20
57.2893901549
 30
0.0
 11
89.0632345597
 21
56.0193901549
 31
0.0
  0
SPLINE
  5
CF
330
1F
100
AcDbEntity
  8
0
  6
Continuous
 62
     7
370
    15
100
AcDbSpline
210
0.0
220
0.0
230
1.0
 70
     8
 71
     3
 72
    11
 73
     7
 74
     0
 42
0.000000001
 43
0.00000001
 40
0.0
 40
0.0
 40
0.0
 40
0.0
 40
0.2124294255513488
 40
0.5516020766279081
 40
0.803681021586478
 40
1.0
 40
1.0
 40
1.0
 40
1.0
 10
87.39232549294168
 20
127.2915205684582
 30
0.0
 10
87.43287404409791
 20
127.3035724369783
 30
0.0
 10
87.53816390666748
 20
127.3348667630147
 30
0.0
 10
87.64697107346497
 20
127.4020244514923
 30
0.0
 10
87.7417865180114
 20
127.4980918774658
 30
0.0
 10
87.76487277900478
 20
127.5758733672673
 30
0.0
 10
87.77498047785298
 20
127.6099279019148
 30
0.0
  0
SPLINE
  5
D0
330
1F
100
AcDbEntity
  8
0
  6
Continuous
 62
     7
370
    15
100
AcDbSpline
210
0.0
220
0.0
230
1.0
 70
     8
 71
     3
 72
    12
 73
     8
 74
     0
 42
0.000000001
 43
0.00000001
 40
0.0
 40
0.0
 40
0.0
 40
0.0
 40
0.1008385425600822
 40
0.3502902182843933
 40
0.6171004591171753
 40
0.9551535007600347
 40
1.0
 40
1.0
 40
1.0
 40
1.0
 10
47.75781268835242
 20
134.6561643005503
 30
0.0
 10
47.75366593473287
 20
134.6382440064432
 30
0.0
 10
47.73926105348722
 20
134.5759929705283
 30
0.0
 10
47.7780078727142
 20
134.4706140443189
 30
0.0
 10
47.85846001183255
 20
134.3559685348781
 30
0.0
 10
47.93426069457807
 20
134.2779079749859
 30
0.0
 10
48.00453094285825
 20
134.2316285859414
 30
0.0
 10
48.01276123383436
 20
134.2262081861655
 30
0.0
  0
LINE
  5
D1
330
1F
100
AcDbEntity
  8
0
  6
Continuous
 62
     7
370
    15
100
AcDbLine
 10
87.7749804779
 20
127.6099279019
 30
0.0
 11
89.6388181115
 21
138.1802763886
 31
0.0
  0
LINE
  5
D2
330
1F
100
AcDbEntity
  8
0
  6
Continuous
 62
     7
370
    15
100
AcDbLine
 10
90.1901510756
 20
141.3070410044
 30
0.0
 11
91.2648870363
 21
147.4021715192
 31
0.0
  0
LINE
  5
D3
330
1F
100
AcDbEntity
  8
0
  6
Continuous
 62
     7
370
    15
100
AcDbLine
 10
51.2422999539
 20
154.4592334596
 30
0.0
 11
47.7523933954
 21
134.6669898423
 31
0.0
  0
LINE
  5
D4
330
1F
100
AcDbEntity
  8
0
  6
Continuous
 62
     7
370
    15
100
AcDbLine
 10
132.3611759923
 20
133.8711515074
 30
0.0
 11
131.6904003547
 21
146.6703131361
 31
0.0
  0
LINE
  5
D5
330
1F
100
AcDbEntity
  8
0
  6
Continuous
 62
     7
370
    15
100
AcDbLine
 10
135.54672249
 20
73.0873033601
 30
0.0
 11
132.5313249252
 21
130.6245164622
 31
0.0
  0
LINE
  5
D6
330
1F
100
AcDbEntity
  8
0
  6
Continuous
 62
     7
370
    15
100
AcDbLine
 10
136.3746560384
 20
57.2893901549
 30
0.0
 11
135.6295810037
 21
71.5062687348
 31
0.0
  0
LINE
  5
D7
330
1F
100
AcDbEntity
  8
0
  6
Continuous
 62
     7
370
    15
100
AcDbLine
 10
129.803730887
 20
73.4717624201
 30
0.0
 11
130.651813081
 21
57.2893901549
 31
0.0
  0
LINE
  5
D8
330
1F
100
AcDbEntity
  8
0
  6
Continuous
 62
     7
370
    15
100
AcDbLine
 10
126.7553609198
 20
131.6381264401
 30
0.0
 11
129.741467775
 21
74.6598133716
 31
0.0
  0
LINE
  5
D9
330
1F
100
AcDbEntity
  8
0
  6
Continuous
 62
     7
370
    15
100
AcDbLine
 10
125.9832325635
 20
146.3712131462
 30
0.0
 11
126.5853593564
 21
134.8819495085
 31
0.0
  0
LINE
  5
DA
330
1F
100
AcDbEntity
  8
0
  6
Continuous
 62
     7
370
    15
100
AcDbLine
 10
126.5901313695
 20
134.8887423813
 30
0.0
 11
90.1031412977
 21
141.3223831758
 31
0.0
  0
LINE
  5
DB
330
1F
100
AcDbEntity
  8
0
  6
Continuous
 62
     7
370
    15
100
AcDbLine
 10
111.1396255584
 20
134.3891039287
 30
0.0
 11
126.7563853281
 21
131.63544783
 31
0.0
  0
LINE
  5
DC
330
1F
100
AcDbEntity
  8
0
  6
Continuous
 62
     7
370
    15
100
AcDbLine
 10
89.5728436734
 20
138.191909462
 30
0.0
 11
109.6435336219
 21
134.6529053027
 31
0.0
  0
LINE
  5
DD
330
1F
100
AcDbEntity
  8
0
  6
Continuous
 62
     7
370
    15
100
AcDbLine
 10
133.6057861124
 20
133.6516931628
 30
0.0
 11
132.3611759923
 21
133.8711515074
 31
0.0
  0
LINE
  5
DE
330
1F
100
AcDbEntity
  8
0
  6
Continuous
 62
     7
370
    15
100
AcDbLine
 10
146.5619649812
 20
131.3671692614
 30
0.0
 11
134.5040518504
 21
133.4933046774
 31
0.0
  0
LINE
  5
DF
330
1F
100
AcDbEntity
  8
0
  6
Continuous
 62
     7
370
    15
100
AcDbLine
 10
132.5267348868
 20
130.6179795147
 30
0.0
 11
146.0106320171
 21
128.2404046455
 31
0.0
  0
SPLINE
  5
E0
330
1F
100
AcDbEntity
  8
0
  6
Continuous
 62
     7
370
    15
100
AcDbSpline
210
0.0
220
0.0
230
1.0
 70
     8
 71
     3
 72
    59
 73
    55
 74
     0
 42
0.000000001
 43
0.00000001
 40
0.0
 40
0.0
 40
0.0
 40
0.0
 40
0.004958742903807
 40
0.0121034437183738
 40
0.0238280138432145
 40
0.0373441365080489
 40
0.0523967465401685
 40
0.0682064617619463
 40
0.094580882066965
 40
0.1188773210572352
 40
0.1394019373169654
 40
0.158233854524531
 40
0.1775232211505336
 40
0.1971573157632314
 40
0.2170310864610724
 40
0.2721515214843296
 40
0.3270196531041085
 40
0.3600628312689491
 40
0.3932963200426032
 40
0.4265101009457663
 40
0.4594978053584544
 40
0.4917806047842711
 40
0.5221099880902076
 40
0.5495977384088162
 40
0.5750361258371539
 40
0.5998740876991413
 40
0.6268564322211646
 40
0.6555463991071646
 40
0.6849342769043567
 40
0.7045850995069467
 40
0.7242598782930146
 40
0.7443854337056784
 40
0.7546229630828656
 40
0.7649824428260028
 40
0.774941487724293
 40
0.7832127167353102
 40
0.7898201107469554
 40
0.7953647020333586
 40
0.8024361942231296
 40
0.8113982960425574
 40
0.8219633070475698
 40
0.8380084378913317
 40
0.8540150448248235
 40
0.8699994409389362
 40
0.8849022380009117
 40
0.8981043131925833
 40
0.909572948691846
 40
0.9190454341308866
 40
0.93151186183643
 40
0.947071779443701
 40
0.9608285670865613
 40
0.9764239012890327
 40
0.9939359562400089
 40
0.9999999999999999
 40
0.9999999999999999
 40
0.9999999999999999
 40
0.9999999999999999
 10
109.633446636601
 20
134.6463046560282
 30
0.0
 10
109.7127934606125
 20
134.5452637666648
 30
0.0
 10
109.9064654934816
 20
134.298640228928
 30
0.0
 10
110.1721846366253
 20
133.7378904036147
 30
0.0
 10
110.4252593750404
 20
132.9380265562928
 30
0.0
 10
110.608741382395
 20
131.9104159335825
 30
0.0
 10
110.7269148150679
 20
130.7688492154286
 30
0.0
 10
110.8007442929937
 20
129.290505703958
 30
0.0
 10
110.8026768445503
 20
127.5712733346137
 30
0.0
 10
110.7435893371021
 20
125.7316276512701
 30
0.0
 10
110.6574419404919
 20
124.0883473698094
 30
0.0
 10
110.5581253502482
 20
122.5755530275884
 30
0.0
 10
110.4463340498139
 20
121.0867247456908
 30
0.0
 10
110.3218918426359
 20
119.5718850463396
 30
0.0
 10
110.1092818109125
 20
117.1349519267381
 30
0.0
 10
109.7968835355399
 20
113.7925108913205
 30
0.0
 10
109.4554765462872
 20
110.1108606289404
 30
0.0
 10
109.1864183686142
 20
106.9907641678872
 30
0.0
 10
108.9845555788043
 20
104.4267812065516
 30
0.0
 10
108.8094403092191
 20
101.8622367894028
 30
0.0
 10
108.6702891703846
 20
99.32005925387188
 30
0.0
 10
108.576795304261
 20
96.85035639555127
 30
0.0
 10
108.5355662540011
 20
94.52138098853666
 30
0.0
 10
108.5466862510071
 20
92.36897615925425
 30
0.0
 10
108.6081125844379
 20
90.35940011708125
 30
0.0
 10
108.7271310301611
 20
88.36541972205349
 30
0.0
 10
108.9274836663621
 20
86.29316762901574
 30
0.0
 10
109.2485752164545
 20
84.11669146685531
 30
0.0
 10
109.6773684401842
 20
82.15117555248658
 30
0.0
 10
110.1922630864873
 20
80.44961217206095
 30
0.0
 10
110.7552295632942
 20
79.0175292357367
 30
0.0
 10
111.3529993665314
 20
77.86653286489286
 30
0.0
 10
111.9312850664731
 20
76.98595451385522
 30
0.0
 10
112.4161096544983
 20
76.36126907003926
 30
0.0
 10
112.9188388542367
 20
75.81831190650529
 30
0.0
 10
113.394150332826
 20
75.38579178640052
 30
0.0
 10
113.8102382292524
 20
75.06034452897349
 30
0.0
 10
114.22044478505
 20
74.77957703388724
 30
0.0
 10
114.7013062429534
 20
74.49607970668856
 30
0.0
 10
115.3223137612629
 20
74.1989550917042
 30
0.0
 10
116.1898173248762
 20
73.8889562766309
 30
0.0
 10
117.2730448343329
 20
73.66716943745125
 30
0.0
 10
118.5121588097174
 20
73.56867040060325
 30
0.0
 10
119.7246781484153
 20
73.56367744440311
 30
0.0
 10
120.8635468946462
 20
73.60618522157034
 30
0.0
 10
121.8848952693043
 20
73.66301897553964
 30
0.0
 10
122.7659754128862
 20
73.71486970285876
 30
0.0
 10
123.6283563969027
 20
73.76115783530143
 30
0.0
 10
124.5969214662747
 20
73.80212983850134
 30
0.0
 10
125.6769815910446
 20
73.8214507633973
 30
0.0
 10
126.8379639780427
 20
73.8007183828803
 30
0.0
 10
128.0461894979041
 20
73.71786851346673
 30
0.0
 10
129.0523548721764
 20
73.60011344876975
 30
0.0
 10
129.6495280832631
 20
73.48107795562781
 30
0.0
 10
129.8031279018217
 20
73.45046065764926
 30
0.0
  0
SPLINE
  5
E1
330
1F
100
AcDbEntity
  8
0
  6
Continuous
 62
     7
370
    15
100
AcDbSpline
210
0.0
220
0.0
230
1.0
 70
     8
 71
     3
 72
    50
 73
    46
 74
     0
 42
0.000000001
 43
0.00000001
 40
0.0
 40
0.0
 40
0.0
 40
0.0
 40
0.0185568014393462
 40
0.0426963904232127
 40
0.0648821801980266
 40
0.0851322858979059
 40
0.1034666361860568
 40
0.1199130290779989
 40
0.1345120082201714
 40
0.1473377308936508
 40
0.1585074326617751
 40
0.1681670511557382
 40
0.1765894509620832
 40
0.1839872714028573
 40
0.1935569950226981
 40
0.2015887399214396
 40
0.2099344121927971
 40
0.2197949167682788
 40
0.2313967257412633
 40
0.2450233684127456
 40
0.2597383873207577
 40
0.275054344036583
 40
0.3007537435654126
 40
0.3277435606642697
 40
0.3557029386964179
 40
0.3841664280856808
 40
0.4122948196874252
 40
0.4462988483193873
 40
0.4784214606374063
 40
0.5081858903340175
 40
0.5370142236677333
 40
0.5945114082672038
 40
0.6528038698085734
 40
0.7129939950716292
 40
0.7735202570445013
 40
0.8139721238064377
 40
0.8542802888603509
 40
0.8948062743960453
 40
0.9248274059621665
 40
0.954440939506314
 40
0.9640243750740665
 40
0.9737592915612174
 40
0.9857172024463663
 40
0.995914636227989
 40
1.0
 40
1.0
 40
1.0
 40
1.0
 10
129.7401281098216
 20
74.64875336412067
 30
0.0
 10
129.2810011589622
 20
74.72486327589641
 30
0.0
 10
128.2246195615308
 20
74.89998065907662
 30
0.0
 10
126.596852473921
 20
74.99253663591016
 30
0.0
 10
124.9262377002765
 20
74.99347011987645
 30
0.0
 10
123.4022829154064
 20
74.92971387426222
 30
0.0
 10
122.0238599060151
 20
74.84817151552056
 30
0.0
 10
120.7868514344456
 20
74.77842013229747
 30
0.0
 10
119.6867658601453
 20
74.74030186804933
 30
0.0
 10
118.7183266993363
 20
74.74460633863188
 30
0.0
 10
117.875206559126
 20
74.79623427362142
 30
0.0
 10
117.1473510338042
 20
74.89335262952766
 30
0.0
 10
116.5222363730084
 20
75.03033640630983
 30
0.0
 10
115.9155882302616
 20
75.22662720406421
 30
0.0
 10
115.3407344266535
 20
75.48088938382145
 30
0.0
 10
114.7775506291719
 20
75.80916336225573
 30
0.0
 10
114.2445615390531
 20
76.1971459480687
 30
0.0
 10
113.6885951171953
 20
76.69944020301
 30
0.0
 10
113.1050463425154
 20
77.3611445753929
 30
0.0
 10
112.5319611193699
 20
78.18590229475487
 30
0.0
 10
112.0038898698989
 20
79.14761917709399
 30
0.0
 10
111.4433110975043
 20
80.43034020350244
 30
0.0
 10
110.9144008145459
 20
82.05627944937383
 30
0.0
 10
110.4621923988585
 20
84.03075180675133
 30
0.0
 10
110.1361405608837
 20
86.09958832773198
 30
0.0
 10
109.9166408439516
 20
88.2106073948446
 30
0.0
 10
109.7743768160892
 20
90.47997475696077
 30
0.0
 10
109.7115715197936
 20
92.84478970853417
 30
0.0
 10
109.7191172405105
 20
95.25122257695153
 30
0.0
 10
109.7765402549964
 20
97.52695559793622
 30
0.0
 10
109.8997802385214
 20
100.4374882784836
 30
0.0
 10
110.1279020451925
 20
104.0595423422226
 30
0.0
 10
110.4854420482554
 20
108.4609773123578
 30
0.0
 10
110.8969676576879
 20
112.9339229367416
 30
0.0
 10
111.2761613075581
 20
116.960233040956
 30
0.0
 10
111.5833081295897
 20
120.4922093019064
 30
0.0
 10
111.8085551694883
 20
123.5273179996341
 30
0.0
 10
111.9525578744193
 20
126.3058407447969
 30
0.0
 10
111.9902305398647
 20
128.8192030750732
 30
0.0
 10
111.926087056126
 20
130.5569200747101
 30
0.0
 10
111.8014321180936
 20
131.7785428584261
 30
0.0
 10
111.6898340409047
 20
132.5560700022508
 30
0.0
 10
111.5189658910664
 20
133.3374210569432
 30
0.0
 10
111.3361892718709
 20
133.9739192338441
 30
0.0
 10
111.1771182434234
 20
134.2954588364639
 30
0.0
 10
111.1316185425171
 20
134.3874300514081
 30
0.0
  0
SPLINE
  5
E2
330
1F
100
AcDbEntity
  8
0
  6
Continuous
 62
     7
370
    15
100
AcDbSpline
210
0.0
220
0.0
230
1.0
 70
     8
 71
     3
 72
    28
 73
    24
 74
     0
 42
0.000000001
 43
0.00000001
 40
0.0
 40
0.0
 40
0.0
 40
0.0
 40
0.0165272698212197
 40
0.0854236515150352
 40
0.1448768677645268
 40
0.1958531470114947
 40
0.2520332429071783
 40
0.2947860607277095
 40
0.3249797891822682
 40
0.3523147636320942
 40
0.3805220972442728
 40
0.442267095441784
 40
0.5176276204600411
 40
0.606456274520749
 40
0.6926399192286331
 40
0.7688003207403639
 40
0.7941499715142998
 40
0.8197414877030146
 40
0.8453155946188211
 40
0.8708277267307035
 40
0.9014368301686312
 40
0.9442482228090499
 40
1.0
 40
1.0
 40
1.0
 40
1.0
 10
135.6242758636038
 20
71.49178185399916
 30
0.0
 10
135.6931384227286
 20
71.45685192057718
 30
0.0
 10
136.0490647987569
 20
71.27631136594485
 30
0.0
 10
136.6244608867288
 20
70.92002645472536
 30
0.0
 10
137.3205107044691
 20
70.4578125270851
 30
0.0
 10
137.9454094149867
 20
69.99820776985402
 30
0.0
 10
138.4914740494918
 20
69.5647590058096
 30
0.0
 10
138.9497836934671
 20
69.17739058508876
 30
0.0
 10
139.2995573505444
 20
68.86973774523236
 30
0.0
 10
139.5948536298221
 20
68.60258217949044
 30
0.0
 10
139.9944358568607
 20
68.23232900478338
 30
0.0
 10
140.5489781127999
 20
67.70107850598438
 30
0.0
 10
141.2954700535065
 20
66.96251530398911
 30
0.0
 10
142.1190531475062
 20
66.1383430538688
 30
0.0
 10
142.9550677574715
 20
65.3184969365729
 30
0.0
 10
143.5946276187605
 20
64.71923651476321
 30
0.0
 10
144.0361765767273
 20
64.32210517077355
 30
0.0
 10
144.3047191542798
 20
64.0859172300963
 30
0.0
 10
144.5767398279884
 20
63.85242783427408
 30
0.0
 10
144.8697575477047
 20
63.60729883839137
 30
0.0
 10
145.2291538354305
 20
63.31588316468947
 30
0.0
 10
145.7054460286525
 20
62.94396397452672
 30
0.0
 10
146.0794352185752
 20
62.67453852267641
 30
0.0
 10
146.2909803832048
 20
62.52213932745138
 30
0.0
  0
SPLINE
  5
E3
330
1F
100
AcDbEntity
  8
0
  6
Continuous
 62
     7
370
    15
100
AcDbSpline
210
0.0
220
0.0
230
1.0
 70
     8
 71
     3
 72
    25
 73
    21
 74
     0
 42
0.000000001
 43
0.00000001
 40
0.0
 40
0.0
 40
0.0
 40
0.0
 40
0.0782357762398725
 40
0.1419442084823776
 40
0.1942265207888643
 40
0.2441556734969781
 40
0.2928706343286187
 40
0.3571370760891957
 40
0.4246720342857857
 40
0.4913639916090076
 40
0.5584498826679496
 40
0.6174124460609364
 40
0.6723294304456513
 40
0.7062521314864543
 40
0.7522672247195971
 40
0.8109274464838598
 40
0.86376198561694
 40
0.9248197321204689
 40
0.9949652913603316
 40
1.0
 40
1.0
 40
1.0
 40
1.0
 10
146.3378717815906
 20
63.94376619718808
 30
0.0
 10
146.0481561172116
 20
64.1704898717591
 30
0.0
 10
145.5225211373893
 20
64.58183764739218
 30
0.0
 10
144.8336850961356
 20
65.18097507823212
 30
0.0
 10
144.2580072199164
 20
65.70571860515201
 30
0.0
 10
143.7442339788009
 20
66.19275614699329
 30
0.0
 10
143.1972914082855
 20
66.72528221218784
 30
0.0
 10
142.597831341561
 20
67.32076869903351
 30
0.0
 10
141.9412442205855
 20
67.97673710227869
 30
0.0
 10
141.2713165419048
 20
68.63699048643423
 30
0.0
 10
140.6198151921168
 20
69.25843540007598
 30
0.0
 10
139.9941998088135
 20
69.82724100552481
 30
0.0
 10
139.4702264786512
 20
70.27765216668648
 30
0.0
 10
138.9816006031455
 20
70.67634723329778
 30
0.0
 10
138.4689846637916
 20
71.07361124153071
 30
0.0
 10
137.8697958386206
 20
71.50390115290881
 30
0.0
 10
137.1945254679727
 20
71.94947584852757
 30
0.0
 10
136.451049371391
 20
72.38820851447757
 30
0.0
 10
135.8910972968338
 20
72.69952350648309
 30
0.0
 10
135.5693748391085
 20
72.84551041678213
 30
0.0
 10
135.5478295735332
 20
72.8552869389906
 30
0.0
  0
LINE
  5
E4
330
1F
100
AcDbEntity
  8
0
  6
Continuous
 62
     7
370
    15
100
AcDbLine
 10
134.6802594411
 20
133.4622345249
 30
0.0
 11
134.722971235
 21
133.7044651448
 31
0.0
  0
LINE
  5
E5
330
1F
100
AcDbEntity
  8
0
  6
Continuous
 62
     7
370
    15
100
AcDbLine
 10
133.4722653886
 20
133.9249983304
 30
0.0
 11
133.4295535948
 21
133.6827677105
 31
0.0
  0
LINE
  5
E6
330
1F
100
AcDbEntity
  8
0
  6
Continuous
 62
     7
370
    15
100
AcDbLine
 10
113.8282345597
 20
57.2893901549
 30
0.0
 11
138.5932345597
 21
57.2893901549
 31
0.0
  0
LINE
  5
E7
330
1F
100
AcDbEntity
  8
0
  6
Continuous
 62
     7
370
    15
100
AcDbLine
 10
89.0632345597
 20
57.2893901549
 30
0.0
 11
113.8282345597
 21
57.2893901549
 31
0.0
  0
LINE
  5
E8
330
1F
100
AcDbEntity
  8
0
  6
Continuous
 62
     7
370
    15
100
AcDbLine
 10
113.8282345597
 20
56.0193901549
 30
0.0
 11
138.5932345597
 21
56.0193901549
 31
0.0
  0
LINE
  5
E9
330
1F
100
AcDbEntity
  8
0
  6
Continuous
 62
     7
370
    15
100
AcDbLine
 10
89.0632345597
 20
56.0193901549
 30
0.0
 11
113.8282345597
 21
56.0193901549
 31
0.0
  0
LWPOLYLINE
  5
EA
330
1F
100
AcDbEntity
  8
0
  6
Continuous
 62
     7
370
    15
100
AcDbPolyline
 90
       51
 70
   128
 43
0.0
 10
87.4377501962
 20
127.7342481093
 10
87.3272431649
 20
127.8157813911
 10
87.1009853918
 20
127.9499685406
 10
86.8067081295
 20
128.0948079694
 10
86.4454450378
 20
128.2497909237
 10
86.0184650664
 20
128.4143730203
 10
85.5272679979
 20
128.5879761585
 10
84.9735791802
 20
128.769990551
 10
84.3593434652
 20
128.9597768656
 10
83.6867183784
 20
129.1566684709
 10
82.9580665398
 20
129.359973778
 10
82.1759473658
 20
129.5689786696
 10
81.3431080783
 20
129.7829490083
 10
80.4624740558
 20
130.0011332157
 10
79.5371385573
 20
130.2227649116
 10
78.5703518576
 20
130.4470656066
 10
77.5655098303
 20
130.6732474365
 10
76.5261420195
 20
130.9005159292
 10
75.4558992426
 20
131.1280727959
 10
74.3585407664
 20
131.3551187348
 10
73.2379211026
 20
131.5808562388
 10
72.0979764686
 20
131.8044923966
 10
70.9427109615
 20
132.0252416781
 10
69.7761824936
 20
132.2423286933
 10
68.6024885386
 20
132.4549909163
 10
67.4257517394
 20
132.6624813632
 10
66.2501054269
 20
132.8640712163
 10
65.0796791015
 20
133.0590523837
 10
63.9185839286
 20
133.2467399872
 10
62.7708982972
 20
133.426474767
 10
61.640653495
 20
133.5976253984
 10
60.531819548
 20
133.7595907083
 10
59.4482912759
 20
133.9118017878
 10
58.3938746114
 20
134.0537239899
 10
57.3722732313
 20
134.1848588076
 10
56.3870755479
 20
134.3047456252
 10
55.4417421039
 20
134.4129633359
 10
54.5395934174
 20
134.5091318209
 10
53.6837983187
 20
134.5929132849
 10
52.8773628193
 20
134.6640134426
 10
52.1231195533
 20
134.722182552
 10
51.4237178275
 20
134.767216292
 10
50.7816143162
 20
134.79895648
 10
50.1990644314
 20
134.8172916273
 10
49.6781144006
 20
134.8221573311
 10
49.22059408
 20
134.8135365005
 10
48.8281105262
 20
134.7914594164
 10
48.5020423522
 20
134.7560036253
 10
48.2435348843
 20
134.7072936671
 10
48.0534961394
 20
134.6455006373
 10
48.051459949
 20
134.6446033606
  0
LWPOLYLINE
  5
EB
330
1F
100
AcDbEntity
  8
0
  6
Continuous
 62
     7
370
    15
100
AcDbPolyline
 90
       50
 70
   128
 43
0.0
 10
48.0858173699
 20
134.1911316639
 10
48.14517155
 20
134.1494474772
 10
48.3714293231
 20
134.0152603277
 10
48.6657065853
 20
133.8704208989
 10
49.0269696771
 20
133.7154379446
 10
49.4539496485
 20
133.550855848
 10
49.9451467169
 20
133.3772527098
 10
50.4988355347
 20
133.1952383173
 10
51.1130712497
 20
133.0054520028
 10
51.7856963365
 20
132.8085603975
 10
52.5143481751
 20
132.6052550904
 10
53.2964673491
 20
132.3962501988
 10
54.1293066366
 20
132.18227986
 10
55.0099406591
 20
131.9640956527
 10
55.9352761576
 20
131.7424639568
 10
56.9020628573
 20
131.5181632617
 10
57.9069048846
 20
131.2919814319
 10
58.9462726954
 20
131.0647129392
 10
60.0165154723
 20
130.8371560725
 10
61.1138739485
 20
130.6101101336
 10
62.2344936123
 20
130.3843726296
 10
63.3744382463
 20
130.1607364718
 10
64.5297037533
 20
129.9399871903
 10
65.6962322213
 20
129.722900175
 10
66.8699261763
 20
129.510237952
 10
68.0466629755
 20
129.3027475051
 10
69.222309288
 20
129.1011576521
 10
70.3927356134
 20
128.9061764846
 10
71.5538307863
 20
128.7184888812
 10
72.7015164177
 20
128.5387541013
 10
73.8317612199
 20
128.36760347
 10
74.9405951669
 20
128.2056381601
 10
76.024123439
 20
128.0534270806
 10
77.0785401035
 20
127.9115048785
 10
78.1001414836
 20
127.7803700607
 10
79.085339167
 20
127.6604832431
 10
80.030672611
 20
127.5522655325
 10
80.9328212975
 20
127.4560970475
 10
81.7886163962
 20
127.3723155834
 10
82.5950518956
 20
127.3012154257
 10
83.3492951616
 20
127.2430463163
 10
84.0486968873
 20
127.1980125763
 10
84.6908003986
 20
127.1662723884
 10
85.2733502835
 20
127.1479372411
 10
85.7943003143
 20
127.1430715373
 10
86.2518206349
 20
127.1516923679
 10
86.6443041886
 20
127.173769452
 10
86.9703723626
 20
127.209225243
 10
87.2288798306
 20
127.2579352012
 10
87.3147150256
 20
127.2815740849
  0
LINE
  5
EC
330
1F
100
AcDbEntity
  8
0
  6
Continuous
 62
     7
370
    15
100
AcDbLine
 10
47.7523933954
 20
134.6669898423
 30
0.0
 11
47.7517007134
 21
134.6626222024
 31
0.0
  0
SPLINE
  5
ED
330
1F
100
AcDbEntity
  8
0
  6
Continuous
 62
     7
370
    15
100
AcDbSpline
210
0.0
220
0.0
230
1.0
 70
     8
 71
     3
 72
     9
 73
     5
 74
     0
 42
0.000000001
 43
0.00000001
 40
0.0
 40
0.0
 40
0.0
 40
0.0
 40
0.5547152907503723
 40
0.9999999999999999
 40
0.9999999999999999
 40
0.9999999999999999
 40
0.9999999999999999
 10
89.52854154048629
 20
138.4910126057581
 30
0.0
 10
89.53225551346907
 20
138.3967039573708
 30
0.0
 10
89.53895079128944
 20
138.2266912500237
 30
0.0
 10
89.56413208199318
 20
138.2124404374819
 30
0.0
 10
89.57534492570272
 20
138.2060947685625
 30
0.0
  0
SPLINE
  5
EE
330
1F
100
AcDbEntity
  8
0
  6
Continuous
 62
     7
370
    15
100
AcDbSpline
210
0.0
220
0.0
230
1.0
 70
     8
 71
     3
 72
     9
 73
     5
 74
     0
 42
0.000000001
 43
0.00000001
 40
0.0
 40
0.0
 40
0.0
 40
0.0
 40
0.6543237426737026
 40
1.0
 40
1.0
 40
1.0
 40
1.0
 10
90.10151159603635
 20
141.3131406784505
 30
0.0
 10
90.08509657957971
 20
141.3081634340661
 30
0.0
 10
90.06000958458614
 20
141.3005567341104
 30
0.0
 10
90.01721634727423
 20
141.2098777031332
 30
0.0
 10
90.00242374116138
 20
141.1785321150871
 30
0.0
  0
LWPOLYLINE
  5
EF
330
1F
100
AcDbEntity
  8
0
  6
Continuous
 62
     7
370
    15
100
AcDbPolyline
 90
       55
 70
   128
 43
0.0
 10
91.2648870363
 20
147.4021715192
 10
91.2468411858
 20
147.5015214315
 10
91.1598744686
 20
147.6126924413
 10
91.0042866771
 20
147.7353013191
 10
90.7806141546
 20
147.8689254067
 10
90.4896279466
 20
148.0131040741
 10
90.132331143
 20
148.1673403078
 10
89.7099554197
 20
148.3311024233
 10
89.2239567934
 20
148.5038258988
 10
88.676010602
 20
148.6849153207
 10
88.0680057297
 20
148.8737464361
 10
87.402038095
 20
149.0696683052
 10
86.6804034265
 20
149.2720055447
 10
85.9055893483
 20
149.4800606562
 10
85.0802668051
 20
149.6931164305
 10
84.2072808547
 20
149.9104384205
 10
83.2896408603
 20
150.131277472
 10
82.3305101174
 20
150.3548723071
 10
81.3331949481
 20
150.5804521482
 10
80.3011333045
 20
150.8072393748
 10
79.2378829168
 20
151.0344522043
 10
78.1471090295
 20
151.261307387
 10
77.0325717661
 20
151.4870229062
 10
75.8981131674
 20
151.7108206736
 10
74.7476439473
 20
151.9319292121
 10
73.5851300113
 20
152.1495863146
 10
72.414578786
 20
152.3630416721
 10
71.2400254039
 20
152.5715594596
 10
70.0655187939
 20
152.7744208733
 10
68.8951077234
 20
152.9709266078
 10
67.732826842
 20
153.1603992671
 10
66.5826827726
 20
153.3421856996
 10
65.4486403001
 20
153.51565925
 10
64.3346087038
 20
153.680221919
 10
63.2444282814
 20
153.8353064248
 10
62.1818571108
 20
153.9803781592
 10
61.1505580947
 20
154.1149370297
 10
60.1540863347
 20
154.2385191842
 10
59.1958768752
 20
154.3506986092
 10
58.2792328628
 20
154.4510885992
 10
57.4073141592
 20
154.5393430889
 10
56.583126449
 20
154.6151578469
 10
55.8095108779
 20
154.678271524
 10
55.0891342589
 20
154.7284665543
 10
54.4244798796
 20
154.7655699051
 10
53.8178389412
 20
154.7894536735
 10
53.2713026608
 20
154.8000355272
 10
52.7867550622
 20
154.7972789883
 10
52.3658664813
 20
154.7811935593
 10
52.0100878081
 20
154.7518346898
 10
51.7206454856
 20
154.709303586
 10
51.4985372814
 20
154.6537468615
 10
51.3445288484
 20
154.5853560318
 10
51.2591510857
 20
154.5043668542
 10
51.2422999539
 20
154.4592334596
  0
LWPOLYLINE
  5
F0
330
1F
100
AcDbEntity
  8
0
  6
Continuous
 62
     7
370
    15
100
AcDbPolyline
 90
      106
 70
   128
 43
0.0
 10
87.1221479755
 20
127.5643500568
 10
87.1036845196
 20
127.6625407847
 10
87.0158905219
 20
127.7726165147
 10
86.8590802623
 20
127.8941832041
 10
86.6338150808
 20
128.0268056757
 10
86.3409013682
 20
128.1700091755
 10
85.9813876797
 20
128.3232810722
 10
85.5565609808
 20
128.4860726922
 10
85.067942041
 20
128.6578012836
 10
84.5172799893
 20
128.8378521028
 10
83.9065460528
 20
129.0255806144
 10
83.2379265005
 20
129.2203147992
 10
82.513814817
 20
129.4213575593
 10
81.736803134
 20
129.6279892139
 10
80.9096729519
 20
129.8394700751
 10
80.0353851818
 20
130.0550430965
 10
79.1170695473
 20
130.2739365825
 10
78.1580133798
 20
130.4953669513
 10
77.1616498517
 20
130.7185415396
 10
76.1315456856
 20
130.9426614404
 10
75.0713883872
 20
131.1669243625
 10
73.9849730444
 20
131.3905275029
 10
72.8761887423
 20
131.6126704203
 10
71.7490046408
 20
131.8325579009
 10
70.6074557665
 20
132.0494028045
 10
69.4556285681
 20
132.2624288825
 10
68.297646288
 20
132.470873557
 10
67.1376542023
 20
132.6739906501
 10
65.9798047815
 20
132.8710530553
 10
64.828242826
 20
133.0613553403
 10
63.6870906289
 20
133.2442162724
 10
62.5604332188
 20
133.4189812569
 10
61.4523037368
 20
133.5850246805
 10
60.3666689988
 20
133.7417521509
 10
59.3074152956
 20
133.8886026243
 10
58.2783344803
 20
134.0250504142
 10
57.2831103953
 20
134.1506070729
 10
56.3253056845
 20
134.2648231401
 10
55.4083490401
 20
134.3672897521
 10
54.5355229289
 20
134.4576401048
 10
53.709951842
 20
134.5355507676
 10
52.9345911095
 20
134.6007428403
 10
52.2122163217
 20
134.6529829525
 10
51.5454133927
 20
134.6920840979
 10
50.936569304
 20
134.7179063046
 10
50.3878635595
 20
134.7303571359
 10
49.9012603832
 20
134.729392021
 10
49.4785016884
 20
134.7150144148
 10
49.1211008412
 20
134.6872757853
 10
48.8303372442
 20
134.6462754297
 10
48.6072517554
 20
134.5921601185
 10
48.452642963
 20
134.5251235707
 10
48.3670643264
 20
134.4454057595
 10
48.3508221948
 20
134.3532920541
 10
48.4039747109
 20
134.2491121976
 10
48.5263316025
 20
134.1332391269
 10
48.7174548637
 20
134.0060876375
 10
48.9766603227
 20
133.8681128987
 10
49.3030200914
 20
133.7198088243
 10
49.6953658864
 20
133.5617063044
 10
50.1522932117
 20
133.394371305
 10
50.6721663859
 20
133.2184028419
 10
51.2531243981
 20
133.0344308365
 10
51.8930875693
 20
132.843113861
 10
52.5897649975
 20
132.6451367804
 10
53.3406627584
 20
132.4412083013
 10
54.1430928327
 20
132.2320584347
 10
54.9941827292
 20
132.0184358828
 10
55.8908857668
 20
131.801105359
 10
56.8299919814
 20
131.5808448501
 10
57.8081396165
 20
131.3584428316
 10
58.8218271575
 20
131.1346954449
 10
59.8674258659
 20
130.9104036477
 10
60.9411927699
 20
130.6863703464
 10
62.0392840626
 20
130.463397522
 10
63.1577688621
 20
130.2422833594
 10
64.2926432831
 20
130.02381939
 10
65.4398447698
 20
129.8087876579
 10
66.5952666386
 20
129.597957921
 10
67.754772779
 20
129.3920848951
 10
68.9142124601
 20
129.1919055522
 10
70.0694351886
 20
128.9981364823
 10
71.216305567
 20
128.8114713284
 10
72.3507180971
 20
128.6325783033
 10
73.4686118763
 20
128.4620977977
 10
74.5659851351
 20
128.3006400875
 10
75.6389095621
 20
128.1487831494
 10
76.6835443661
 20
128.0070705918
 10
77.6961500259
 20
127.8760097088
 10
78.6731016758
 20
127.7560696646
 10
79.6109020826
 20
127.6476798132
 10
80.5061941642
 20
127.5512281622
 10
81.3557730073
 20
127.4670599835
 10
82.1565973401
 20
127.3954765773
 10
82.9058004194
 20
127.3367341937
 10
83.6007002926
 20
127.291043115
 10
84.2388093984
 20
127.2585669037
 10
84.817843472
 20
127.2394218159
 10
85.3357297216
 20
127.2336763862
 10
85.7906142487
 20
127.2413511818
 10
86.180868685
 20
127.2624187288
 10
86.5050960208
 20
127.2968036109
 10
86.7621356064
 20
127.3443827392
 10
86.9510673067
 20
127.4049857927
 10
87.0712147953
 20
127.4783958282
 10
87.1221479755
 20
127.5643500568
  0
LWPOLYLINE
  5
F1
330
1F
100
AcDbEntity
  8
0
  6
Continuous
 62
     7
370
    15
100
AcDbPolyline
 90
       53
 70
   128
 43
0.0
 10
48.3888527841
 20
134.4744199654
 10
48.4314542901
 20
134.4049566355
 10
48.5538111817
 20
134.2890835648
 10
48.7449344429
 20
134.1619320754
 10
49.0041399019
 20
134.0239573366
 10
49.3304996706
 20
133.8756532622
 10
49.7228454656
 20
133.7175507423
 10
50.1797727909
 20
133.5502157429
 10
50.6996459651
 20
133.3742472798
 10
51.2806039773
 20
133.1902752745
 10
51.9205671485
 20
132.9989582989
 10
52.6172445767
 20
132.8009812183
 10
53.3681423376
 20
132.5970527392
 10
54.1705724119
 20
132.3879028726
 10
55.0216623084
 20
132.1742803207
 10
55.918365346
 20
131.9569497969
 10
56.8574715606
 20
131.736689288
 10
57.8356191957
 20
131.5142872695
 10
58.8493067367
 20
131.2905398828
 10
59.8949054451
 20
131.0662480856
 10
60.9686723491
 20
130.8422147843
 10
62.0667636418
 20
130.6192419599
 10
63.1852484413
 20
130.3981277974
 10
64.3201228623
 20
130.1796638279
 10
65.467324349
 20
129.9646320958
 10
66.6227462178
 20
129.753802359
 10
67.7822523582
 20
129.5479293331
 10
68.9416920393
 20
129.3477499901
 10
70.0969147678
 20
129.1539809202
 10
71.2437851462
 20
128.9673157663
 10
72.3781976763
 20
128.7884227413
 10
73.4960914555
 20
128.6179422357
 10
74.5934647143
 20
128.4564845254
 10
75.6663891413
 20
128.3046275873
 10
76.7110239453
 20
128.1629150297
 10
77.7236296051
 20
128.0318541468
 10
78.700581255
 20
127.9119141025
 10
79.6383816618
 20
127.8035242511
 10
80.5336737434
 20
127.7070726001
 10
81.3832525865
 20
127.6229044214
 10
82.1840769193
 20
127.5513210152
 10
82.9332799986
 20
127.4925786316
 10
83.6281798718
 20
127.446887553
 10
84.2662889776
 20
127.4144113416
 10
84.8453230512
 20
127.3952662538
 10
85.3632093008
 20
127.3895208242
 10
85.818093828
 20
127.3971956197
 10
86.2083482642
 20
127.4182631667
 10
86.5325756
 20
127.4526480489
 10
86.7896151856
 20
127.5002271771
 10
86.9785468859
 20
127.5608302306
 10
87.0986943745
 20
127.6342402661
 10
87.11104151
 20
127.6466533409
  0
SPLINE
  5
F2
330
1F
100
AcDbEntity
  8
0
  6
Continuous
 62
     7
370
    15
100
AcDbSpline
210
0.0
220
0.0
230
1.0
 70
     8
 71
     3
 72
    17
 73
    13
 74
     0
 42
0.000000001
 43
0.00000001
 40
0.0
 40
0.0
 40
0.0
 40
0.0
 40
0.1007638288823856
 40
0.2013908323087577
 40
0.3055322361630455
 40
0.4101802536772716
 40
0.5034656797119647
 40
0.5920556007951302
 40
0.6942044136042227
 40
0.817343593453868
 40
0.9128541893722205
 40
1.0
 40
1.0
 40
1.0
 40
1.0
 10
132.3611759922979
 20
133.8711515074493
 30
0.0
 10
132.3525391645429
 20
133.8557563728851
 30
0.0
 10
132.3352772368316
 20
133.824987008543
 30
0.0
 10
132.2120001496185
 20
133.5841564295977
 30
0.0
 10
132.0637762551082
 20
133.217699186767
 30
0.0
 10
131.954937117765
 20
132.7430702440645
 30
0.0
 10
131.9509745641739
 20
132.2429599932647
 30
0.0
 10
132.0380961307065
 20
131.7660138766287
 30
0.0
 10
132.1970559325848
 20
131.2964031647096
 30
0.0
 10
132.3741449523078
 20
130.9133656289655
 30
0.0
 10
132.5081574235774
 20
130.6596160862702
 30
0.0
 10
132.5214534290183
 20
130.6357284292677
 30
0.0
 10
132.5277969851748
 20
130.6243315706912
 30
0.0
  0
LINE
  5
F3
330
1F
100
AcDbEntity
  8
0
  6
Continuous
 62
     7
370
    15
100
AcDbLine
 10
125.9832325635
 20
146.3712131462
 30
0.0
 11
131.6904003547
 21
146.6703131361
 31
0.0
  0
SPLINE
  5
F4
330
1F
100
AcDbEntity
  8
0
  6
Continuous
 62
     7
370
    15
100
AcDbSpline
210
0.0
220
0.0
230
1.0
 70
     8
 71
     3
 72
    17
 73
    13
 74
     0
 42
0.000000001
 43
0.00000001
 40
0.0
 40
0.0
 40
0.0
 40
0.0
 40
0.0131871122967055
 40
0.1160773844817769
 40
0.226040840687175
 40
0.3521904551143313
 40
0.4871098118146767
 40
0.5894478038505196
 40
0.692242978310369
 40
0.7859714714150423
 40
0.87919649916517
 40
1.0
 40
1.0
 40
1.0
 40
1.0
 10
135.6286029425345
 20
71.50008400678989
 30
0.0
 10
135.6288383013353
 20
71.49874661829104
 30
0.0
 10
135.6309100084232
 20
71.48697447625635
 30
0.0
 10
135.6151969175739
 20
71.53569735858974
 30
0.0
 10
135.5834256546418
 20
71.64024327786126
 30
0.0
 10
135.5370486464552
 20
71.82373442385142
 30
0.0
 10
135.4966751343627
 20
72.04630963067093
 30
0.0
 10
135.4761625907459
 20
72.27787630631354
 30
0.0
 10
135.4793936030626
 20
72.47972771085037
 30
0.0
 10
135.4985434359064
 20
72.64528497605785
 30
0.0
 10
135.5267492907621
 20
72.77543071868547
 30
0.0
 10
135.5407000466671
 20
72.81509443586197
 30
0.0
 10
135.5485742313086
 20
72.83748171256158
 30
0.0
  0
SPLINE
  5
F5
330
1F
100
AcDbEntity
  8
0
  6
Continuous
 62
     7
370
    15
100
AcDbSpline
210
0.0
220
0.0
230
1.0
 70
     8
 71
     3
 72
    14
 73
    10
 74
     0
 42
0.000000001
 43
0.00000001
 40
0.0
 40
0.0
 40
0.0
 40
0.0
 40
0.0738673956229342
 40
0.2552968386539646
 40
0.4340761056462372
 40
0.6227622804577249
 40
0.7332236366976937
 40
0.9633187955881324
 40
1.0
 40
1.0
 40
1.0
 40
1.0
 10
135.5485742313086
 20
72.83748171256158
 30
0.0
 10
135.5480112467487
 20
72.84732707880052
 30
0.0
 10
135.5460654873628
 20
72.88135414656152
 30
0.0
 10
135.5442404067017
 20
72.9392872839728
 30
0.0
 10
135.544034663047
 20
73.00268113530882
 30
0.0
 10
135.5449621365755
 20
73.04521222770575
 30
0.0
 10
135.5460116617395
 20
73.07645622251967
 30
0.0
 10
135.5467626565544
 20
73.09275873497798
 30
0.0
 10
135.5465547850035
 20
73.08795374893836
 30
0.0
 10
135.5465262030903
 20
73.08729307318382
 30
0.0
  0
SPLINE
  5
F6
330
1F
100
AcDbEntity
  8
0
  6
Continuous
 62
     7
370
    15
100
AcDbSpline
210
0.0
220
0.0
230
1.0
 70
     8
 71
     3
 72
    18
 73
    14
 74
     0
 42
0.000000001
 43
0.00000001
 40
0.0
 40
0.0
 40
0.0
 40
0.0
 40
0.0131480510511953
 40
0.1322067459852033
 40
0.2529880341818875
 40
0.3751789080384923
 40
0.4647041785471982
 40
0.5548289208258236
 40
0.6311291239796472
 40
0.7107267283782214
 40
0.80108410128716
 40
0.9316154710415883
 40
1.0
 40
1.0
 40
1.0
 40
1.0
 10
129.7425157186366
 20
74.65986829197391
 30
0.0
 10
129.7420987770308
 20
74.66129179633596
 30
0.0
 10
129.7379063311124
 20
74.67560546753099
 30
0.0
 10
129.7549173048945
 20
74.62530789756568
 30
0.0
 10
129.7915135405984
 20
74.51060537746953
 30
0.0
 10
129.8354016443226
 20
74.33097104924823
 30
0.0
 10
129.8655597203485
 20
74.1314732642514
 30
0.0
 10
129.8751381627144
 20
73.94653715947626
 30
0.0
 10
129.8671315626888
 20
73.78288170127739
 30
0.0
 10
129.849399397537
 20
73.64584653659614
 30
0.0
 10
129.8249277012372
 20
73.52883527867127
 30
0.0
 10
129.8053678049183
 20
73.45954600648129
 30
0.0
 10
129.8066533032584
 20
73.46876825658177
 30
0.0
 10
129.8070952397704
 20
73.47193873834387
 30
0.0
  0
SPLINE
  5
F7
330
1F
100
AcDbEntity
  8
0
  6
Continuous
 62
     7
370
    15
100
AcDbSpline
210
0.0
220
0.0
230
1.0
 70
     8
 71
     3
 72
    18
 73
    14
 74
     0
 42
0.000000001
 43
0.00000001
 40
0.0
 40
0.0
 40
0.0
 40
0.0
 40
0.0033353576302951
 40
0.102652375749861
 40
0.2019120366855175
 40
0.3061078952785104
 40
0.4107196642061761
 40
0.5039381828169112
 40
0.5925471984241731
 40
0.6947924519910931
 40
0.8180055296210628
 40
0.9133887932663314
 40
1.0
 40
1.0
 40
1.0
 40
1.0
 10
126.7568882393699
 20
131.6382064835341
 30
0.0
 10
126.756424443167
 20
131.6373415343402
 30
0.0
 10
126.7421501771461
 20
131.6107209738166
 30
0.0
 10
126.7935865657623
 20
131.7041791652426
 30
0.0
 10
126.9031293869527
 20
131.9203863270319
 30
0.0
 10
127.0543907701586
 20
132.2926054529584
 30
0.0
 10
127.1618432580417
 20
132.7658591394445
 30
0.0
 10
127.1655029364149
 20
133.2663259132175
 30
0.0
 10
127.0779340752358
 20
133.74307554146
 30
0.0
 10
126.918673999079
 20
134.2126733847635
 30
0.0
 10
126.741625190806
 20
134.5951690839325
 30
0.0
 10
126.6082041632196
 20
134.8476924887786
 30
0.0
 10
126.5952101481321
 20
134.8710336303647
 30
0.0
 10
126.5890262936187
 20
134.8821416845551
 30
0.0
  0
LINE
  5
F8
330
1F
100
AcDbEntity
  8
0
  6
Continuous
 62
     7
370
    15
100
AcDbLine
 10
89.5285415405
 20
138.4910126058
 30
0.0
 11
90.0024237412
 21
141.1785321151
 31
0.0
  0
SPLINE
  5
F9
330
1F
100
AcDbEntity
  8
0
  6
Continuous
 62
     7
370
    15
100
AcDbSpline
210
0.0
220
0.0
230
1.0
 70
     8
 71
     3
 72
    18
 73
    14
 74
     0
 42
0.000000001
 43
0.00000001
 40
0.0
 40
0.0
 40
0.0
 40
0.0
 40
0.0059677483802466
 40
0.1306189370327815
 40
0.2226035750165301
 40
0.3153965235204458
 40
0.3938886029813742
 40
0.478548905126118
 40
0.6137002089251171
 40
0.7525009448652258
 40
0.8579643730463017
 40
0.9417203876878525
 40
1.0
 40
1.0
 40
1.0
 40
1.0
 10
109.6437421559899
 20
134.6540879581086
 30
0.0
 10
109.643235160247
 20
134.6537733671451
 30
0.0
 10
109.6321383041458
 20
134.6468877656356
 30
0.0
 10
109.6845106159909
 20
134.667020466267
 30
0.0
 10
109.7921326619422
 20
134.7019465174095
 30
0.0
 10
109.9545566034991
 20
134.7275543104774
 30
0.0
 10
110.1448630025824
 20
134.7261732991097
 30
0.0
 10
110.3769412726943
 20
134.6939369291032
 30
0.0
 10
110.6435934455666
 20
134.6175191362699
 30
0.0
 10
110.8918617934364
 20
134.5162533314898
 30
0.0
 10
111.0533278760664
 20
134.4368936776084
 30
0.0
 10
111.1375659600127
 20
134.3926298534101
 30
0.0
 10
111.1393444344419
 20
134.391933763235
 30
0.0
 10
111.1400741724834
 20
134.3916481457008
 30
0.0
  0
LINE
  5
FA
330
1F
100
AcDbEntity
  8
0
  6
Continuous
 62
     7
370
    15
100
AcDbLine
 10
146.3611305652
 20
130.228180689
 30
0.0
 11
146.5619649812
 21
131.3671692614
 31
0.0
  0
LINE
  5
FB
330
1F
100
AcDbEntity
  8
0
  6
Continuous
 62
     7
370
    15
100
AcDbLine
 10
146.0106320171
 20
128.2404046455
 30
0.0
 11
146.3611305652
 21
130.228180689
 31
0.0
  0
SPLINE
  5
FC
330
1F
100
AcDbEntity
  8
0
  6
Continuous
 62
     7
370
    15
100
AcDbSpline
210
0.0
220
0.0
230
1.0
 70
     8
 71
     3
 72
    13
 73
     9
 74
     0
 42
0.000000001
 43
0.00000001
 40
0.0
 40
0.0
 40
0.0
 40
0.0
 40
0.1321688132717552
 40
0.3454225364941314
 40
0.5488647543676097
 40
0.7382560035962997
 40
0.9316346550359059
 40
1.0
 40
1.0
 40
1.0
 40
1.0
 10
134.5037684869642
 20
133.4916976433094
 30
0.0
 10
134.4734066302126
 20
133.4969375746498
 30
0.0
 10
134.3940560685165
 20
133.5106321091608
 30
0.0
 10
134.2153485436758
 20
133.5304131413111
 30
0.0
 10
134.0047969824251
 20
133.5650904102191
 30
0.0
 10
133.8109582845721
 20
133.6057974597276
 30
0.0
 10
133.6740803842679
 20
133.6401676455616
 30
0.0
 10
133.6196586045506
 20
133.6477682460807
 30
0.0
 10
133.6054440903877
 20
133.6497534594326
 30
0.0
  0
SPLINE
  5
FD
330
1F
100
AcDbEntity
  8
0
  6
Continuous
 62
     7
370
    15
100
AcDbSpline
210
0.0
220
0.0
230
1.0
 70
    24
 71
     3
 72
    31
 73
    27
 74
     0
 42
0.000000001
 43
0.00000001
 40
0.0
 40
0.0
 40
0.0
 40
0.0
 40
0.0157618911700582
 40
0.0314139131772762
 40
0.0469936830161888
 40
0.0625393421877347
 40
0.0780892831987989
 40
0.0936818669276942
 40
0.1093551411473003
 40
0.1251465703957455
 40
0.1875911895269454
 40
0.2501040028216718
 40
0.3125486219527807
 40
0.3750614352475962
 40
0.4375060543786566
 40
0.5000188676735242
 40
0.562463486804625
 40
0.6249763000994522
 40
0.6874209192305855
 40
0.74993373252538
 40
0.8123783516565128
 40
0.8748911649513066
 40
0.9062957599076832
 40
0.9374116090351776
 40
0.9685445696698971
 40
1.0
 40
1.0
 40
1.0
 40
1.0
 10
146.3378717815906
 20
63.94376619718808
 30
0.0
 10
146.3378665355174
 20
63.94360714971169
 30
0.0
 10
146.3378560799391
 20
63.94329016340838
 30
0.0
 10
146.3377695325491
 20
63.94066626863334
 30
0.0
 10
146.3376309472136
 20
63.93646471688764
 30
0.0
 10
146.3374353432405
 20
63.93053450636865
 30
0.0
 10
146.3371840406573
 20
63.92291565692179
 30
0.0
 10
146.3368767265015
 20
63.91359868032455
 30
0.0
 10
146.3365133728648
 20
63.90258273047009
 30
0.0
 10
146.3356836290997
 20
63.87742702874082
 30
0.0
 10
146.3340535028904
 20
63.82800578518873
 30
0.0
 10
146.3311098178513
 20
63.73876080867408
 30
0.0
 10
146.3275413207618
 20
63.63057313413986
 30
0.0
 10
146.3234561121901
 20
63.50672009341513
 30
0.0
 10
146.3190321484043
 20
63.37259686388455
 30
0.0
 10
146.3144277505294
 20
63.23300333579181
 30
0.0
 10
146.3098217213489
 20
63.09336035069835
 30
0.0
 10
146.3053991422719
 20
62.9592791019869
 30
0.0
 10
146.3013122599676
 20
62.8353753179825
 30
0.0
 10
146.2977448226964
 20
62.72721977441863
 30
0.0
 10
146.294799190279
 20
62.63791575839327
 30
0.0
 10
146.2929895660435
 20
62.58305259530117
 30
0.0
 10
146.2919498046498
 20
62.55152969800461
 30
0.0
 10
146.2913920923184
 20
62.53462129127637
 30
0.0
 10
146.291044068373
 20
62.52407009832709
 30
0.0
 10
146.2910016843849
 20
62.52278512456944
 30
0.0
 10
146.2909803832048
 20
62.52213932745138
 30
0.0
  0
LWPOLYLINE
  5
FE
330
1F
100
AcDbEntity
  8
0
  6
Continuous
 62
     7
370
    15
100
AcDbPolyline
 90
       11
 70
   128
 43
0.0
 10
133.4722653886
 20
133.9249983304
 10
133.5202164141
 20
133.9764089237
 10
133.63781063
 20
134.0083188622
 10
133.8108644383
 20
134.0168793365
 10
134.0185049958
 20
134.0010578269
 10
134.2356877868
 20
133.9627626411
 10
134.4362173615
 20
133.9066127437
 10
134.5959068935
 20
133.8393806408
 10
134.6954954687
 20
133.7691755165
 10
134.722971235
 20
133.7044651448
 10
134.722971235
 20
133.7044651448
  0
ARC
  5
FF
330
1F
100
AcDbEntity
  8
0
  6
Continuous
 62
     8
370
    15
100
AcDbCircle
 10
87.2506801795
 20
127.447747655
 30
0.0
 40
0.3421661898847811
100
AcDbArc
 50
5.6863014647
 51
56.857535584
  0
LWPOLYLINE
  5
100
330
1F
100
AcDbEntity
  8
0
  6
Continuous
 62
     8
370
    15
100
AcDbPolyline
 90
        6
 70
   128
 43
0.0
 10
48.051459949
 20
134.6446033606
 10
47.9325936355
 20
134.5708415861
 10
47.881252047
 20
134.4835787562
 10
47.8996517132
 20
134.3840186613
 10
47.9877280046
 20
134.2725110101
 10
48.0858173699
 20
134.1911316639
  0
ARC
  5
101
330
1F
100
AcDbEntity
  8
0
  6
Continuous
 62
     8
370
    15
100
AcDbCircle
 10
87.2585030559
 20
127.650266553
 30
0.0
 40
0.3729529750064279
100
AcDbArc
 50
278.6687311977
 51
333.1207442237
  0
LWPOLYLINE
  5
102
330
1F
100
AcDbEntity
  8
0
  6
Continuous
 62
     8
370
    15
100
AcDbPolyline
 90
       55
 70
   128
 43
0.0
 10
87.7749804779
 20
127.6099279019
 10
87.7569346273
 20
127.7092778142
 10
87.6699679101
 20
127.820448824
 10
87.5143801186
 20
127.9430577018
 10
87.2907075961
 20
128.0766817894
 10
86.9997213882
 20
128.2208604569
 10
86.6424245845
 20
128.3750966905
 10
86.2200488612
 20
128.538858806
 10
85.7340502349
 20
128.7115822815
 10
85.1861040436
 20
128.8926717034
 10
84.5780991712
 20
129.0815028189
 10
83.9121315366
 20
129.277424688
 10
83.1904968681
 20
129.4797619274
 10
82.4156827899
 20
129.6878170389
 10
81.5903602466
 20
129.9008728133
 10
80.7173742962
 20
130.1181948032
 10
79.7997343019
 20
130.3390338547
 10
78.8406035589
 20
130.5626286898
 10
77.8432883896
 20
130.7882085309
 10
76.811226746
 20
131.0149957575
 10
75.7479763584
 20
131.242208587
 10
74.6572024711
 20
131.4690637697
 10
73.5426652076
 20
131.6947792889
 10
72.4082066089
 20
131.9185770563
 10
71.2577373888
 20
132.1396855948
 10
70.0952234529
 20
132.3573426973
 10
68.9246722276
 20
132.5707980548
 10
67.7501188455
 20
132.7793158424
 10
66.5756122354
 20
132.9821772561
 10
65.4052011649
 20
133.1786829905
 10
64.2429202835
 20
133.3681556498
 10
63.0927762141
 20
133.5499420824
 10
61.9587337416
 20
133.7234156328
 10
60.8447021453
 20
133.8879783017
 10
59.754521723
 20
134.0430628075
 10
58.6919505523
 20
134.1881345419
 10
57.6606515362
 20
134.3226934125
 10
56.6641797762
 20
134.4462755669
 10
55.7059703167
 20
134.558454992
 10
54.7893263043
 20
134.6588449819
 10
53.9174076008
 20
134.7470994716
 10
53.0932198905
 20
134.8229142296
 10
52.3196043194
 20
134.8860279068
 10
51.5992277004
 20
134.9362229371
 10
50.9345733211
 20
134.9733262879
 10
50.3279323827
 20
134.9972100563
 10
49.7813961024
 20
135.0077919099
 10
49.2968485037
 20
135.0050353711
 10
48.8759599228
 20
134.988949942
 10
48.5201812497
 20
134.9595910725
 10
48.2307389272
 20
134.9170599688
 10
48.0086307229
 20
134.8615032443
 10
47.8546222899
 20
134.7931124145
 10
47.7692445272
 20
134.7121232369
 10
47.7523933954
 20
134.6669898423
  0
LINE
  5
103
330
1F
100
AcDbEntity
  8
0
  6
Continuous
 62
     7
370
    15
100
AcDbLine
 10
76.2371012724
 20
199.4860988552
 30
0.0
 11
79.7270078309
 21
201.0872379404
 31
0.0
  0
LINE
  5
104
330
1F
100
AcDbEntity
  8
0
  6
Continuous
 62
     7
370
    15
100
AcDbLine
 10
62.7801791594
 20
238.0252210741
 30
0.0
 11
59.2902726009
 21
236.4240819888
 31
0.0
  0
LINE
  5
105
330
1F
100
AcDbEntity
  8
0
  6
Continuous
 62
     7
370
    15
100
AcDbLine
 10
71.6109675851
 20
218.3229070933
 30
0.0
 11
71.9539127336
 21
218.4802473751
 31
0.0
  0
LINE
  5
106
330
1F
100
AcDbEntity
  8
0
  6
Continuous
 62
     7
370
    15
100
AcDbLine
 10
70.8947359416
 20
220.7888713209
 30
0.0
 11
70.5517907932
 21
220.6315310392
 31
0.0
  0
LINE
  5
107
330
1F
100
AcDbEntity
  8
0
  6
Continuous
 62
     7
370
    15
100
AcDbLine
 10
133.5132345597
 20
220.0275
 30
0.0
 11
128.8368164591
 21
220.0275
 31
0.0
  0
LINE
  5
108
330
1F
100
AcDbEntity
  8
0
  6
Continuous
 62
     7
370
    15
100
AcDbLine
 10
128.8368164591
 20
214.3125
 30
0.0
 11
133.5132345597
 21
214.3125
 31
0.0
  0
LINE
  5
109
330
1F
100
AcDbEntity
  8
0
  6
Continuous
 62
     7
370
    15
100
AcDbLine
 10
126.4641201787
 20
218.7575
 30
0.0
 11
91.2603731247
 21
218.7575
 31
0.0
  0
LINE
  5
10A
330
1F
100
AcDbEntity
  8
0
  6
Continuous
 62
     7
370
    15
100
AcDbLine
 10
90.9310104673
 20
215.5825
 30
0.0
 11
126.4641201787
 21
215.5825
 31
0.0
  0
LINE
  5
10B
330
1F
100
AcDbEntity
  8
0
  6
Continuous
 62
     7
370
    15
100
AcDbLine
 10
134.5787190357
 20
217.2573549218
 30
0.0
 11
134.6383535868
 21
217.3542168878
 31
0.0
  0
LINE
  5
10C
330
1F
100
AcDbEntity
  8
0
  6
Continuous
 62
     7
370
    15
100
AcDbLine
 10
133.5568830368
 20
218.0200407755
 30
0.0
 11
133.4972478942
 21
217.9231778488
 31
0.0
  0
LINE
  5
10D
330
1F
100
AcDbEntity
  8
0
  6
Continuous
 62
     7
370
    15
100
AcDbLine
 10
146.2862984992
 20
218.7575
 30
0.0
 11
131.9690319765
 21
218.7575
 31
0.0
  0
LINE
  5
10E
330
1F
100
AcDbEntity
  8
0
  6
Continuous
 62
     7
370
    15
100
AcDbLine
 10
131.9671301553
 20
215.5825
 30
0.0
 11
146.2862984992
 21
215.5825
 31
0.0
  0
SPLINE
  5
10F
330
1F
100
AcDbEntity
  8
0
  6
Continuous
 62
     7
370
    15
100
AcDbSpline
210
0.0
220
0.0
230
1.0
 70
     8
 71
     3
 72
    13
 73
     9
 74
     0
 42
0.000000001
 43
0.00000001
 40
0.0
 40
0.0
 40
0.0
 40
0.0
 40
0.2723562516777292
 40
0.4986660970131983
 40
0.6827704985263017
 40
0.8270550253114195
 40
0.9493927328536028
 40
1.0
 40
1.0
 40
1.0
 40
1.0
 10
146.3144439634031
 20
218.8971997831965
 30
0.0
 10
146.0092713802112
 20
218.9009050797885
 30
0.0
 10
145.4505207730989
 20
218.9076892302475
 30
0.0
 10
144.7173125757256
 20
218.8841475240615
 30
0.0
 10
144.1347724303612
 20
218.8515234911552
 30
0.0
 10
143.6714873323294
 20
218.813741786069
 30
0.0
 10
143.347033768257
 20
218.786317639105
 30
0.0
 10
143.1755434841754
 20
218.7640236740581
 30
0.0
 10
143.1253618895083
 20
218.7574999999998
 30
0.0
  0
LWPOLYLINE
  5
110
330
1F
100
AcDbEntity
  8
0
  6
Continuous
 62
     7
370
    15
100
AcDbPolyline
 90
      107
 70
   128
 43
0.0
 10
91.104796688
 20
219.5562295073
 10
91.0864004989
 20
218.3658617832
 10
90.9983408519
 20
217.1796752692
 10
90.8409270596
 20
216.0018364886
 10
90.6147120439
 20
214.8364826432
 10
90.3204903931
 20
213.6877070807
 10
89.9592955715
 20
212.5595449173
 10
89.5323962892
 20
211.4559588637
 10
89.0412920454
 20
210.3808253062
 10
88.4877078618
 20
209.3379206906
 10
87.8735882228
 20
208.3309082573
 10
87.2010902462
 20
207.3633251744
 10
86.4725761057
 20
206.4385701126
 10
85.6906047337
 20
205.5598913078
 10
84.8579228332
 20
204.7303751515
 10
83.9774552297
 20
203.9529353492
 10
83.0522945978
 20
203.2303026868
 10
82.0856905979
 20
202.5650154378
 10
81.081038462
 20
201.9594104479
 10
80.0418670671
 20
201.4156149267
 10
78.9718265408
 20
200.9355389758
 10
77.8746754395
 20
200.5208688796
 10
76.7542675463
 20
200.1730611818
 10
75.614538335
 20
199.8933375697
 10
74.4594911458
 20
199.6826805826
 10
73.2931831242
 20
199.541830161
 10
72.1197109696
 20
199.471281047
 10
70.9431965459
 20
199.471281047
 10
69.7677724027
 20
199.541830161
 10
68.5975672603
 20
199.6826805826
 10
67.4366915069
 20
199.8933375697
 10
66.289222761
 20
200.1730611818
 10
65.1591915483
 20
200.5208688796
 10
64.0505671448
 20
200.9355389758
 10
62.967243634
 20
201.4156149267
 10
61.9130262293
 20
201.9594104479
 10
60.8916179077
 20
202.5650154378
 10
59.9066064034
 20
203.2303026868
 10
58.961451605
 20
203.9529353492
 10
58.0594734034
 20
204.7303751515
 10
57.2038400298
 20
205.5598913078
 10
56.3975569276
 20
206.4385701126
 10
55.6434561957
 20
207.3633251744
 10
54.9441866404
 20
208.3309082573
 10
54.3022044715
 20
209.3379206906
 10
53.7197646748
 20
210.3808253062
 10
53.1989130913
 20
211.4559588637
 10
52.7414792312
 20
212.5595449173
 10
52.3490698476
 20
213.6877070807
 10
52.0230632928
 20
214.8364826432
 10
51.7646046767
 20
216.0018364886
 10
51.5746018446
 20
217.1796752692
 10
51.4537221884
 20
218.3658617832
 10
51.4023903022
 20
219.5562295073
 10
51.4207864914
 20
220.7465972313
 10
51.5088461384
 20
221.9327837453
 10
51.6662599306
 20
223.1106225259
 10
51.8924749464
 20
224.2759763713
 10
52.1866965972
 20
225.4247519338
 10
52.5478914187
 20
226.5529140972
 10
52.974790701
 20
227.6565001508
 10
53.4658949448
 20
228.7316337083
 10
54.0194791285
 20
229.774538324
 10
54.6335987674
 20
230.7815507572
 10
55.306096744
 20
231.7491338402
 10
56.0346108846
 20
232.6738889019
 10
56.8165822566
 20
233.5525677067
 10
57.6492641571
 20
234.3820838631
 10
58.5297317606
 20
235.1595236653
 10
59.4548923925
 20
235.8821563277
 10
60.4214963923
 20
236.5474435767
 10
61.4261485283
 20
237.1530485666
 10
62.4653199231
 20
237.6968440878
 10
63.5353604494
 20
238.1769200387
 10
64.6325115508
 20
238.5915901349
 10
65.7529194439
 20
238.9393978327
 10
66.8926486553
 20
239.2191214448
 10
68.0476958445
 20
239.4297784319
 10
69.2140038661
 20
239.5706288535
 10
70.3874760206
 20
239.6411779675
 10
71.5639904444
 20
239.6411779675
 10
72.7394145876
 20
239.5706288535
 10
73.9096197299
 20
239.4297784319
 10
75.0704954833
 20
239.2191214448
 10
76.2179642293
 20
238.9393978327
 10
77.3479954419
 20
238.5915901349
 10
78.4566198455
 20
238.1769200387
 10
79.5399433563
 20
237.6968440878
 10
80.594160761
 20
237.1530485666
 10
81.6155690825
 20
236.5474435767
 10
82.6005805869
 20
235.8821563277
 10
83.5457353852
 20
235.1595236653
 10
84.4477135869
 20
234.3820838631
 10
85.3033469605
 20
233.5525677067
 10
86.1096300626
 20
232.6738889019
 10
86.8637307945
 20
231.7491338402
 10
87.5630003498
 20
230.7815507572
 10
88.2049825187
 20
229.774538324
 10
88.7874223155
 20
228.7316337083
 10
89.308273899
 20
227.6565001508
 10
89.7657077591
 20
226.5529140972
 10
90.1581171427
 20
225.4247519338
 10
90.4841236975
 20
224.2759763713
 10
90.7425823136
 20
223.1106225259
 10
90.9325851457
 20
221.9327837453
 10
91.0534648019
 20
220.7465972313
 10
91.104796688
 20
219.5562295073
  0
LWPOLYLINE
  5
111
330
1F
100
AcDbEntity
  8
0
  6
Continuous
 62
     7
370
    15
100
AcDbPolyline
 90
      108
 70
   128
 43
0.0
 10
91.2648870363
 20
219.5562295073
 10
91.2468411858
 20
218.3674637387
 10
91.1598744686
 20
217.182795892
 10
91.0042866771
 20
216.0063097627
 10
90.7806141546
 20
214.8420609421
 10
90.4896279466
 20
213.6940628372
 10
90.132331143
 20
212.5662728352
 10
89.7099554197
 20
211.4625786619
 10
89.2239567934
 20
210.3867849798
 10
88.676010602
 20
209.3426002725
 10
88.0680057297
 20
208.333624061
 10
87.402038095
 20
207.3633344955
 10
86.6804034265
 20
206.4350763649
 10
85.9055893483
 20
205.5520495674
 10
85.0802668051
 20
204.7172980792
 10
84.2072808547
 20
203.9336994618
 10
83.2896408603
 20
203.2039549418
 10
82.3305101174
 20
202.5305800998
 10
81.3331949481
 20
201.9158961984
 10
80.3011333045
 20
201.3620221803
 10
79.2378829168
 20
200.8708673639
 10
78.1471090295
 20
200.4441248618
 10
77.0325717661
 20
200.0832657437
 10
75.8981131674
 20
199.7895339657
 10
74.7476439473
 20
199.5639420822
 10
73.5851300113
 20
199.407267755
 10
72.414578786
 20
199.3200510731
 10
71.2400254039
 20
199.3025926904
 10
70.0655187939
 20
199.3549527896
 10
68.8951077234
 20
199.4769508745
 10
67.732826842
 20
199.6681663926
 10
66.5826827726
 20
199.9279401842
 10
65.4486403001
 20
200.2553767554
 10
64.3346087038
 20
200.6493473644
 10
63.2444282814
 20
201.1084939129
 10
62.1818571108
 20
201.6312336277
 10
61.1505580947
 20
202.2157645167
 10
60.1540863347
 20
202.8600715807
 10
59.1958768752
 20
203.5619337599
 10
58.2792328628
 20
204.31893159
 10
57.4073141592
 20
205.1284555426
 10
56.583126449
 20
205.9877150209
 10
55.8095108779
 20
206.8937479795
 10
55.0891342589
 20
207.8434311351
 10
54.4244798796
 20
208.8334907331
 10
53.8178389412
 20
209.8605138331
 10
53.2713026608
 20
210.9209600735
 10
52.7867550622
 20
212.0111738766
 10
52.3658664813
 20
213.1273970495
 10
52.0100878081
 20
214.2657817396
 10
51.7206454856
 20
215.4224036992
 10
51.4985372814
 20
216.5932758128
 10
51.3445288484
 20
217.7743618415
 10
51.2591510857
 20
218.9615903372
 10
51.242698308
 20
220.1508686773
 10
51.2952272315
 20
221.338097173
 10
51.4165567781
 20
222.5191832017
 10
51.6062686998
 20
223.6900553153
 10
51.8637090202
 20
224.8466772749
 10
52.1879902892
 20
225.985061965
 10
52.5779946421
 20
227.1012851379
 10
53.0323776531
 20
228.191498941
 10
53.5495729699
 20
229.2519451814
 10
54.127797713
 20
230.2789682814
 10
54.765058622
 20
231.2690278794
 10
55.4591589265
 20
232.218711035
 10
56.207705919
 20
233.1247439937
 10
57.0081192028
 20
233.984003472
 10
57.8576395876
 20
234.7935274245
 10
58.7533386007
 20
235.5505252546
 10
59.692128582
 20
236.2523874338
 10
60.6707733279
 20
236.8966944978
 10
61.6858992473
 20
237.4812253868
 10
62.7340069909
 20
238.0039651016
 10
63.811483514
 20
238.4631116501
 10
64.914614532
 20
238.8570822591
 10
66.0395973236
 20
239.1845188303
 10
67.1825538402
 20
239.4442926219
 10
68.3395440738
 20
239.63550814
 10
69.5065796395
 20
239.757506225
 10
70.6796375238
 20
239.8098663241
 10
71.8546739533
 20
239.7924079414
 10
73.0276383339
 20
239.7051912595
 10
74.1944872144
 20
239.5485169324
 10
75.3511982251
 20
239.3229250488
 10
76.4937839434
 20
239.0291932708
 10
77.6183056396
 20
238.6683341527
 10
78.7208868546
 20
238.2415916506
 10
79.7977267624
 20
237.7504368342
 10
80.8451132728
 20
237.1965628161
 10
81.8594358276
 20
236.5818789147
 10
82.8371978467
 20
235.9085040727
 10
83.7750287819
 20
235.1787595527
 10
84.6696957358
 20
234.3951609353
 10
85.5181146059
 20
233.5604094472
 10
86.3173607167
 20
232.6773826496
 10
87.0646789012
 20
231.7491245191
 10
87.7574929989
 20
230.7788349535
 10
88.3934147361
 20
229.769858742
 10
88.9702519587
 20
228.7256740347
 10
89.4860161894
 20
227.6498803526
 10
89.938929482
 20
226.5461861793
 10
90.3274305505
 20
225.4183961773
 10
90.6501801514
 20
224.2703980724
 10
90.9060656999
 20
223.1061492518
 10
91.0942051054
 20
221.9296631225
 10
91.2139498125
 20
220.7449952758
 10
91.2648870363
 20
219.5562295073
  0
LWPOLYLINE
  5
112
330
1F
100
AcDbEntity
  8
0
  6
Continuous
 62
     7
370
    15
100
AcDbPolyline
 90
       56
 70
   128
 43
0.0
 10
76.2371012724
 20
199.4860988552
 10
75.7479763584
 20
199.2697282787
 10
74.6572024711
 20
198.8429857766
 10
73.5426652076
 20
198.4821266584
 10
72.4082066089
 20
198.1883948804
 10
71.2577373888
 20
197.9628029969
 10
70.0952234529
 20
197.8061286697
 10
68.9246722276
 20
197.7189119878
 10
67.7501188455
 20
197.7014536051
 10
66.5756122354
 20
197.7538137043
 10
65.4052011649
 20
197.8758117893
 10
64.2429202835
 20
198.0670273073
 10
63.0927762141
 20
198.326801099
 10
61.9587337416
 20
198.6542376701
 10
60.8447021453
 20
199.0482082791
 10
59.754521723
 20
199.5073548277
 10
58.6919505523
 20
200.0300945425
 10
57.6606515362
 20
200.6146254314
 10
56.6641797762
 20
201.2589324955
 10
55.7059703167
 20
201.9607946747
 10
54.7893263043
 20
202.7177925047
 10
53.9174076008
 20
203.5273164573
 10
53.0932198905
 20
204.3865759356
 10
52.3196043194
 20
205.2926088942
 10
51.5992277004
 20
206.2422920498
 10
50.9345733211
 20
207.2323516479
 10
50.3279323827
 20
208.2593747478
 10
49.7813961024
 20
209.3198209882
 10
49.2968485037
 20
210.4100347913
 10
48.8759599228
 20
211.5262579642
 10
48.5201812497
 20
212.6646426544
 10
48.2307389272
 20
213.821264614
 10
48.0086307229
 20
214.9921367275
 10
47.8546222899
 20
216.1732227562
 10
47.7692445272
 20
217.3604512519
 10
47.7527917495
 20
218.5497295921
 10
47.805320673
 20
219.7369580878
 10
47.9266502196
 20
220.9180441165
 10
48.1163621413
 20
222.08891623
 10
48.3738024617
 20
223.2455381896
 10
48.6980837307
 20
224.3839228798
 10
49.0880880836
 20
225.5001460527
 10
49.5424710947
 20
226.5903598557
 10
50.0596664114
 20
227.6508060962
 10
50.6378911546
 20
228.6778291961
 10
51.2751520636
 20
229.6678887942
 10
51.969252368
 20
230.6175719498
 10
52.7177993605
 20
231.5236049084
 10
53.5182126443
 20
232.3828643867
 10
54.3677330292
 20
233.1923883393
 10
55.2634320423
 20
233.9493861693
 10
56.2022220235
 20
234.6512483485
 10
57.1808667695
 20
235.2955554126
 10
58.1959926889
 20
235.8800863015
 10
59.2441004324
 20
236.4028260163
 10
59.2902726009
 20
236.4240819888
  0
LWPOLYLINE
  5
113
330
1F
100
AcDbEntity
  8
0
  6
Continuous
 62
     7
370
    15
100
AcDbPolyline
 90
       55
 70
   128
 43
0.0
 10
62.7619556415
 20
237.8377539551
 10
63.3631461434
 20
238.0979095976
 10
64.4602972448
 20
238.5125796939
 10
65.5807051379
 20
238.8603873917
 10
66.7204343493
 20
239.1401110038
 10
67.8754815385
 20
239.3507679909
 10
69.0417895601
 20
239.4916184125
 10
70.2152617147
 20
239.5621675265
 10
71.3917761384
 20
239.5621675265
 10
72.5672002816
 20
239.4916184125
 10
73.737405424
 20
239.3507679909
 10
74.8982811774
 20
239.1401110038
 10
76.0457499233
 20
238.8603873917
 10
77.175781136
 20
238.5125796939
 10
78.2844055395
 20
238.0979095976
 10
79.3677290503
 20
237.6178336468
 10
80.421946455
 20
237.0740381256
 10
81.4433547765
 20
236.4684331357
 10
82.4283662809
 20
235.8031458867
 10
83.3735210792
 20
235.0805132242
 10
84.2754992809
 20
234.303073422
 10
85.1311326545
 20
233.4735572657
 10
85.9374157567
 20
232.5948784609
 10
86.6915164886
 20
231.6701233991
 10
87.3907860439
 20
230.7025403162
 10
88.0327682128
 20
229.6955278829
 10
88.6152080095
 20
228.6526232673
 10
89.136059593
 20
227.5774897098
 10
89.5934934531
 20
226.4739036562
 10
89.9859028367
 20
225.3457414928
 10
90.3119093915
 20
224.1969659303
 10
90.5703680076
 20
223.0316120848
 10
90.7603708397
 20
221.8537733043
 10
90.8812504959
 20
220.6675867903
 10
90.932582382
 20
219.4772190662
 10
90.9141861929
 20
218.2868513422
 10
90.8261265459
 20
217.1006648282
 10
90.6687127537
 20
215.9228260476
 10
90.4424977379
 20
214.7574722022
 10
90.1482760871
 20
213.6086966397
 10
89.7870812656
 20
212.4805344763
 10
89.3601819832
 20
211.3769484227
 10
88.8690777395
 20
210.3018148652
 10
88.3154935558
 20
209.2589102495
 10
87.7013739169
 20
208.2518978163
 10
87.0288759403
 20
207.2843147333
 10
86.3003617997
 20
206.3595596715
 10
85.5183904277
 20
205.4808808668
 10
84.6857085272
 20
204.6513647104
 10
83.8052409237
 20
203.8739249082
 10
82.8800802918
 20
203.1512922458
 10
81.913476292
 20
202.4860049968
 10
80.908824156
 20
201.8804000069
 10
79.8696527612
 20
201.3366044857
 10
79.5730170294
 20
201.1956946123
  0
ARC
  5
114
330
1F
100
AcDbEntity
  8
0
  6
Continuous
 62
     7
370
    15
100
AcDbCircle
 10
71.0970954412
 20
219.4803916141
 30
0.0
 40
1.266426072157906
100
AcDbArc
 50
180.1435328898
 51
293.9391129177
  0
ARC
  5
115
330
1F
100
AcDbEntity
  8
0
  6
Continuous
 62
     7
370
    15
100
AcDbCircle
 10
71.0768239776
 20
219.5011313934
 30
0.0
 40
1.246380039934999
100
AcDbArc
 50
114.9133069996
 51
181.0993111597
  0
LWPOLYLINE
  5
116
330
1F
100
AcDbEntity
  8
0
  6
Continuous
 62
     7
370
    15
100
AcDbPolyline
 90
       27
 70
   128
 43
0.0
 10
70.5041661545
 20
218.8817187556
 10
70.7132534304
 20
218.6761465127
 10
70.964176607
 20
218.5265082027
 10
71.2423529414
 20
218.4415002605
 10
71.5316158361
 20
218.4260630384
 10
71.8151543831
 20
218.4810936919
 10
72.0764903528
 20
218.6033940394
 10
72.3004358484
 20
218.7858564291
 10
72.4739759718
 20
219.0178768103
 10
72.5870252018
 20
219.2859710017
 10
72.6330135281
 20
219.5745583435
 10
72.6092682762
 20
219.8668671882
 10
72.517169434
 20
220.1459096084
 10
72.3620694513
 20
220.3954686728
 10
72.1529821755
 20
220.6010409157
 10
71.9020589989
 20
220.7506792256
 10
71.6238826645
 20
220.8356871679
 10
71.3346197698
 20
220.8511243899
 10
71.0510812227
 20
220.7960937365
 10
70.7897452531
 20
220.673793389
 10
70.5657997574
 20
220.4913309993
 10
70.392259634
 20
220.2593106181
 10
70.279210404
 20
219.9912164267
 10
70.2332220778
 20
219.7026290849
 10
70.2569673297
 20
219.4103202402
 10
70.3490661719
 20
219.13127782
 10
70.5041661545
 20
218.8817187556
  0
LWPOLYLINE
  5
117
330
1F
100
AcDbEntity
  8
0
  6
Continuous
 62
     7
370
    15
100
AcDbPolyline
 90
       27
 70
   128
 43
0.0
 10
70.4566663705
 20
218.8461479328
 10
70.2951038886
 20
219.1061052916
 10
70.1991675946
 20
219.3967744793
 10
70.1744329572
 20
219.7012628592
 10
70.2223374638
 20
220.0018746735
 10
70.3400970783
 20
220.2811394562
 10
70.5208680402
 20
220.5228273533
 10
70.7541445981
 20
220.7128923426
 10
71.0263695665
 20
220.8402885379
 10
71.3217222197
 20
220.8976121352
 10
71.6230377351
 20
220.8815316956
 10
71.91280475
 20
220.7929817558
 10
72.174183059
 20
220.6371085162
 10
72.3919823047
 20
220.4229707632
 10
72.5535447866
 20
220.1630134044
 10
72.6494810806
 20
219.8723442167
 10
72.6742157179
 20
219.5678558368
 10
72.6263112114
 20
219.2672440225
 10
72.5085515969
 20
218.9879792398
 10
72.327780635
 20
218.7462913427
 10
72.094504077
 20
218.5562263534
 10
71.8222791086
 20
218.4288301581
 10
71.5269264555
 20
218.3715065608
 10
71.2256109401
 20
218.3875870004
 10
70.9358439252
 20
218.4761369402
 10
70.6744656162
 20
218.6320101798
 10
70.4566663705
 20
218.8461479328
  0
CIRCLE
  5
118
330
1F
100
AcDbEntity
  8
0
  6
Continuous
 62
     7
370
    15
100
AcDbCircle
 10
128.8394129045
 20
217.1704081293
 30
0.0
 40
2.85618037015427
  0
SPLINE
  5
119
330
1F
100
AcDbEntity
  8
0
  6
Continuous
 62
     7
370
    15
100
AcDbSpline
210
0.0
220
0.0
230
1.0
 70
     8
 71
     3
 72
    12
 73
     8
 74
     0
 42
0.000000001
 43
0.00000001
 40
0.0
 40
0.0
 40
0.0
 40
0.0
 40
0.2073570717676882
 40
0.4144325769631558
 40
0.6287401989790582
 40
0.8440903570538565
 40
0.9999999999999999
 40
0.9999999999999999
 40
0.9999999999999999
 40
0.9999999999999999
 10
132.3611759922979
 20
217.1700000000001
 30
0.0
 10
132.3525809439236
 20
216.996543591391
 30
0.0
 10
132.335402518242
 20
216.6498663076223
 30
0.0
 10
132.2114925378695
 20
216.1838384278931
 30
0.0
 10
132.0657583606587
 20
215.8227720512832
 30
0.0
 10
131.9546864925652
 20
215.6087786722832
 30
0.0
 10
131.963326657053
 20
215.5978714925361
 30
0.0
 10
131.9669550729402
 20
215.5932910491505
 30
0.0
  0
SPLINE
  5
11A
330
1F
100
AcDbEntity
  8
0
  6
Continuous
 62
     7
370
    15
100
AcDbSpline
210
0.0
220
0.0
230
1.0
 70
     8
 71
     3
 72
    13
 73
     9
 74
     0
 42
0.000000001
 43
0.00000001
 40
0.0
 40
0.0
 40
0.0
 40
0.0
 40
0.169680825461337
 40
0.3525819917219947
 40
0.5428556115734066
 40
0.7551082415659479
 40
0.9714152780158033
 40
0.9999999999999999
 40
0.9999999999999999
 40
0.9999999999999999
 40
0.9999999999999999
 10
131.9687960296024
 20
218.7439223071505
 30
0.0
 10
131.9648476715963
 20
218.7390388825881
 30
0.0
 10
131.956643327198
 20
218.7288915512443
 30
0.0
 10
132.0562379229373
 20
218.5335136678059
 30
0.0
 10
132.1889535172314
 20
218.2198332509673
 30
0.0
 10
132.3157107392262
 20
217.7778086559869
 30
0.0
 10
132.3595280559649
 20
217.397862200505
 30
0.0
 10
132.361003744206
 20
217.1938169572835
 30
0.0
 10
132.3611759922979
 20
217.1700000000001
 30
0.0
  0
ELLIPSE
  5
11B
330
1F
100
AcDbEntity
  8
0
  6
Continuous
 62
     7
370
    15
100
AcDbEllipse
 10
133.5132345597
 20
217.17
 30
0.0
 11
2.861421478689067
 21
0.0
 31
0.0
210
0.0
220
0.0
230
1.0
 40
0.9986295348
 41
0.5890309702161439
 42
1.570796326794907
  0
ELLIPSE
  5
11C
330
1F
100
AcDbEntity
  8
0
  6
Continuous
 62
     7
370
    15
100
AcDbEllipse
 10
133.5132345597
 20
217.17
 30
0.0
 11
2.861421478689067
 21
0.0
 31
0.0
210
0.0
220
0.0
230
1.0
 40
0.9986295348
 41
4.712388980384773
 42
5.6941543369632
  0
LWPOLYLINE
  5
11D
330
1F
100
AcDbEntity
  8
0
  6
Continuous
 62
     7
370
    15
100
AcDbPolyline
 90
       19
 70
   128
 43
0.0
 10
133.4722653886
 20
217.6871288316
 10
133.5202164141
 20
217.4781012353
 10
133.63781063
 20
217.294285452
 10
133.8108644383
 20
217.1578523781
 10
134.0185049958
 20
217.0852578557
 10
134.2356877868
 20
217.0852578557
 10
134.4362173615
 20
217.1578523781
 10
134.5959068935
 20
217.294285452
 10
134.6954954687
 20
217.4781012353
 10
134.722971235
 20
217.6871288316
 10
134.6750202095
 20
217.896156428
 10
134.5574259936
 20
218.0799722112
 10
134.3843721853
 20
218.2164052852
 10
134.1767316278
 20
218.2889998076
 10
133.9595488368
 20
218.2889998076
 10
133.7590192621
 20
218.2164052852
 10
133.5993297301
 20
218.0799722112
 10
133.4997411549
 20
217.896156428
 10
133.4722653886
 20
217.6871288316
  0
SPLINE
  5
11E
330
1F
100
AcDbEntity
  8
0
  6
Continuous
 62
     7
370
    15
100
AcDbSpline
210
0.0
220
0.0
230
1.0
 70
     8
 71
     3
 72
    18
 73
    14
 74
     0
 42
0.000000001
 43
0.00000001
 40
0.0
 40
0.0
 40
0.0
 40
0.0
 40
0.020525196456173
 40
0.1265183134885336
 40
0.2371548510627784
 40
0.3427011563832055
 40
0.4409577858333427
 40
0.5412830890110265
 40
0.6493540689770483
 40
0.7594747430003626
 40
0.8630506597899648
 40
0.9620231055537507
 40
1.0
 40
1.0
 40
1.0
 40
1.0
 10
134.5740834602226
 20
217.2596643297267
 30
0.0
 10
134.5683692335229
 20
217.2473454363623
 30
0.0
 10
134.5331464610399
 20
217.1714111759608
 30
0.0
 10
134.4091691179206
 20
217.0627136729883
 30
0.0
 10
134.2173733794351
 20
216.9634007710376
 30
0.0
 10
134.0048134139738
 20
216.9436497498747
 30
0.0
 10
133.8091998103008
 20
216.9961888745338
 30
0.0
 10
133.6390879954518
 20
217.1099982033601
 30
0.0
 10
133.5046535343616
 20
217.2782970282773
 30
0.0
 10
133.4238151544586
 20
217.4834048407935
 30
0.0
 10
133.4127689677458
 20
217.6873647946439
 30
0.0
 10
133.4424984852242
 20
217.8372803139039
 30
0.0
 10
133.4902338538913
 20
217.9012653167312
 30
0.0
 10
133.5034711652535
 20
217.9190087516013
 30
0.0
  0
LWPOLYLINE
  5
11F
330
1F
100
AcDbEntity
  8
0
  6
Continuous
 62
     7
370
    15
100
AcDbPolyline
 90
       15
 70
   128
 43
0.0
 10
146.3611305652
 20
215.6421104853
 10
146.4164159648
 20
215.7704712036
 10
146.4656172164
 20
215.9642723329
 10
146.5064337241
 20
216.2144519479
 10
146.5369569533
 20
216.5093119278
 10
146.5557596717
 20
216.8350649476
 10
146.5619626853
 20
217.1764791582
 10
146.5552759478
 20
217.5175904106
 10
146.5360121238
 20
217.8424487217
 10
146.5050719683
 20
218.135864078
 10
146.4639022085
 20
218.3841167034
 10
146.4144278966
 20
218.5755985812
 10
146.3589623965
 20
218.7013562316
 10
146.3000992134
 20
218.7555093665
 10
146.2862984992
 20
218.7575
  0
LWPOLYLINE
  5
120
330
1F
100
AcDbEntity
  8
0
  6
Continuous
 62
     7
370
    15
100
AcDbPolyline
 90
        3
 70
   128
 43
0.0
 10
146.2862984992
 20
215.5825
 10
146.3023461013
 20
215.5851921826
 10
146.3611305652
 20
215.6421104853
  0
SPLINE
  5
121
330
1F
100
AcDbEntity
  8
0
  6
Continuous
 62
     7
370
    15
100
AcDbSpline
210
0.0
220
0.0
230
1.0
 70
     8
 71
     3
 72
     9
 73
     5
 74
     0
 42
0.000000001
 43
0.00000001
 40
0.0
 40
0.0
 40
0.0
 40
0.0
 40
0.6246613117845883
 40
1.0
 40
1.0
 40
1.0
 40
1.0
 10
146.3144260823977
 20
218.8972000000001
 30
0.0
 10
146.3175590517974
 20
218.8895687179305
 30
0.0
 10
146.3225745207253
 20
218.8773520463907
 30
0.0
 10
146.3264966384499
 20
218.7850664620041
 30
0.0
 10
146.3279687609717
 20
218.7504281118192
 30
0.0
  0
ARC
  5
122
330
1F
100
AcDbEntity
  8
0
  6
Continuous
 62
     7
370
    15
100
AcDbCircle
 10
113.8282345597
 20
217.17
 30
0.0
 40
24.76499999999998
100
AcDbArc
 50
270.0
 51
356.3246736132
  0
ARC
  5
123
330
1F
100
AcDbEntity
  8
0
  6
Continuous
 62
     7
370
    15
100
AcDbCircle
 10
113.8282345597
 20
217.17
 30
0.0
 40
24.76500000000002
100
AcDbArc
 50
3.6753263868
 51
161.1061275384
  0
ARC
  5
124
330
1F
100
AcDbEntity
  8
0
  6
Continuous
 62
     7
370
    15
100
AcDbCircle
 10
113.8282345597
 20
217.17
 30
0.0
 40
24.765
100
AcDbArc
 50
193.2516871194
 51
270.0
  0
INSERT
  5
130
330
1F
100
AcDbEntity
  8
0
  6
Continuous
 62
     7
370
     0
100
AcDbBlockReference
  2
SW_CENTERMARKSYMBOL_0
 10
113.8282345597
 20
217.17
 30
0.0
  0
LINE
  5
131
330
1F
100
AcDbEntity
  8
0
  6
Continuous
 62
     7
370
    15
100
AcDbLine
 10
249.8725
 20
129.8037869534
 30
0.0
 11
249.8725
 21
132.3283073314
 31
0.0
  0
LINE
  5
132
330
1F
100
AcDbEntity
  8
0
  6
Continuous
 62
     7
370
    15
100
AcDbLine
 10
246.6975
 20
132.3286426738
 30
0.0
 11
246.6975
 21
129.8037869534
 31
0.0
  0
SPLINE
  5
133
330
1F
100
AcDbEntity
  8
0
  6
Continuous
 62
     7
370
    15
100
AcDbSpline
210
0.0
220
0.0
230
1.0
 70
     8
 71
     3
 72
    23
 73
    19
 74
     0
 42
0.000000001
 43
0.00000001
 40
0.0
 40
0.0
 40
0.0
 40
0.0
 40
0.0420518968065672
 40
0.1310023188167765
 40
0.2090694970554523
 40
0.2776587821204605
 40
0.3376678519547875
 40
0.4041951892044875
 40
0.4591018827176932
 40
0.5121523422513283
 40
0.5573843610961619
 40
0.6027096994245427
 40
0.6481997056840555
 40
0.6966648261307579
 40
0.7552055470832632
 40
0.8246196118733077
 40
0.9057368242363293
 40
1.0
 40
1.0
 40
1.0
 40
1.0
 10
247.5096589450164
 20
72.16878410186547
 30
0.0
 10
247.5175952361226
 20
72.08140515441873
 30
0.0
 10
247.5423187947886
 20
71.80919758233351
 30
0.0
 10
247.6151615860678
 20
71.28727459004584
 30
0.0
 10
247.7116563129444
 20
70.6575565999964
 30
0.0
 10
247.810605374222
 20
70.06178247318127
 30
0.0
 10
247.911140884706
 20
69.47287650157595
 30
0.0
 10
248.0086835542736
 20
68.90494990242046
 30
0.0
 10
248.1029371764006
 20
68.34641818698162
 30
0.0
 10
248.1842939620861
 20
67.84843856216162
 30
0.0
 10
248.2577622604302
 20
67.37774167524141
 30
0.0
 10
248.3237329613112
 20
66.93045155502661
 30
0.0
 10
248.3863698628811
 20
66.47307778970473
 30
0.0
 10
248.448045342869
 20
65.9755974247874
 30
0.0
 10
248.5087475102216
 20
65.40805326301067
 30
0.0
 10
248.5624783868137
 20
64.75171970921114
 30
0.0
 10
248.6002571797669
 20
64.00868660272593
 30
0.0
 10
248.5937063794693
 20
63.5190266654158
 30
0.0
 10
248.5901854656063
 20
63.25584501079573
 30
0.0
  0
SPLINE
  5
134
330
1F
100
AcDbEntity
  8
0
  6
Continuous
 62
     7
370
    15
100
AcDbSpline
210
0.0
220
0.0
230
1.0
 70
     8
 71
     3
 72
    21
 73
    17
 74
     0
 42
0.000000001
 43
0.00000001
 40
0.0
 40
0.0
 40
0.0
 40
0.0
 40
0.0816689905152912
 40
0.1494396823485307
 40
0.2044930178225388
 40
0.2475586122654086
 40
0.2839961685496102
 40
0.42872346024975
 40
0.490146303848147
 40
0.567689077222853
 40
0.6618342265228432
 40
0.7266993207495148
 40
0.7984009896760359
 40
0.8777845841548713
 40
0.9662018340861486
 40
1.0
 40
1.0
 40
1.0
 40
1.0
 10
250.0118171057326
 20
63.2101371003487
 30
0.0
 10
250.015721762893
 20
63.44717084743471
 30
0.0
 10
250.0228665888795
 20
63.88090031619534
 30
0.0
 10
249.9986270135136
 20
64.51518513760593
 30
0.0
 10
249.9643725082686
 20
65.04379513517648
 30
0.0
 10
249.926739762431
 20
65.48076140548254
 30
0.0
 10
249.8525148468718
 20
66.21617097608349
 30
0.0
 10
249.7454444632003
 20
67.02885812080414
 30
0.0
 10
249.6009282115195
 20
67.97100340556274
 30
0.0
 10
249.4758764376338
 20
68.73268995014867
 30
0.0
 10
249.3473148369644
 20
69.48151574796562
 30
0.0
 10
249.2281239937823
 20
70.17717585367073
 30
0.0
 10
249.124911597154
 20
70.79549893632048
 30
0.0
 10
249.0280100959681
 20
71.4261166506499
 30
0.0
 10
248.9585396495415
 20
71.9207657447305
 30
0.0
 10
248.9362153167401
 20
72.16774973393244
 30
0.0
 10
248.9300416151762
 20
72.23605213087139
 30
0.0
  0
LINE
  5
135
330
1F
100
AcDbEntity
  8
0
  6
Continuous
 62
     7
370
    15
100
AcDbLine
 10
273.05
 20
56.0193901549
 30
0.0
 11
273.05
 21
57.2893901549
 31
0.0
  0
LINE
  5
136
330
1F
100
AcDbEntity
  8
0
  6
Continuous
 62
     7
370
    15
100
AcDbLine
 10
223.52
 20
57.2893901549
 30
0.0
 11
223.52
 21
56.0193901549
 31
0.0
  0
LINE
  5
137
330
1F
100
AcDbEntity
  8
0
  6
Continuous
 62
     7
370
    15
100
AcDbLine
 10
251.1425
 20
57.2893901549
 30
0.0
 11
251.1425
 21
146.5207631411
 31
0.0
  0
LINE
  5
138
330
1F
100
AcDbEntity
  8
0
  6
Continuous
 62
     7
370
    15
100
AcDbLine
 10
245.4275
 20
146.5207631411
 30
0.0
 11
245.4275
 21
57.2893901549
 31
0.0
  0
LINE
  5
139
330
1F
100
AcDbEntity
  8
0
  6
Continuous
 62
     7
370
    15
100
AcDbLine
 10
249.2914722105
 20
133.2170151111
 30
0.0
 11
249.412585727
 21
133.6398964469
 31
0.0
  0
LINE
  5
13A
330
1F
100
AcDbEntity
  8
0
  6
Continuous
 62
     7
370
    15
100
AcDbLine
 10
248.1916719362
 20
133.9895670283
 30
0.0
 11
248.0699633051
 21
133.5646077833
 31
0.0
  0
LINE
  5
13B
330
1F
100
AcDbEntity
  8
0
  6
Continuous
 62
     7
370
    15
100
AcDbLine
 10
269.3239241754
 20
129.4999783908
 30
0.0
 11
270.9250632607
 21
149.292222008
 31
0.0
  0
LINE
  5
13C
330
1F
100
AcDbEntity
  8
0
  6
Continuous
 62
     7
370
    15
100
AcDbLine
 10
230.4173957538
 20
152.5691829707
 30
0.0
 11
228.8162566685
 21
132.7769393535
 31
0.0
  0
SPLINE
  5
13D
330
1F
100
AcDbEntity
  8
0
  6
Continuous
 62
     7
370
    15
100
AcDbSpline
210
0.0
220
0.0
230
1.0
 70
     8
 71
     3
 72
    14
 73
    10
 74
     0
 42
0.000000001
 43
0.00000001
 40
0.0
 40
0.0
 40
0.0
 40
0.0
 40
0.0796593675220948
 40
0.249621881118946
 40
0.4280892127458909
 40
0.6109118800653641
 40
0.7942253174649694
 40
0.9767091576475467
 40
1.0
 40
1.0
 40
1.0
 40
1.0
 10
228.8886182260021
 20
132.3903806912227
 30
0.0
 10
228.9019072097458
 20
132.3548563404539
 30
0.0
 10
228.9435497839147
 20
132.24353666092
 30
0.0
 10
229.0776368648844
 20
132.0613197479905
 30
0.0
 10
229.2896767651926
 20
131.8393514156037
 30
0.0
 10
229.5688301123626
 20
131.6153425026056
 30
0.0
 10
229.9155920223731
 20
131.391123004854
 30
0.0
 10
230.1889940650771
 20
131.2324908473395
 30
0.0
 10
230.3632023150592
 20
131.1489939505631
 30
0.0
 10
230.3829202747073
 20
131.1395432589825
 30
0.0
  0
SPLINE
  5
13E
330
1F
100
AcDbEntity
  8
0
  6
Continuous
 62
     7
370
    15
100
AcDbSpline
210
0.0
220
0.0
230
1.0
 70
     8
 71
     3
 72
    12
 73
     8
 74
     0
 42
0.000000001
 43
0.00000001
 40
0.0
 40
0.0
 40
0.0
 40
0.0
 40
0.1784732779026193
 40
0.4020372824764957
 40
0.6267359423078998
 40
0.8516469531097631
 40
1.0
 40
1.0
 40
1.0
 40
1.0
 10
267.9854542919037
 20
128.3030359296828
 30
0.0
 10
268.0915861081309
 20
128.3459810351978
 30
0.0
 10
268.3306636186787
 20
128.4427211955165
 30
0.0
 10
268.6335102785772
 20
128.6061878484829
 30
0.0
 10
268.9029813827605
 20
128.793768900985
 30
0.0
 10
269.0957571960598
 20
128.9716752453659
 30
0.0
 10
269.1701802576857
 20
129.0968669582755
 30
0.0
 10
269.1997595534244
 20
129.1466241520712
 30
0.0
  0
LINE
  5
13F
330
1F
100
AcDbEntity
  8
0
  6
Continuous
 62
     7
370
    15
100
AcDbLine
 10
251.9988353677
 20
151.8366652842
 30
0.0
 11
251.9528986931
 21
151.8890275015
 31
0.0
  0
LINE
  5
140
330
1F
100
AcDbEntity
  8
0
  6
Continuous
 62
     7
370
    15
100
AcDbLine
 10
249.5602703876
 20
152.0825846732
 30
0.0
 11
249.5065142162
 21
152.0382873381
 31
0.0
  0
LINE
  5
141
330
1F
100
AcDbEntity
  8
0
  6
Continuous
 62
     7
370
    15
100
AcDbLine
 10
251.8580836758
 20
149.8516215968
 30
0.0
 11
252.0154239576
 21
151.7965601822
 31
0.0
  0
LINE
  5
142
330
1F
100
AcDbEntity
  8
0
  6
Continuous
 62
     7
370
    15
100
AcDbLine
 10
249.4836947384
 20
152.0013702424
 30
0.0
 11
249.3263544566
 21
150.056431657
 31
0.0
  0
LWPOLYLINE
  5
143
330
1F
100
AcDbEntity
  8
0
  6
Continuous
 62
     7
370
    15
100
AcDbPolyline
 90
       30
 70
   128
 43
0.0
 10
246.7571104853
 20
130.228180689
 10
246.8854712036
 20
130.541719771
 10
247.0792723329
 20
130.8207539345
 10
247.3294519479
 20
131.0522358522
 10
247.6243119278
 20
131.225341687
 10
247.9500649476
 20
131.3319772025
 10
248.2914791582
 20
131.3671562403
 10
248.6325904106
 20
131.3292338678
 10
248.9574487217
 20
131.2199832931
 10
249.250864078
 20
131.0445129514
 10
249.4991167034
 20
130.8110276411
 10
249.6905985812
 20
130.5304448757
 10
249.8163562316
 20
130.2158843935
 10
249.8705093665
 20
129.882054693
 10
249.8505258456
 20
129.54456528
 10
249.7573400762
 20
129.2191967843
 10
249.5953093211
 20
128.9211630752
 10
249.3720099585
 20
128.6643998777
 10
249.0978832184
 20
128.4609131535
 10
248.7857469625
 20
128.3202177157
 10
248.4501963351
 20
128.2488923266
 10
248.1069213107
 20
128.2502720821
 10
247.7719730479
 20
128.3242924664
 10
247.4610133551
 20
128.4674923685
 10
247.1885823621
 20
128.6731759203
 10
246.9674186393
 20
128.9317255874
 10
246.8078635565
 20
129.2310518747
 10
246.7173777321
 20
129.5571586178
 10
246.7001921826
 20
129.8947974277
 10
246.7571104853
 20
130.228180689
  0
SPLINE
  5
144
330
1F
100
AcDbEntity
  8
0
  6
Continuous
 62
     7
370
    15
100
AcDbSpline
210
0.0
220
0.0
230
1.0
 70
     8
 71
     3
 72
    12
 73
     8
 74
     0
 42
0.000000001
 43
0.00000001
 40
0.0
 40
0.0
 40
0.0
 40
0.0
 40
0.1620596311065135
 40
0.3809689521033722
 40
0.6075236862119213
 40
0.8351805345495397
 40
1.0
 40
1.0
 40
1.0
 40
1.0
 10
248.1519171976429
 20
133.8507589294474
 30
0.0
 10
248.0240237958322
 20
133.8382667869927
 30
0.0
 10
247.7233726408461
 20
133.8089003223896
 30
0.0
 10
247.2992840785545
 20
133.5827053852079
 30
0.0
 10
246.9376495318474
 20
133.218123485242
 30
0.0
 10
246.7237997080738
 20
132.7704429991134
 30
0.0
 10
246.7128777138423
 20
132.4586052360293
 30
0.0
 10
246.7082910491503
 20
132.3276497321858
 30
0.0
  0
SPLINE
  5
145
330
1F
100
AcDbEntity
  8
0
  6
Continuous
 62
     7
370
    15
100
AcDbSpline
210
0.0
220
0.0
230
1.0
 70
     8
 71
     3
 72
    10
 73
     6
 74
     0
 42
0.000000001
 43
0.00000001
 40
0.0
 40
0.0
 40
0.0
 40
0.0
 40
0.3247150622489934
 40
0.6747296465502166
 40
1.0
 40
1.0
 40
1.0
 40
1.0
 10
249.8589223071503
 20
132.3269692098277
 30
0.0
 10
249.853647499556
 20
132.4695390082996
 30
0.0
 10
249.8426869083255
 20
132.7657866448134
 30
0.0
 10
249.6609243844358
 20
133.1691590834824
 30
0.0
 10
249.4599094713138
 20
133.3702145668338
 30
0.0
 10
249.3630848744885
 20
133.4670587054732
 30
0.0
  0
SPLINE
  5
146
330
1F
100
AcDbEntity
  8
0
  6
Continuous
 62
     7
370
    15
100
AcDbSpline
210
0.0
220
0.0
230
1.0
 70
     8
 71
     3
 72
    12
 73
     8
 74
     0
 42
0.000000001
 43
0.00000001
 40
0.0
 40
0.0
 40
0.0
 40
0.0
 40
0.1975924150705014
 40
0.3948624575946444
 40
0.6006165446977871
 40
0.8153844506354082
 40
1.0
 40
1.0
 40
1.0
 40
1.0
 10
248.7159406930343
 20
133.4035296568086
 30
0.0
 10
248.6494145529498
 20
133.4204328606945
 30
0.0
 10
248.5164708103536
 20
133.4542116908447
 30
0.0
 10
248.3291715601145
 20
133.4850983779743
 30
0.0
 10
248.1772254084421
 20
133.5076268087094
 30
0.0
 10
248.0775793887135
 20
133.5293149275766
 30
0.0
 10
248.0744567566603
 20
133.5529040649438
 30
0.0
 10
248.0730133157157
 20
133.5638081760087
 30
0.0
  0
SPLINE
  5
147
330
1F
100
AcDbEntity
  8
0
  6
Continuous
 62
     7
370
    15
100
AcDbSpline
210
0.0
220
0.0
230
1.0
 70
     8
 71
     3
 72
    13
 73
     9
 74
     0
 42
0.000000001
 43
0.00000001
 40
0.0
 40
0.0
 40
0.0
 40
0.0
 40
0.1072561551101528
 40
0.3090242878600837
 40
0.5224151372341413
 40
0.7495934853097714
 40
0.9721510449903856
 40
1.0
 40
1.0
 40
1.0
 40
1.0
 10
249.283530762738
 20
133.2192946082982
 30
0.0
 10
249.2834073316523
 20
133.2133301907185
 30
0.0
 10
249.2830517044781
 20
133.1961456301386
 30
0.0
 10
249.224048905463
 20
133.2148809000734
 30
0.0
 10
249.1127639330753
 20
133.2620565777484
 30
0.0
 10
248.9475918921339
 20
133.330646959348
 30
0.0
 10
248.8026761159465
 20
133.379151604514
 30
0.0
 10
248.7246215318801
 20
133.4010898007931
 30
0.0
 10
248.7159406930343
 20
133.4035296568086
 30
0.0
  0
SPLINE
  5
148
330
1F
100
AcDbEntity
  8
0
  6
Continuous
 62
     7
370
    15
100
AcDbSpline
210
0.0
220
0.0
230
1.0
 70
    11
 71
     3
 72
    39
 73
    35
 74
     0
 42
0.000000001
 43
0.00000001
 40
0.0
 40
0.0
 40
0.0
 40
0.0
 40
0.0312580348739059
 40
0.0624989890278519
 40
0.0937319345943134
 40
0.1249989888578752
 40
0.1562319344243355
 40
0.1874989886878967
 40
0.2187319342542051
 40
0.2499989885179142
 40
0.2812319340842532
 40
0.3124989883479427
 40
0.3437319339144204
 40
0.3749989881779646
 40
0.4062319337443968
 40
0.4374989880079856
 40
0.4687319335743936
 40
0.4999989878380084
 40
0.5312319334044365
 40
0.5624989876680312
 40
0.5937319332344756
 40
0.6249989874980538
 40
0.6562319330644981
 40
0.6874989873280759
 40
0.7187319328943843
 40
0.7499989871580934
 40
0.7812319327244417
 40
0.8124989869881223
 40
0.8437319325546003
 40
0.8749989868181437
 40
0.9062319323845788
 40
0.9374989866481654
 40
0.9687580073563637
 40
1.0
 40
1.0
 40
1.0
 40
1.0
 10
250.0121999999999
 20
63.23295276231973
 30
0.0
 10
250.0121879149169
 20
63.27950415416725
 30
0.0
 10
250.0032518257739
 20
63.37257589301838
 30
0.0
 10
249.9621893446403
 20
63.50666349395065
 30
0.0
 10
249.8963850324353
 20
63.6305293545953
 30
0.0
 10
249.8070808736629
 20
63.73868657329582
 30
0.0
 10
249.698837214726
 20
63.82798732745196
 30
0.0
 10
249.5749160536276
 20
63.89375296518968
 30
0.0
 10
249.4407200890764
 20
63.93485608831584
 30
0.0
 10
249.3010505860788
 20
63.94821867525546
 30
0.0
 10
249.1613316885924
 20
63.93486638795891
 30
0.0
 10
249.0271774595169
 20
63.89379164538621
 30
0.0
 10
248.9032065110914
 20
63.82801669790148
 30
0.0
 10
248.7949913355703
 20
63.73875788690847
 30
0.0
 10
248.7056417854564
 20
63.63057391770037
 30
0.0
 10
248.6398404440212
 20
63.50671988340589
 30
0.0
 10
248.5987149509915
 20
63.3725969210216
 30
0.0
 10
248.585345101459
 20
63.23300331742726
 30
0.0
 10
248.5987046490044
 20
63.0933603670566
 30
0.0
 10
248.6398017297718
 20
62.95927905489233
 30
0.0
 10
248.7056124478871
 20
62.835375489861
 30
0.0
 10
248.7949198009341
 20
62.72721913345919
 30
0.0
 10
248.9031626044357
 20
62.63791814833458
 30
0.0
 10
249.0270839945574
 20
62.57215257259224
 30
0.0
 10
249.1612798988674
 20
62.53104943256577
 30
0.0
 10
249.3009494139162
 20
62.51768685126273
 30
0.0
 10
249.4406683234611
 20
62.5310391329235
 30
0.0
 10
249.5748224922294
 20
62.57211389241292
 30
0.0
 10
249.6987936697154
 20
62.63788877789739
 30
0.0
 10
249.8070079888849
 20
62.72714782008766
 30
0.0
 10
249.8963607337876
 20
62.83533092692724
 30
0.0
 10
249.9621684482623
 20
62.95922263635424
 30
0.0
 10
250.003328602912
 20
63.09333929628094
 30
0.0
 10
250.0122120788807
 20
63.18642526155016
 30
0.0
 10
250.0121999999999
 20
63.23295276231973
 30
0.0
  0
SPLINE
  5
149
330
1F
100
AcDbEntity
  8
0
  6
Continuous
 62
     7
370
    15
100
AcDbSpline
210
0.0
220
0.0
230
1.0
 70
     8
 71
     3
 72
     9
 73
     5
 74
     0
 42
0.000000001
 43
0.00000001
 40
0.0
 40
0.0
 40
0.0
 40
0.0
 40
0.5359387789216764
 40
1.0
 40
1.0
 40
1.0
 40
1.0
 10
248.5356220541329
 20
72.87110327689794
 30
0.0
 10
248.5352466476598
 20
72.85506254217324
 30
0.0
 10
248.5345461824428
 20
72.82513237970771
 30
0.0
 10
248.5284768506692
 20
72.79644032462296
 30
0.0
 10
248.5256603091552
 20
72.78312545450508
 30
0.0
  0
SPLINE
  5
14A
330
1F
100
AcDbEntity
  8
0
  6
Continuous
 62
     7
370
    15
100
AcDbSpline
210
0.0
220
0.0
230
1.0
 70
     8
 71
     3
 72
    11
 73
     7
 74
     0
 42
0.000000001
 43
0.00000001
 40
0.0
 40
0.0
 40
0.0
 40
0.0
 40
0.0192730377079543
 40
0.3896291329868128
 40
0.7202166117130948
 40
1.0
 40
1.0
 40
1.0
 40
1.0
 10
248.5256603091552
 20
72.78312545450508
 30
0.0
 10
248.5298393665051
 20
72.78127896781619
 30
0.0
 10
248.6143243613771
 20
72.74394987530034
 30
0.0
 10
248.7577193573434
 20
72.64489192834964
 30
0.0
 10
248.8932816309052
 20
72.44599835487239
 30
0.0
 10
248.9147138474481
 20
72.30121166400855
 30
0.0
 10
248.9245380027066
 20
72.23484396342192
 30
0.0
  0
SPLINE
  5
14B
330
1F
100
AcDbEntity
  8
0
  6
Continuous
 62
     7
370
    15
100
AcDbSpline
210
0.0
220
0.0
230
1.0
 70
     8
 71
     3
 72
    12
 73
     8
 74
     0
 42
0.000000001
 43
0.00000001
 40
0.0
 40
0.0
 40
0.0
 40
0.0
 40
0.1156678568953056
 40
0.3370893418696581
 40
0.5389811352996228
 40
0.7397884610294021
 40
1.0
 40
1.0
 40
1.0
 40
1.0
 10
247.5144548729894
 20
72.16931388605788
 30
0.0
 10
247.5086704492366
 20
72.20523788936687
 30
0.0
 10
247.491812977781
 20
72.30993074836668
 30
0.0
 10
247.5393862949716
 20
72.47996930364732
 30
0.0
 10
247.6465187411902
 20
72.64522397355091
 30
0.0
 10
247.8131854450197
 20
72.77545128458584
 30
0.0
 10
247.9530309575
 20
72.81510185579957
 30
0.0
 10
248.0319635539877
 20
72.83748171256158
 30
0.0
  0
LINE
  5
14C
330
1F
100
AcDbEntity
  8
0
  6
Continuous
 62
     7
370
    15
100
AcDbLine
 10
223.52
 20
56.0193901549
 30
0.0
 11
273.05
 21
56.0193901549
 31
0.0
  0
LINE
  5
14D
330
1F
100
AcDbEntity
  8
0
  6
Continuous
 62
     7
370
    15
100
AcDbLine
 10
223.52
 20
57.2893901549
 30
0.0
 11
273.05
 21
57.2893901549
 31
0.0
  0
LWPOLYLINE
  5
14E
330
1F
100
AcDbEntity
  8
0
  6
Continuous
 62
     7
370
    15
100
AcDbPolyline
 90
       22
 70
   128
 43
0.0
 10
245.4275
 20
146.5207631411
 10
245.4626805667
 20
146.5441579146
 10
245.5673560047
 20
146.5669766311
 10
245.7389488571
 20
146.5886574181
 10
245.9732339386
 20
146.6086664227
 10
246.2644423728
 20
146.6265109567
 10
246.6054036416
 20
146.6417516286
 10
246.987722147
 20
146.6540131623
 10
247.4019839386
 20
146.6629936384
 10
247.8379885161
 20
146.6684719275
 10
248.285
 20
146.6703131361
 10
248.7320114839
 20
146.6684719275
 10
249.1680160614
 20
146.6629936384
 10
249.582277853
 20
146.6540131623
 10
249.9645963584
 20
146.6417516286
 10
250.3055576272
 20
146.6265109567
 10
250.5967660614
 20
146.6086664227
 10
250.8310511429
 20
146.5886574181
 10
251.0026439953
 20
146.5669766311
 10
251.1073194333
 20
146.5441579146
 10
251.1425
 20
146.5207631411
 10
251.1425
 20
146.5207631411
  0
SPLINE
  5
14F
330
1F
100
AcDbEntity
  8
0
  6
Continuous
 62
     7
370
    15
100
AcDbSpline
210
0.0
220
0.0
230
1.0
 70
     8
 71
     3
 72
    26
 73
    22
 74
     0
 42
0.000000001
 43
0.00000001
 40
0.0
 40
0.0
 40
0.0
 40
0.0
 40
0.0625000000000009
 40
0.0625000000000009
 40
0.1250000000000019
 40
0.1250000000000019
 40
0.2500000000000037
 40
0.2500000000000037
 40
0.3750000000000054
 40
0.3750000000000054
 40
0.5000000000000072
 40
0.5000000000000072
 40
0.625000000000009
 40
0.625000000000009
 40
0.6875000000000074
 40
0.6875000000000074
 40
0.750000000000006
 40
0.750000000000006
 40
0.875000000000003
 40
0.875000000000003
 40
1.0
 40
1.0
 40
1.0
 40
1.0
 10
248.0319635539877
 20
72.83748171256177
 30
0.0
 10
248.0302752421576
 20
72.85520169913836
 30
0.0
 10
248.0308327085255
 20
72.8734839493629
 30
0.0
 10
248.036449994254
 20
72.90878212359642
 30
0.0
 10
248.041483829106
 20
72.92607390126379
 30
0.0
 10
248.0629435665412
 20
72.97579447900793
 30
0.0
 10
248.085355237001
 20
73.00496181295706
 30
0.0
 10
248.1401043446948
 20
73.0509969804618
 30
0.0
 10
248.1731083944523
 20
73.0682456543988
 30
0.0
 10
248.2415883516421
 20
73.08828526361071
 30
0.0
 10
248.2780848297475
 20
73.09153361784679
 30
0.0
 10
248.3489374044867
 20
73.08423848612841
 30
0.0
 10
248.3840610467565
 20
73.07358406779862
 30
0.0
 10
248.430943127464
 20
73.04805006898091
 30
0.0
 10
248.4459505532749
 20
73.0377520767029
 30
0.0
 10
248.473046012366
 20
73.01441445749055
 30
0.0
 10
248.4851767816511
 20
73.00142643794848
 30
0.0
 10
248.5170400276801
 20
72.95824389940289
 30
0.0
 10
248.5314731744118
 20
72.92432591679619
 30
0.0
 10
248.541971564618
 20
72.85319688159886
 30
0.0
 10
248.5379158351275
 20
72.8166029342017
 30
0.0
 10
248.5256603091552
 20
72.78312545450508
 30
0.0
  0
LWPOLYLINE
  5
150
330
1F
100
AcDbEntity
  8
0
  6
Continuous
 62
     7
370
    15
100
AcDbPolyline
 90
       19
 70
   128
 43
0.0
 10
248.8021288316
 20
133.9249983304
 10
248.5931012353
 20
133.9764089237
 10
248.409285452
 20
134.0083188622
 10
248.2728523781
 20
134.0168793365
 10
248.2002578557
 20
134.0010578269
 10
248.2002578557
 20
133.9627626411
 10
248.2728523781
 20
133.9066127437
 10
248.409285452
 20
133.8393806408
 10
248.5931012353
 20
133.7691755165
 10
248.8021288316
 20
133.7044651448
 10
249.011156428
 20
133.6530545515
 10
249.1949722112
 20
133.621144613
 10
249.3314052852
 20
133.6125841387
 10
249.4039998076
 20
133.6284056482
 10
249.4039998076
 20
133.666700834
 10
249.3314052852
 20
133.7228507315
 10
249.1949722112
 20
133.7900828343
 10
249.011156428
 20
133.8602879587
 10
248.8021288316
 20
133.9249983304
  0
LWPOLYLINE
  5
151
330
1F
100
AcDbEntity
  8
0
  6
Continuous
 62
     7
370
    15
100
AcDbPolyline
 90
      108
 70
   128
 43
0.0
 10
250.6712295073
 20
147.4021715192
 10
249.4824637387
 20
147.5015214315
 10
248.297795892
 20
147.6126924413
 10
247.1213097627
 20
147.7353013191
 10
245.9570609421
 20
147.8689254067
 10
244.8090628372
 20
148.0131040741
 10
243.6812728352
 20
148.1673403078
 10
242.5775786619
 20
148.3311024233
 10
241.5017849798
 20
148.5038258988
 10
240.4576002725
 20
148.6849153207
 10
239.448624061
 20
148.8737464361
 10
238.4783344955
 20
149.0696683052
 10
237.5500763649
 20
149.2720055447
 10
236.6670495674
 20
149.4800606562
 10
235.8322980792
 20
149.6931164305
 10
235.0486994618
 20
149.9104384205
 10
234.3189549418
 20
150.131277472
 10
233.6455800998
 20
150.3548723071
 10
233.0308961984
 20
150.5804521482
 10
232.4770221803
 20
150.8072393748
 10
231.9858673639
 20
151.0344522043
 10
231.5591248618
 20
151.261307387
 10
231.1982657437
 20
151.4870229062
 10
230.9045339657
 20
151.7108206736
 10
230.6789420822
 20
151.9319292121
 10
230.522267755
 20
152.1495863146
 10
230.4350510731
 20
152.3630416721
 10
230.4175926904
 20
152.5715594596
 10
230.4699527896
 20
152.7744208733
 10
230.5919508745
 20
152.9709266078
 10
230.7831663926
 20
153.1603992671
 10
231.0429401842
 20
153.3421856996
 10
231.3703767554
 20
153.51565925
 10
231.7643473644
 20
153.680221919
 10
232.2234939129
 20
153.8353064248
 10
232.7462336277
 20
153.9803781592
 10
233.3307645167
 20
154.1149370297
 10
233.9750715807
 20
154.2385191842
 10
234.6769337599
 20
154.3506986092
 10
235.43393159
 20
154.4510885992
 10
236.2434555426
 20
154.5393430889
 10
237.1027150209
 20
154.6151578469
 10
238.0087479795
 20
154.678271524
 10
238.9584311351
 20
154.7284665543
 10
239.9484907331
 20
154.7655699051
 10
240.9755138331
 20
154.7894536735
 10
242.0359600735
 20
154.8000355272
 10
243.1261738766
 20
154.7972789883
 10
244.2423970495
 20
154.7811935593
 10
245.3807817396
 20
154.7518346898
 10
246.5374036992
 20
154.709303586
 10
247.7082758128
 20
154.6537468615
 10
248.8893618415
 20
154.5853560318
 10
250.0765903372
 20
154.5043668542
 10
251.2658686773
 20
154.4110585152
 10
252.453097173
 20
154.305752668
 10
253.6341832017
 20
154.1888123236
 10
254.8050553153
 20
154.0606405997
 10
255.9616772749
 20
153.9216793307
 10
257.100061965
 20
153.772407545
 10
258.2162851379
 20
153.6133398132
 10
259.306498941
 20
153.4450244748
 10
260.3669451814
 20
153.2680417477
 10
261.3939682814
 20
153.0830017279
 10
262.3840278794
 20
152.8905422868
 10
263.333711035
 20
152.6913268719
 10
264.2397439936
 20
152.48604222
 10
265.099003472
 20
152.2753959899
 10
265.9085274245
 20
152.0601143227
 10
266.6655252546
 20
151.840939339
 10
267.3673874338
 20
151.6186265802
 10
268.0116944978
 20
151.3939424046
 10
268.5962253868
 20
151.1676613451
 10
269.1189651016
 20
150.9405634392
 10
269.5781116501
 20
150.7134315407
 10
269.9720822591
 20
150.4870486201
 10
270.2995188303
 20
150.2621950663
 10
270.5592926219
 20
150.0396459961
 10
270.75050814
 20
149.8201685822
 10
270.872506225
 20
149.6045194088
 10
270.9248663241
 20
149.3934418631
 10
270.9074079414
 20
149.1876635733
 10
270.8201912595
 20
148.9878938998
 10
270.6635169324
 20
148.7948214899
 10
270.4379250488
 20
148.6091119043
 10
270.1441932708
 20
148.4314053224
 10
269.7833341527
 20
148.2623143356
 10
269.3565916506
 20
148.1024218355
 10
268.8654368342
 20
147.9522790048
 10
268.3115628161
 20
147.8124034168
 10
267.6968789147
 20
147.6832772517
 10
267.0235040727
 20
147.5653456342
 10
266.2937595527
 20
147.4590150989
 10
265.5101609353
 20
147.3646521892
 10
264.6754094472
 20
147.2825821937
 10
263.7923826496
 20
147.2130880246
 10
262.8641245191
 20
147.1564092427
 10
261.8938349535
 20
147.1127412315
 10
260.884858742
 20
147.0822345237
 10
259.8406740347
 20
147.0649942822
 10
258.7648803526
 20
147.0610799378
 10
257.6611861793
 20
147.0705049839
 10
256.5333961773
 20
147.0932369305
 10
255.3853980724
 20
147.1291974158
 10
254.2211492518
 20
147.1782624767
 10
253.0446631225
 20
147.2402629756
 10
251.8599952758
 20
147.3149851841
 10
250.6712295073
 20
147.4021715192
  0
LWPOLYLINE
  5
152
330
1F
100
AcDbEntity
  8
0
  6
Continuous
 62
     7
370
    15
100
AcDbPolyline
 90
        3
 70
   128
 43
0.0
 10
228.8705100614
 20
132.4605211588
 10
228.8339119878
 20
132.5707980548
 10
228.8162566685
 20
132.7769393535
  0
LWPOLYLINE
  5
153
330
1F
100
AcDbEntity
  8
0
  6
Continuous
 62
     7
370
    15
100
AcDbPolyline
 90
        3
 70
   128
 43
0.0
 10
269.3239241754
 20
129.4999783908
 10
269.3062688562
 20
129.3954199561
 10
269.2280911418
 20
129.2105495577
  0
LWPOLYLINE
  5
154
330
1F
100
AcDbEntity
  8
0
  6
Continuous
 62
     7
370
    15
100
AcDbPolyline
 90
      107
 70
   128
 43
0.0
 10
250.6712295073
 20
147.4303997669
 10
249.4808617832
 20
147.5299410473
 10
248.2946752692
 20
147.6414276262
 10
247.1168364886
 20
147.764467903
 10
245.9514826432
 20
147.8986296943
 10
244.8027070807
 20
148.0434417518
 10
243.6745449173
 20
148.198395418
 10
242.5709588637
 20
148.3629464125
 10
241.4958253062
 20
148.5365167438
 10
240.4529206906
 20
148.7184967399
 10
239.4459082573
 20
148.9082471893
 10
238.4783251744
 20
149.1051015867
 10
237.5535701126
 20
149.3083684739
 10
236.6748913078
 20
149.5173338685
 10
235.8453751515
 20
149.731263772
 10
235.0679353492
 20
149.9494067476
 10
234.3453026868
 20
150.1709965604
 10
233.6800154378
 20
150.3952548679
 10
233.0744104479
 20
150.6213939547
 10
232.5306149267
 20
150.8486194991
 10
232.0505389758
 20
151.0761333629
 10
231.6358688796
 20
151.3031363955
 10
231.2880611818
 20
151.5288312404
 10
231.0083375697
 20
151.7524251362
 10
230.7976805826
 20
151.9731327013
 10
230.656830161
 20
152.1901786923
 10
230.586281047
 20
152.4028007271
 10
230.586281047
 20
152.6102519632
 10
230.656830161
 20
152.8118037206
 10
230.7976805826
 20
153.0067480412
 10
231.0083375697
 20
153.1944001761
 10
231.2880611818
 20
153.3741009904
 10
231.6358688796
 20
153.5452192783
 10
232.0505389758
 20
153.7071539806
 10
232.5306149267
 20
153.8593362958
 10
233.0744104479
 20
154.0012316779
 10
233.6800154378
 20
154.1323417143
 10
234.3453026868
 20
154.2522058761
 10
235.0679353492
 20
154.3604031361
 10
235.8453751515
 20
154.4565534476
 10
236.6748913078
 20
154.5403190789
 10
237.5535701126
 20
154.6114058004
 10
238.4783251744
 20
154.6695639172
 10
239.4459082573
 20
154.7145891469
 10
240.4529206906
 20
154.7463233367
 10
241.4958253062
 20
154.7646550191
 10
242.5709588637
 20
154.7695198034
 10
243.6745449173
 20
154.7609006019
 10
244.8027070807
 20
154.7388276898
 10
245.9514826432
 20
154.7033785991
 10
247.1168364886
 20
154.654677846
 10
248.2946752692
 20
154.5928964935
 10
249.4808617832
 20
154.5182515511
 10
250.6712295073
 20
154.4310052118
 10
251.8615972313
 20
154.3314639315
 10
253.0477837453
 20
154.2199773526
 10
254.2256225259
 20
154.0969370758
 10
255.3909763713
 20
153.9627752845
 10
256.5397519338
 20
153.8179632269
 10
257.6679140972
 20
153.6630095607
 10
258.7715001508
 20
153.4984585663
 10
259.8466337083
 20
153.324888235
 10
260.889538324
 20
153.1429082389
 10
261.8965507572
 20
152.9531577895
 10
262.8641338402
 20
152.756303392
 10
263.7888889019
 20
152.5530365048
 10
264.6675677067
 20
152.3440711102
 10
265.4970838631
 20
152.1301412068
 10
266.2745236653
 20
151.9119982311
 10
266.9971563277
 20
151.6904084184
 10
267.6624435767
 20
151.4661501108
 10
268.2680485666
 20
151.240011024
 10
268.8118440878
 20
151.0127854797
 10
269.2919200387
 20
150.7852716158
 10
269.7065901349
 20
150.5582685833
 10
270.0543978327
 20
150.3325737384
 10
270.3341214448
 20
150.1089798425
 10
270.5447784319
 20
149.8882722774
 10
270.6856288535
 20
149.6712262865
 10
270.7561779675
 20
149.4586042516
 10
270.7561779675
 20
149.2511530155
 10
270.6856288535
 20
149.0496012582
 10
270.5447784319
 20
148.8546569375
 10
270.3341214448
 20
148.6670048026
 10
270.0543978327
 20
148.4873039884
 10
269.7065901349
 20
148.3161857005
 10
269.2919200387
 20
148.1542509982
 10
268.8118440878
 20
148.002068683
 10
268.2680485666
 20
147.8601733008
 10
267.6624435767
 20
147.7290632645
 10
266.9971563277
 20
147.6091991026
 10
266.2745236653
 20
147.5010018426
 10
265.4970838631
 20
147.4048515312
 10
264.6675677067
 20
147.3210858998
 10
263.7888889019
 20
147.2499991784
 10
262.8641338402
 20
147.1918410616
 10
261.8965507572
 20
147.1468158319
 10
260.889538324
 20
147.1150816421
 10
259.8466337083
 20
147.0967499597
 10
258.7715001508
 20
147.0918851754
 10
257.6679140972
 20
147.1005043769
 10
256.5397519338
 20
147.1225772889
 10
255.3909763713
 20
147.1580263796
 10
254.2256225259
 20
147.2067271328
 10
253.0477837453
 20
147.2685084852
 10
251.8615972313
 20
147.3431534276
 10
250.6712295073
 20
147.4303997669
  0
LWPOLYLINE
  5
155
330
1F
100
AcDbEntity
  8
0
  6
Continuous
 62
     7
370
    15
100
AcDbPolyline
 90
       26
 70
   128
 43
0.0
 10
250.5922190662
 20
153.4543293493
 10
251.7825867903
 20
153.354788069
 10
252.9687733043
 20
153.2433014901
 10
254.1466120848
 20
153.1202612133
 10
255.3119659303
 20
152.986099422
 10
256.4607414928
 20
152.8412873645
 10
257.5889036562
 20
152.6863336982
 10
258.6924897098
 20
152.5217827038
 10
259.7676232673
 20
152.3482123725
 10
260.8105278829
 20
152.1662323764
 10
261.8175403162
 20
151.976481927
 10
262.7851233991
 20
151.7796275295
 10
263.7098784609
 20
151.5763606423
 10
264.5885572657
 20
151.3673952477
 10
265.418073422
 20
151.1534653443
 10
266.1955132242
 20
150.9353223687
 10
266.9181458867
 20
150.7137325559
 10
267.5834331357
 20
150.4894742484
 10
268.1890381256
 20
150.2633351616
 10
268.7328336468
 20
150.0361096172
 10
269.2129095976
 20
149.8085957534
 10
269.6275796939
 20
149.5815927208
 10
269.9753873917
 20
149.3558978759
 10
270.2551110038
 20
149.13230398
 10
270.4657679909
 20
148.9115964149
 10
270.5244802406
 20
148.8330942962
  0
LWPOLYLINE
  5
156
330
1F
100
AcDbEntity
  8
0
  6
Continuous
 62
     7
370
    15
100
AcDbPolyline
 90
       25
 70
   128
 43
0.0
 10
230.7389683329
 20
152.0516348201
 10
230.9293271287
 20
152.2177243137
 10
231.2090507408
 20
152.3974251279
 10
231.5568584386
 20
152.5685434158
 10
231.9715285348
 20
152.7304781181
 10
232.4516044857
 20
152.8826604333
 10
232.9954000069
 20
153.0245558154
 10
233.6010049968
 20
153.1556658518
 10
234.2662922458
 20
153.2755300136
 10
234.9889249082
 20
153.3837272737
 10
235.7663647104
 20
153.4798775851
 10
236.5958808668
 20
153.5636432165
 10
237.4745596715
 20
153.6347299379
 10
238.3993147333
 20
153.6928880547
 10
239.3668978163
 20
153.7379132844
 10
240.3739102495
 20
153.7696474742
 10
241.4168148652
 20
153.7879791566
 10
242.4919484227
 20
153.7928439409
 10
243.5955344763
 20
153.7842247394
 10
244.7236966397
 20
153.7621518274
 10
245.8724722022
 20
153.7267027366
 10
247.0378260476
 20
153.6780019835
 10
248.2156648282
 20
153.6162206311
 10
249.4018513422
 20
153.5415756887
 10
250.5922190662
 20
153.4543293493
  0
LWPOLYLINE
  5
157
330
1F
100
AcDbEntity
  8
0
  6
Continuous
 62
     7
370
    15
100
AcDbPolyline
 90
       15
 70
   128
 43
0.0
 10
249.3263544566
 20
150.056431657
 10
249.3354608326
 20
150.0260469618
 10
249.408499053
 20
149.9686967256
 10
249.550330778
 20
149.9104939165
 10
249.7527132631
 20
149.8548210704
 10
250.003884774
 20
149.8049136905
 10
250.2892481355
 20
149.7636722126
 10
250.5922190662
 20
149.7334934413
 10
250.895189997
 20
149.7161312571
 10
251.1805533584
 20
149.7125946871
 10
251.4317248694
 20
149.7230892639
 10
251.6341073545
 20
149.7470050808
 10
251.7759390794
 20
149.7829522375
 10
251.8489772998
 20
149.8288416158
 10
251.8580836758
 20
149.8516215968
  0
LWPOLYLINE
  5
158
330
1F
100
AcDbEntity
  8
0
  6
Continuous
 62
     7
370
    15
100
AcDbPolyline
 90
       18
 70
   128
 43
0.0
 10
245.4275
 20
127.8240303648
 10
244.3368440743
 20
127.9499685406
 10
243.1878513794
 20
128.0948079694
 10
242.0594759797
 20
128.2497909237
 10
240.955681335
 20
128.4143730203
 10
239.8803445642
 20
128.5879761585
 10
238.837242827
 20
128.769990551
 10
237.8300400562
 20
128.9597768656
 10
236.8622740883
 20
129.1566684709
 10
235.9373442366
 20
129.359973778
 10
235.058499351
 20
129.5689786696
 10
234.228826406
 20
129.7829490083
 10
233.4512396583
 20
130.0011332157
 10
232.7284704095
 20
130.2227649116
 10
232.0630574132
 20
130.4470656066
 10
231.4573379566
 20
130.6732474365
 10
230.9134396515
 20
130.9005159292
 10
230.4400983129
 20
131.1246094192
  0
LWPOLYLINE
  5
159
330
1F
100
AcDbEntity
  8
0
  6
Continuous
 62
     7
370
    15
100
AcDbPolyline
 90
       21
 70
   128
 43
0.0
 10
267.8964039137
 20
128.2850704144
 10
267.6816930948
 20
128.2056381601
 10
267.2015264038
 20
128.0534270806
 10
266.6576280987
 20
127.9115048785
 10
266.0519086421
 20
127.7803700607
 10
265.3864956457
 20
127.6604832431
 10
264.663726397
 20
127.5522655325
 10
263.8861396492
 20
127.4560970475
 10
263.0564667043
 20
127.3723155834
 10
262.1776218186
 20
127.3012154257
 10
261.2526919669
 20
127.2430463163
 10
260.2849259991
 20
127.1980125763
 10
259.2777232283
 20
127.1662723884
 10
258.2346214911
 20
127.1479372411
 10
257.1592847203
 20
127.1430715373
 10
256.0554900756
 20
127.1516923679
 10
254.9271146759
 20
127.173769452
 10
253.7781219809
 20
127.209225243
 10
252.6125478695
 20
127.2579352012
 10
251.4344864632
 20
127.319728231
 10
251.1425
 20
127.3369553104
  0
LWPOLYLINE
  5
15A
330
1F
100
AcDbEntity
  8
0
  6
Continuous
 62
     7
370
    15
100
AcDbPolyline
 90
       27
 70
   128
 43
0.0
 10
249.9967187556
 20
152.173863813
 10
249.7911465127
 20
152.1536263245
 10
249.6415082027
 20
152.1214871338
 10
249.5565002605
 20
152.0793140537
 10
249.5410630384
 20
152.0295580304
 10
249.5960936919
 20
151.9751107032
 10
249.7183940394
 20
151.9191363527
 10
249.9008564291
 20
151.8648880048
 10
250.1328768103
 20
151.8155183762
 10
250.4009710017
 20
151.7738966504
 10
250.6895583435
 20
151.7424417307
 10
250.9818671882
 20
151.7229816627
 10
251.2609096084
 20
151.7166473949
 10
251.5104686728
 20
151.7238070519
 10
251.7160409157
 20
151.7440445403
 10
251.8656792256
 20
151.7761837311
 10
251.9506871679
 20
151.8183568112
 10
251.9661243899
 20
151.8681128344
 10
251.9110937365
 20
151.9225601617
 10
251.788793389
 20
151.9785345121
 10
251.6063309993
 20
152.0327828601
 10
251.3743106181
 20
152.0821524886
 10
251.1062164267
 20
152.1237742145
 10
250.8176290849
 20
152.1552291342
 10
250.5253202402
 20
152.1746892021
 10
250.24627782
 20
152.1810234699
 10
249.9967187556
 20
152.173863813
  0
LWPOLYLINE
  5
15B
330
1F
100
AcDbEntity
  8
0
  6
Continuous
 62
     7
370
    15
100
AcDbPolyline
 90
       17
 70
   128
 43
0.0
 10
251.9988353677
 20
151.8366652842
 10
252.0126121352
 20
151.8148791727
 10
251.9965316956
 20
151.7630499818
 10
251.9079817558
 20
151.7191196901
 10
251.7521085162
 20
151.6856413664
 10
251.5379707632
 20
151.6645606492
 10
251.2780134044
 20
151.6571026732
 10
250.9873442167
 20
151.6637008689
 10
250.6828558368
 20
151.683971773
 10
250.3822440225
 20
151.7167373143
 10
250.1029792398
 20
151.7600932788
 10
249.8612913427
 20
151.8115199752
 10
249.6712263534
 20
151.8680286709
 10
249.5438301581
 20
151.926335286
 10
249.4865065608
 20
151.9830512519
 10
249.5025870004
 20
152.0348804428
 10
249.5065142162
 20
152.0382873381
  0
LWPOLYLINE
  5
15C
330
1F
100
AcDbEntity
  8
0
  6
Continuous
 62
     8
370
    15
100
AcDbPolyline
 90
       24
 70
   128
 43
0.0
 10
245.4275
 20
127.953240801
 10
244.3559218569
 20
128.0766817894
 10
243.207923752
 20
128.2208604569
 10
242.08013375
 20
128.3750966905
 10
240.9764395767
 20
128.538858806
 10
239.9006458945
 20
128.7115822815
 10
238.8564611872
 20
128.8926717034
 10
237.8474849758
 20
129.0815028189
 10
236.8771954102
 20
129.277424688
 10
235.9489372796
 20
129.4797619274
 10
235.0659104821
 20
129.6878170389
 10
234.231158994
 20
129.9008728133
 10
233.4475603765
 20
130.1181948032
 10
232.7178158565
 20
130.3390338547
 10
232.0444410146
 20
130.5626286898
 10
231.4297571131
 20
130.7882085309
 10
230.875883095
 20
131.0149957575
 10
230.3847282787
 20
131.242208587
 10
229.9579857766
 20
131.4690637697
 10
229.5971266584
 20
131.6947792889
 10
229.3033948804
 20
131.9185770563
 10
229.0778029969
 20
132.1396855948
 10
228.9211286697
 20
132.3573426973
 10
228.8705100614
 20
132.4605211588
  0
LWPOLYLINE
  5
15D
330
1F
100
AcDbEntity
  8
0
  6
Continuous
 62
     8
370
    15
100
AcDbPolyline
 90
       26
 70
   128
 43
0.0
 10
269.2280911418
 20
129.2105495577
 10
269.2190521743
 20
129.1956502825
 10
269.0623778471
 20
129.0025778726
 10
268.8367859635
 20
128.816868287
 10
268.5430541856
 20
128.6391617051
 10
268.1821950674
 20
128.4700707183
 10
267.7554525653
 20
128.3101782182
 10
267.264297749
 20
128.1600353875
 10
266.7104237309
 20
128.0201597995
 10
266.0957398294
 20
127.8910336345
 10
265.4223649874
 20
127.7731020169
 10
264.6926204675
 20
127.6667714816
 10
263.90902185
 20
127.572408572
 10
263.0742703619
 20
127.4903385764
 10
262.1912435644
 20
127.4208444073
 10
261.2629854338
 20
127.3641656254
 10
260.2926958682
 20
127.3204976142
 10
259.2837196568
 20
127.2899909064
 10
258.2395349495
 20
127.2727506649
 10
257.1637412673
 20
127.2688363205
 10
256.060047094
 20
127.2782613666
 10
254.932257092
 20
127.3009933132
 10
253.7842589871
 20
127.3369537986
 10
252.6200101666
 20
127.3860188594
 10
251.4435240372
 20
127.4480193584
 10
251.1425
 20
127.4658472948
  0
ENDSEC
  0
SECTION
  2
OBJECTS
  0
DICTIONARY
  5
C
330
0
100
AcDbDictionary
281
     1
  3
ACAD_GROUP
350
D
  3
ACAD_LAYOUT
350
1A
  3
ACAD_MLINESTYLE
350
17
  3
ACAD_PLOTSETTINGS
350
19
  3
ACAD_PLOTSTYLENAME
350
E
  3
ACAD_SCALELIST
350
47
  0
DICTIONARY
  5
D
102
{ACAD_REACTORS
330
C
102
}
330
C
100
AcDbDictionary
281
     1
  0
DICTIONARY
  5
1A
102
{ACAD_REACTORS
330
C
102
}
330
C
100
AcDbDictionary
281
     1
  3
Layout1
350
1E
  3
Layout2
350
26
  3
Model
350
22
  0
DICTIONARY
  5
17
102
{ACAD_REACTORS
330
C
102
}
330
C
100
AcDbDictionary
281
     1
  3
Standard
350
18
  0
DICTIONARY
  5
19
102
{ACAD_REACTORS
330
C
102
}
330
C
100
AcDbDictionary
281
     1
  0
ACDBDICTIONARYWDFLT
  5
E
102
{ACAD_REACTORS
330
C
102
}
330
C
100
AcDbDictionary
281
     1
  3
Normal
350
F
100
AcDbDictionaryWithDefault
340
F
  0
DICTIONARY
  5
47
102
{ACAD_REACTORS
330
C
102
}
330
C
100
AcDbDictionary
281
     1
  3
A0
350
48
  3
A1
350
49
  3
A2
350
4A
  3
A3
350
4B
  3
A4
350
4C
  3
A5
350
4D
  3
A6
350
4E
  3
A7
350
4F
  3
A8
350
50
  3
A9
350
51
  3
B0
350
52
  3
B1
350
53
  3
B2
350
54
  3
B3
350
55
  3
B4
350
56
  3
B5
350
57
  3
B6
350
58
  3
B7
350
59
  3
B8
350
5A
  3
B9
350
5B
  3
C0
350
5C
  3
C1
350
5D
  3
C2
350
5E
  3
C3
350
5F
  3
C4
350
60
  3
C5
350
61
  3
C6
350
62
  3
C7
350
63
  3
C8
350
64
  3
C9
350
65
  3
D0
350
66
  3
D1
350
67
  3
D2
350
68
  0
LAYOUT
  5
1E
102
{ACAD_REACTORS
330
1A
102
}
330
1A
100
AcDbPlotSettings
  1

  2
none_device
  4

  6

 40
0.0
 41
0.0
 42
0.0
 43
0.0
 44
0.0
 45
0.0
 46
0.0
 47
0.0
 48
0.0
 49
0.0
140
0.0
141
0.0
142
1.0
143
1.0
 70
   688
 72
     1
 73
     0
 74
     5
  7

 75
    16
147
1.0
148
0.0
149
0.0
100
AcDbLayout
  1
Layout1
 70
     1
 71
     1
 10
0.0
 20
0.0
 11
420.0
 21
297.0
 12
0.0
 22
0.0
 32
0.0
 14
1.0000000000E+20
 24
1.0000000000E+20
 34
1.0000000000E+20
 15
-1.0000000000E+20
 25
-1.0000000000E+20
 35
-1.0000000000E+20
146
0.0
 13
0.0
 23
0.0
 33
0.0
 16
1.0
 26
0.0
 36
0.0
 17
0.0
 27
1.0
 37
0.0
 76
     0
330
1B
  0
LAYOUT
  5
26
102
{ACAD_REACTORS
330
1A
102
}
330
1A
100
AcDbPlotSettings
  1

  2
none_device
  4

  6

 40
0.0
 41
0.0
 42
0.0
 43
0.0
 44
0.0
 45
0.0
 46
0.0
 47
0.0
 48
0.0
 49
0.0
140
0.0
141
0.0
142
1.0
143
1.0
 70
   688
 72
     1
 73
     0
 74
     5
  7

 75
    16
147
1.0
148
0.0
149
0.0
100
AcDbLayout
  1
Layout2
 70
     1
 71
     2
 10
0.0
 20
0.0
 11
0.0
 21
0.0
 12
0.0
 22
0.0
 32
0.0
 14
0.0
 24
0.0
 34
0.0
 15
0.0
 25
0.0
 35
0.0
146
0.0
 13
0.0
 23
0.0
 33
0.0
 16
1.0
 26
0.0
 36
0.0
 17
0.0
 27
1.0
 37
0.0
 76
     0
330
23
  0
LAYOUT
  5
22
102
{ACAD_REACTORS
330
1A
102
}
330
1A
100
AcDbPlotSettings
  1

  2
none_device
  4
Letter_(8.50_x_11.00_Inches)
  6

 40
6.35
 41
6.35
 42
6.35000508
 43
6.35000508
 44
215.9
 45
279.4
 46
0.0
 47
0.0
 48
0.0
 49
0.0
140
0.0
141
0.0
142
1.0
143
1.0
 70
  1712
 72
     1
 73
     0
 74
     0
  7

 75
     0
147
1.0
148
0.0
149
0.0
100
AcDbLayout
  1
Model
 70
     1
 71
     0
 10
0.0
 20
0.0
 11
431.8
 21
279.4
 12
0.0
 22
0.0
 32
0.0
 14
0.0
 24
0.0
 34
0.0
 15
431.8
 25
279.4
 35
0.0
146
0.0
 13
0.0
 23
0.0
 33
0.0
 16
1.0
 26
0.0
 36
0.0
 17
0.0
 27
1.0
 37
0.0
 76
     0
330
1F
331
29
  0
MLINESTYLE
  5
18
102
{ACAD_REACTORS
330
17
102
}
330
17
100
AcDbMlineStyle
  2
Standard
 70
     0
  3

 62
   256
 51
90.0
 52
90.0
 71
     2
 49
0.5
 62
   256
  6
BYLAYER
 49
-0.5
 62
   256
  6
BYLAYER
  0
ACDBPLACEHOLDER
  5
F
102
{ACAD_REACTORS
330
E
102
}
330
E
  0
SCALE
  5
48
102
{ACAD_REACTORS
330
47
102
}
330
47
100
AcDbScale
 70
     0
300
1:1
140
1.0
141
1.0
290
     1
  0
SCALE
  5
49
102
{ACAD_REACTORS
330
47
102
}
330
47
100
AcDbScale
 70
     0
300
1:2
140
1.0
141
2.0
290
     0
  0
SCALE
  5
4A
102
{ACAD_REACTORS
330
47
102
}
330
47
100
AcDbScale
 70
     0
300
1:4
140
1.0
141
4.0
290
     0
  0
SCALE
  5
4B
102
{ACAD_REACTORS
330
47
102
}
330
47
100
AcDbScale
 70
     0
300
1:5
140
1.0
141
5.0
290
     0
  0
SCALE
  5
4C
102
{ACAD_REACTORS
330
47
102
}
330
47
100
AcDbScale
 70
     0
300
1:8
140
1.0
141
8.0
290
     0
  0
SCALE
  5
4D
102
{ACAD_REACTORS
330
47
102
}
330
47
100
AcDbScale
 70
     0
300
1:10
140
1.0
141
10.0
290
     0
  0
SCALE
  5
4E
102
{ACAD_REACTORS
330
47
102
}
330
47
100
AcDbScale
 70
     0
300
1:16
140
1.0
141
16.0
290
     0
  0
SCALE
  5
4F
102
{ACAD_REACTORS
330
47
102
}
330
47
100
AcDbScale
 70
     0
300
1:20
140
1.0
141
20.0
290
     0
  0
SCALE
  5
50
102
{ACAD_REACTORS
330
47
102
}
330
47
100
AcDbScale
 70
     0
300
1:30
140
1.0
141
30.0
290
     0
  0
SCALE
  5
51
102
{ACAD_REACTORS
330
47
102
}
330
47
100
AcDbScale
 70
     0
300
1:40
140
1.0
141
40.0
290
     0
  0
SCALE
  5
52
102
{ACAD_REACTORS
330
47
102
}
330
47
100
AcDbScale
 70
     0
300
1:50
140
1.0
141
50.0
290
     0
  0
SCALE
  5
53
102
{ACAD_REACTORS
330
47
102
}
330
47
100
AcDbScale
 70
     0
300
1:100
140
1.0
141
100.0
290
     0
  0
SCALE
  5
54
102
{ACAD_REACTORS
330
47
102
}
330
47
100
AcDbScale
 70
     0
300
2:1
140
2.0
141
1.0
290
     0
  0
SCALE
  5
55
102
{ACAD_REACTORS
330
47
102
}
330
47
100
AcDbScale
 70
     0
300
4:1
140
4.0
141
1.0
290
     0
  0
SCALE
  5
56
102
{ACAD_REACTORS
330
47
102
}
330
47
100
AcDbScale
 70
     0
300
8:1
140
8.0
141
1.0
290
     0
  0
SCALE
  5
57
102
{ACAD_REACTORS
330
47
102
}
330
47
100
AcDbScale
 70
     0
300
10:1
140
10.0
141
1.0
290
     0
  0
SCALE
  5
58
102
{ACAD_REACTORS
330
47
102
}
330
47
100
AcDbScale
 70
     0
300
100:1
140
100.0
141
1.0
290
     0
  0
SCALE
  5
59
102
{ACAD_REACTORS
330
47
102
}
330
47
100
AcDbScale
 70
     0
300
1/128" = 1'-0"
140
0.0078125
141
12.0
290
     0
  0
SCALE
  5
5A
102
{ACAD_REACTORS
330
47
102
}
330
47
100
AcDbScale
 70
     0
300
1/64" = 1'-0"
140
0.015625
141
12.0
290
     0
  0
SCALE
  5
5B
102
{ACAD_REACTORS
330
47
102
}
330
47
100
AcDbScale
 70
     0
300
1/32" = 1'-0"
140
0.03125
141
12.0
290
     0
  0
SCALE
  5
5C
102
{ACAD_REACTORS
330
47
102
}
330
47
100
AcDbScale
 70
     0
300
1/16" = 1'-0"
140
0.0625
141
12.0
290
     0
  0
SCALE
  5
5D
102
{ACAD_REACTORS
330
47
102
}
330
47
100
AcDbScale
 70
     0
300
3/32" = 1'-0"
140
0.09375
141
12.0
290
     0
  0
SCALE
  5
5E
102
{ACAD_REACTORS
330
47
102
}
330
47
100
AcDbScale
 70
     0
300
1/8" = 1'-0"
140
0.125
141
12.0
290
     0
  0
SCALE
  5
5F
102
{ACAD_REACTORS
330
47
102
}
330
47
100
AcDbScale
 70
     0
300
3/16" = 1'-0"
140
0.1875
141
12.0
290
     0
  0
SCALE
  5
60
102
{ACAD_REACTORS
330
47
102
}
330
47
100
AcDbScale
 70
     0
300
1/4" = 1'-0"
140
0.25
141
12.0
290
     0
  0
SCALE
  5
61
102
{ACAD_REACTORS
330
47
102
}
330
47
100
AcDbScale
 70
     0
300
3/8" = 1'-0"
140
0.375
141
12.0
290
     0
  0
SCALE
  5
62
102
{ACAD_REACTORS
330
47
102
}
330
47
100
AcDbScale
 70
     0
300
1/2" = 1'-0"
140
0.5
141
12.0
290
     0
  0
SCALE
  5
63
102
{ACAD_REACTORS
330
47
102
}
330
47
100
AcDbScale
 70
     0
300
3/4" = 1'-0"
140
0.75
141
12.0
290
     0
  0
SCALE
  5
64
102
{ACAD_REACTORS
330
47
102
}
330
47
100
AcDbScale
 70
     0
300
1" = 1'-0"
140
1.0
141
12.0
290
     0
  0
SCALE
  5
65
102
{ACAD_REACTORS
330
47
102
}
330
47
100
AcDbScale
 70
     0
300
1-1/2" = 1'-0"
140
1.5
141
12.0
290
     0
  0
SCALE
  5
66
102
{ACAD_REACTORS
330
47
102
}
330
47
100
AcDbScale
 70
     0
300
3" = 1'-0"
140
3.0
141
12.0
290
     0
  0
SCALE
  5
67
102
{ACAD_REACTORS
330
47
102
}
330
47
100
AcDbScale
 70
     0
300
6" = 1'-0"
140
6.0
141
12.0
290
     0
  0
SCALE
  5
68
102
{ACAD_REACTORS
330
47
102
}
330
47
100
AcDbScale
 70
     0
300
1'-0" = 1'-0"
140
12.0
141
12.0
290
     0
  0
ENDSEC
  0
EOF
