  0
SECTION
  2
HEADER
  9
$ACADVER
  1
AC1015
  9
$ACADMAINTVER
 70
     6
  9
$DWGCODEPAGE
  3
ANSI_1252
  9
$INSBASE
 10
0.0
 20
0.0
 30
0.0
  9
$EXTMIN
 10
-69.85
 20
-228.6
 30
0.0
  9
$EXTMAX
 10
69.85
 20
228.6
 30
0.0
  9
$LIMMIN
 10
0.0
 20
0.0
  9
$LIMMAX
 10
420.0
 20
297.0
  9
$ORTHOMODE
 70
     0
  9
$REGENMODE
 70
     1
  9
$FILLMODE
 70
     1
  9
$QTEXTMODE
 70
     0
  9
$MIRRTEXT
 70
     1
  9
$LTSCALE
 40
1.0
  9
$ATTMODE
 70
     1
  9
$TEXTSIZE
 40
3.5
  9
$TRACEWID
 40
1.0
  9
$TEXTSTYLE
  7
Standard
  9
$CLAYER
  8
0
  9
$CELTYPE
  6
ByLayer
  9
$CECOLOR
 62
   256
  9
$CELTSCALE
 40
1.0
  9
$DISPSILH
 70
     0
  9
$DIMSCALE
 40
1.0
  9
$DIMASZ
 40
3.556
  9
$DIMEXO
 40
0.0
  9
$DIMDLI
 40
3.75
  9
$DIMRND
 40
0.0
  9
$DIMDLE
 40
0.0
  9
$DIMEXE
 40
1.0
  9
$DIMTP
 40
0.0
  9
$DIMTM
 40
0.0
  9
$DIMTXT
 40
3.5
  9
$DIMCEN
 40
2.5
  9
$DIMTSZ
 40
0.0
  9
$DIMTOL
 70
     0
  9
$DIMLIM
 70
     0
  9
$DIMTIH
 70
     1
  9
$DIMTOH
 70
     1
  9
$DIMSE1
 70
     0
  9
$DIMSE2
 70
     0
  9
$DIMTAD
 70
     1
  9
$DIMZIN
 70
     1
  9
$DIMBLK
  1

  9
$DIMASO
 70
     1
  9
$DIMSHO
 70
     1
  9
$DIMPOST
  1

  9
$DIMAPOST
  1

  9
$DIMALT
 70
     0
  9
$DIMALTD
 70
     3
  9
$DIMALTF
 40
0.0393700787
  9
$DIMLFAC
 40
1.0
  9
$DIMTOFL
 70
     1
  9
$DIMTVP
 40
0.0
  9
$DIMTIX
 70
     0
  9
$DIMSOXD
 70
     0
  9
$DIMSAH
 70
     0
  9
$DIMBLK1
  1

  9
$DIMBLK2
  1

  9
$DIMSTYLE
  2
ISO-25
  9
$DIMCLRD
 70
     0
  9
$DIMCLRE
 70
     0
  9
$DIMCLRT
 70
     0
  9
$DIMTFAC
 40
1.0
  9
$DIMGAP
 40
1.524
  9
$DIMJUST
 70
     0
  9
$DIMSD1
 70
     0
  9
$DIMSD2
 70
     0
  9
$DIMTOLJ
 70
     0
  9
$DIMTZIN
 70
     1
  9
$DIMALTZ
 70
     0
  9
$DIMALTTZ
 70
     0
  9
$DIMUPT
 70
     0
  9
$DIMDEC
 70
     2
  9
$DIMTDEC
 70
     2
  9
$DIMALTU
 70
     2
  9
$DIMALTTD
 70
     3
  9
$DIMTXSTY
  7
Standard
  9
$DIMAUNIT
 70
     0
  9
$DIMADEC
 70
     2
  9
$DIMALTRND
 40
0.0
  9
$DIMAZIN
 70
     0
  9
$DIMDSEP
 70
    44
  9
$DIMATFIT
 70
     3
  9
$DIMFRAC
 70
     0
  9
$DIMLDRBLK
  1

  9
$DIMLUNIT
 70
     2
  9
$DIMLWD
 70
    -2
  9
$DIMLWE
 70
    -2
  9
$DIMTMOVE
 70
     0
  9
$LUNITS
 70
     2
  9
$LUPREC
 70
     2
  9
$SKETCHINC
 40
1.0
  9
$FILLETRAD
 40
0.0
  9
$AUNITS
 70
     0
  9
$AUPREC
 70
     2
  9
$MENU
  1
.
  9
$ELEVATION
 40
0.0
  9
$PELEVATION
 40
0.0
  9
$THICKNESS
 40
0.0
  9
$LIMCHECK
 70
     0
  9
$CHAMFERA
 40
0.0
  9
$CHAMFERB
 40
0.0
  9
$CHAMFERC
 40
0.0
  9
$CHAMFERD
 40
0.0
  9
$SKPOLY
 70
     0
  9
$TDCREATE
 40
2460111.615137894
  9
$TDUCREATE
 40
2460111.78180456
  9
$TDUPDATE
 40
2460111.615535162
  9
$TDUUPDATE
 40
2460111.782201829
  9
$TDINDWG
 40
0.0000000116
  9
$TDUSRTIMER
 40
0.0000000116
  9
$USRTIMER
 70
     1
  9
$ANGBASE
 50
0.0
  9
$ANGDIR
 70
     0
  9
$PDMODE
 70
     0
  9
$PDSIZE
 40
-1.0
  9
$PLINEWID
 40
0.0
  9
$SPLFRAME
 70
     0
  9
$SPLINETYPE
 70
     6
  9
$SPLINESEGS
 70
     8
  9
$HANDSEED
  5
286
  9
$SURFTAB1
 70
     6
  9
$SURFTAB2
 70
     6
  9
$SURFTYPE
 70
     6
  9
$SURFU
 70
     6
  9
$SURFV
 70
     6
  9
$UCSBASE
  2

  9
$UCSNAME
  2

  9
$UCSORG
 10
0.0
 20
0.0
 30
0.0
  9
$UCSXDIR
 10
1.0
 20
0.0
 30
0.0
  9
$UCSYDIR
 10
0.0
 20
1.0
 30
0.0
  9
$UCSORTHOREF
  2

  9
$UCSORTHOVIEW
 70
     0
  9
$UCSORGTOP
 10
0.0
 20
0.0
 30
0.0
  9
$UCSORGBOTTOM
 10
0.0
 20
0.0
 30
0.0
  9
$UCSORGLEFT
 10
0.0
 20
0.0
 30
0.0
  9
$UCSORGRIGHT
 10
0.0
 20
0.0
 30
0.0
  9
$UCSORGFRONT
 10
0.0
 20
0.0
 30
0.0
  9
$UCSORGBACK
 10
0.0
 20
0.0
 30
0.0
  9
$PUCSBASE
  2

  9
$PUCSNAME
  2

  9
$PUCSORG
 10
0.0
 20
0.0
 30
0.0
  9
$PUCSXDIR
 10
1.0
 20
0.0
 30
0.0
  9
$PUCSYDIR
 10
0.0
 20
1.0
 30
0.0
  9
$PUCSORTHOREF
  2

  9
$PUCSORTHOVIEW
 70
     0
  9
$PUCSORGTOP
 10
0.0
 20
0.0
 30
0.0
  9
$PUCSORGBOTTOM
 10
0.0
 20
0.0
 30
0.0
  9
$PUCSORGLEFT
 10
0.0
 20
0.0
 30
0.0
  9
$PUCSORGRIGHT
 10
0.0
 20
0.0
 30
0.0
  9
$PUCSORGFRONT
 10
0.0
 20
0.0
 30
0.0
  9
$PUCSORGBACK
 10
0.0
 20
0.0
 30
0.0
  9
$USERI1
 70
     0
  9
$USERI2
 70
     0
  9
$USERI3
 70
     0
  9
$USERI4
 70
     0
  9
$USERI5
 70
     0
  9
$USERR1
 40
0.0
  9
$USERR2
 40
0.0
  9
$USERR3
 40
0.0
  9
$USERR4
 40
0.0
  9
$USERR5
 40
0.0
  9
$WORLDVIEW
 70
     1
  9
$SHADEDGE
 70
     3
  9
$SHADEDIF
 70
    70
  9
$TILEMODE
 70
     0
  9
$MAXACTVP
 70
    64
  9
$PINSBASE
 10
0.0
 20
0.0
 30
0.0
  9
$PLIMCHECK
 70
     0
  9
$PEXTMIN
 10
-69.85
 20
-228.6
 30
0.0
  9
$PEXTMAX
 10
69.85
 20
228.6
 30
0.0
  9
$PLIMMIN
 10
-116.7423076923
 20
-246.1846153846
  9
$PLIMMAX
 10
579.6084615385
 20
246.1846153846
  9
$UNITMODE
 70
     0
  9
$VISRETAIN
 70
     1
  9
$PLINEGEN
 70
     0
  9
$PSLTSCALE
 70
     1
  9
$TREEDEPTH
 70
  3020
  9
$CMLSTYLE
  2
Standard
  9
$CMLJUST
 70
     0
  9
$CMLSCALE
 40
20.0
  9
$PROXYGRAPHICS
 70
     1
  9
$MEASUREMENT
 70
     1
  9
$CELWEIGHT
370
    -1
  9
$ENDCAPS
280
     0
  9
$JOINSTYLE
280
     0
  9
$LWDISPLAY
290
     1
  9
$INSUNITS
 70
     4
  9
$HYPERLINKBASE
  1

  9
$STYLESHEET
  1

  9
$XEDIT
290
     1
  9
$CEPSNTYPE
380
     0
  9
$PSTYLEMODE
290
     1
  9
$FINGERPRINTGUID
  2
{78d78f07-5d68-4989-8634-da7d8fe0b8fe}
  9
$VERSIONGUID
  2
{FAEB1C32-E019-11D5-929B-00C0DF256EC4}
  9
$EXTNAMES
290
     1
  9
$PSVPSCALE
 40
0.0
  9
$OLESTARTUP
290
     0
  0
ENDSEC
  0
SECTION
  2
CLASSES
  0
CLASS
  1
ACDBDICTIONARYWDFLT
  2
AcDbDictionaryWithDefault
  3
ObjectDBX Classes
 90
        0
280
     0
281
     0
  0
CLASS
  1
VISUALSTYLE
  2
AcDbVisualStyle
  3
ObjectDBX Classes
 90
     4095
280
     0
281
     0
  0
CLASS
  1
MATERIAL
  2
AcDbMaterial
  3
ObjectDBX Classes
 90
     1153
280
     0
281
     0
  0
CLASS
  1
SCALE
  2
AcDbScale
  3
ObjectDBX Classes
 90
     1153
280
     0
281
     0
  0
CLASS
  1
TABLESTYLE
  2
AcDbTableStyle
  3
ObjectDBX Classes
 90
     4095
280
     0
281
     0
  0
CLASS
  1
MLEADERSTYLE
  2
AcDbMLeaderStyle
  3
ACDB_MLEADERSTYLE_CLASS
 90
     4095
280
     0
281
     0
  0
CLASS
  1
SUN
  2
AcDbSun
  3
SCENEOE
 90
     1153
280
     0
281
     0
  0
CLASS
  1
ACDBPLACEHOLDER
  2
AcDbPlaceHolder
  3
ObjectDBX Classes
 90
        0
280
     0
281
     0
  0
CLASS
  1
LAYOUT
  2
AcDbLayout
  3
ObjectDBX Classes
 90
        0
280
     0
281
     0
  0
ENDSEC
  0
SECTION
  2
TABLES
  0
TABLE
  2
VPORT
  5
8
330
0
100
AcDbSymbolTable
 70
     1
  0
VPORT
  5
29
330
8
100
AcDbSymbolTableRecord
100
AcDbViewportTableRecord
  2
*Active
 70
     0
 10
0.0
 20
0.0
 11
1.0
 21
1.0
 12
0.0
 22
0.0
 13
0.0
 23
0.0
 14
10.0
 24
10.0
 15
10.0
 25
10.0
 16
0.0
 26
0.0
 36
1.0
 17
0.0
 27
0.0
 37
0.0
 40
466.344
 41
0.3055555556
 42
50.0
 43
0.0
 44
0.0
 50
0.0
 51
0.0
 71
     0
 72
   100
 73
     1
 74
     3
 75
     0
 76
     0
 77
     0
 78
     0
281
     0
 65
     1
110
0.0
120
0.0
130
0.0
111
1.0
121
0.0
131
0.0
112
0.0
122
1.0
132
0.0
 79
     0
146
0.0
  0
ENDTAB
  0
TABLE
  2
LTYPE
  5
5
330
0
100
AcDbSymbolTable
 70
     6
  0
LTYPE
  5
14
330
5
100
AcDbSymbolTableRecord
100
AcDbLinetypeTableRecord
  2
ByBlock
 70
     0
  3

 72
    65
 73
     0
 40
0.0
  0
LTYPE
  5
15
330
5
100
AcDbSymbolTableRecord
100
AcDbLinetypeTableRecord
  2
ByLayer
 70
     0
  3

 72
    65
 73
     0
 40
0.0
  0
LTYPE
  5
16
330
5
100
AcDbSymbolTableRecord
100
AcDbLinetypeTableRecord
  2
Continuous
 70
     0
  3
Solid line
 72
    65
 73
     0
 40
0.0
  0
LTYPE
  5
5E
330
5
100
AcDbSymbolTableRecord
100
AcDbLinetypeTableRecord
  2
HIDDEN
 70
     0
  3
Hidden __ __ __ __ __ __ __ __ __ __ __ __ __ __
 72
    65
 73
     2
 40
1.905
 49
1.27
 74
     0
 49
-0.635
 74
     0
  0
LTYPE
  5
5F
330
5
100
AcDbSymbolTableRecord
100
AcDbLinetypeTableRecord
  2
PHANTOM
 70
     0
  3
Phantom ______  __  __  ______  __  __  ______
 72
    65
 73
     6
 40
12.7
 49
6.35
 74
     0
 49
-1.27
 74
     0
 49
1.27
 74
     0
 49
-1.27
 74
     0
 49
1.27
 74
     0
 49
-1.27
 74
     0
  0
LTYPE
  5
60
330
5
100
AcDbSymbolTableRecord
100
AcDbLinetypeTableRecord
  2
CENTER
 70
     0
  3
Center ____ _ ____ _ ____ _ ____ _ ____ _ ____
 72
    65
 73
     4
 40
10.16
 49
6.35
 74
     0
 49
-1.27
 74
     0
 49
1.27
 74
     0
 49
-1.27
 74
     0
  0
LTYPE
  5
61
330
5
100
AcDbSymbolTableRecord
100
AcDbLinetypeTableRecord
  2
CENTERX2
 70
     0
  3
Center (2x) ________  __  ________  __  _____
 72
    65
 73
     4
 40
20.32
 49
12.7
 74
     0
 49
-2.54
 74
     0
 49
2.54
 74
     0
 49
-2.54
 74
     0
  0
LTYPE
  5
62
330
5
100
AcDbSymbolTableRecord
100
AcDbLinetypeTableRecord
  2
DOT2
 70
     0
  3
Dot (.5x) ........................................
 72
    65
 73
     2
 40
0.635
 49
0.0
 74
     0
 49
-0.635
 74
     0
  0
ENDTAB
  0
TABLE
  2
LAYER
  5
2
330
0
100
AcDbSymbolTable
 70
     1
  0
LAYER
  5
10
330
2
100
AcDbSymbolTableRecord
100
AcDbLayerTableRecord
  2
0
 70
     0
 62
     7
  6
Continuous
370
    -3
390
F
  0
ENDTAB
  0
TABLE
  2
STYLE
  5
3
330
0
100
AcDbSymbolTable
 70
     1
  0
STYLE
  5
11
330
3
100
AcDbSymbolTableRecord
100
AcDbTextStyleTableRecord
  2
Standard
 70
     0
 40
0.0
 41
1.0
 50
0.0
 71
     0
 42
3.5
  3
txt
  4

  0
ENDTAB
  0
TABLE
  2
VIEW
  5
6
330
0
100
AcDbSymbolTable
 70
     0
  0
ENDTAB
  0
TABLE
  2
UCS
  5
7
330
0
100
AcDbSymbolTable
 70
     0
  0
ENDTAB
  0
TABLE
  2
APPID
  5
9
330
0
100
AcDbSymbolTable
 70
     1
  0
APPID
  5
12
330
9
100
AcDbSymbolTableRecord
100
AcDbRegAppTableRecord
  2
ACAD
 70
     0
  0
ENDTAB
  0
TABLE
  2
DIMSTYLE
  5
A
330
0
100
AcDbSymbolTable
 70
     1
100
AcDbDimStyleTable
  0
DIMSTYLE
105
27
330
A
100
AcDbSymbolTableRecord
100
AcDbDimStyleTableRecord
  2
ISO-25
 70
     0
 41
2.5
 42
0.625
 43
3.75
 44
1.25
 73
     0
 74
     0
 77
     1
 78
     8
140
2.5
141
2.5
143
0.0393700787
147
0.625
171
     3
172
     1
178
     0
271
     2
272
     2
274
     3
278
    44
283
     0
284
     8
340
11
  0
ENDTAB
  0
TABLE
  2
BLOCK_RECORD
  5
1
330
0
100
AcDbSymbolTable
 70
     4
  0
BLOCK_RECORD
  5
1F
330
1
100
AcDbSymbolTableRecord
100
AcDbBlockTableRecord
  2
*Model_Space
340
22
  0
BLOCK_RECORD
  5
1B
330
1
100
AcDbSymbolTableRecord
100
AcDbBlockTableRecord
  2
*Paper_Space
340
1E
  0
BLOCK_RECORD
  5
23
330
1
100
AcDbSymbolTableRecord
100
AcDbBlockTableRecord
  2
*Paper_Space0
340
26
  0
BLOCK_RECORD
  5
17E
330
1
100
AcDbSymbolTableRecord
100
AcDbBlockTableRecord
  2
*Paper_Space1
340
17F
  0
BLOCK_RECORD
  5
1A7
330
1
100
AcDbSymbolTableRecord
100
AcDbBlockTableRecord
  2
*Paper_Space2
340
1A8
  0
BLOCK_RECORD
  5
211
330
1
100
AcDbSymbolTableRecord
100
AcDbBlockTableRecord
  2
*Paper_Space3
340
212
  0
ENDTAB
  0
ENDSEC
  0
SECTION
  2
BLOCKS
  0
BLOCK
  5
20
330
1F
100
AcDbEntity
  8
0
100
AcDbBlockBegin
  2
*Model_Space
 70
     0
 10
0.0
 20
0.0
 30
0.0
  3
*Model_Space
  1

  0
ENDBLK
  5
21
330
1F
100
AcDbEntity
  8
0
100
AcDbBlockEnd
  0
BLOCK
  5
1C
330
1B
100
AcDbEntity
 67
     1
  8
0
100
AcDbBlockBegin
  2
*Paper_Space
 70
     0
 10
0.0
 20
0.0
 30
0.0
  3
*Paper_Space
  1

  0
ENDBLK
  5
1D
330
1B
100
AcDbEntity
 67
     1
  8
0
100
AcDbBlockEnd
  0
BLOCK
  5
24
330
23
100
AcDbEntity
  8
0
100
AcDbBlockBegin
  2
*Paper_Space0
 70
     0
 10
0.0
 20
0.0
 30
0.0
  3
*Paper_Space0
  1

  0
SPLINE
  5
15D
330
23
100
AcDbEntity
  8
0
  6
Continuous
 62
     7
370
    25
100
AcDbSpline
210
0.0
220
0.0
230
1.0
 70
     8
 71
     3
 72
    82
 73
    78
 74
     0
 42
0.00000001
 43
0.00000001
 40
0.0
 40
0.0
 40
0.0
 40
0.0
 40
0.00564459967295
 40
0.0112003624039718
 40
0.0167504112909776
 40
0.0223731524271719
 40
0.0281392826043755
 40
0.0341099225702572
 40
0.0403359647279028
 40
0.0468583963422772
 40
0.0537092290762842
 40
0.060912697880512
 40
0.0684864948863062
 40
0.0764429073266887
 40
0.0847898037750389
 40
0.0935314579848265
 40
0.1026692222099821
 40
0.1122020707673755
 40
0.1221270361734751
 40
0.1324395583884232
 40
0.143133764688371
 40
0.1542026945220854
 40
0.1656384808466337
 40
0.1774324970274755
 40
0.1895754764357213
 40
0.2020576103272174
 40
0.214868628375738
 40
0.2279978652892448
 40
0.2414343162062309
 40
0.2551666830013096
 40
0.2691834131880495
 40
0.283472732763419
 40
0.2980226740695892
 40
0.312821099538119
 40
0.3278557220154585
 40
0.3431141222372682
 40
0.358583763914564
 40
0.3742520068112012
 40
0.3901061181252665
 40
0.4061332824329631
 40
0.4223206104098849
 40
0.4386551465090843
 40
0.4551238757463379
 40
0.4717137297192928
 40
0.4884115919676515
 40
0.5052043027654576
 40
0.5220786634232326
 40
0.5390214401666739
 40
0.5560193676494589
 40
0.5730591521500791
 40
0.5901274744963004
 40
0.607210992755589
 40
0.6242963447255102
 40
0.6413701502545536
 40
0.6584190134209529
 40
0.6754295245947992
 40
0.6923882624069909
 40
0.7092817956473224
 40
0.7260966851132198
 40
0.7428194854303187
 40
0.7594367468661971
 40
0.775935017159215
 40
0.7923008433855301
 40
0.8085207738891118
 40
0.8245813603019484
 40
0.840469159684847
 40
0.8561707368233439
 40
0.8716726667185282
 40
0.8869615373192873
 40
0.9020239525509612
 40
0.9168465357061203
 40
0.9314159332767856
 40
0.9457188193246876
 40
0.9597419005082688
 40
0.9734719219134988
 40
0.9868956738722757
 40
0.9999999999999999
 40
0.9999999999999999
 40
0.9999999999999999
 40
0.9999999999999999
 10
-0.7322330470336327
 20
-50.23223304703365
 30
0.0
 10
-0.7141190249825707
 20
-50.21379044062893
 30
0.0
 10
-0.6781760665230465
 20
-50.17719548485263
 30
0.0
 10
-0.6273469501741347
 20
-50.12122991635476
 30
0.0
 10
-0.579623078568632
 20
-50.06568840054484
 30
0.0
 10
-0.5350361041963971
 20
-50.01059655500152
 30
0.0
 10
-0.4934100274737729
 20
-49.9561458846697
 30
0.0
 10
-0.4546092232435642
 20
-49.90244601820592
 30
0.0
 10
-0.4184792244071936
 20
-49.84959755215878
 30
0.0
 10
-0.3848709308386933
 20
-49.79767992475438
 30
0.0
 10
-0.3536390048794261
 20
-49.74676178291841
 30
0.0
 10
-0.3246448003572863
 20
-49.69690261989169
 30
0.0
 10
-0.2977561728132322
 20
-49.64815477927024
 30
0.0
 10
-0.2728472900235118
 20
-49.60056401307715
 30
0.0
 10
-0.2497981537150987
 20
-49.55416979563532
 30
0.0
 10
-0.2284942097921586
 20
-49.50900547076711
 30
0.0
 10
-0.2088260392661689
 20
-49.46509841972911
 30
0.0
 10
-0.1906891407750105
 20
-49.4224702756276
 30
0.0
 10
-0.1739837767013308
 20
-49.38113719183332
 30
0.0
 10
-0.1586148603660367
 20
-49.34111015065096
 30
0.0
 10
-0.1444918648861385
 20
-49.30239529721168
 30
0.0
 10
-0.131528740475978
 20
-49.26499428468374
 30
0.0
 10
-0.1196438316103735
 20
-49.22890462005696
 30
0.0
 10
-0.108759789053274
 20
-49.19412000269573
 30
0.0
 10
-0.0988034741874685
 20
-49.16063065034491
 30
0.0
 10
-0.0897058546863241
 20
-49.12842360917188
 30
0.0
 10
-0.0814018915732476
 20
-49.09748304582796
 30
0.0
 10
-0.0738304183140123
 20
-49.06779052051166
 30
0.0
 10
-0.0669340129181017
 20
-49.03932524072061
 30
0.0
 10
-0.0606588641832717
 20
-49.01206429586266
 30
0.0
 10
-0.0549546332664214
 20
-48.98598287322832
 30
0.0
 10
-0.0497743117461383
 20
-48.96105445604376
 30
0.0
 10
-0.0450740772850594
 20
-48.93725100446505
 30
0.0
 10
-0.0408131479222029
 20
-48.91454312045558
 30
0.0
 10
-0.0369536359368511
 20
-48.89290019753524
 30
0.0
 10
-0.0334604021350882
 20
-48.8722905564011
 30
0.0
 10
-0.0303009113203426
 20
-48.85268156741751
 30
0.0
 10
-0.0274450896247946
 20
-48.83403976095136
 30
0.0
 10
-0.0248651842990888
 20
-48.81633092649857
 30
0.0
 10
-0.0225356264850415
 20
-48.79952020151163
 30
0.0
 10
-0.0204328974302767
 20
-48.78357215079389
 30
0.0
 10
-0.0185353985438785
 20
-48.76845083728383
 30
0.0
 10
-0.0168233256393133
 20
-48.75411988500208
 30
0.0
 10
-0.0152785476636164
 20
-48.74054253488954
 30
0.0
 10
-0.0138844901700144
 20
-48.72768169421452
 30
0.0
 10
-0.0126260237546735
 20
-48.7154999801802
 30
0.0
 10
-0.0114893576461314
 20
-48.70395975831766
 30
0.0
 10
-0.0104619386079308
 20
-48.69302317620383
 30
0.0
 10
-0.0095323552908519
 20
-48.68265219300073
 30
0.0
 10
-0.0086902481501241
 20
-48.67280860527044
 30
0.0
 10
-0.0079262250248791
 20
-48.66345406948103
 30
0.0
 10
-0.0072317824616128
 20
-48.65455012158034
 30
0.0
 10
-0.0065992328504086
 20
-48.64605819398088
 30
0.0
 10
-0.0060216374309155
 20
-48.6379396302647
 30
0.0
 10
-0.005492745216093
 20
-48.63015569788818
 30
0.0
 10
-0.0050069378729964
 20
-48.62266759913834
 30
0.0
 10
-0.0045591805935483
 20
-48.61543648056712
 30
0.0
 10
-0.0041449789821846
 20
-48.60842344110832
 30
0.0
 10
-0.0037603419823506
 20
-48.60158953906109
 30
0.0
 10
-0.003401750860034
 20
-48.59489579810784
 30
0.0
 10
-0.0030661342586905
 20
-48.58830321251904
 30
0.0
 10
-0.0027508493371103
 20
-48.58177275168957
 30
0.0
 10
-0.0024536689998134
 20
-48.57526536412903
 30
0.0
 10
-0.0021727752245806
 20
-48.56874198107253
 30
0.0
 10
-0.0019067584997104
 20
-48.56216351969473
 30
0.0
 10
-0.0016546233456843
 20
-48.55549088657451
 30
0.0
 10
-0.0014158000248773
 20
-48.5486849796206
 30
0.0
 10
-0.0011901620622368
 20
-48.54170669563349
 30
0.0
 10
-0.000978050950548
 20
-48.53451691786452
 30
0.0
 10
-0.0007803029995271
 20
-48.52707657801819
 30
0.0
 10
-0.0005982967008419
 20
-48.51934644867109
 30
0.0
 10
-0.0004339536060702
 20
-48.51128792075708
 30
0.0
 10
-0.0002899364200878
 20
-48.50286020248907
 30
0.0
 10
-0.0001691592201244
 20
-48.49403051355132
 30
0.0
 10
-0.0000768177187208
 20
-48.48473720343154
 30
0.0
 10
-0.000013335648183
 20
-48.47502308622439
 30
0.0
 10
-0.0000044093888957
 20
-48.46795672934154
 30
0.0
 10
-0.0000000000000069
 20
-48.46446609406728
 30
0.0
  0
LINE
  5
170
330
23
100
AcDbEntity
  8
0
  6
Continuous
 62
     7
370
    25
100
AcDbLine
 10
-11.7
 20
-69.85
 30
0.0
 11
0.0
 21
-69.85
 31
0.0
  0
LINE
  5
171
330
23
100
AcDbEntity
  8
0
  6
Continuous
 62
     7
370
    25
100
AcDbLine
 10
0.0
 20
69.85
 30
0.0
 11
-11.7
 21
69.85
 31
0.0
  0
LINE
  5
172
330
23
100
AcDbEntity
  8
0
  6
Continuous
 62
     7
370
    25
100
AcDbLine
 10
0.0
 20
-69.85
 30
0.0
 11
0.0
 21
69.85
 31
0.0
  0
LINE
  5
173
330
23
100
AcDbEntity
  8
0
  6
Continuous
 62
     7
370
    25
100
AcDbLine
 10
-11.7
 20
228.6
 30
0.0
 11
-11.7
 21
-228.6
 31
0.0
  0
LINE
  5
174
330
23
100
AcDbEntity
  8
0
  6
Continuous
 62
     7
370
    25
100
AcDbLine
 10
-100.8073378501
 20
228.6
 30
0.0
 11
-100.8073378501
 21
-228.6
 31
0.0
  0
LINE
  5
175
330
23
100
AcDbEntity
  8
0
  6
Continuous
 62
     7
370
    25
100
AcDbLine
 10
-27.1951785284
 20
228.6
 30
0.0
 11
-27.1951785284
 21
-228.6
 31
0.0
  0
LINE
  5
176
330
23
100
AcDbEntity
  8
0
  6
Continuous
 62
     7
370
    25
100
AcDbLine
 10
-100.8073378501
 20
-228.6
 30
0.0
 11
-24.1951785284
 21
-228.6
 31
0.0
  0
LINE
  5
177
330
23
100
AcDbEntity
  8
0
  6
Continuous
 62
     7
370
    25
100
AcDbLine
 10
-100.8073378501
 20
228.6
 30
0.0
 11
-24.1951785284
 21
228.6
 31
0.0
  0
LINE
  5
178
330
23
100
AcDbEntity
  8
0
  6
Continuous
 62
     7
370
    25
100
AcDbLine
 10
-24.1951785284
 20
228.6
 30
0.0
 11
-24.1951785284
 21
-228.6
 31
0.0
  0
LINE
  5
179
330
23
100
AcDbEntity
  8
0
  6
Continuous
 62
     7
370
    25
100
AcDbLine
 10
-17.699988
 20
228.6
 30
0.0
 11
-17.699988
 21
-228.6
 31
0.0
  0
LINE
  5
17A
330
23
100
AcDbEntity
  8
0
  6
Continuous
 62
     7
370
    25
100
AcDbLine
 10
-17.699988
 20
228.6
 30
0.0
 11
-11.7
 21
228.6
 31
0.0
  0
LINE
  5
17B
330
23
100
AcDbEntity
  8
0
  6
Continuous
 62
     7
370
    25
100
AcDbLine
 10
-17.699988
 20
-228.6
 30
0.0
 11
-11.7
 21
-228.6
 31
0.0
  0
LINE
  5
17C
330
23
100
AcDbEntity
  8
0
  6
Continuous
 62
     7
370
    25
100
AcDbLine
 10
-24.1951785284
 20
-12.7
 30
0.0
 11
-17.699988
 21
-12.7
 31
0.0
  0
LINE
  5
17D
330
23
100
AcDbEntity
  8
0
  6
Continuous
 62
     7
370
    25
100
AcDbLine
 10
-24.1951785284
 20
12.7
 30
0.0
 11
-17.699988
 21
12.7
 31
0.0
  0
VIEWPORT
  5
27D
330
23
100
AcDbEntity
  8
0
100
AcDbViewport
 10
0.0
 20
0.0
 30
0.0
 40
205.6
 41
156.0
 68
     1
 69
     1
 12
0.0
 22
0.0
 13
0.0
 23
0.0
 14
10.0
 24
10.0
 15
10.0
 25
10.0
 16
0.0
 26
0.0
 36
1.0
 17
0.0
 27
0.0
 37
0.0
 42
50.0
 43
0.0
 44
0.0
 45
466.344
 50
0.0
 51
0.0
 72
   100
 90
   557152
  1

281
     0
 71
     1
 74
     0
110
0.0
120
0.0
130
0.0
111
1.0
121
0.0
131
0.0
112
0.0
122
1.0
132
0.0
 79
     0
146
0.0
  0
ENDBLK
  5
25
330
23
100
AcDbEntity
  8
0
100
AcDbBlockEnd
  0
BLOCK
  5
180
330
17E
100
AcDbEntity
  8
0
100
AcDbBlockBegin
  2
*Paper_Space1
 70
     0
 10
0.0
 20
0.0
 30
0.0
  3
*Paper_Space1
  1

  0
SPLINE
  5
184
330
17E
100
AcDbEntity
  8
0
  6
Continuous
 62
     7
370
    25
100
AcDbSpline
210
0.0
220
0.0
230
1.0
 70
     8
 71
     3
 72
    43
 73
    39
 74
     0
 42
0.00000001
 43
0.00000001
 40
0.0
 40
0.0
 40
0.0
 40
0.0
 40
0.0276636134257956
 40
0.0566518535019082
 40
0.086845019054227
 40
0.1181226965302179
 40
0.1503639694216036
 40
0.1834475750348316
 40
0.2172520265261747
 40
0.2516557120939749
 40
0.2865369795691388
 40
0.3217742124200841
 40
0.3572459018625236
 40
0.3928307190417443
 40
0.4284075909744621
 40
0.4638557840232544
 40
0.4990549991151164
 40
0.5338854837463185
 40
0.5682281671366398
 40
0.6019648268800545
 40
0.6349782983680743
 40
0.6671527425857628
 40
0.6983739943175362
 40
0.7285300225114884
 40
0.7575115494430258
 40
0.7852128985730848
 40
0.811533178016965
 40
0.8363779666437929
 40
0.8596617692364155
 40
0.8813116740599606
 40
0.9012729283234202
 40
0.9195176179125587
 40
0.9360583785754927
 40
0.9509700222012358
 40
0.9644223432250566
 40
0.9767239429305654
 40
0.9883623877301063
 40
1.0
 40
1.0
 40
1.0
 40
1.0
 10
0.0000000000000139
 20
-48.46446609406728
 30
0.0
 10
0.0000193830430248
 20
-48.47164206940574
 30
0.0
 10
0.0000590772541997
 20
-48.48633762986458
 30
0.0
 10
0.0003070202777289
 20
-48.50474166897073
 30
0.0
 10
0.0006371351196216
 20
-48.52171937492147
 30
0.0
 10
0.0010448515339045
 20
-48.53724209458305
 30
0.0
 10
0.0015113301365388
 20
-48.55176747375786
 30
0.0
 10
0.002034703897473
 20
-48.56561626737358
 30
0.0
 10
0.0026195929252945
 20
-48.57914827970006
 30
0.0
 10
0.0032790315762019
 20
-48.59271261594058
 30
0.0
 10
0.0040335414832615
 20
-48.60666128021264
 30
0.0
 10
0.0049116284588854
 20
-48.62134513489843
 30
0.0
 10
0.0059505137707527
 20
-48.63711471362991
 30
0.0
 10
0.0071974273414821
 20
-48.65431963482962
 30
0.0
 10
0.0087113696587843
 20
-48.67330829645583
 30
0.0
 10
0.0105653623582377
 20
-48.69442734894763
 30
0.0
 10
0.0128491734996752
 20
-48.71802103059259
 30
0.0
 10
0.0156725086259482
 20
-48.74443027856857
 30
0.0
 10
0.0191686516323869
 20
-48.77399156109436
 30
0.0
 10
0.0234985336005356
 20
-48.80703535130797
 30
0.0
 10
0.02885519882425
 20
-48.84388415225353
 30
0.0
 10
0.035468625754688
 20
-48.88484996648027
 30
0.0
 10
0.0436108455790785
 20
-48.93023108961681
 30
0.0
 10
0.0536012830557112
 20
-48.98030809513153
 30
0.0
 10
0.065812221732589
 20
-49.03533887407853
 30
0.0
 10
0.0806742789810702
 20
-49.09555259960543
 30
0.0
 10
0.0986817493561845
 20
-49.16114254535628
 30
0.0
 10
0.1203977479000626
 20
-49.23225774157637
 30
0.0
 10
0.1464590153070419
 20
-49.30899390077465
 30
0.0
 10
0.1775812017301981
 20
-49.39138393598277
 30
0.0
 10
0.2145642746323242
 20
-49.47939177508551
 30
0.0
 10
0.2583067405544162
 20
-49.57290800755627
 30
0.0
 10
0.3098193032423854
 20
-49.67177376709507
 30
0.0
 10
0.3703091959693094
 20
-49.77578120554879
 30
0.0
 10
0.4411652062504337
 20
-49.88483260826114
 30
0.0
 10
0.5243640652986964
 20
-49.99850307947388
 30
0.0
 10
0.621045095649718
 20
-50.11675091692368
 30
0.0
 10
0.6951712803452483
 20
-50.19373992156869
 30
0.0
 10
0.7322330470336397
 20
-50.23223304703365
 30
0.0
  0
LINE
  5
199
330
17E
100
AcDbEntity
  8
0
  6
Continuous
 62
     7
370
    25
100
AcDbLine
 10
11.7
 20
69.85
 30
0.0
 11
0.0
 21
69.85
 31
0.0
  0
LINE
  5
19A
330
17E
100
AcDbEntity
  8
0
  6
Continuous
 62
     7
370
    25
100
AcDbLine
 10
0.0
 20
-69.85
 30
0.0
 11
11.7
 21
-69.85
 31
0.0
  0
LINE
  5
19B
330
17E
100
AcDbEntity
  8
0
  6
Continuous
 62
     7
370
    25
100
AcDbLine
 10
0.0
 20
69.85
 30
0.0
 11
0.0
 21
-69.85
 31
0.0
  0
LINE
  5
19C
330
17E
100
AcDbEntity
  8
0
  6
Continuous
 62
     7
370
    25
100
AcDbLine
 10
11.7
 20
228.6
 30
0.0
 11
11.7
 21
-228.6
 31
0.0
  0
LINE
  5
19D
330
17E
100
AcDbEntity
  8
0
  6
Continuous
 62
     7
370
    25
100
AcDbLine
 10
27.1951785284
 20
228.6
 30
0.0
 11
27.1951785284
 21
-228.6
 31
0.0
  0
LINE
  5
19E
330
17E
100
AcDbEntity
  8
0
  6
Continuous
 62
     7
370
    25
100
AcDbLine
 10
100.8073378501
 20
228.6
 30
0.0
 11
100.8073378501
 21
-228.6
 31
0.0
  0
LINE
  5
19F
330
17E
100
AcDbEntity
  8
0
  6
Continuous
 62
     7
370
    25
100
AcDbLine
 10
24.1951785284
 20
-228.6
 30
0.0
 11
100.8073378501
 21
-228.6
 31
0.0
  0
LINE
  5
1A0
330
17E
100
AcDbEntity
  8
0
  6
Continuous
 62
     7
370
    25
100
AcDbLine
 10
24.1951785284
 20
228.6
 30
0.0
 11
100.8073378501
 21
228.6
 31
0.0
  0
LINE
  5
1A1
330
17E
100
AcDbEntity
  8
0
  6
Continuous
 62
     7
370
    25
100
AcDbLine
 10
24.1951785284
 20
228.6
 30
0.0
 11
24.1951785284
 21
-228.6
 31
0.0
  0
LINE
  5
1A2
330
17E
100
AcDbEntity
  8
0
  6
Continuous
 62
     7
370
    25
100
AcDbLine
 10
11.7
 20
-228.6
 30
0.0
 11
17.699988
 21
-228.6
 31
0.0
  0
LINE
  5
1A3
330
17E
100
AcDbEntity
  8
0
  6
Continuous
 62
     7
370
    25
100
AcDbLine
 10
17.699988
 20
228.6
 30
0.0
 11
17.699988
 21
-228.6
 31
0.0
  0
LINE
  5
1A4
330
17E
100
AcDbEntity
  8
0
  6
Continuous
 62
     7
370
    25
100
AcDbLine
 10
11.7
 20
228.6
 30
0.0
 11
17.699988
 21
228.6
 31
0.0
  0
LINE
  5
1A5
330
17E
100
AcDbEntity
  8
0
  6
Continuous
 62
     7
370
    25
100
AcDbLine
 10
17.699988
 20
-12.7
 30
0.0
 11
24.1951785284
 21
-12.7
 31
0.0
  0
LINE
  5
1A6
330
17E
100
AcDbEntity
  8
0
  6
Continuous
 62
     7
370
    25
100
AcDbLine
 10
17.699988
 20
12.7
 30
0.0
 11
24.1951785284
 21
12.7
 31
0.0
  0
VIEWPORT
  5
27F
330
17E
100
AcDbEntity
  8
0
100
AcDbViewport
 10
0.0
 20
0.0
 30
0.0
 40
205.6
 41
156.0
 68
     1
 69
     1
 12
0.0
 22
0.0
 13
0.0
 23
0.0
 14
10.0
 24
10.0
 15
10.0
 25
10.0
 16
0.0
 26
0.0
 36
1.0
 17
0.0
 27
0.0
 37
0.0
 42
50.0
 43
0.0
 44
0.0
 45
466.344
 50
0.0
 51
0.0
 72
   100
 90
   557152
  1

281
     0
 71
     1
 74
     0
110
0.0
120
0.0
130
0.0
111
1.0
121
0.0
131
0.0
112
0.0
122
1.0
132
0.0
 79
     0
146
0.0
  0
ENDBLK
  5
181
330
17E
100
AcDbEntity
  8
0
100
AcDbBlockEnd
  0
BLOCK
  5
1A9
330
1A7
100
AcDbEntity
  8
0
100
AcDbBlockBegin
  2
*Paper_Space2
 70
     0
 10
0.0
 20
0.0
 30
0.0
  3
*Paper_Space2
  1

  0
CIRCLE
  5
1CB
330
1A7
100
AcDbEntity
  8
0
  6
Continuous
 62
     7
370
    25
100
AcDbCircle
 10
38.735
 20
24.2038387824
 30
0.0
 40
3.543300000000006
  0
CIRCLE
  5
1CC
330
1A7
100
AcDbEntity
  8
0
  6
Continuous
 62
     7
370
    25
100
AcDbCircle
 10
-38.735
 20
24.2038387824
 30
0.0
 40
3.543300000000006
  0
CIRCLE
  5
1CD
330
1A7
100
AcDbEntity
  8
0
  6
Continuous
 62
     7
370
    25
100
AcDbCircle
 10
0.0
 20
91.2948268136
 30
0.0
 40
3.543300000000016
  0
CIRCLE
  5
1CE
330
1A7
100
AcDbEntity
  8
0
  6
Continuous
 62
     7
370
    25
100
AcDbCircle
 10
0.0
 20
46.5675014595
 30
0.0
 40
9.525000000000006
  0
LINE
  5
1E1
330
1A7
100
AcDbEntity
  8
0
  6
Continuous
 62
     7
370
    25
100
AcDbLine
 10
-69.85
 20
11.7
 30
0.0
 11
-69.85
 21
0.0
 31
0.0
  0
LINE
  5
1E2
330
1A7
100
AcDbEntity
  8
0
  6
Continuous
 62
     7
370
    25
100
AcDbLine
 10
69.85
 20
0.0
 30
0.0
 11
69.85
 21
11.7
 31
0.0
  0
LINE
  5
1E3
330
1A7
100
AcDbEntity
  8
0
  6
Continuous
 62
     7
370
    25
100
AcDbLine
 10
-69.85
 20
0.0
 30
0.0
 11
69.85
 21
0.0
 31
0.0
  0
LINE
  5
1E4
330
1A7
100
AcDbEntity
  8
0
  6
Continuous
 62
     7
370
    25
100
AcDbLine
 10
-69.85
 20
11.7
 30
0.0
 11
69.85
 21
11.7
 31
0.0
  0
LINE
  5
1E5
330
1A7
100
AcDbEntity
  8
0
  6
Continuous
 62
     7
370
    25
100
AcDbLine
 10
46.25
 20
24.1951785284
 30
0.0
 11
51.4461524227
 21
27.1951785284
 31
0.0
  0
LINE
  5
1E6
330
1A7
100
AcDbEntity
  8
0
  6
Continuous
 62
     7
370
    25
100
AcDbLine
 10
3.75
 20
97.8073378501
 30
0.0
 11
46.25
 21
24.1951785284
 31
0.0
  0
LINE
  5
1E7
330
1A7
100
AcDbEntity
  8
0
  6
Continuous
 62
     7
370
    25
100
AcDbLine
 10
8.9461524227
 20
100.8073378501
 30
0.0
 11
3.75
 21
97.8073378501
 31
0.0
  0
LINE
  5
1E8
330
1A7
100
AcDbEntity
  8
0
  6
Continuous
 62
     7
370
    25
100
AcDbLine
 10
51.4461524227
 20
27.1951785284
 30
0.0
 11
8.9461524227
 21
100.8073378501
 31
0.0
  0
LINE
  5
1E9
330
1A7
100
AcDbEntity
  8
0
  6
Continuous
 62
     7
370
    25
100
AcDbLine
 10
-51.4461524227
 20
27.1951785284
 30
0.0
 11
-46.25
 21
24.1951785284
 31
0.0
  0
LINE
  5
1EA
330
1A7
100
AcDbEntity
  8
0
  6
Continuous
 62
     7
370
    25
100
AcDbLine
 10
-46.25
 20
24.1951785284
 30
0.0
 11
-3.75
 21
97.8073378501
 31
0.0
  0
LINE
  5
1EB
330
1A7
100
AcDbEntity
  8
0
  6
Continuous
 62
     7
370
    25
100
AcDbLine
 10
-8.9461524227
 20
100.8073378501
 30
0.0
 11
-51.4461524227
 21
27.1951785284
 31
0.0
  0
LINE
  5
1EC
330
1A7
100
AcDbEntity
  8
0
  6
Continuous
 62
     7
370
    25
100
AcDbLine
 10
-3.75
 20
97.8073378501
 30
0.0
 11
-8.9461524227
 21
100.8073378501
 31
0.0
  0
LINE
  5
1ED
330
1A7
100
AcDbEntity
  8
0
  6
Continuous
 62
     7
370
    25
100
AcDbLine
 10
-42.5
 20
17.699988
 30
0.0
 11
-42.5
 21
11.7
 31
0.0
  0
LINE
  5
1EE
330
1A7
100
AcDbEntity
  8
0
  6
Continuous
 62
     7
370
    25
100
AcDbLine
 10
42.5
 20
11.7
 30
0.0
 11
42.5
 21
17.699988
 31
0.0
  0
LINE
  5
1EF
330
1A7
100
AcDbEntity
  8
0
  6
Continuous
 62
     7
370
    25
100
AcDbLine
 10
42.5
 20
17.699988
 30
0.0
 11
-42.5
 21
17.699988
 31
0.0
  0
LINE
  5
1F0
330
1A7
100
AcDbEntity
  8
0
  6
Continuous
 62
     7
370
    25
100
AcDbLine
 10
-2.0179491924
 20
94.8073378501
 30
0.0
 11
-42.7858983849
 21
24.1951785284
 31
0.0
  0
LINE
  5
1F1
330
1A7
100
AcDbEntity
  8
0
  6
Continuous
 62
     7
370
    25
100
AcDbLine
 10
-42.7858983849
 20
24.1951785284
 30
0.0
 11
-40.7679491924
 21
20.699988
 31
0.0
  0
LINE
  5
1F2
330
1A7
100
AcDbEntity
  8
0
  6
Continuous
 62
     7
370
    25
100
AcDbLine
 10
-40.7679491924
 20
20.699988
 30
0.0
 11
40.7679491924
 21
20.699988
 31
0.0
  0
LINE
  5
1F3
330
1A7
100
AcDbEntity
  8
0
  6
Continuous
 62
     7
370
    25
100
AcDbLine
 10
40.7679491924
 20
20.699988
 30
0.0
 11
42.7858983849
 21
24.1951785284
 31
0.0
  0
LINE
  5
1F4
330
1A7
100
AcDbEntity
  8
0
  6
Continuous
 62
     7
370
    25
100
AcDbLine
 10
42.7858983849
 20
24.1951785284
 30
0.0
 11
2.0179491924
 21
94.8073378501
 31
0.0
  0
LINE
  5
1F5
330
1A7
100
AcDbEntity
  8
0
  6
Continuous
 62
     7
370
    25
100
AcDbLine
 10
2.0179491924
 20
94.8073378501
 30
0.0
 11
-2.0179491924
 21
94.8073378501
 31
0.0
  0
LINE
  5
1F6
330
1A7
100
AcDbEntity
  8
0
  6
Continuous
 62
     7
370
    25
100
AcDbLine
 10
42.5
 20
17.699988
 30
0.0
 11
46.25
 21
24.1951785284
 31
0.0
  0
LINE
  5
1F7
330
1A7
100
AcDbEntity
  8
0
  6
Continuous
 62
     7
370
    25
100
AcDbLine
 10
-46.25
 20
24.1951785284
 30
0.0
 11
-42.5
 21
17.699988
 31
0.0
  0
LINE
  5
1F8
330
1A7
100
AcDbEntity
  8
0
  6
Continuous
 62
     7
370
    25
100
AcDbLine
 10
3.75
 20
97.8073378501
 30
0.0
 11
-3.75
 21
97.8073378501
 31
0.0
  0
LINE
  5
1F9
330
1A7
100
AcDbEntity
  8
0
  6
Continuous
 62
     7
370
    25
100
AcDbLine
 10
-2.8267949192
 20
96.0997578938
 30
0.0
 11
-44.3095898385
 21
24.2494494537
 31
0.0
  0
LINE
  5
1FA
330
1A7
100
AcDbEntity
  8
0
  6
Continuous
 62
     7
370
    25
100
AcDbLine
 10
2.8267949192
 20
96.0997578938
 30
0.0
 11
-2.8267949192
 21
96.0997578938
 31
0.0
  0
LINE
  5
1FB
330
1A7
100
AcDbEntity
  8
0
  6
Continuous
 62
     7
370
    25
100
AcDbLine
 10
44.3095898385
 20
24.2494494537
 30
0.0
 11
2.8267949192
 21
96.0997578938
 31
0.0
  0
LINE
  5
1FC
330
1A7
100
AcDbEntity
  8
0
  6
Continuous
 62
     7
370
    25
100
AcDbLine
 10
41.4827949192
 20
19.353297031
 30
0.0
 11
44.3095898385
 21
24.2494494537
 31
0.0
  0
LINE
  5
1FD
330
1A7
100
AcDbEntity
  8
0
  6
Continuous
 62
     7
370
    25
100
AcDbLine
 10
-41.4827949192
 20
19.353297031
 30
0.0
 11
41.4827949192
 21
19.353297031
 31
0.0
  0
LINE
  5
1FE
330
1A7
100
AcDbEntity
  8
0
  6
Continuous
 62
     7
370
    25
100
AcDbLine
 10
-44.3095898385
 20
24.2494494537
 30
0.0
 11
-41.4827949192
 21
19.353297031
 31
0.0
  0
LINE
  5
1FF
330
1A7
100
AcDbEntity
  8
0
  6
Continuous
 62
     7
370
    25
100
AcDbLine
 10
36.7241472128
 20
21.5527895885
 30
0.0
 11
40.025449555
 21
27.2708129763
 31
0.0
  0
LINE
  5
200
330
1A7
100
AcDbEntity
  8
0
  6
Continuous
 62
     7
370
    25
100
AcDbLine
 10
40.7458527872
 20
26.8548879763
 30
0.0
 11
37.444550445
 21
21.1368645885
 31
0.0
  0
LINE
  5
201
330
1A7
100
AcDbEntity
  8
0
  6
Continuous
 62
     7
370
    25
100
AcDbLine
 10
-3.3013023422
 20
91.7107518136
 30
0.0
 11
3.3013023422
 21
91.7107518136
 31
0.0
  0
LINE
  5
202
330
1A7
100
AcDbEntity
  8
0
  6
Continuous
 62
     7
370
    25
100
AcDbLine
 10
3.3013023422
 20
90.8789018136
 30
0.0
 11
-3.3013023422
 21
90.8789018136
 31
0.0
  0
LINE
  5
203
330
1A7
100
AcDbEntity
  8
0
  6
Continuous
 62
     7
370
    25
100
AcDbLine
 10
-40.025449555
 20
27.2708129763
 30
0.0
 11
-36.7241472128
 21
21.5527895885
 31
0.0
  0
LINE
  5
204
330
1A7
100
AcDbEntity
  8
0
  6
Continuous
 62
     7
370
    25
100
AcDbLine
 10
-37.444550445
 20
21.1368645885
 30
0.0
 11
-40.7458527872
 21
26.8548879763
 31
0.0
  0
ARC
  5
205
330
1A7
100
AcDbEntity
  8
0
  6
Continuous
 62
     7
370
    25
100
AcDbCircle
 10
38.735
 20
24.2038387824
 30
0.0
 40
3.327400000000007
100
AcDbArc
 50
67.1807557815
 51
232.8192442185
  0
ARC
  5
206
330
1A7
100
AcDbEntity
  8
0
  6
Continuous
 62
     7
370
    25
100
AcDbCircle
 10
38.735
 20
24.2038387824
 30
0.0
 40
3.327400000000002
100
AcDbArc
 50
247.1807557815
 51
52.8192442185
  0
ARC
  5
207
330
1A7
100
AcDbEntity
  8
0
  6
Continuous
 62
     7
370
    25
100
AcDbCircle
 10
38.735
 20
24.2038387824
 30
0.0
 40
2.411084849667952
100
AcDbArc
 50
230.0664834035
 51
249.9335165965
  0
ARC
  5
208
330
1A7
100
AcDbEntity
  8
0
  6
Continuous
 62
     7
370
    25
100
AcDbCircle
 10
38.735
 20
24.2038387824
 30
0.0
 40
2.411084849667933
100
AcDbArc
 50
50.0664834035
 51
69.9335165965
  0
ARC
  5
209
330
1A7
100
AcDbEntity
  8
0
  6
Continuous
 62
     7
370
    25
100
AcDbCircle
 10
0.0
 20
91.2948268136
 30
0.0
 40
3.327399999999997
100
AcDbArc
 50
7.1807557815
 51
172.8192442185
  0
ARC
  5
20A
330
1A7
100
AcDbEntity
  8
0
  6
Continuous
 62
     7
370
    25
100
AcDbCircle
 10
0.0
 20
91.2948268136
 30
0.0
 40
3.327400000000002
100
AcDbArc
 50
187.1807557815
 51
352.8192442185
  0
ARC
  5
20B
330
1A7
100
AcDbEntity
  8
0
  6
Continuous
 62
     7
370
    25
100
AcDbCircle
 10
0.0
 20
91.2948268136
 30
0.0
 40
2.411084849667942
100
AcDbArc
 50
350.0664834035
 51
9.9335165965
  0
ARC
  5
20C
330
1A7
100
AcDbEntity
  8
0
  6
Continuous
 62
     7
370
    25
100
AcDbCircle
 10
0.0
 20
91.2948268136
 30
0.0
 40
2.411084849667905
100
AcDbArc
 50
170.0664834035
 51
189.9335165965
  0
ARC
  5
20D
330
1A7
100
AcDbEntity
  8
0
  6
Continuous
 62
     7
370
    25
100
AcDbCircle
 10
-38.735
 20
24.2038387824
 30
0.0
 40
3.327400000000002
100
AcDbArc
 50
307.1807557815
 51
112.8192442185
  0
ARC
  5
20E
330
1A7
100
AcDbEntity
  8
0
  6
Continuous
 62
     7
370
    25
100
AcDbCircle
 10
-38.735
 20
24.2038387824
 30
0.0
 40
3.327400000000003
100
AcDbArc
 50
127.1807557815
 51
292.8192442185
  0
ARC
  5
20F
330
1A7
100
AcDbEntity
  8
0
  6
Continuous
 62
     7
370
    25
100
AcDbCircle
 10
-38.735
 20
24.2038387824
 30
0.0
 40
2.411084849668077
100
AcDbArc
 50
110.0664834035
 51
129.9335165965
  0
ARC
  5
210
330
1A7
100
AcDbEntity
  8
0
  6
Continuous
 62
     7
370
    25
100
AcDbCircle
 10
-38.735
 20
24.2038387824
 30
0.0
 40
2.411084849668136
100
AcDbArc
 50
290.0664834035
 51
309.9335165965
  0
VIEWPORT
  5
281
330
1A7
100
AcDbEntity
  8
0
100
AcDbViewport
 10
0.0
 20
0.0
 30
0.0
 40
205.6
 41
156.0
 68
     1
 69
     1
 12
0.0
 22
0.0
 13
0.0
 23
0.0
 14
10.0
 24
10.0
 15
10.0
 25
10.0
 16
0.0
 26
0.0
 36
1.0
 17
0.0
 27
0.0
 37
0.0
 42
50.0
 43
0.0
 44
0.0
 45
466.344
 50
0.0
 51
0.0
 72
   100
 90
   557152
  1

281
     0
 71
     1
 74
     0
110
0.0
120
0.0
130
0.0
111
1.0
121
0.0
131
0.0
112
0.0
122
1.0
132
0.0
 79
     0
146
0.0
  0
ENDBLK
  5
1AA
330
1A7
100
AcDbEntity
  8
0
100
AcDbBlockEnd
  0
BLOCK
  5
213
330
211
100
AcDbEntity
  8
0
100
AcDbBlockBegin
  2
*Paper_Space3
 70
     0
 10
0.0
 20
0.0
 30
0.0
  3
*Paper_Space3
  1

  0
CIRCLE
  5
234
330
211
100
AcDbEntity
  8
0
  6
Continuous
 62
     7
370
    25
100
AcDbCircle
 10
-38.735
 20
-24.2038387824
 30
0.0
 40
3.543300000000006
  0
CIRCLE
  5
235
330
211
100
AcDbEntity
  8
0
  6
Continuous
 62
     7
370
    25
100
AcDbCircle
 10
38.735
 20
-24.2038387824
 30
0.0
 40
3.543299999999999
  0
CIRCLE
  5
236
330
211
100
AcDbEntity
  8
0
  6
Continuous
 62
     7
370
    25
100
AcDbCircle
 10
0.0
 20
-91.2948268136
 30
0.0
 40
3.543299999999988
  0
CIRCLE
  5
237
330
211
100
AcDbEntity
  8
0
  6
Continuous
 62
     7
370
    25
100
AcDbCircle
 10
0.0
 20
-46.5675014595
 30
0.0
 40
9.524999999999984
  0
LINE
  5
24B
330
211
100
AcDbEntity
  8
0
  6
Continuous
 62
     7
370
    25
100
AcDbLine
 10
69.85
 20
-11.7
 30
0.0
 11
69.85
 21
0.0
 31
0.0
  0
LINE
  5
24C
330
211
100
AcDbEntity
  8
0
  6
Continuous
 62
     7
370
    25
100
AcDbLine
 10
-69.85
 20
0.0
 30
0.0
 11
-69.85
 21
-11.7
 31
0.0
  0
LINE
  5
24D
330
211
100
AcDbEntity
  8
0
  6
Continuous
 62
     7
370
    25
100
AcDbLine
 10
69.85
 20
0.0
 30
0.0
 11
-69.85
 21
0.0
 31
0.0
  0
LINE
  5
24E
330
211
100
AcDbEntity
  8
0
  6
Continuous
 62
     7
370
    25
100
AcDbLine
 10
-69.85
 20
-11.7
 30
0.0
 11
69.85
 21
-11.7
 31
0.0
  0
LINE
  5
24F
330
211
100
AcDbEntity
  8
0
  6
Continuous
 62
     7
370
    25
100
AcDbLine
 10
46.25
 20
-24.1951785284
 30
0.0
 11
51.4461524227
 21
-27.1951785284
 31
0.0
  0
LINE
  5
250
330
211
100
AcDbEntity
  8
0
  6
Continuous
 62
     7
370
    25
100
AcDbLine
 10
3.75
 20
-97.8073378501
 30
0.0
 11
46.25
 21
-24.1951785284
 31
0.0
  0
LINE
  5
251
330
211
100
AcDbEntity
  8
0
  6
Continuous
 62
     7
370
    25
100
AcDbLine
 10
8.9461524227
 20
-100.8073378501
 30
0.0
 11
3.75
 21
-97.8073378501
 31
0.0
  0
LINE
  5
252
330
211
100
AcDbEntity
  8
0
  6
Continuous
 62
     7
370
    25
100
AcDbLine
 10
51.4461524227
 20
-27.1951785284
 30
0.0
 11
8.9461524227
 21
-100.8073378501
 31
0.0
  0
LINE
  5
253
330
211
100
AcDbEntity
  8
0
  6
Continuous
 62
     7
370
    25
100
AcDbLine
 10
-51.4461524227
 20
-27.1951785284
 30
0.0
 11
-46.25
 21
-24.1951785284
 31
0.0
  0
LINE
  5
254
330
211
100
AcDbEntity
  8
0
  6
Continuous
 62
     7
370
    25
100
AcDbLine
 10
-46.25
 20
-24.1951785284
 30
0.0
 11
-3.75
 21
-97.8073378501
 31
0.0
  0
LINE
  5
255
330
211
100
AcDbEntity
  8
0
  6
Continuous
 62
     7
370
    25
100
AcDbLine
 10
-3.75
 20
-97.8073378501
 30
0.0
 11
-8.9461524227
 21
-100.8073378501
 31
0.0
  0
LINE
  5
256
330
211
100
AcDbEntity
  8
0
  6
Continuous
 62
     7
370
    25
100
AcDbLine
 10
-8.9461524227
 20
-100.8073378501
 30
0.0
 11
-51.4461524227
 21
-27.1951785284
 31
0.0
  0
LINE
  5
257
330
211
100
AcDbEntity
  8
0
  6
Continuous
 62
     7
370
    25
100
AcDbLine
 10
42.5
 20
-11.7
 30
0.0
 11
42.5
 21
-17.699988
 31
0.0
  0
LINE
  5
258
330
211
100
AcDbEntity
  8
0
  6
Continuous
 62
     7
370
    25
100
AcDbLine
 10
42.5
 20
-17.699988
 30
0.0
 11
-42.5
 21
-17.699988
 31
0.0
  0
LINE
  5
259
330
211
100
AcDbEntity
  8
0
  6
Continuous
 62
     7
370
    25
100
AcDbLine
 10
-42.5
 20
-17.699988
 30
0.0
 11
-42.5
 21
-11.7
 31
0.0
  0
LINE
  5
25A
330
211
100
AcDbEntity
  8
0
  6
Continuous
 62
     7
370
    25
100
AcDbLine
 10
40.7679491924
 20
-20.699988
 30
0.0
 11
42.7858983849
 21
-24.1951785284
 31
0.0
  0
LINE
  5
25B
330
211
100
AcDbEntity
  8
0
  6
Continuous
 62
     7
370
    25
100
AcDbLine
 10
-40.7679491924
 20
-20.699988
 30
0.0
 11
40.7679491924
 21
-20.699988
 31
0.0
  0
LINE
  5
25C
330
211
100
AcDbEntity
  8
0
  6
Continuous
 62
     7
370
    25
100
AcDbLine
 10
-42.7858983849
 20
-24.1951785284
 30
0.0
 11
-40.7679491924
 21
-20.699988
 31
0.0
  0
LINE
  5
25D
330
211
100
AcDbEntity
  8
0
  6
Continuous
 62
     7
370
    25
100
AcDbLine
 10
-2.0179491924
 20
-94.8073378501
 30
0.0
 11
-42.7858983849
 21
-24.1951785284
 31
0.0
  0
LINE
  5
25E
330
211
100
AcDbEntity
  8
0
  6
Continuous
 62
     7
370
    25
100
AcDbLine
 10
2.0179491924
 20
-94.8073378501
 30
0.0
 11
-2.0179491924
 21
-94.8073378501
 31
0.0
  0
LINE
  5
25F
330
211
100
AcDbEntity
  8
0
  6
Continuous
 62
     7
370
    25
100
AcDbLine
 10
42.7858983849
 20
-24.1951785284
 30
0.0
 11
2.0179491924
 21
-94.8073378501
 31
0.0
  0
LINE
  5
260
330
211
100
AcDbEntity
  8
0
  6
Continuous
 62
     7
370
    25
100
AcDbLine
 10
-46.25
 20
-24.1951785284
 30
0.0
 11
-42.5
 21
-17.699988
 31
0.0
  0
LINE
  5
261
330
211
100
AcDbEntity
  8
0
  6
Continuous
 62
     7
370
    25
100
AcDbLine
 10
42.5
 20
-17.699988
 30
0.0
 11
46.25
 21
-24.1951785284
 31
0.0
  0
LINE
  5
262
330
211
100
AcDbEntity
  8
0
  6
Continuous
 62
     7
370
    25
100
AcDbLine
 10
3.75
 20
-97.8073378501
 30
0.0
 11
-3.75
 21
-97.8073378501
 31
0.0
  0
LINE
  5
263
330
211
100
AcDbEntity
  8
0
  6
Continuous
 62
     7
370
    25
100
AcDbLine
 10
2.8267949192
 20
-96.0997578938
 30
0.0
 11
44.3095898385
 21
-24.2494494537
 31
0.0
  0
LINE
  5
264
330
211
100
AcDbEntity
  8
0
  6
Continuous
 62
     7
370
    25
100
AcDbLine
 10
-2.8267949192
 20
-96.0997578938
 30
0.0
 11
2.8267949192
 21
-96.0997578938
 31
0.0
  0
LINE
  5
265
330
211
100
AcDbEntity
  8
0
  6
Continuous
 62
     7
370
    25
100
AcDbLine
 10
-41.4827949192
 20
-19.353297031
 30
0.0
 11
-44.3095898385
 21
-24.2494494537
 31
0.0
  0
LINE
  5
266
330
211
100
AcDbEntity
  8
0
  6
Continuous
 62
     7
370
    25
100
AcDbLine
 10
41.4827949192
 20
-19.353297031
 30
0.0
 11
-41.4827949192
 21
-19.353297031
 31
0.0
  0
LINE
  5
267
330
211
100
AcDbEntity
  8
0
  6
Continuous
 62
     7
370
    25
100
AcDbLine
 10
44.3095898385
 20
-24.2494494537
 30
0.0
 11
41.4827949192
 21
-19.353297031
 31
0.0
  0
LINE
  5
268
330
211
100
AcDbEntity
  8
0
  6
Continuous
 62
     7
370
    25
100
AcDbLine
 10
-44.3095898385
 20
-24.2494494537
 30
0.0
 11
-2.8267949192
 21
-96.0997578938
 31
0.0
  0
LINE
  5
269
330
211
100
AcDbEntity
  8
0
  6
Continuous
 62
     7
370
    25
100
AcDbLine
 10
-36.7241472128
 20
-21.5527895885
 30
0.0
 11
-40.025449555
 21
-27.2708129763
 31
0.0
  0
LINE
  5
26A
330
211
100
AcDbEntity
  8
0
  6
Continuous
 62
     7
370
    25
100
AcDbLine
 10
-40.7458527872
 20
-26.8548879763
 30
0.0
 11
-37.444550445
 21
-21.1368645885
 31
0.0
  0
LINE
  5
26B
330
211
100
AcDbEntity
  8
0
  6
Continuous
 62
     7
370
    25
100
AcDbLine
 10
40.025449555
 20
-27.2708129763
 30
0.0
 11
36.7241472128
 21
-21.5527895885
 31
0.0
  0
LINE
  5
26C
330
211
100
AcDbEntity
  8
0
  6
Continuous
 62
     7
370
    25
100
AcDbLine
 10
37.444550445
 20
-21.1368645885
 30
0.0
 11
40.7458527872
 21
-26.8548879763
 31
0.0
  0
LINE
  5
26D
330
211
100
AcDbEntity
  8
0
  6
Continuous
 62
     7
370
    25
100
AcDbLine
 10
3.3013023422
 20
-91.7107518136
 30
0.0
 11
-3.3013023422
 21
-91.7107518136
 31
0.0
  0
LINE
  5
26E
330
211
100
AcDbEntity
  8
0
  6
Continuous
 62
     7
370
    25
100
AcDbLine
 10
-3.3013023422
 20
-90.8789018136
 30
0.0
 11
3.3013023422
 21
-90.8789018136
 31
0.0
  0
ARC
  5
26F
330
211
100
AcDbEntity
  8
0
  6
Continuous
 62
     7
370
    25
100
AcDbCircle
 10
-38.735
 20
-24.2038387824
 30
0.0
 40
3.327400000000006
100
AcDbArc
 50
247.1807557815
 51
52.8192442185
  0
ARC
  5
270
330
211
100
AcDbEntity
  8
0
  6
Continuous
 62
     7
370
    25
100
AcDbCircle
 10
-38.735
 20
-24.2038387824
 30
0.0
 40
3.3274
100
AcDbArc
 50
67.1807557815
 51
232.8192442185
  0
ARC
  5
271
330
211
100
AcDbEntity
  8
0
  6
Continuous
 62
     7
370
    25
100
AcDbCircle
 10
-38.735
 20
-24.2038387824
 30
0.0
 40
2.411084849668063
100
AcDbArc
 50
230.0664834035
 51
249.9335165965
  0
ARC
  5
272
330
211
100
AcDbEntity
  8
0
  6
Continuous
 62
     7
370
    25
100
AcDbCircle
 10
-38.735
 20
-24.2038387824
 30
0.0
 40
2.411084849667876
100
AcDbArc
 50
50.0664834035
 51
69.9335165965
  0
ARC
  5
273
330
211
100
AcDbEntity
  8
0
  6
Continuous
 62
     7
370
    25
100
AcDbCircle
 10
38.735
 20
-24.2038387824
 30
0.0
 40
3.327400000000007
100
AcDbArc
 50
127.1807557815
 51
292.8192442185
  0
ARC
  5
274
330
211
100
AcDbEntity
  8
0
  6
Continuous
 62
     7
370
    25
100
AcDbCircle
 10
38.735
 20
-24.2038387824
 30
0.0
 40
3.327400000000007
100
AcDbArc
 50
307.1807557815
 51
112.8192442185
  0
ARC
  5
275
330
211
100
AcDbEntity
  8
0
  6
Continuous
 62
     7
370
    25
100
AcDbCircle
 10
38.735
 20
-24.2038387824
 30
0.0
 40
2.411084849667865
100
AcDbArc
 50
110.0664834035
 51
129.9335165965
  0
ARC
  5
276
330
211
100
AcDbEntity
  8
0
  6
Continuous
 62
     7
370
    25
100
AcDbCircle
 10
38.735
 20
-24.2038387824
 30
0.0
 40
2.411084849667867
100
AcDbArc
 50
290.0664834035
 51
309.9335165965
  0
ARC
  5
277
330
211
100
AcDbEntity
  8
0
  6
Continuous
 62
     7
370
    25
100
AcDbCircle
 10
0.0
 20
-91.2948268136
 30
0.0
 40
3.3274
100
AcDbArc
 50
187.1807557815
 51
352.8192442185
  0
ARC
  5
278
330
211
100
AcDbEntity
  8
0
  6
Continuous
 62
     7
370
    25
100
AcDbCircle
 10
0.0
 20
-91.2948268136
 30
0.0
 40
3.327400000000003
100
AcDbArc
 50
7.1807557815
 51
172.8192442185
  0
ARC
  5
279
330
211
100
AcDbEntity
  8
0
  6
Continuous
 62
     7
370
    25
100
AcDbCircle
 10
0.0
 20
-91.2948268136
 30
0.0
 40
2.411084849667995
100
AcDbArc
 50
350.0664834035
 51
9.9335165965
  0
ARC
  5
27A
330
211
100
AcDbEntity
  8
0
  6
Continuous
 62
     7
370
    25
100
AcDbCircle
 10
0.0
 20
-91.2948268136
 30
0.0
 40
2.411084849667994
100
AcDbArc
 50
170.0664834035
 51
189.9335165965
  0
VIEWPORT
  5
283
330
211
100
AcDbEntity
  8
0
100
AcDbViewport
 10
0.0
 20
0.0
 30
0.0
 40
205.6
 41
156.0
 68
     1
 69
     1
 12
0.0
 22
0.0
 13
0.0
 23
0.0
 14
10.0
 24
10.0
 15
10.0
 25
10.0
 16
0.0
 26
0.0
 36
1.0
 17
0.0
 27
0.0
 37
0.0
 42
50.0
 43
0.0
 44
0.0
 45
466.344
 50
0.0
 51
0.0
 72
   100
 90
   557152
  1

281
     0
 71
     1
 74
     0
110
0.0
120
0.0
130
0.0
111
1.0
121
0.0
131
0.0
112
0.0
122
1.0
132
0.0
 79
     0
146
0.0
  0
ENDBLK
  5
214
330
211
100
AcDbEntity
  8
0
100
AcDbBlockEnd
  0
ENDSEC
  0
SECTION
  2
ENTITIES
  0
CIRCLE
  5
63
330
1F
100
AcDbEntity
  8
0
  6
Continuous
 62
     7
370
    25
100
AcDbCircle
 10
0.0
 20
0.0
 30
0.0
 40
20.00000000000001
  0
CIRCLE
  5
A3
330
1F
100
AcDbEntity
  8
0
  6
Continuous
 62
     7
370
    25
100
AcDbCircle
 10
0.0
 20
26.430625
 30
0.0
 40
1.727199999999997
  0
SPLINE
  5
A5
330
1F
100
AcDbEntity
  8
0
  6
Continuous
 62
     7
370
    25
100
AcDbSpline
210
0.0
220
0.0
230
1.0
 70
     8
 71
     3
 72
    43
 73
    39
 74
     0
 42
0.00000001
 43
0.00000001
 40
0.0
 40
0.0
 40
0.0
 40
0.0
 40
0.0276636134257956
 40
0.0566518535019082
 40
0.086845019054227
 40
0.1181226965302179
 40
0.1503639694216036
 40
0.1834475750348316
 40
0.2172520265261747
 40
0.2516557120939749
 40
0.2865369795691388
 40
0.3217742124200841
 40
0.3572459018625236
 40
0.3928307190417443
 40
0.4284075909744621
 40
0.4638557840232544
 40
0.4990549991151164
 40
0.5338854837463185
 40
0.5682281671366398
 40
0.6019648268800545
 40
0.6349782983680743
 40
0.6671527425857628
 40
0.6983739943175362
 40
0.7285300225114884
 40
0.7575115494430258
 40
0.7852128985730848
 40
0.811533178016965
 40
0.8363779666437929
 40
0.8596617692364155
 40
0.8813116740599606
 40
0.9012729283234202
 40
0.9195176179125587
 40
0.9360583785754927
 40
0.9509700222012358
 40
0.9644223432250566
 40
0.9767239429305654
 40
0.9883623877301063
 40
1.0
 40
1.0
 40
1.0
 40
1.0
 10
23.18599424086564
 20
-48.46446609406717
 30
0.0
 10
23.05961414612493
 20
-48.47164206940563
 30
0.0
 10
22.80080245357386
 20
-48.48633762986447
 30
0.0
 10
22.40383843571091
 20
-48.50474166897062
 30
0.0
 10
21.99026430758096
 20
-48.52171937492136
 30
0.0
 10
21.56173697721591
 20
-48.53724209458294
 30
0.0
 10
21.11994240698258
 20
-48.55176747375775
 30
0.0
 10
20.66655880988334
 20
-48.56561626737348
 30
0.0
 10
20.20326689413755
 20
-48.57914827969995
 30
0.0
 10
19.73174687043133
 20
-48.59271261594047
 30
0.0
 10
19.2536792053955
 20
-48.60666128021253
 30
0.0
 10
18.77074435145618
 20
-48.62134513489832
 30
0.0
 10
18.28462277103612
 20
-48.63711471362981
 30
0.0
 10
17.79699488444819
 20
-48.65431963482951
 30
0.0
 10
17.30954103830875
 20
-48.67330829645572
 30
0.0
 10
16.82394146333203
 20
-48.69442734894752
 30
0.0
 10
16.34187622490204
 20
-48.71802103059248
 30
0.0
 10
15.86502515927909
 20
-48.74443027856846
 30
0.0
 10
15.39506778902408
 20
-48.77399156109425
 30
0.0
 10
14.933683207582
 20
-48.80703535130786
 30
0.0
 10
14.48254991842345
 20
-48.84388415225342
 30
0.0
 10
14.04334560684738
 20
-48.88484996648015
 30
0.0
 10
13.61774681027498
 20
-48.9302310896167
 30
0.0
 10
13.20742843592027
 20
-48.98030809513142
 30
0.0
 10
12.8140630374619
 20
-49.03533887407842
 30
0.0
 10
12.43931973675894
 20
-49.09555259960532
 30
0.0
 10
12.08486251300588
 20
-49.16114254535618
 30
0.0
 10
11.75234774645355
 20
-49.23225774157626
 30
0.0
 10
11.44341972067784
 20
-49.30899390077453
 30
0.0
 10
11.1597059754602
 20
-49.39138393598267
 30
0.0
 10
10.90280291697166
 20
-49.4793917750854
 30
0.0
 10
10.67428129197505
 20
-49.57290800755617
 30
0.0
 10
10.47562106784157
 20
-49.67177376709496
 30
0.0
 10
10.30841221933889
 20
-49.77578120554868
 30
0.0
 10
10.17389040585478
 20
-49.88483260826103
 30
0.0
 10
10.07518473770515
 20
-49.99850307947377
 30
0.0
 10
10.01147268923035
 20
-50.11675091692356
 30
0.0
 10
10.00382413855325
 20
-50.19373992156857
 30
0.0
 10
9.999999999999995
 20
-50.23223304703353
 30
0.0
  0
SPLINE
  5
A7
330
1F
100
AcDbEntity
  8
0
  6
Continuous
 62
     7
370
    25
100
AcDbSpline
210
0.0
220
0.0
230
1.0
 70
     8
 71
     3
 72
    82
 73
    78
 74
     0
 42
0.00000001
 43
0.00000001
 40
0.0
 40
0.0
 40
0.0
 40
0.0
 40
0.00564459967295
 40
0.0112003624039718
 40
0.0167504112909776
 40
0.0223731524271719
 40
0.0281392826043755
 40
0.0341099225702572
 40
0.0403359647279028
 40
0.0468583963422772
 40
0.0537092290762842
 40
0.060912697880512
 40
0.0684864948863062
 40
0.0764429073266887
 40
0.0847898037750389
 40
0.0935314579848265
 40
0.1026692222099821
 40
0.1122020707673755
 40
0.1221270361734751
 40
0.1324395583884232
 40
0.143133764688371
 40
0.1542026945220854
 40
0.1656384808466337
 40
0.1774324970274755
 40
0.1895754764357213
 40
0.2020576103272174
 40
0.214868628375738
 40
0.2279978652892448
 40
0.2414343162062309
 40
0.2551666830013096
 40
0.2691834131880495
 40
0.283472732763419
 40
0.2980226740695892
 40
0.312821099538119
 40
0.3278557220154585
 40
0.3431141222372682
 40
0.358583763914564
 40
0.3742520068112012
 40
0.3901061181252665
 40
0.4061332824329631
 40
0.4223206104098849
 40
0.4386551465090843
 40
0.4551238757463379
 40
0.4717137297192928
 40
0.4884115919676515
 40
0.5052043027654576
 40
0.5220786634232326
 40
0.5390214401666739
 40
0.5560193676494589
 40
0.5730591521500791
 40
0.5901274744963004
 40
0.607210992755589
 40
0.6242963447255102
 40
0.6413701502545536
 40
0.6584190134209529
 40
0.6754295245947992
 40
0.6923882624069909
 40
0.7092817956473224
 40
0.7260966851132198
 40
0.7428194854303187
 40
0.7594367468661971
 40
0.775935017159215
 40
0.7923008433855301
 40
0.8085207738891118
 40
0.8245813603019484
 40
0.840469159684847
 40
0.8561707368233439
 40
0.8716726667185282
 40
0.8869615373192873
 40
0.9020239525509612
 40
0.9168465357061203
 40
0.9314159332767856
 40
0.9457188193246876
 40
0.9597419005082688
 40
0.9734719219134988
 40
0.9868956738722757
 40
0.9999999999999999
 40
0.9999999999999999
 40
0.9999999999999999
 40
0.9999999999999999
 10
-10.00000000000001
 20
-50.23223304703353
 30
0.0
 10
-10.00087862195839
 20
-50.21379044062882
 30
0.0
 10
-10.00262203777529
 20
-50.17719548485252
 30
0.0
 10
-10.01701282320329
 20
-50.12122991635466
 30
0.0
 10
-10.03985008808475
 20
-50.06568840054474
 30
0.0
 10
-10.0717277004314
 20
-50.01059655500141
 30
0.0
 10
-10.1121968157275
 20
-49.95614588466959
 30
0.0
 10
-10.1610926926962
 20
-49.90244601820581
 30
0.0
 10
-10.21818438716508
 20
-49.84959755215868
 30
0.0
 10
-10.28327452120753
 20
-49.79767992475426
 30
0.0
 10
-10.35616914077204
 20
-49.74676178291829
 30
0.0
 10
-10.4366823422559
 20
-49.69690261989157
 30
0.0
 10
-10.52463121274248
 20
-49.64815477927014
 30
0.0
 10
-10.61983453978389
 20
-49.60056401307703
 30
0.0
 10
-10.72211145540113
 20
-49.5541697956352
 30
0.0
 10
-10.83128087107065
 20
-49.509005470767
 30
0.0
 10
-10.94716118453932
 20
-49.465098419729
 30
0.0
 10
-11.06957019943119
 20
-49.42247027562749
 30
0.0
 10
-11.19832513768719
 20
-49.3811371918332
 30
0.0
 10
-11.33324269772569
 20
-49.34111015065085
 30
0.0
 10
-11.4741391266828
 20
-49.30239529721158
 30
0.0
 10
-11.62083029258183
 20
-49.26499428468364
 30
0.0
 10
-11.77313174968878
 20
-49.22890462005685
 30
0.0
 10
-11.93085879485106
 20
-49.19412000269561
 30
0.0
 10
-12.09382651468198
 20
-49.16063065034479
 30
0.0
 10
-12.26184982441659
 20
-49.12842360917178
 30
0.0
 10
-12.43474349958952
 20
-49.09748304582784
 30
0.0
 10
-12.61232220171739
 20
-49.06779052051154
 30
0.0
 10
-12.79440049906522
 20
-49.03932524072049
 30
0.0
 10
-12.98079288342647
 20
-49.01206429586254
 30
0.0
 10
-13.17131378369137
 20
-48.9859828732282
 30
0.0
 10
-13.36577757683643
 20
-48.96105445604365
 30
0.0
 10
-13.5639985968459
 20
-48.93725100446494
 30
0.0
 10
-13.76579114197444
 20
-48.91454312045546
 30
0.0
 10
-13.97096948067805
 20
-48.89290019753513
 30
0.0
 10
-14.17934785647319
 20
-48.87229055640098
 30
0.0
 10
-14.39074049193198
 20
-48.85268156741739
 30
0.0
 10
-14.60496159197848
 20
-48.83403976095125
 30
0.0
 10
-14.82182534661834
 20
-48.81633092649846
 30
0.0
 10
-15.04114593320747
 20
-48.79952020151152
 30
0.0
 10
-15.26273751834442
 20
-48.78357215079379
 30
0.0
 10
-15.48641425945501
 20
-48.76845083728372
 30
0.0
 10
-15.71199030612391
 20
-48.75411988500197
 30
0.0
 10
-15.93927980121827
 20
-48.74054253488943
 30
0.0
 10
-16.16809688183931
 20
-48.7276816942144
 30
0.0
 10
-16.39825568013186
 20
-48.71549998018009
 30
0.0
 10
-16.62957032397572
 20
-48.70395975831754
 30
0.0
 10
-16.86185493757929
 20
-48.69302317620372
 30
0.0
 10
-17.0949236419917
 20
-48.68265219300062
 30
0.0
 10
-17.32859055554724
 20
-48.67280860527033
 30
0.0
 10
-17.56266979425398
 20
-48.66345406948092
 30
0.0
 10
-17.79697547213566
 20
-48.65455012158022
 30
0.0
 10
-18.03132170153604
 20
-48.64605819398077
 30
0.0
 10
-18.26552259339202
 20
-48.63793963026459
 30
0.0
 10
-18.49939225748266
 20
-48.63015569788807
 30
0.0
 10
-18.73274480265905
 20
-48.62266759913823
 30
0.0
 10
-18.96539433706085
 20
-48.61543648056701
 30
0.0
 10
-19.1971549683239
 20
-48.60842344110821
 30
0.0
 10
-19.42784080378402
 20
-48.60158953906097
 30
0.0
 10
-19.65726595068162
 20
-48.59489579810772
 30
0.0
 10
-19.88524451637237
 20
-48.58830321251893
 30
0.0
 10
-20.11159060854934
 20
-48.58177275168946
 30
0.0
 10
-20.33611833548234
 20
-48.57526536412892
 30
0.0
 10
-20.55864180628372
 20
-48.56874198107242
 30
0.0
 10
-20.77897513120067
 20
-48.56216351969462
 30
0.0
 10
-20.99693242197509
 20
-48.5554908865744
 30
0.0
 10
-21.21232779216929
 20
-48.54868497962049
 30
0.0
 10
-21.42497535789165
 20
-48.54170669563338
 30
0.0
 10
-21.6346892374076
 20
-48.5345169178644
 30
0.0
 10
-21.84128355526927
 20
-48.52707657801808
 30
0.0
 10
-22.04457243052008
 20
-48.51934644867097
 30
0.0
 10
-22.24437002363499
 20
-48.51128792075697
 30
0.0
 10
-22.4404903707735
 20
-48.50286020248896
 30
0.0
 10
-22.63274799127379
 20
-48.49403051355121
 30
0.0
 10
-22.82095569520782
 20
-48.48473720343142
 30
0.0
 10
-23.0049325164581
 20
-48.47502308622428
 30
0.0
 10
-23.12612676794981
 20
-48.46795672934143
 30
0.0
 10
-23.18599424086565
 20
-48.46446609406717
 30
0.0
  0
CIRCLE
  5
BF
330
1F
100
AcDbEntity
  8
0
  6
Continuous
 62
     7
370
    25
100
AcDbCircle
 10
0.0
 20
0.0
 30
0.0
 40
69.85000000000004
  0
LINE
  5
D6
330
1F
100
AcDbEntity
  8
0
  6
Continuous
 62
     7
370
    25
100
AcDbLine
 10
48.5
 20
-21.9943174479
 30
0.0
 11
48.5
 21
21.9943174479
 31
0.0
  0
LINE
  5
D7
330
1F
100
AcDbEntity
  8
0
  6
Continuous
 62
     7
370
    25
100
AcDbLine
 10
-23.1859942409
 20
-48.4644660941
 30
0.0
 11
23.1859942409
 21
-48.4644660941
 31
0.0
  0
LINE
  5
D8
330
1F
100
AcDbEntity
  8
0
  6
Continuous
 62
     7
370
    25
100
AcDbLine
 10
-48.5
 20
21.9943174479
 30
0.0
 11
-48.5
 21
-21.9943174479
 31
0.0
  0
LINE
  5
D9
330
1F
100
AcDbEntity
  8
0
  6
Continuous
 62
     7
370
    25
100
AcDbLine
 10
44.7675
 20
2.38125
 30
0.0
 11
35.2425
 21
2.38125
 31
0.0
  0
LINE
  5
DA
330
1F
100
AcDbEntity
  8
0
  6
Continuous
 62
     7
370
    25
100
AcDbLine
 10
35.2425
 20
-2.38125
 30
0.0
 11
44.7675
 21
-2.38125
 31
0.0
  0
LINE
  5
DB
330
1F
100
AcDbEntity
  8
0
  6
Continuous
 62
     7
370
    25
100
AcDbLine
 10
2.38125
 20
-44.7675
 30
0.0
 11
2.38125
 21
-35.2425
 31
0.0
  0
LINE
  5
DC
330
1F
100
AcDbEntity
  8
0
  6
Continuous
 62
     7
370
    25
100
AcDbLine
 10
-2.38125
 20
-35.2425
 30
0.0
 11
-2.38125
 21
-44.7675
 31
0.0
  0
LINE
  5
DD
330
1F
100
AcDbEntity
  8
0
  6
Continuous
 62
     7
370
    25
100
AcDbLine
 10
-44.7675
 20
-2.38125
 30
0.0
 11
-35.2425
 21
-2.38125
 31
0.0
  0
LINE
  5
DE
330
1F
100
AcDbEntity
  8
0
  6
Continuous
 62
     7
370
    25
100
AcDbLine
 10
-35.2425
 20
2.38125
 30
0.0
 11
-44.7675
 21
2.38125
 31
0.0
  0
LINE
  5
DF
330
1F
100
AcDbEntity
  8
0
  6
Continuous
 62
     7
370
    25
100
AcDbLine
 10
-2.38125
 20
44.7675
 30
0.0
 11
-2.38125
 21
35.2425
 31
0.0
  0
LINE
  5
E0
330
1F
100
AcDbEntity
  8
0
  6
Continuous
 62
     7
370
    25
100
AcDbLine
 10
2.38125
 20
35.2425
 30
0.0
 11
2.38125
 21
44.7675
 31
0.0
  0
LINE
  5
E1
330
1F
100
AcDbEntity
  8
0
  6
Continuous
 62
     7
370
    25
100
AcDbLine
 10
10.0
 20
-50.232233047
 30
0.0
 11
-10.0
 21
-50.232233047
 31
0.0
  0
LINE
  5
E2
330
1F
100
AcDbEntity
  8
0
  6
Continuous
 62
     7
370
    25
100
AcDbLine
 10
-51.0
 20
-10.0
 30
0.0
 11
-48.5
 21
-10.0
 31
0.0
  0
LINE
  5
E3
330
1F
100
AcDbEntity
  8
0
  6
Continuous
 62
     7
370
    25
100
AcDbLine
 10
-51.0
 20
-10.0
 30
0.0
 11
-51.0
 21
10.0
 31
0.0
  0
LINE
  5
E4
330
1F
100
AcDbEntity
  8
0
  6
Continuous
 62
     7
370
    25
100
AcDbLine
 10
-48.5
 20
10.0
 30
0.0
 11
-51.0
 21
10.0
 31
0.0
  0
LINE
  5
E5
330
1F
100
AcDbEntity
  8
0
  6
Continuous
 62
     7
370
    25
100
AcDbLine
 10
51.0
 20
10.0
 30
0.0
 11
51.0
 21
-10.0
 31
0.0
  0
LINE
  5
E6
330
1F
100
AcDbEntity
  8
0
  6
Continuous
 62
     7
370
    25
100
AcDbLine
 10
48.5
 20
-10.0
 30
0.0
 11
51.0
 21
-10.0
 31
0.0
  0
LINE
  5
E7
330
1F
100
AcDbEntity
  8
0
  6
Continuous
 62
     7
370
    25
100
AcDbLine
 10
51.0
 20
10.0
 30
0.0
 11
48.5
 21
10.0
 31
0.0
  0
LINE
  5
E8
330
1F
100
AcDbEntity
  8
0
  6
Continuous
 62
     7
370
    25
100
AcDbLine
 10
10.0
 20
-55.75
 30
0.0
 11
-10.0
 21
-55.75
 31
0.0
  0
LINE
  5
E9
330
1F
100
AcDbEntity
  8
0
  6
Continuous
 62
     7
370
    25
100
AcDbLine
 10
10.0
 20
-50.232233047
 30
0.0
 11
10.0
 21
-55.75
 31
0.0
  0
LINE
  5
EA
330
1F
100
AcDbEntity
  8
0
  6
Continuous
 62
     7
370
    25
100
AcDbLine
 10
-10.0
 20
-50.232233047
 30
0.0
 11
-10.0
 21
-55.75
 31
0.0
  0
LINE
  5
EB
330
1F
100
AcDbEntity
  8
0
  6
Continuous
 62
     7
370
    25
100
AcDbLine
 10
53.0
 20
-25.9807629523
 30
0.0
 11
53.0
 21
25.9807629523
 31
0.0
  0
LINE
  5
EC
330
1F
100
AcDbEntity
  8
0
  6
Continuous
 62
     7
370
    25
100
AcDbLine
 10
-5.3654997179
 20
60.0
 30
0.0
 11
5.3654997179
 21
60.0
 31
0.0
  0
LINE
  5
ED
330
1F
100
AcDbEntity
  8
0
  6
Continuous
 62
     7
370
    25
100
AcDbLine
 10
-53.0
 20
25.9807629523
 30
0.0
 11
-53.0
 21
-25.9807629523
 31
0.0
  0
LINE
  5
EE
330
1F
100
AcDbEntity
  8
0
  6
Continuous
 62
     7
370
    25
100
AcDbLine
 10
46.25
 20
228.6
 30
0.0
 11
46.25
 21
52.3446272315
 31
0.0
  0
LINE
  5
EF
330
1F
100
AcDbEntity
  8
0
  6
Continuous
 62
     7
370
    25
100
AcDbLine
 10
46.25
 20
-52.3446272315
 30
0.0
 11
46.25
 21
-228.6
 31
0.0
  0
LINE
  5
F0
330
1F
100
AcDbEntity
  8
0
  6
Continuous
 62
     7
370
    25
100
AcDbLine
 10
51.4461524227
 20
228.6
 30
0.0
 11
51.4461524227
 21
47.2473904136
 31
0.0
  0
LINE
  5
F1
330
1F
100
AcDbEntity
  8
0
  6
Continuous
 62
     7
370
    25
100
AcDbLine
 10
51.4461524227
 20
-47.2473904136
 30
0.0
 11
51.4461524227
 21
-228.6
 31
0.0
  0
LINE
  5
F2
330
1F
100
AcDbEntity
  8
0
  6
Continuous
 62
     7
370
    25
100
AcDbLine
 10
-51.4461524227
 20
228.6
 30
0.0
 11
-51.4461524227
 21
47.2473904136
 31
0.0
  0
LINE
  5
F3
330
1F
100
AcDbEntity
  8
0
  6
Continuous
 62
     7
370
    25
100
AcDbLine
 10
-51.4461524227
 20
-47.2473904136
 30
0.0
 11
-51.4461524227
 21
-228.6
 31
0.0
  0
LINE
  5
F4
330
1F
100
AcDbEntity
  8
0
  6
Continuous
 62
     7
370
    25
100
AcDbLine
 10
-51.4461524227
 20
228.6
 30
0.0
 11
51.4461524227
 21
228.6
 31
0.0
  0
LINE
  5
F5
330
1F
100
AcDbEntity
  8
0
  6
Continuous
 62
     7
370
    25
100
AcDbLine
 10
-46.25
 20
228.6
 30
0.0
 11
-46.25
 21
52.3446272315
 31
0.0
  0
LINE
  5
F6
330
1F
100
AcDbEntity
  8
0
  6
Continuous
 62
     7
370
    25
100
AcDbLine
 10
-46.25
 20
-52.3446272315
 30
0.0
 11
-46.25
 21
-228.6
 31
0.0
  0
LINE
  5
F7
330
1F
100
AcDbEntity
  8
0
  6
Continuous
 62
     7
370
    25
100
AcDbLine
 10
-51.4461524227
 20
-228.6
 30
0.0
 11
51.4461524227
 21
-228.6
 31
0.0
  0
LINE
  5
F8
330
1F
100
AcDbEntity
  8
0
  6
Continuous
 62
     7
370
    25
100
AcDbLine
 10
-42.5
 20
228.6
 30
0.0
 11
-42.5
 21
55.4325942023
 31
0.0
  0
LINE
  5
F9
330
1F
100
AcDbEntity
  8
0
  6
Continuous
 62
     7
370
    25
100
AcDbLine
 10
-42.5
 20
-55.4325942023
 30
0.0
 11
-42.5
 21
-228.6
 31
0.0
  0
LINE
  5
FA
330
1F
100
AcDbEntity
  8
0
  6
Continuous
 62
     7
370
    25
100
AcDbLine
 10
42.5
 20
228.6
 30
0.0
 11
42.5
 21
55.4325942023
 31
0.0
  0
LINE
  5
FB
330
1F
100
AcDbEntity
  8
0
  6
Continuous
 62
     7
370
    25
100
AcDbLine
 10
42.5
 20
-55.4325942023
 30
0.0
 11
42.5
 21
-228.6
 31
0.0
  0
ARC
  5
FC
330
1F
100
AcDbEntity
  8
0
  6
Continuous
 62
     7
370
    25
100
AcDbCircle
 10
-28.5
 20
21.9943174479
 30
0.0
 40
20.00000000000014
100
AcDbArc
 50
142.3415379938
 51
180.0
  0
ARC
  5
FD
330
1F
100
AcDbEntity
  8
0
  6
Continuous
 62
     7
370
    25
100
AcDbCircle
 10
0.0
 20
0.0
 30
0.0
 40
55.99999999999998
100
AcDbArc
 50
37.6584620062
 51
142.3415379938
  0
ARC
  5
FE
330
1F
100
AcDbEntity
  8
0
  6
Continuous
 62
     7
370
    25
100
AcDbCircle
 10
28.5
 20
21.9943174479
 30
0.0
 40
20.0
100
AcDbArc
 50
0.0
 51
37.6584620062
  0
ARC
  5
FF
330
1F
100
AcDbEntity
  8
0
  6
Continuous
 62
     7
370
    25
100
AcDbCircle
 10
28.5
 20
-21.9943174479
 30
0.0
 40
20.00000000000015
100
AcDbArc
 50
322.3415379938
 51
0.0
  0
ARC
  5
100
330
1F
100
AcDbEntity
  8
0
  6
Continuous
 62
     7
370
    25
100
AcDbCircle
 10
0.0
 20
0.0
 30
0.0
 40
55.99999999999757
100
AcDbArc
 50
307.6584620062
 51
322.3415379938
  0
ARC
  5
101
330
1F
100
AcDbEntity
  8
0
  6
Continuous
 62
     7
370
    25
100
AcDbCircle
 10
21.9943174479
 20
-28.5
 30
0.0
 40
19.99999999999988
100
AcDbArc
 50
273.4159257985
 51
307.6584620062
  0
ARC
  5
102
330
1F
100
AcDbEntity
  8
0
  6
Continuous
 62
     7
370
    25
100
AcDbCircle
 10
0.0
 20
0.0
 30
0.0
 40
55.99999999999785
100
AcDbArc
 50
217.6584620062
 51
232.3415379938
  0
ARC
  5
103
330
1F
100
AcDbEntity
  8
0
  6
Continuous
 62
     7
370
    25
100
AcDbCircle
 10
-28.5
 20
-21.9943174479
 30
0.0
 40
19.99999999999994
100
AcDbArc
 50
180.0
 51
217.6584620062
  0
ARC
  5
104
330
1F
100
AcDbEntity
  8
0
  6
Continuous
 62
     7
370
    25
100
AcDbCircle
 10
0.0
 20
0.0
 30
0.0
 40
47.14875000000001
100
AcDbArc
 50
194.372617014
 51
255.627382986
  0
ARC
  5
105
330
1F
100
AcDbEntity
  8
0
  6
Continuous
 62
     7
370
    25
100
AcDbCircle
 10
-11.1125
 20
-43.3663625406
 30
0.0
 40
2.381250000000002
100
AcDbArc
 50
255.627382986
 51
75.627382986
  0
ARC
  5
106
330
1F
100
AcDbEntity
  8
0
  6
Continuous
 62
     7
370
    25
100
AcDbCircle
 10
0.0
 20
0.0
 30
0.0
 40
42.38624999999997
100
AcDbArc
 50
194.372617014
 51
255.627382986
  0
ARC
  5
107
330
1F
100
AcDbEntity
  8
0
  6
Continuous
 62
     7
370
    25
100
AcDbCircle
 10
-43.3663625406
 20
-11.1125
 30
0.0
 40
2.381249999999998
100
AcDbArc
 50
14.372617014
 51
194.372617014
  0
ARC
  5
108
330
1F
100
AcDbEntity
  8
0
  6
Continuous
 62
     7
370
    25
100
AcDbCircle
 10
35.2425
 20
0.0
 30
0.0
 40
2.381250000000003
100
AcDbArc
 50
90.0
 51
270.0
  0
ARC
  5
109
330
1F
100
AcDbEntity
  8
0
  6
Continuous
 62
     7
370
    25
100
AcDbCircle
 10
44.7675
 20
0.0
 30
0.0
 40
2.381250000000004
100
AcDbArc
 50
270.0
 51
90.0
  0
ARC
  5
10A
330
1F
100
AcDbEntity
  8
0
  6
Continuous
 62
     7
370
    25
100
AcDbCircle
 10
0.0
 20
-35.2425
 30
0.0
 40
2.381250000000002
100
AcDbArc
 50
0.0
 51
180.0
  0
ARC
  5
10B
330
1F
100
AcDbEntity
  8
0
  6
Continuous
 62
     7
370
    25
100
AcDbCircle
 10
0.0
 20
-44.7675
 30
0.0
 40
2.381250000000002
100
AcDbArc
 50
180.0
 51
0.0
  0
ARC
  5
10C
330
1F
100
AcDbEntity
  8
0
  6
Continuous
 62
     7
370
    25
100
AcDbCircle
 10
-35.2425
 20
0.0
 30
0.0
 40
2.381250000000003
100
AcDbArc
 50
270.0
 51
90.0
  0
ARC
  5
10D
330
1F
100
AcDbEntity
  8
0
  6
Continuous
 62
     7
370
    25
100
AcDbCircle
 10
-44.7675
 20
0.0
 30
0.0
 40
2.381250000000003
100
AcDbArc
 50
90.0
 51
270.0
  0
ARC
  5
10E
330
1F
100
AcDbEntity
  8
0
  6
Continuous
 62
     7
370
    25
100
AcDbCircle
 10
0.0
 20
0.0
 30
0.0
 40
42.38624999999995
100
AcDbArc
 50
284.372617014
 51
345.627382986
  0
ARC
  5
10F
330
1F
100
AcDbEntity
  8
0
  6
Continuous
 62
     7
370
    25
100
AcDbCircle
 10
11.1125
 20
-43.3663625406
 30
0.0
 40
2.381249999999998
100
AcDbArc
 50
104.372617014
 51
284.372617014
  0
ARC
  5
110
330
1F
100
AcDbEntity
  8
0
  6
Continuous
 62
     7
370
    25
100
AcDbCircle
 10
0.0
 20
0.0
 30
0.0
 40
47.14875000000003
100
AcDbArc
 50
284.372617014
 51
345.627382986
  0
ARC
  5
111
330
1F
100
AcDbEntity
  8
0
  6
Continuous
 62
     7
370
    25
100
AcDbCircle
 10
43.3663625406
 20
-11.1125
 30
0.0
 40
2.381249999999991
100
AcDbArc
 50
345.627382986
 51
165.627382986
  0
ARC
  5
112
330
1F
100
AcDbEntity
  8
0
  6
Continuous
 62
     7
370
    25
100
AcDbCircle
 10
0.0
 20
0.0
 30
0.0
 40
42.38625000000002
100
AcDbArc
 50
104.372617014
 51
165.627382986
  0
ARC
  5
113
330
1F
100
AcDbEntity
  8
0
  6
Continuous
 62
     7
370
    25
100
AcDbCircle
 10
-11.1125
 20
43.3663625406
 30
0.0
 40
2.381250000000005
100
AcDbArc
 50
284.372617014
 51
104.372617014
  0
ARC
  5
114
330
1F
100
AcDbEntity
  8
0
  6
Continuous
 62
     7
370
    25
100
AcDbCircle
 10
0.0
 20
0.0
 30
0.0
 40
47.14875000000001
100
AcDbArc
 50
104.372617014
 51
165.627382986
  0
ARC
  5
115
330
1F
100
AcDbEntity
  8
0
  6
Continuous
 62
     7
370
    25
100
AcDbCircle
 10
-43.3663625406
 20
11.1125
 30
0.0
 40
2.381250000000004
100
AcDbArc
 50
165.627382986
 51
345.627382986
  0
ARC
  5
116
330
1F
100
AcDbEntity
  8
0
  6
Continuous
 62
     7
370
    25
100
AcDbCircle
 10
0.0
 20
0.0
 30
0.0
 40
32.86124999999979
100
AcDbArc
 50
108.3798501355
 51
161.6201498645
  0
ARC
  5
117
330
1F
100
AcDbEntity
  8
0
  6
Continuous
 62
     7
370
    25
100
AcDbCircle
 10
-11.1125
 20
33.4446729689
 30
0.0
 40
2.381250000000009
100
AcDbArc
 50
288.3798501355
 51
108.3798501355
  0
ARC
  5
118
330
1F
100
AcDbEntity
  8
0
  6
Continuous
 62
     7
370
    25
100
AcDbCircle
 10
0.0
 20
0.0
 30
0.0
 40
37.62375000000007
100
AcDbArc
 50
108.3798501355
 51
161.6201498645
  0
ARC
  5
119
330
1F
100
AcDbEntity
  8
0
  6
Continuous
 62
     7
370
    25
100
AcDbCircle
 10
-33.4446729689
 20
11.1125
 30
0.0
 40
2.381249999999997
100
AcDbArc
 50
161.6201498645
 51
341.6201498645
  0
ARC
  5
11A
330
1F
100
AcDbEntity
  8
0
  6
Continuous
 62
     7
370
    25
100
AcDbCircle
 10
0.0
 20
0.0
 30
0.0
 40
37.62374999999995
100
AcDbArc
 50
198.3798501355
 51
251.6201498645
  0
ARC
  5
11B
330
1F
100
AcDbEntity
  8
0
  6
Continuous
 62
     7
370
    25
100
AcDbCircle
 10
-11.1125
 20
-33.4446729689
 30
0.0
 40
2.381250000000025
100
AcDbArc
 50
251.6201498645
 51
71.6201498645
  0
ARC
  5
11C
330
1F
100
AcDbEntity
  8
0
  6
Continuous
 62
     7
370
    25
100
AcDbCircle
 10
0.0
 20
0.0
 30
0.0
 40
32.86125000000001
100
AcDbArc
 50
198.3798501355
 51
251.6201498645
  0
ARC
  5
11D
330
1F
100
AcDbEntity
  8
0
  6
Continuous
 62
     7
370
    25
100
AcDbCircle
 10
-33.4446729689
 20
-11.1125
 30
0.0
 40
2.381250000000011
100
AcDbArc
 50
18.3798501355
 51
198.3798501355
  0
ARC
  5
11E
330
1F
100
AcDbEntity
  8
0
  6
Continuous
 62
     7
370
    25
100
AcDbCircle
 10
0.0
 20
35.2425
 30
0.0
 40
2.381250000000002
100
AcDbArc
 50
180.0
 51
0.0
  0
ARC
  5
11F
330
1F
100
AcDbEntity
  8
0
  6
Continuous
 62
     7
370
    25
100
AcDbCircle
 10
0.0
 20
44.7675
 30
0.0
 40
2.381250000000002
100
AcDbArc
 50
0.0
 51
180.0
  0
ARC
  5
120
330
1F
100
AcDbEntity
  8
0
  6
Continuous
 62
     7
370
    25
100
AcDbCircle
 10
0.0
 20
0.0
 30
0.0
 40
47.14875000000004
100
AcDbArc
 50
14.372617014
 51
75.627382986
  0
ARC
  5
121
330
1F
100
AcDbEntity
  8
0
  6
Continuous
 62
     7
370
    25
100
AcDbCircle
 10
11.1125
 20
43.3663625406
 30
0.0
 40
2.381250000000003
100
AcDbArc
 50
75.627382986
 51
255.627382986
  0
ARC
  5
122
330
1F
100
AcDbEntity
  8
0
  6
Continuous
 62
     7
370
    25
100
AcDbCircle
 10
0.0
 20
0.0
 30
0.0
 40
42.38624999999997
100
AcDbArc
 50
14.372617014
 51
75.627382986
  0
ARC
  5
123
330
1F
100
AcDbEntity
  8
0
  6
Continuous
 62
     7
370
    25
100
AcDbCircle
 10
43.3663625406
 20
11.1125
 30
0.0
 40
2.381250000000008
100
AcDbArc
 50
194.372617014
 51
14.372617014
  0
ARC
  5
124
330
1F
100
AcDbEntity
  8
0
  6
Continuous
 62
     7
370
    25
100
AcDbCircle
 10
0.0
 20
0.0
 30
0.0
 40
37.62375000000008
100
AcDbArc
 50
18.3798501355
 51
71.6201498645
  0
ARC
  5
125
330
1F
100
AcDbEntity
  8
0
  6
Continuous
 62
     7
370
    25
100
AcDbCircle
 10
11.1125
 20
33.4446729689
 30
0.0
 40
2.381250000000023
100
AcDbArc
 50
71.6201498645
 51
251.6201498645
  0
ARC
  5
126
330
1F
100
AcDbEntity
  8
0
  6
Continuous
 62
     7
370
    25
100
AcDbCircle
 10
0.0
 20
0.0
 30
0.0
 40
32.86125000000018
100
AcDbArc
 50
18.3798501355
 51
71.6201498645
  0
ARC
  5
127
330
1F
100
AcDbEntity
  8
0
  6
Continuous
 62
     7
370
    25
100
AcDbCircle
 10
33.4446729689
 20
11.1125
 30
0.0
 40
2.381250000000008
100
AcDbArc
 50
198.3798501355
 51
18.3798501355
  0
ARC
  5
128
330
1F
100
AcDbEntity
  8
0
  6
Continuous
 62
     7
370
    25
100
AcDbCircle
 10
0.0
 20
0.0
 30
0.0
 40
32.86124999999976
100
AcDbArc
 50
288.3798501355
 51
341.6201498645
  0
ARC
  5
129
330
1F
100
AcDbEntity
  8
0
  6
Continuous
 62
     7
370
    25
100
AcDbCircle
 10
11.1125
 20
-33.4446729689
 30
0.0
 40
2.381250000000029
100
AcDbArc
 50
108.3798501355
 51
288.3798501355
  0
ARC
  5
12A
330
1F
100
AcDbEntity
  8
0
  6
Continuous
 62
     7
370
    25
100
AcDbCircle
 10
0.0
 20
0.0
 30
0.0
 40
37.62375000000014
100
AcDbArc
 50
288.3798501355
 51
341.6201498645
  0
ARC
  5
12B
330
1F
100
AcDbEntity
  8
0
  6
Continuous
 62
     7
370
    25
100
AcDbCircle
 10
33.4446729689
 20
-11.1125
 30
0.0
 40
2.38125000000001
100
AcDbArc
 50
341.6201498645
 51
161.6201498645
  0
ARC
  5
12C
330
1F
100
AcDbEntity
  8
0
  6
Continuous
 62
     7
370
    25
100
AcDbCircle
 10
-21.9943174479
 20
-28.5
 30
0.0
 40
20.00000000000001
100
AcDbArc
 50
232.3415379938
 51
266.5840742015
  0
ARC
  5
12D
330
1F
100
AcDbEntity
  8
0
  6
Continuous
 62
     7
370
    25
100
AcDbCircle
 10
62.3403171129
 20
-90.9198337421
 30
0.0
 40
49.99999999999903
100
AcDbArc
 50
124.4369696496
 51
129.3834324544
  0
ARC
  5
12E
330
1F
100
AcDbEntity
  8
0
  6
Continuous
 62
     7
370
    25
100
AcDbCircle
 10
0.0
 20
0.0
 30
0.0
 40
60.23942718205829
100
AcDbArc
 50
304.4369696496
 51
328.8594693764
  0
ARC
  5
12F
330
1F
100
AcDbEntity
  8
0
  6
Continuous
 62
     7
370
    25
100
AcDbCircle
 10
43.0
 20
-25.9807629523
 30
0.0
 40
9.999999999999872
100
AcDbArc
 50
328.8594693764
 51
0.0
  0
ARC
  5
130
330
1F
100
AcDbEntity
  8
0
  6
Continuous
 62
     7
370
    25
100
AcDbCircle
 10
43.0
 20
25.9807629523
 30
0.0
 40
10.00000000000006
100
AcDbArc
 50
0.0
 51
31.1405306236
  0
ARC
  5
131
330
1F
100
AcDbEntity
  8
0
  6
Continuous
 62
     7
370
    25
100
AcDbCircle
 10
0.0
 20
0.0
 30
0.0
 40
60.23942718205818
100
AcDbArc
 50
31.1405306236
 51
84.8899177458
  0
ARC
  5
132
330
1F
100
AcDbEntity
  8
0
  6
Continuous
 62
     7
370
    25
100
AcDbCircle
 10
0.0
 20
0.0
 30
0.0
 40
60.23942718205819
100
AcDbArc
 50
95.1100822542
 51
148.8594693764
  0
ARC
  5
133
330
1F
100
AcDbEntity
  8
0
  6
Continuous
 62
     7
370
    25
100
AcDbCircle
 10
-43.0
 20
25.9807629523
 30
0.0
 40
9.999999999999895
100
AcDbArc
 50
148.8594693764
 51
180.0
  0
ARC
  5
134
330
1F
100
AcDbEntity
  8
0
  6
Continuous
 62
     7
370
    25
100
AcDbCircle
 10
-43.0
 20
-25.9807629523
 30
0.0
 40
10.00000000000004
100
AcDbArc
 50
180.0
 51
211.1405306236
  0
ARC
  5
135
330
1F
100
AcDbEntity
  8
0
  6
Continuous
 62
     7
370
    25
100
AcDbCircle
 10
0.0
 20
0.0
 30
0.0
 40
60.23942718205798
100
AcDbArc
 50
211.1405306236
 51
235.5630303504
  0
ARC
  5
136
330
1F
100
AcDbEntity
  8
0
  6
Continuous
 62
     7
370
    25
100
AcDbCircle
 10
-62.3403171128
 20
-90.9198337421
 30
0.0
 40
49.99999999999221
100
AcDbArc
 50
50.6165675456
 51
55.5630303504
  0
ARC
  5
137
330
1F
100
AcDbEntity
  8
0
  6
Continuous
 62
     7
370
    25
100
AcDbCircle
 10
0.0
 20
-14.9807307565
 30
0.0
 40
48.24999999999998
100
AcDbArc
 50
230.6165675456
 51
309.3834324544
  0
LINE
  5
14F
330
1B
100
AcDbEntity
 67
     1
  8
0
  6
Continuous
 62
     7
370
    25
100
AcDbLine
 10
-51.4461524227
 20
228.6
 30
0.0
 11
-51.4461524227
 21
-228.6
 31
0.0
  0
LINE
  5
150
330
1B
100
AcDbEntity
 67
     1
  8
0
  6
Continuous
 62
     7
370
    25
100
AcDbLine
 10
-8.9461524227
 20
228.6
 30
0.0
 11
-8.9461524227
 21
-228.6
 31
0.0
  0
LINE
  5
151
330
1B
100
AcDbEntity
 67
     1
  8
0
  6
Continuous
 62
     7
370
    25
100
AcDbLine
 10
-3.75
 20
228.6
 30
0.0
 11
-3.75
 21
-228.6
 31
0.0
  0
LINE
  5
152
330
1B
100
AcDbEntity
 67
     1
  8
0
  6
Continuous
 62
     7
370
    25
100
AcDbLine
 10
3.75
 20
228.6
 30
0.0
 11
3.75
 21
-228.6
 31
0.0
  0
LINE
  5
153
330
1B
100
AcDbEntity
 67
     1
  8
0
  6
Continuous
 62
     7
370
    25
100
AcDbLine
 10
-51.4461524227
 20
228.6
 30
0.0
 11
51.4461524227
 21
228.6
 31
0.0
  0
LINE
  5
154
330
1B
100
AcDbEntity
 67
     1
  8
0
  6
Continuous
 62
     7
370
    25
100
AcDbLine
 10
8.9461524227
 20
228.6
 30
0.0
 11
8.9461524227
 21
-228.6
 31
0.0
  0
LINE
  5
155
330
1B
100
AcDbEntity
 67
     1
  8
0
  6
Continuous
 62
     7
370
    25
100
AcDbLine
 10
-51.4461524227
 20
-228.6
 30
0.0
 11
51.4461524227
 21
-228.6
 31
0.0
  0
LINE
  5
156
330
1B
100
AcDbEntity
 67
     1
  8
0
  6
Continuous
 62
     7
370
    25
100
AcDbLine
 10
51.4461524227
 20
228.6
 30
0.0
 11
51.4461524227
 21
-228.6
 31
0.0
  0
LINE
  5
157
330
1B
100
AcDbEntity
 67
     1
  8
0
  6
Continuous
 62
     7
370
    25
100
AcDbLine
 10
-3.75
 20
12.7
 30
0.0
 11
3.75
 21
12.7
 31
0.0
  0
LINE
  5
158
330
1B
100
AcDbEntity
 67
     1
  8
0
  6
Continuous
 62
     7
370
    25
100
AcDbLine
 10
-3.75
 20
-12.7
 30
0.0
 11
3.75
 21
-12.7
 31
0.0
  0
ARC
  5
159
330
1B
100
AcDbEntity
 67
     1
  8
0
  6
Continuous
 62
     7
370
    25
100
AcDbCircle
 10
0.0
 20
0.0
 30
0.0
 40
69.85000000000417
100
AcDbArc
 50
137.4360900685
 51
222.5639099315
  0
ARC
  5
15A
330
1B
100
AcDbEntity
 67
     1
  8
0
  6
Continuous
 62
     7
370
    25
100
AcDbCircle
 10
0.0
 20
0.0
 30
0.0
 40
69.85000000000029
100
AcDbArc
 50
317.4360900685
 51
42.5639099315
  0
VIEWPORT
  5
27B
330
1B
100
AcDbEntity
 67
     1
  8
0
100
AcDbViewport
 10
0.0
 20
0.0
 30
0.0
 40
205.6
 41
156.0
 68
     1
 69
     1
 12
0.0
 22
0.0
 13
0.0
 23
0.0
 14
10.0
 24
10.0
 15
10.0
 25
10.0
 16
0.0
 26
0.0
 36
1.0
 17
0.0
 27
0.0
 37
0.0
 42
50.0
 43
0.0
 44
0.0
 45
466.344
 50
0.0
 51
0.0
 72
   100
 90
   557152
  1

281
     0
 71
     1
 74
     0
110
0.0
120
0.0
130
0.0
111
1.0
121
0.0
131
0.0
112
0.0
122
1.0
132
0.0
 79
     0
146
0.0
  0
ENDSEC
  0
SECTION
  2
OBJECTS
  0
DICTIONARY
  5
C
330
0
100
AcDbDictionary
281
     1
  3
ACAD_GROUP
350
D
  3
ACAD_LAYOUT
350
1A
  3
ACAD_MLINESTYLE
350
17
  3
ACAD_PLOTSETTINGS
350
19
  3
ACAD_PLOTSTYLENAME
350
E
  3
ACAD_SCALELIST
350
47
  3
DWGPROPS
350
285
  0
DICTIONARY
  5
D
102
{ACAD_REACTORS
330
C
102
}
330
C
100
AcDbDictionary
281
     1
  0
DICTIONARY
  5
1A
102
{ACAD_REACTORS
330
C
102
}
330
C
100
AcDbDictionary
281
     1
  3
_Back
350
1E
  3
_Bottom
350
212
  3
_Left
350
26
  3
_Right
350
17F
  3
_Top
350
1A8
  3
Model
350
22
  0
DICTIONARY
  5
17
102
{ACAD_REACTORS
330
C
102
}
330
C
100
AcDbDictionary
281
     1
  3
Standard
350
18
  0
DICTIONARY
  5
19
102
{ACAD_REACTORS
330
C
102
}
330
C
100
AcDbDictionary
281
     1
  0
ACDBDICTIONARYWDFLT
  5
E
102
{ACAD_REACTORS
330
C
102
}
330
C
100
AcDbDictionary
281
     1
  3
Normal
350
F
100
AcDbDictionaryWithDefault
340
F
  0
DICTIONARY
  5
47
102
{ACAD_REACTORS
330
C
102
}
330
C
100
AcDbDictionary
281
     1
  3
A0
350
48
  3
A1
350
49
  3
A2
350
4A
  3
A3
350
4B
  3
A4
350
4C
  3
A5
350
4D
  3
A6
350
4E
  3
A7
350
4F
  3
A8
350
50
  3
A9
350
51
  3
B0
350
52
  3
B1
350
53
  3
B2
350
54
  3
B3
350
55
  3
B4
350
56
  3
B5
350
57
  3
B6
350
58
  0
XRECORD
  5
285
102
{ACAD_REACTORS
330
C
102
}
330
C
100
AcDbXrecord
280
     1
  1
DWGPROPS COOKIE
  2

  3

  4

  6

  7

  8
Zach Robinson
  9

300
=
301
=
302
=
303
=
304
=
305
=
306
=
307
=
308
=
309
=
 40
0.0
 41
2460111.78180456
 42
2460111.782201829
  1

 90
        0
  0
LAYOUT
  5
1E
102
{ACAD_REACTORS
330
1A
102
}
330
1A
100
AcDbPlotSettings
  1

  2
none_device
  4
ANSI_A_(11.00_x_8.50_Inches)
  6

 40
6.35
 41
19.05
 42
6.35000508
 43
19.05000254
 44
279.4
 45
215.9
 46
133.34999746
 47
88.89999873
 48
0.0
 49
0.0
140
0.0
141
0.0
142
0.0184055118
143
1.0
 70
   672
 72
     0
 73
     0
 74
     1
  7

 75
     0
147
0.015310586
148
1774.19
149
5806.44
100
AcDbLayout
  1
_Back
 70
     1
 71
     1
 10
-116.7423076923
 20
-246.1846153846
 11
579.6084615385
 21
246.1846153846
 12
0.0
 22
0.0
 32
0.0
 14
-69.85
 24
-228.6
 34
0.0
 15
69.85
 25
228.6
 35
0.0
146
0.0
 13
0.0
 23
0.0
 33
0.0
 16
1.0
 26
0.0
 36
0.0
 17
0.0
 27
1.0
 37
0.0
 76
     0
330
1B
331
27B
  0
LAYOUT
  5
212
102
{ACAD_REACTORS
330
1A
102
}
330
1A
100
AcDbPlotSettings
  1

  2
none_device
  4
ISO_A4_(210.00_x_297.00_MM)
  6

 40
7.5
 41
20.0
 42
7.5
 43
20.0
 44
210.0
 45
297.0
 46
0.0
 47
0.0
 48
0.0
 49
0.0
140
0.0
141
0.0
142
1.0
143
2.3446153846
 70
   688
 72
     1
 73
     1
 74
     1
  7

 75
     0
147
0.4265091864
148
69.85
149
228.6
100
AcDbLayout
  1
_Bottom
 70
     1
 71
     5
 10
0.0
 20
0.0
 11
0.0
 21
0.0
 12
0.0
 22
0.0
 32
0.0
 14
0.0
 24
0.0
 34
0.0
 15
0.0
 25
0.0
 35
0.0
146
0.0
 13
0.0
 23
0.0
 33
0.0
 16
1.0
 26
0.0
 36
0.0
 17
0.0
 27
1.0
 37
0.0
 76
     0
330
211
331
283
  0
LAYOUT
  5
26
102
{ACAD_REACTORS
330
1A
102
}
330
1A
100
AcDbPlotSettings
  1

  2
none_device
  4
ISO_A4_(210.00_x_297.00_MM)
  6

 40
7.5
 41
20.0
 42
7.5
 43
20.0
 44
210.0
 45
297.0
 46
0.0
 47
0.0
 48
0.0
 49
0.0
140
0.0
141
0.0
142
1.0
143
2.3446153846
 70
   688
 72
     1
 73
     1
 74
     1
  7

 75
     0
147
0.4265091864
148
69.85
149
228.6
100
AcDbLayout
  1
_Left
 70
     1
 71
     2
 10
0.0
 20
0.0
 11
0.0
 21
0.0
 12
0.0
 22
0.0
 32
0.0
 14
0.0
 24
0.0
 34
0.0
 15
0.0
 25
0.0
 35
0.0
146
0.0
 13
0.0
 23
0.0
 33
0.0
 16
1.0
 26
0.0
 36
0.0
 17
0.0
 27
1.0
 37
0.0
 76
     0
330
23
331
27D
  0
LAYOUT
  5
17F
102
{ACAD_REACTORS
330
1A
102
}
330
1A
100
AcDbPlotSettings
  1

  2
none_device
  4
ISO_A4_(210.00_x_297.00_MM)
  6

 40
7.5
 41
20.0
 42
7.5
 43
20.0
 44
210.0
 45
297.0
 46
0.0
 47
0.0
 48
0.0
 49
0.0
140
0.0
141
0.0
142
1.0
143
2.3446153846
 70
   688
 72
     1
 73
     1
 74
     1
  7

 75
     0
147
0.4265091864
148
69.85
149
228.6
100
AcDbLayout
  1
_Right
 70
     1
 71
     3
 10
0.0
 20
0.0
 11
0.0
 21
0.0
 12
0.0
 22
0.0
 32
0.0
 14
0.0
 24
0.0
 34
0.0
 15
0.0
 25
0.0
 35
0.0
146
0.0
 13
0.0
 23
0.0
 33
0.0
 16
1.0
 26
0.0
 36
0.0
 17
0.0
 27
1.0
 37
0.0
 76
     0
330
17E
331
27F
  0
LAYOUT
  5
1A8
102
{ACAD_REACTORS
330
1A
102
}
330
1A
100
AcDbPlotSettings
  1

  2
none_device
  4
ISO_A4_(210.00_x_297.00_MM)
  6

 40
7.5
 41
20.0
 42
7.5
 43
20.0
 44
210.0
 45
297.0
 46
0.0
 47
0.0
 48
0.0
 49
0.0
140
0.0
141
0.0
142
1.0
143
2.3446153846
 70
   688
 72
     1
 73
     1
 74
     1
  7

 75
     0
147
0.4265091864
148
69.85
149
228.6
100
AcDbLayout
  1
_Top
 70
     1
 71
     4
 10
0.0
 20
0.0
 11
0.0
 21
0.0
 12
0.0
 22
0.0
 32
0.0
 14
0.0
 24
0.0
 34
0.0
 15
0.0
 25
0.0
 35
0.0
146
0.0
 13
0.0
 23
0.0
 33
0.0
 16
1.0
 26
0.0
 36
0.0
 17
0.0
 27
1.0
 37
0.0
 76
     0
330
1A7
331
281
  0
LAYOUT
  5
22
102
{ACAD_REACTORS
330
1A
102
}
330
1A
100
AcDbPlotSettings
  1

  2
none_device
  4
Letter_(8.50_x_11.00_Inches)
  6

 40
6.35
 41
6.35
 42
6.35000508
 43
6.35000508
 44
215.9
 45
279.4
 46
0.0
 47
0.0
 48
0.0
 49
0.0
140
0.0
141
0.0
142
1.0
143
1.0
 70
  1712
 72
     1
 73
     0
 74
     0
  7

 75
     0
147
1.0
148
0.0
149
0.0
100
AcDbLayout
  1
Model
 70
     1
 71
     0
 10
0.0
 20
0.0
 11
420.0
 21
297.0
 12
0.0
 22
0.0
 32
0.0
 14
-69.85
 24
-228.6
 34
0.0
 15
69.85
 25
228.6
 35
0.0
146
0.0
 13
0.0
 23
0.0
 33
0.0
 16
1.0
 26
0.0
 36
0.0
 17
0.0
 27
1.0
 37
0.0
 76
     0
330
1F
331
29
  0
MLINESTYLE
  5
18
102
{ACAD_REACTORS
330
17
102
}
330
17
100
AcDbMlineStyle
  2
Standard
 70
     0
  3

 62
   256
 51
90.0
 52
90.0
 71
     2
 49
0.5
 62
   256
  6
BYLAYER
 49
-0.5
 62
   256
  6
BYLAYER
  0
ACDBPLACEHOLDER
  5
F
102
{ACAD_REACTORS
330
E
102
}
330
E
  0
SCALE
  5
48
102
{ACAD_REACTORS
330
47
102
}
330
47
100
AcDbScale
 70
     0
300
1:1
140
1.0
141
1.0
290
     1
  0
SCALE
  5
49
102
{ACAD_REACTORS
330
47
102
}
330
47
100
AcDbScale
 70
     0
300
1:2
140
1.0
141
2.0
290
     0
  0
SCALE
  5
4A
102
{ACAD_REACTORS
330
47
102
}
330
47
100
AcDbScale
 70
     0
300
1:4
140
1.0
141
4.0
290
     0
  0
SCALE
  5
4B
102
{ACAD_REACTORS
330
47
102
}
330
47
100
AcDbScale
 70
     0
300
1:5
140
1.0
141
5.0
290
     0
  0
SCALE
  5
4C
102
{ACAD_REACTORS
330
47
102
}
330
47
100
AcDbScale
 70
     0
300
1:8
140
1.0
141
8.0
290
     0
  0
SCALE
  5
4D
102
{ACAD_REACTORS
330
47
102
}
330
47
100
AcDbScale
 70
     0
300
1:10
140
1.0
141
10.0
290
     0
  0
SCALE
  5
4E
102
{ACAD_REACTORS
330
47
102
}
330
47
100
AcDbScale
 70
     0
300
1:16
140
1.0
141
16.0
290
     0
  0
SCALE
  5
4F
102
{ACAD_REACTORS
330
47
102
}
330
47
100
AcDbScale
 70
     0
300
1:20
140
1.0
141
20.0
290
     0
  0
SCALE
  5
50
102
{ACAD_REACTORS
330
47
102
}
330
47
100
AcDbScale
 70
     0
300
1:30
140
1.0
141
30.0
290
     0
  0
SCALE
  5
51
102
{ACAD_REACTORS
330
47
102
}
330
47
100
AcDbScale
 70
     0
300
1:40
140
1.0
141
40.0
290
     0
  0
SCALE
  5
52
102
{ACAD_REACTORS
330
47
102
}
330
47
100
AcDbScale
 70
     0
300
1:50
140
1.0
141
50.0
290
     0
  0
SCALE
  5
53
102
{ACAD_REACTORS
330
47
102
}
330
47
100
AcDbScale
 70
     0
300
1:100
140
1.0
141
100.0
290
     0
  0
SCALE
  5
54
102
{ACAD_REACTORS
330
47
102
}
330
47
100
AcDbScale
 70
     0
300
2:1
140
2.0
141
1.0
290
     0
  0
SCALE
  5
55
102
{ACAD_REACTORS
330
47
102
}
330
47
100
AcDbScale
 70
     0
300
4:1
140
4.0
141
1.0
290
     0
  0
SCALE
  5
56
102
{ACAD_REACTORS
330
47
102
}
330
47
100
AcDbScale
 70
     0
300
8:1
140
8.0
141
1.0
290
     0
  0
SCALE
  5
57
102
{ACAD_REACTORS
330
47
102
}
330
47
100
AcDbScale
 70
     0
300
10:1
140
10.0
141
1.0
290
     0
  0
SCALE
  5
58
102
{ACAD_REACTORS
330
47
102
}
330
47
100
AcDbScale
 70
     0
300
100:1
140
100.0
141
1.0
290
     0
  0
ENDSEC
  0
EOF
