  0
SECTION
  2
HEADER
  9
$ACADVER
  1
AC1015
  9
$ACADMAINTVER
 70
     6
  9
$DWGCODEPAGE
  3
ANSI_1252
  9
$INSBASE
 10
0.0
 20
0.0
 30
0.0
  9
$EXTMIN
 10
-66.675
 20
-163.714999976
 30
0.0
  9
$EXTMAX
 10
66.675
 20
0.0
 30
0.0
  9
$LIMMIN
 10
0.0
 20
0.0
  9
$LIMMAX
 10
420.0
 20
297.0
  9
$ORTHOMODE
 70
     0
  9
$REGENMODE
 70
     1
  9
$FILLMODE
 70
     1
  9
$QTEXTMODE
 70
     0
  9
$MIRRTEXT
 70
     1
  9
$LTSCALE
 40
1.0
  9
$ATTMODE
 70
     1
  9
$TEXTSIZE
 40
3.5
  9
$TRACEWID
 40
1.0
  9
$TEXTSTYLE
  7
Standard
  9
$CLAYER
  8
0
  9
$CELTYPE
  6
ByLayer
  9
$CECOLOR
 62
   256
  9
$CELTSCALE
 40
1.0
  9
$DISPSILH
 70
     0
  9
$DIMSCALE
 40
1.0
  9
$DIMASZ
 40
3.556
  9
$DIMEXO
 40
0.0
  9
$DIMDLI
 40
3.75
  9
$DIMRND
 40
0.0
  9
$DIMDLE
 40
0.0
  9
$DIMEXE
 40
1.0
  9
$DIMTP
 40
0.0
  9
$DIMTM
 40
0.0
  9
$DIMTXT
 40
3.5
  9
$DIMCEN
 40
2.5
  9
$DIMTSZ
 40
0.0
  9
$DIMTOL
 70
     0
  9
$DIMLIM
 70
     0
  9
$DIMTIH
 70
     1
  9
$DIMTOH
 70
     1
  9
$DIMSE1
 70
     0
  9
$DIMSE2
 70
     0
  9
$DIMTAD
 70
     1
  9
$DIMZIN
 70
     1
  9
$DIMBLK
  1

  9
$DIMASO
 70
     1
  9
$DIMSHO
 70
     1
  9
$DIMPOST
  1

  9
$DIMAPOST
  1

  9
$DIMALT
 70
     0
  9
$DIMALTD
 70
     3
  9
$DIMALTF
 40
0.0393700787
  9
$DIMLFAC
 40
1.0
  9
$DIMTOFL
 70
     1
  9
$DIMTVP
 40
0.0
  9
$DIMTIX
 70
     0
  9
$DIMSOXD
 70
     0
  9
$DIMSAH
 70
     0
  9
$DIMBLK1
  1

  9
$DIMBLK2
  1

  9
$DIMSTYLE
  2
ISO-25
  9
$DIMCLRD
 70
     0
  9
$DIMCLRE
 70
     0
  9
$DIMCLRT
 70
     0
  9
$DIMTFAC
 40
1.0
  9
$DIMGAP
 40
1.524
  9
$DIMJUST
 70
     0
  9
$DIMSD1
 70
     0
  9
$DIMSD2
 70
     0
  9
$DIMTOLJ
 70
     0
  9
$DIMTZIN
 70
     1
  9
$DIMALTZ
 70
     0
  9
$DIMALTTZ
 70
     0
  9
$DIMUPT
 70
     0
  9
$DIMDEC
 70
     2
  9
$DIMTDEC
 70
     2
  9
$DIMALTU
 70
     2
  9
$DIMALTTD
 70
     3
  9
$DIMTXSTY
  7
Standard
  9
$DIMAUNIT
 70
     0
  9
$DIMADEC
 70
     2
  9
$DIMALTRND
 40
0.0
  9
$DIMAZIN
 70
     0
  9
$DIMDSEP
 70
    44
  9
$DIMATFIT
 70
     3
  9
$DIMFRAC
 70
     0
  9
$DIMLDRBLK
  1

  9
$DIMLUNIT
 70
     2
  9
$DIMLWD
 70
    -2
  9
$DIMLWE
 70
    -2
  9
$DIMTMOVE
 70
     0
  9
$LUNITS
 70
     2
  9
$LUPREC
 70
     2
  9
$SKETCHINC
 40
1.0
  9
$FILLETRAD
 40
0.0
  9
$AUNITS
 70
     0
  9
$AUPREC
 70
     2
  9
$MENU
  1
.
  9
$ELEVATION
 40
0.0
  9
$PELEVATION
 40
0.0
  9
$THICKNESS
 40
0.0
  9
$LIMCHECK
 70
     0
  9
$CHAMFERA
 40
0.0
  9
$CHAMFERB
 40
0.0
  9
$CHAMFERC
 40
0.0
  9
$CHAMFERD
 40
0.0
  9
$SKPOLY
 70
     0
  9
$TDCREATE
 40
2460111.700062303
  9
$TDUCREATE
 40
2460111.86672897
  9
$TDUPDATE
 40
2460111.700170729
  9
$TDUUPDATE
 40
2460111.866837396
  9
$TDINDWG
 40
0.0000000116
  9
$TDUSRTIMER
 40
0.0000000116
  9
$USRTIMER
 70
     1
  9
$ANGBASE
 50
0.0
  9
$ANGDIR
 70
     0
  9
$PDMODE
 70
     0
  9
$PDSIZE
 40
-1.0
  9
$PLINEWID
 40
0.0
  9
$SPLFRAME
 70
     0
  9
$SPLINETYPE
 70
     6
  9
$SPLINESEGS
 70
     8
  9
$HANDSEED
  5
20C
  9
$SURFTAB1
 70
     6
  9
$SURFTAB2
 70
     6
  9
$SURFTYPE
 70
     6
  9
$SURFU
 70
     6
  9
$SURFV
 70
     6
  9
$UCSBASE
  2

  9
$UCSNAME
  2

  9
$UCSORG
 10
0.0
 20
0.0
 30
0.0
  9
$UCSXDIR
 10
1.0
 20
0.0
 30
0.0
  9
$UCSYDIR
 10
0.0
 20
1.0
 30
0.0
  9
$UCSORTHOREF
  2

  9
$UCSORTHOVIEW
 70
     0
  9
$UCSORGTOP
 10
0.0
 20
0.0
 30
0.0
  9
$UCSORGBOTTOM
 10
0.0
 20
0.0
 30
0.0
  9
$UCSORGLEFT
 10
0.0
 20
0.0
 30
0.0
  9
$UCSORGRIGHT
 10
0.0
 20
0.0
 30
0.0
  9
$UCSORGFRONT
 10
0.0
 20
0.0
 30
0.0
  9
$UCSORGBACK
 10
0.0
 20
0.0
 30
0.0
  9
$PUCSBASE
  2

  9
$PUCSNAME
  2

  9
$PUCSORG
 10
0.0
 20
0.0
 30
0.0
  9
$PUCSXDIR
 10
1.0
 20
0.0
 30
0.0
  9
$PUCSYDIR
 10
0.0
 20
1.0
 30
0.0
  9
$PUCSORTHOREF
  2

  9
$PUCSORTHOVIEW
 70
     0
  9
$PUCSORGTOP
 10
0.0
 20
0.0
 30
0.0
  9
$PUCSORGBOTTOM
 10
0.0
 20
0.0
 30
0.0
  9
$PUCSORGLEFT
 10
0.0
 20
0.0
 30
0.0
  9
$PUCSORGRIGHT
 10
0.0
 20
0.0
 30
0.0
  9
$PUCSORGFRONT
 10
0.0
 20
0.0
 30
0.0
  9
$PUCSORGBACK
 10
0.0
 20
0.0
 30
0.0
  9
$USERI1
 70
     0
  9
$USERI2
 70
     0
  9
$USERI3
 70
     0
  9
$USERI4
 70
     0
  9
$USERI5
 70
     0
  9
$USERR1
 40
0.0
  9
$USERR2
 40
0.0
  9
$USERR3
 40
0.0
  9
$USERR4
 40
0.0
  9
$USERR5
 40
0.0
  9
$WORLDVIEW
 70
     1
  9
$SHADEDGE
 70
     3
  9
$SHADEDIF
 70
    70
  9
$TILEMODE
 70
     0
  9
$MAXACTVP
 70
    64
  9
$PINSBASE
 10
0.0
 20
0.0
 30
0.0
  9
$PLIMCHECK
 70
     0
  9
$PEXTMIN
 10
-66.675
 20
-163.714999976
 30
0.0
  9
$PEXTMAX
 10
66.675
 20
0.0
 30
0.0
  9
$PLIMMIN
 10
0.0
 20
0.0
  9
$PLIMMAX
 10
0.0
 20
0.0
  9
$UNITMODE
 70
     0
  9
$VISRETAIN
 70
     1
  9
$PLINEGEN
 70
     0
  9
$PSLTSCALE
 70
     1
  9
$TREEDEPTH
 70
  3020
  9
$CMLSTYLE
  2
Standard
  9
$CMLJUST
 70
     0
  9
$CMLSCALE
 40
20.0
  9
$PROXYGRAPHICS
 70
     1
  9
$MEASUREMENT
 70
     1
  9
$CELWEIGHT
370
    -1
  9
$ENDCAPS
280
     0
  9
$JOINSTYLE
280
     0
  9
$LWDISPLAY
290
     1
  9
$INSUNITS
 70
     4
  9
$HYPERLINKBASE
  1

  9
$STYLESHEET
  1

  9
$XEDIT
290
     1
  9
$CEPSNTYPE
380
     0
  9
$PSTYLEMODE
290
     1
  9
$FINGERPRINTGUID
  2
{a6dfc85f-7d7a-4d3d-8e4d-6bb2d3b61218}
  9
$VERSIONGUID
  2
{FAEB1C32-E019-11D5-929B-00C0DF256EC4}
  9
$EXTNAMES
290
     1
  9
$PSVPSCALE
 40
0.0
  9
$OLESTARTUP
290
     0
  0
ENDSEC
  0
SECTION
  2
CLASSES
  0
CLASS
  1
ACDBDICTIONARYWDFLT
  2
AcDbDictionaryWithDefault
  3
ObjectDBX Classes
 90
        0
280
     0
281
     0
  0
CLASS
  1
VISUALSTYLE
  2
AcDbVisualStyle
  3
ObjectDBX Classes
 90
     4095
280
     0
281
     0
  0
CLASS
  1
MATERIAL
  2
AcDbMaterial
  3
ObjectDBX Classes
 90
     1153
280
     0
281
     0
  0
CLASS
  1
SCALE
  2
AcDbScale
  3
ObjectDBX Classes
 90
     1153
280
     0
281
     0
  0
CLASS
  1
TABLESTYLE
  2
AcDbTableStyle
  3
ObjectDBX Classes
 90
     4095
280
     0
281
     0
  0
CLASS
  1
MLEADERSTYLE
  2
AcDbMLeaderStyle
  3
ACDB_MLEADERSTYLE_CLASS
 90
     4095
280
     0
281
     0
  0
CLASS
  1
SUN
  2
AcDbSun
  3
SCENEOE
 90
     1153
280
     0
281
     0
  0
CLASS
  1
ACDBPLACEHOLDER
  2
AcDbPlaceHolder
  3
ObjectDBX Classes
 90
        0
280
     0
281
     0
  0
CLASS
  1
LAYOUT
  2
AcDbLayout
  3
ObjectDBX Classes
 90
        0
280
     0
281
     0
  0
ENDSEC
  0
SECTION
  2
TABLES
  0
TABLE
  2
VPORT
  5
8
330
0
100
AcDbSymbolTable
 70
     1
  0
VPORT
  5
29
330
8
100
AcDbSymbolTableRecord
100
AcDbViewportTableRecord
  2
*Active
 70
     0
 10
0.0
 20
0.0
 11
1.0
 21
1.0
 12
0.0
 22
-81.857499988
 13
0.0
 23
0.0
 14
10.0
 24
10.0
 15
10.0
 25
10.0
 16
0.0
 26
0.0
 36
1.0
 17
0.0
 27
0.0
 37
0.0
 40
166.9892999755
 41
0.8145252422
 42
50.0
 43
0.0
 44
0.0
 50
0.0
 51
0.0
 71
     0
 72
   100
 73
     1
 74
     3
 75
     0
 76
     0
 77
     0
 78
     0
281
     0
 65
     1
110
0.0
120
0.0
130
0.0
111
1.0
121
0.0
131
0.0
112
0.0
122
1.0
132
0.0
 79
     0
146
0.0
  0
ENDTAB
  0
TABLE
  2
LTYPE
  5
5
330
0
100
AcDbSymbolTable
 70
     6
  0
LTYPE
  5
14
330
5
100
AcDbSymbolTableRecord
100
AcDbLinetypeTableRecord
  2
ByBlock
 70
     0
  3

 72
    65
 73
     0
 40
0.0
  0
LTYPE
  5
15
330
5
100
AcDbSymbolTableRecord
100
AcDbLinetypeTableRecord
  2
ByLayer
 70
     0
  3

 72
    65
 73
     0
 40
0.0
  0
LTYPE
  5
16
330
5
100
AcDbSymbolTableRecord
100
AcDbLinetypeTableRecord
  2
Continuous
 70
     0
  3
Solid line
 72
    65
 73
     0
 40
0.0
  0
LTYPE
  5
5E
330
5
100
AcDbSymbolTableRecord
100
AcDbLinetypeTableRecord
  2
HIDDEN
 70
     0
  3
Hidden __ __ __ __ __ __ __ __ __ __ __ __ __ __
 72
    65
 73
     2
 40
1.905
 49
1.27
 74
     0
 49
-0.635
 74
     0
  0
LTYPE
  5
5F
330
5
100
AcDbSymbolTableRecord
100
AcDbLinetypeTableRecord
  2
PHANTOM
 70
     0
  3
Phantom ______  __  __  ______  __  __  ______
 72
    65
 73
     6
 40
12.7
 49
6.35
 74
     0
 49
-1.27
 74
     0
 49
1.27
 74
     0
 49
-1.27
 74
     0
 49
1.27
 74
     0
 49
-1.27
 74
     0
  0
LTYPE
  5
60
330
5
100
AcDbSymbolTableRecord
100
AcDbLinetypeTableRecord
  2
CENTER
 70
     0
  3
Center ____ _ ____ _ ____ _ ____ _ ____ _ ____
 72
    65
 73
     4
 40
10.16
 49
6.35
 74
     0
 49
-1.27
 74
     0
 49
1.27
 74
     0
 49
-1.27
 74
     0
  0
LTYPE
  5
61
330
5
100
AcDbSymbolTableRecord
100
AcDbLinetypeTableRecord
  2
CENTERX2
 70
     0
  3
Center (2x) ________  __  ________  __  _____
 72
    65
 73
     4
 40
20.32
 49
12.7
 74
     0
 49
-2.54
 74
     0
 49
2.54
 74
     0
 49
-2.54
 74
     0
  0
LTYPE
  5
62
330
5
100
AcDbSymbolTableRecord
100
AcDbLinetypeTableRecord
  2
DOT2
 70
     0
  3
Dot (.5x) ........................................
 72
    65
 73
     2
 40
0.635
 49
0.0
 74
     0
 49
-0.635
 74
     0
  0
ENDTAB
  0
TABLE
  2
LAYER
  5
2
330
0
100
AcDbSymbolTable
 70
     1
  0
LAYER
  5
10
330
2
100
AcDbSymbolTableRecord
100
AcDbLayerTableRecord
  2
0
 70
     0
 62
     7
  6
Continuous
370
    -3
390
F
  0
ENDTAB
  0
TABLE
  2
STYLE
  5
3
330
0
100
AcDbSymbolTable
 70
     1
  0
STYLE
  5
11
330
3
100
AcDbSymbolTableRecord
100
AcDbTextStyleTableRecord
  2
Standard
 70
     0
 40
0.0
 41
1.0
 50
0.0
 71
     0
 42
3.5
  3
txt
  4

  0
ENDTAB
  0
TABLE
  2
VIEW
  5
6
330
0
100
AcDbSymbolTable
 70
     0
  0
ENDTAB
  0
TABLE
  2
UCS
  5
7
330
0
100
AcDbSymbolTable
 70
     0
  0
ENDTAB
  0
TABLE
  2
APPID
  5
9
330
0
100
AcDbSymbolTable
 70
     1
  0
APPID
  5
12
330
9
100
AcDbSymbolTableRecord
100
AcDbRegAppTableRecord
  2
ACAD
 70
     0
  0
ENDTAB
  0
TABLE
  2
DIMSTYLE
  5
A
330
0
100
AcDbSymbolTable
 70
     1
100
AcDbDimStyleTable
  0
DIMSTYLE
105
27
330
A
100
AcDbSymbolTableRecord
100
AcDbDimStyleTableRecord
  2
ISO-25
 70
     0
 41
2.5
 42
0.625
 43
3.75
 44
1.25
 73
     0
 74
     0
 77
     1
 78
     8
140
2.5
141
2.5
143
0.0393700787
147
0.625
171
     3
172
     1
178
     0
271
     2
272
     2
274
     3
278
    44
283
     0
284
     8
340
11
  0
ENDTAB
  0
TABLE
  2
BLOCK_RECORD
  5
1
330
0
100
AcDbSymbolTable
 70
     4
  0
BLOCK_RECORD
  5
1F
330
1
100
AcDbSymbolTableRecord
100
AcDbBlockTableRecord
  2
*Model_Space
340
22
  0
BLOCK_RECORD
  5
E4
330
1
100
AcDbSymbolTableRecord
100
AcDbBlockTableRecord
  2
*Paper_Space
340
E5
  0
BLOCK_RECORD
  5
1B
330
1
100
AcDbSymbolTableRecord
100
AcDbBlockTableRecord
  2
*Paper_Space0
340
1E
  0
BLOCK_RECORD
  5
23
330
1
100
AcDbSymbolTableRecord
100
AcDbBlockTableRecord
  2
*Paper_Space1
340
26
  0
BLOCK_RECORD
  5
C3
330
1
100
AcDbSymbolTableRecord
100
AcDbBlockTableRecord
  2
*Paper_Space2
340
C4
  0
BLOCK_RECORD
  5
1E2
330
1
100
AcDbSymbolTableRecord
100
AcDbBlockTableRecord
  2
*Paper_Space3
340
1E3
  0
ENDTAB
  0
ENDSEC
  0
SECTION
  2
BLOCKS
  0
BLOCK
  5
20
330
1F
100
AcDbEntity
  8
0
100
AcDbBlockBegin
  2
*Model_Space
 70
     0
 10
0.0
 20
0.0
 30
0.0
  3
*Model_Space
  1

  0
ENDBLK
  5
21
330
1F
100
AcDbEntity
  8
0
100
AcDbBlockEnd
  0
BLOCK
  5
E6
330
E4
100
AcDbEntity
 67
     1
  8
0
100
AcDbBlockBegin
  2
*Paper_Space
 70
     0
 10
0.0
 20
0.0
 30
0.0
  3
*Paper_Space
  1

  0
ENDBLK
  5
E7
330
E4
100
AcDbEntity
 67
     1
  8
0
100
AcDbBlockEnd
  0
BLOCK
  5
1C
330
1B
100
AcDbEntity
  8
0
100
AcDbBlockBegin
  2
*Paper_Space0
 70
     0
 10
0.0
 20
0.0
 30
0.0
  3
*Paper_Space0
  1

  0
LINE
  5
95
330
1B
100
AcDbEntity
  8
0
  6
Continuous
 62
     7
370
    25
100
AcDbLine
 10
-66.675
 20
-28.174999976
 30
0.0
 11
-60.675
 21
-34.174999976
 31
0.0
  0
LINE
  5
96
330
1B
100
AcDbEntity
  8
0
  6
Continuous
 62
     7
370
    25
100
AcDbLine
 10
60.675
 20
-34.174999976
 30
0.0
 11
66.675
 21
-28.174999976
 31
0.0
  0
LINE
  5
97
330
1B
100
AcDbEntity
  8
0
  6
Continuous
 62
     7
370
    25
100
AcDbLine
 10
66.675
 20
-28.174999976
 30
0.0
 11
66.675
 21
0.0
 31
0.0
  0
LINE
  5
98
330
1B
100
AcDbEntity
  8
0
  6
Continuous
 62
     7
370
    25
100
AcDbLine
 10
-66.675
 20
0.0
 30
0.0
 11
-66.675
 21
-28.174999976
 31
0.0
  0
LINE
  5
99
330
1B
100
AcDbEntity
  8
0
  6
Continuous
 62
     7
370
    25
100
AcDbLine
 10
60.675
 20
-34.174999976
 30
0.0
 11
-60.675
 21
-34.174999976
 31
0.0
  0
LINE
  5
9A
330
1B
100
AcDbEntity
  8
0
  6
Continuous
 62
     7
370
    25
100
AcDbLine
 10
66.675
 20
-28.174999976
 30
0.0
 11
-66.675
 21
-28.174999976
 31
0.0
  0
LINE
  5
9B
330
1B
100
AcDbEntity
  8
0
  6
Continuous
 62
     7
370
    25
100
AcDbLine
 10
66.675
 20
0.0
 30
0.0
 11
-66.675
 21
0.0
 31
0.0
  0
LINE
  5
9C
330
1B
100
AcDbEntity
  8
0
  6
Continuous
 62
     7
370
    25
100
AcDbLine
 10
42.545
 20
-163.714999976
 30
0.0
 11
42.545
 21
-34.174999976
 31
0.0
  0
LINE
  5
9D
330
1B
100
AcDbEntity
  8
0
  6
Continuous
 62
     7
370
    25
100
AcDbLine
 10
-42.545
 20
-163.714999976
 30
0.0
 11
-42.545
 21
-34.174999976
 31
0.0
  0
LINE
  5
9E
330
1B
100
AcDbEntity
  8
0
  6
Continuous
 62
     7
370
    25
100
AcDbLine
 10
-45.5463466799
 20
-163.714999976
 30
0.0
 11
-45.5463466799
 21
-34.174999976
 31
0.0
  0
LINE
  5
9F
330
1B
100
AcDbEntity
  8
0
  6
Continuous
 62
     7
370
    25
100
AcDbLine
 10
-50.7424991026
 20
-163.714999976
 30
0.0
 11
50.7424991026
 21
-163.714999976
 31
0.0
  0
LINE
  5
A0
330
1B
100
AcDbEntity
  8
0
  6
Continuous
 62
     7
370
    25
100
AcDbLine
 10
-50.7424991026
 20
-163.714999976
 30
0.0
 11
-50.7424991026
 21
-34.174999976
 31
0.0
  0
LINE
  5
A1
330
1B
100
AcDbEntity
  8
0
  6
Continuous
 62
     7
370
    25
100
AcDbLine
 10
45.5463466799
 20
-163.714999976
 30
0.0
 11
45.5463466799
 21
-34.174999976
 31
0.0
  0
LINE
  5
A2
330
1B
100
AcDbEntity
  8
0
  6
Continuous
 62
     7
370
    25
100
AcDbLine
 10
50.7424991026
 20
-163.714999976
 30
0.0
 11
50.7424991026
 21
-34.174999976
 31
0.0
  0
VIEWPORT
  5
201
330
1B
100
AcDbEntity
  8
0
100
AcDbViewport
 10
0.0
 20
0.0
 30
0.0
 40
205.6
 41
156.0
 68
     1
 69
     1
 12
0.0
 22
-81.857499988
 13
0.0
 23
0.0
 14
10.0
 24
10.0
 15
10.0
 25
10.0
 16
0.0
 26
0.0
 36
1.0
 17
0.0
 27
0.0
 37
0.0
 42
50.0
 43
0.0
 44
0.0
 45
166.9892999755
 50
0.0
 51
0.0
 72
   100
 90
   557152
  1

281
     0
 71
     1
 74
     0
110
0.0
120
0.0
130
0.0
111
1.0
121
0.0
131
0.0
112
0.0
122
1.0
132
0.0
 79
     0
146
0.0
  0
ENDBLK
  5
1D
330
1B
100
AcDbEntity
  8
0
100
AcDbBlockEnd
  0
BLOCK
  5
24
330
23
100
AcDbEntity
  8
0
100
AcDbBlockBegin
  2
*Paper_Space1
 70
     0
 10
0.0
 20
0.0
 30
0.0
  3
*Paper_Space1
  1

  0
LINE
  5
B5
330
23
100
AcDbEntity
  8
0
  6
Continuous
 62
     7
370
    25
100
AcDbLine
 10
-66.675
 20
-28.174999976
 30
0.0
 11
-60.675
 21
-34.174999976
 31
0.0
  0
LINE
  5
B6
330
23
100
AcDbEntity
  8
0
  6
Continuous
 62
     7
370
    25
100
AcDbLine
 10
60.675
 20
-34.174999976
 30
0.0
 11
66.675
 21
-28.174999976
 31
0.0
  0
LINE
  5
B7
330
23
100
AcDbEntity
  8
0
  6
Continuous
 62
     7
370
    25
100
AcDbLine
 10
66.675
 20
-28.174999976
 30
0.0
 11
66.675
 21
0.0
 31
0.0
  0
LINE
  5
B8
330
23
100
AcDbEntity
  8
0
  6
Continuous
 62
     7
370
    25
100
AcDbLine
 10
-66.675
 20
0.0
 30
0.0
 11
-66.675
 21
-28.174999976
 31
0.0
  0
LINE
  5
B9
330
23
100
AcDbEntity
  8
0
  6
Continuous
 62
     7
370
    25
100
AcDbLine
 10
60.675
 20
-34.174999976
 30
0.0
 11
-60.675
 21
-34.174999976
 31
0.0
  0
LINE
  5
BA
330
23
100
AcDbEntity
  8
0
  6
Continuous
 62
     7
370
    25
100
AcDbLine
 10
66.675
 20
-28.174999976
 30
0.0
 11
-66.675
 21
-28.174999976
 31
0.0
  0
LINE
  5
BB
330
23
100
AcDbEntity
  8
0
  6
Continuous
 62
     7
370
    25
100
AcDbLine
 10
66.675
 20
0.0
 30
0.0
 11
-66.675
 21
0.0
 31
0.0
  0
LINE
  5
BC
330
23
100
AcDbEntity
  8
0
  6
Continuous
 62
     7
370
    25
100
AcDbLine
 10
-28.0290238298
 20
-163.714999976
 30
0.0
 11
-28.0290238298
 21
-34.174999976
 31
0.0
  0
LINE
  5
BD
330
23
100
AcDbEntity
  8
0
  6
Continuous
 62
     7
370
    25
100
AcDbLine
 10
-34.0290238298
 20
-163.714999976
 30
0.0
 11
-34.0290238298
 21
-34.174999976
 31
0.0
  0
LINE
  5
BE
330
23
100
AcDbEntity
  8
0
  6
Continuous
 62
     7
370
    25
100
AcDbLine
 10
-34.0290238298
 20
-163.714999976
 30
0.0
 11
-28.0290238298
 21
-163.714999976
 31
0.0
  0
LINE
  5
BF
330
23
100
AcDbEntity
  8
0
  6
Continuous
 62
     7
370
    25
100
AcDbLine
 10
-19.8305388891
 20
-163.714999976
 30
0.0
 11
-19.8305388891
 21
-34.174999976
 31
0.0
  0
LINE
  5
C0
330
23
100
AcDbEntity
  8
0
  6
Continuous
 62
     7
370
    25
100
AcDbLine
 10
-22.8305388891
 20
-163.714999976
 30
0.0
 11
-22.8305388891
 21
-34.174999976
 31
0.0
  0
LINE
  5
C1
330
23
100
AcDbEntity
  8
0
  6
Continuous
 62
     7
370
    25
100
AcDbLine
 10
-22.8305388891
 20
-163.714999976
 30
0.0
 11
53.8595627189
 21
-163.714999976
 31
0.0
  0
LINE
  5
C2
330
23
100
AcDbEntity
  8
0
  6
Continuous
 62
     7
370
    25
100
AcDbLine
 10
53.8595627189
 20
-163.714999976
 30
0.0
 11
53.8595627189
 21
-34.174999976
 31
0.0
  0
VIEWPORT
  5
203
330
23
100
AcDbEntity
  8
0
100
AcDbViewport
 10
0.0
 20
0.0
 30
0.0
 40
205.6
 41
156.0
 68
     1
 69
     1
 12
0.0
 22
-81.857499988
 13
0.0
 23
0.0
 14
10.0
 24
10.0
 15
10.0
 25
10.0
 16
0.0
 26
0.0
 36
1.0
 17
0.0
 27
0.0
 37
0.0
 42
50.0
 43
0.0
 44
0.0
 45
166.9892999755
 50
0.0
 51
0.0
 72
   100
 90
   557152
  1

281
     0
 71
     1
 74
     0
110
0.0
120
0.0
130
0.0
111
1.0
121
0.0
131
0.0
112
0.0
122
1.0
132
0.0
 79
     0
146
0.0
  0
ENDBLK
  5
25
330
23
100
AcDbEntity
  8
0
100
AcDbBlockEnd
  0
BLOCK
  5
C5
330
C3
100
AcDbEntity
  8
0
100
AcDbBlockBegin
  2
*Paper_Space2
 70
     0
 10
0.0
 20
0.0
 30
0.0
  3
*Paper_Space2
  1

  0
LINE
  5
D6
330
C3
100
AcDbEntity
  8
0
  6
Continuous
 62
     7
370
    25
100
AcDbLine
 10
-66.675
 20
-28.174999976
 30
0.0
 11
-60.675
 21
-34.174999976
 31
0.0
  0
LINE
  5
D7
330
C3
100
AcDbEntity
  8
0
  6
Continuous
 62
     7
370
    25
100
AcDbLine
 10
60.675
 20
-34.174999976
 30
0.0
 11
66.675
 21
-28.174999976
 31
0.0
  0
LINE
  5
D8
330
C3
100
AcDbEntity
  8
0
  6
Continuous
 62
     7
370
    25
100
AcDbLine
 10
66.675
 20
-28.174999976
 30
0.0
 11
66.675
 21
0.0
 31
0.0
  0
LINE
  5
D9
330
C3
100
AcDbEntity
  8
0
  6
Continuous
 62
     7
370
    25
100
AcDbLine
 10
-66.675
 20
0.0
 30
0.0
 11
-66.675
 21
-28.174999976
 31
0.0
  0
LINE
  5
DA
330
C3
100
AcDbEntity
  8
0
  6
Continuous
 62
     7
370
    25
100
AcDbLine
 10
60.675
 20
-34.174999976
 30
0.0
 11
-60.675
 21
-34.174999976
 31
0.0
  0
LINE
  5
DB
330
C3
100
AcDbEntity
  8
0
  6
Continuous
 62
     7
370
    25
100
AcDbLine
 10
66.675
 20
-28.174999976
 30
0.0
 11
-66.675
 21
-28.174999976
 31
0.0
  0
LINE
  5
DC
330
C3
100
AcDbEntity
  8
0
  6
Continuous
 62
     7
370
    25
100
AcDbLine
 10
66.675
 20
0.0
 30
0.0
 11
-66.675
 21
0.0
 31
0.0
  0
LINE
  5
DD
330
C3
100
AcDbEntity
  8
0
  6
Continuous
 62
     7
370
    25
100
AcDbLine
 10
28.0290238298
 20
-163.714999976
 30
0.0
 11
28.0290238298
 21
-34.174999976
 31
0.0
  0
LINE
  5
DE
330
C3
100
AcDbEntity
  8
0
  6
Continuous
 62
     7
370
    25
100
AcDbLine
 10
34.0290238298
 20
-163.714999976
 30
0.0
 11
34.0290238298
 21
-34.174999976
 31
0.0
  0
LINE
  5
DF
330
C3
100
AcDbEntity
  8
0
  6
Continuous
 62
     7
370
    25
100
AcDbLine
 10
28.0290238298
 20
-163.714999976
 30
0.0
 11
34.0290238298
 21
-163.714999976
 31
0.0
  0
LINE
  5
E0
330
C3
100
AcDbEntity
  8
0
  6
Continuous
 62
     7
370
    25
100
AcDbLine
 10
22.8305388891
 20
-163.714999976
 30
0.0
 11
22.8305388891
 21
-34.174999976
 31
0.0
  0
LINE
  5
E1
330
C3
100
AcDbEntity
  8
0
  6
Continuous
 62
     7
370
    25
100
AcDbLine
 10
-53.8595627189
 20
-163.714999976
 30
0.0
 11
22.8305388891
 21
-163.714999976
 31
0.0
  0
LINE
  5
E2
330
C3
100
AcDbEntity
  8
0
  6
Continuous
 62
     7
370
    25
100
AcDbLine
 10
19.8305388891
 20
-163.714999976
 30
0.0
 11
19.8305388891
 21
-34.174999976
 31
0.0
  0
LINE
  5
E3
330
C3
100
AcDbEntity
  8
0
  6
Continuous
 62
     7
370
    25
100
AcDbLine
 10
-53.8595627189
 20
-163.714999976
 30
0.0
 11
-53.8595627189
 21
-34.174999976
 31
0.0
  0
VIEWPORT
  5
205
330
C3
100
AcDbEntity
  8
0
100
AcDbViewport
 10
0.0
 20
0.0
 30
0.0
 40
205.6
 41
156.0
 68
     1
 69
     1
 12
0.0
 22
-81.857499988
 13
0.0
 23
0.0
 14
10.0
 24
10.0
 15
10.0
 25
10.0
 16
0.0
 26
0.0
 36
1.0
 17
0.0
 27
0.0
 37
0.0
 42
50.0
 43
0.0
 44
0.0
 45
166.9892999755
 50
0.0
 51
0.0
 72
   100
 90
   557152
  1

281
     0
 71
     1
 74
     0
110
0.0
120
0.0
130
0.0
111
1.0
121
0.0
131
0.0
112
0.0
122
1.0
132
0.0
 79
     0
146
0.0
  0
ENDBLK
  5
C6
330
C3
100
AcDbEntity
  8
0
100
AcDbBlockEnd
  0
BLOCK
  5
1E4
330
1E2
100
AcDbEntity
  8
0
100
AcDbBlockBegin
  2
*Paper_Space3
 70
     0
 10
0.0
 20
0.0
 30
0.0
  3
*Paper_Space3
  1

  0
CIRCLE
  5
1E6
330
1E2
100
AcDbEntity
  8
0
  6
Continuous
 62
     7
370
    25
100
AcDbCircle
 10
0.0
 20
0.0
 30
0.0
 40
60.67500000000008
  0
CIRCLE
  5
1E7
330
1E2
100
AcDbEntity
  8
0
  6
Continuous
 62
     7
370
    25
100
AcDbCircle
 10
0.0
 20
0.0
 30
0.0
 40
66.67499999999993
  0
CIRCLE
  5
1E8
330
1E2
100
AcDbEntity
  8
0
  6
Continuous
 62
     7
370
    25
100
AcDbCircle
 10
0.0
 20
0.0
 30
0.0
 40
9.525000000000007
  0
LINE
  5
1F5
330
1E2
100
AcDbEntity
  8
0
  6
Continuous
 62
     7
370
    25
100
AcDbLine
 10
42.545
 20
-34.0290238298
 30
0.0
 11
-42.545
 21
-34.0290238298
 31
0.0
  0
LINE
  5
1F6
330
1E2
100
AcDbEntity
  8
0
  6
Continuous
 62
     7
370
    25
100
AcDbLine
 10
-42.545
 20
-34.0290238298
 30
0.0
 11
-42.545
 21
-28.0290238298
 31
0.0
  0
LINE
  5
1F7
330
1E2
100
AcDbEntity
  8
0
  6
Continuous
 62
     7
370
    25
100
AcDbLine
 10
-42.545
 20
-28.0290238298
 30
0.0
 11
42.545
 21
-28.0290238298
 31
0.0
  0
LINE
  5
1F8
330
1E2
100
AcDbEntity
  8
0
  6
Continuous
 62
     7
370
    25
100
AcDbLine
 10
42.545
 20
-28.0290238298
 30
0.0
 11
42.545
 21
-34.0290238298
 31
0.0
  0
LINE
  5
1F9
330
1E2
100
AcDbEntity
  8
0
  6
Continuous
 62
     7
370
    25
100
AcDbLine
 10
8.1974991026
 20
53.8595627189
 30
0.0
 11
50.7424991026
 21
-19.8305388891
 31
0.0
  0
LINE
  5
1FA
330
1E2
100
AcDbEntity
  8
0
  6
Continuous
 62
     7
370
    25
100
AcDbLine
 10
50.7424991026
 20
-19.8305388891
 30
0.0
 11
45.5463466799
 21
-22.8305388891
 31
0.0
  0
LINE
  5
1FB
330
1E2
100
AcDbEntity
  8
0
  6
Continuous
 62
     7
370
    25
100
AcDbLine
 10
45.5463466799
 20
-22.8305388891
 30
0.0
 11
3.0013466799
 21
50.8595627189
 31
0.0
  0
LINE
  5
1FC
330
1E2
100
AcDbEntity
  8
0
  6
Continuous
 62
     7
370
    25
100
AcDbLine
 10
3.0013466799
 20
50.8595627189
 30
0.0
 11
8.1974991026
 21
53.8595627189
 31
0.0
  0
LINE
  5
1FD
330
1E2
100
AcDbEntity
  8
0
  6
Continuous
 62
     7
370
    25
100
AcDbLine
 10
-50.7424991026
 20
-19.8305388891
 30
0.0
 11
-8.1974991026
 21
53.8595627189
 31
0.0
  0
LINE
  5
1FE
330
1E2
100
AcDbEntity
  8
0
  6
Continuous
 62
     7
370
    25
100
AcDbLine
 10
-8.1974991026
 20
53.8595627189
 30
0.0
 11
-3.0013466799
 21
50.8595627189
 31
0.0
  0
LINE
  5
1FF
330
1E2
100
AcDbEntity
  8
0
  6
Continuous
 62
     7
370
    25
100
AcDbLine
 10
-3.0013466799
 20
50.8595627189
 30
0.0
 11
-45.5463466799
 21
-22.8305388891
 31
0.0
  0
LINE
  5
200
330
1E2
100
AcDbEntity
  8
0
  6
Continuous
 62
     7
370
    25
100
AcDbLine
 10
-45.5463466799
 20
-22.8305388891
 30
0.0
 11
-50.7424991026
 21
-19.8305388891
 31
0.0
  0
VIEWPORT
  5
209
330
1E2
100
AcDbEntity
  8
0
100
AcDbViewport
 10
0.0
 20
0.0
 30
0.0
 40
205.6
 41
156.0
 68
     1
 69
     1
 12
0.0
 22
-81.857499988
 13
0.0
 23
0.0
 14
10.0
 24
10.0
 15
10.0
 25
10.0
 16
0.0
 26
0.0
 36
1.0
 17
0.0
 27
0.0
 37
0.0
 42
50.0
 43
0.0
 44
0.0
 45
166.9892999755
 50
0.0
 51
0.0
 72
   100
 90
   557152
  1

281
     0
 71
     1
 74
     0
110
0.0
120
0.0
130
0.0
111
1.0
121
0.0
131
0.0
112
0.0
122
1.0
132
0.0
 79
     0
146
0.0
  0
ENDBLK
  5
1E5
330
1E2
100
AcDbEntity
  8
0
100
AcDbBlockEnd
  0
ENDSEC
  0
SECTION
  2
ENTITIES
  0
LINE
  5
75
330
1F
100
AcDbEntity
  8
0
  6
Continuous
 62
     7
370
    25
100
AcDbLine
 10
-66.675
 20
-28.174999976
 30
0.0
 11
-60.675
 21
-34.174999976
 31
0.0
  0
LINE
  5
76
330
1F
100
AcDbEntity
  8
0
  6
Continuous
 62
     7
370
    25
100
AcDbLine
 10
60.675
 20
-34.174999976
 30
0.0
 11
66.675
 21
-28.174999976
 31
0.0
  0
LINE
  5
77
330
1F
100
AcDbEntity
  8
0
  6
Continuous
 62
     7
370
    25
100
AcDbLine
 10
66.675
 20
-28.174999976
 30
0.0
 11
66.675
 21
0.0
 31
0.0
  0
LINE
  5
78
330
1F
100
AcDbEntity
  8
0
  6
Continuous
 62
     7
370
    25
100
AcDbLine
 10
-66.675
 20
0.0
 30
0.0
 11
-66.675
 21
-28.174999976
 31
0.0
  0
LINE
  5
79
330
1F
100
AcDbEntity
  8
0
  6
Continuous
 62
     7
370
    25
100
AcDbLine
 10
60.675
 20
-34.174999976
 30
0.0
 11
-60.675
 21
-34.174999976
 31
0.0
  0
LINE
  5
7A
330
1F
100
AcDbEntity
  8
0
  6
Continuous
 62
     7
370
    25
100
AcDbLine
 10
66.675
 20
-28.174999976
 30
0.0
 11
-66.675
 21
-28.174999976
 31
0.0
  0
LINE
  5
7B
330
1F
100
AcDbEntity
  8
0
  6
Continuous
 62
     7
370
    25
100
AcDbLine
 10
66.675
 20
0.0
 30
0.0
 11
-66.675
 21
0.0
 31
0.0
  0
LINE
  5
7C
330
1F
100
AcDbEntity
  8
0
  6
Continuous
 62
     7
370
    25
100
AcDbLine
 10
8.1974991026
 20
-163.714999976
 30
0.0
 11
8.1974991026
 21
-34.174999976
 31
0.0
  0
LINE
  5
7D
330
1F
100
AcDbEntity
  8
0
  6
Continuous
 62
     7
370
    25
100
AcDbLine
 10
3.0013466799
 20
-163.714999976
 30
0.0
 11
3.0013466799
 21
-34.174999976
 31
0.0
  0
LINE
  5
7E
330
1F
100
AcDbEntity
  8
0
  6
Continuous
 62
     7
370
    25
100
AcDbLine
 10
50.7424991026
 20
-163.714999976
 30
0.0
 11
50.7424991026
 21
-34.174999976
 31
0.0
  0
LINE
  5
7F
330
1F
100
AcDbEntity
  8
0
  6
Continuous
 62
     7
370
    25
100
AcDbLine
 10
-8.1974991026
 20
-163.714999976
 30
0.0
 11
-8.1974991026
 21
-34.174999976
 31
0.0
  0
LINE
  5
80
330
1F
100
AcDbEntity
  8
0
  6
Continuous
 62
     7
370
    25
100
AcDbLine
 10
-50.7424991026
 20
-163.714999976
 30
0.0
 11
-50.7424991026
 21
-34.174999976
 31
0.0
  0
LINE
  5
81
330
1F
100
AcDbEntity
  8
0
  6
Continuous
 62
     7
370
    25
100
AcDbLine
 10
-50.7424991026
 20
-163.714999976
 30
0.0
 11
50.7424991026
 21
-163.714999976
 31
0.0
  0
LINE
  5
82
330
1F
100
AcDbEntity
  8
0
  6
Continuous
 62
     7
370
    25
100
AcDbLine
 10
-3.0013466799
 20
-163.714999976
 30
0.0
 11
-3.0013466799
 21
-34.174999976
 31
0.0
  0
CIRCLE
  5
E8
330
E4
100
AcDbEntity
 67
     1
  8
0
  6
Continuous
 62
     7
370
    25
100
AcDbCircle
 10
0.0
 20
0.0
 30
0.0
 40
12.50000000000001
  0
CIRCLE
  5
110
330
E4
100
AcDbEntity
 67
     1
  8
0
  6
Continuous
 62
     7
370
    25
100
AcDbCircle
 10
0.0
 20
0.0
 30
0.0
 40
19.04999999999999
  0
CIRCLE
  5
13C
330
E4
100
AcDbEntity
 67
     1
  8
0
  6
Continuous
 62
     7
370
    25
100
AcDbCircle
 10
0.0
 20
0.0
 30
0.0
 40
66.67499999999993
  0
CIRCLE
  5
13D
330
E4
100
AcDbEntity
 67
     1
  8
0
  6
Continuous
 62
     7
370
    25
100
AcDbCircle
 10
0.0
 20
0.0
 30
0.0
 40
64.13499999999986
  0
SPLINE
  5
152
330
E4
100
AcDbEntity
 67
     1
  8
0
  6
Continuous
 62
     7
370
    25
100
AcDbSpline
210
0.0
220
0.0
230
1.0
 70
     8
 71
     3
 72
     8
 73
     4
 74
     0
 42
0.00000001
 43
0.00000001
 40
0.0
 40
0.0
 40
0.0
 40
0.0
 40
1.0
 40
1.0
 40
1.0
 40
1.0
 10
30.13011166378872
 20
55.95247014675667
 30
0.0
 10
27.48862248516381
 20
55.97713231762846
 30
0.0
 10
24.7994479398394
 20
56.00118479103264
 30
0.0
 10
22.05640182554187
 20
56.02321631450179
 30
0.0
  0
LWPOLYLINE
  5
153
330
E4
100
AcDbEntity
 67
     1
  8
0
  6
Continuous
 62
     7
370
    25
100
AcDbPolyline
 90
        9
 70
   128
 43
0.0
 10
21.5383293394
 20
56.7073132409
 10
21.6115181907
 20
56.695963071
 10
21.683876336
 20
56.6620413879
 10
21.7545824982
 20
56.6059332082
 10
21.8228341504
 20
56.5282753694
 10
21.8878566246
 20
56.4299493012
 10
21.9489119047
 20
56.3120710212
 10
22.005307003
 20
56.1759784677
 10
22.0564018255
 20
56.0232163145
  0
LWPOLYLINE
  5
154
330
E4
100
AcDbEntity
 67
     1
  8
0
  6
Continuous
 62
     7
370
    25
100
AcDbPolyline
 90
        9
 70
   128
 43
0.0
 10
-21.5383293394
 20
56.7073132409
 10
-21.6115181907
 20
56.695963071
 10
-21.683876336
 20
56.6620413879
 10
-21.7545824982
 20
56.6059332082
 10
-21.8228341504
 20
56.5282753694
 10
-21.8878566246
 20
56.4299493012
 10
-21.9489119047
 20
56.3120710212
 10
-22.005307003
 20
56.1759784677
 10
-22.0564018255
 20
56.0232163145
  0
SPLINE
  5
155
330
E4
100
AcDbEntity
 67
     1
  8
0
  6
Continuous
 62
     7
370
    25
100
AcDbSpline
210
0.0
220
0.0
230
1.0
 70
     8
 71
     3
 72
     8
 73
     4
 74
     0
 42
0.00000001
 43
0.00000001
 40
0.0
 40
0.0
 40
0.0
 40
0.0
 40
1.0
 40
1.0
 40
1.0
 40
1.0
 10
-22.05640182554186
 20
56.02321631450179
 30
0.0
 10
-24.79944263824039
 20
56.00118483361388
 30
0.0
 10
-27.48862633807731
 20
55.97713228165586
 30
0.0
 10
-30.13011166378871
 20
55.95247014675667
 30
0.0
  0
SPLINE
  5
15D
330
E4
100
AcDbEntity
 67
     1
  8
0
  6
Continuous
 62
     7
370
    25
100
AcDbSpline
210
0.0
220
0.0
230
1.0
 70
     8
 71
     3
 72
     8
 73
     4
 74
     0
 42
0.00000001
 43
0.00000001
 40
0.0
 40
0.0
 40
0.0
 40
0.0
 40
1.0
 40
1.0
 40
1.0
 40
1.0
 10
22.05640182554187
 20
-56.02321631450237
 30
0.0
 10
24.7994426382404
 20
-56.00118483361447
 30
0.0
 10
27.48862633807732
 20
-55.97713228165644
 30
0.0
 10
30.13011166378872
 20
-55.95247014675725
 30
0.0
  0
LWPOLYLINE
  5
15E
330
E4
100
AcDbEntity
 67
     1
  8
0
  6
Continuous
 62
     7
370
    25
100
AcDbPolyline
 90
        9
 70
   128
 43
0.0
 10
22.0564018255
 20
-56.0232163145
 10
22.005307003
 20
-56.1759784677
 10
21.9489119047
 20
-56.3120710212
 10
21.8878566246
 20
-56.4299493012
 10
21.8228341504
 20
-56.5282753694
 10
21.7545824982
 20
-56.6059332082
 10
21.683876336
 20
-56.6620413879
 10
21.6115181907
 20
-56.695963071
 10
21.5383293394
 20
-56.7073132409
  0
SPLINE
  5
160
330
E4
100
AcDbEntity
 67
     1
  8
0
  6
Continuous
 62
     7
370
    25
100
AcDbSpline
210
0.0
220
0.0
230
1.0
 70
     8
 71
     3
 72
     8
 73
     4
 74
     0
 42
0.00000001
 43
0.00000001
 40
0.0
 40
0.0
 40
0.0
 40
0.0
 40
1.0
 40
1.0
 40
1.0
 40
1.0
 10
-30.13011166378871
 20
-55.95247014675725
 30
0.0
 10
-27.48862248516381
 20
-55.97713231762904
 30
0.0
 10
-24.79944793983939
 20
-56.00118479103322
 30
0.0
 10
-22.05640182554187
 20
-56.02321631450237
 30
0.0
  0
LWPOLYLINE
  5
161
330
E4
100
AcDbEntity
 67
     1
  8
0
  6
Continuous
 62
     7
370
    25
100
AcDbPolyline
 90
        9
 70
   128
 43
0.0
 10
-22.0564018255
 20
-56.0232163145
 10
-22.005307003
 20
-56.1759784677
 10
-21.9489119047
 20
-56.3120710212
 10
-21.8878566246
 20
-56.4299493012
 10
-21.8228341504
 20
-56.5282753694
 10
-21.7545824982
 20
-56.6059332082
 10
-21.683876336
 20
-56.6620413879
 10
-21.6115181907
 20
-56.695963071
 10
-21.5383293394
 20
-56.7073132409
  0
CIRCLE
  5
168
330
E4
100
AcDbEntity
 67
     1
  8
0
  6
Continuous
 62
     7
370
    25
100
AcDbCircle
 10
0.0
 20
0.0
 30
0.0
 40
12.7000000000157
  0
CIRCLE
  5
169
330
E4
100
AcDbEntity
 67
     1
  8
0
  6
Continuous
 62
     7
370
    25
100
AcDbCircle
 10
0.0
 20
0.0
 30
0.0
 40
17.65300000001568
  0
LINE
  5
174
330
E4
100
AcDbEntity
 67
     1
  8
0
  6
Continuous
 62
     7
370
    25
100
AcDbLine
 10
6.0
 20
49.1715728753
 30
0.0
 11
-6.0
 21
49.1715728753
 31
0.0
  0
LINE
  5
175
330
E4
100
AcDbEntity
 67
     1
  8
0
  6
Continuous
 62
     7
370
    25
100
AcDbLine
 10
-6.0
 20
50.5857864376
 30
0.0
 11
6.0
 21
50.5857864376
 31
0.0
  0
LINE
  5
176
330
E4
100
AcDbEntity
 67
     1
  8
0
  6
Continuous
 62
     7
370
    25
100
AcDbLine
 10
6.0
 20
56.112
 30
0.0
 11
6.0
 21
48.0
 31
0.0
  0
LINE
  5
177
330
E4
100
AcDbEntity
 67
     1
  8
0
  6
Continuous
 62
     7
370
    25
100
AcDbLine
 10
-6.0
 20
56.112
 30
0.0
 11
-6.0
 21
48.0
 31
0.0
  0
LINE
  5
178
330
E4
100
AcDbEntity
 67
     1
  8
0
  6
Continuous
 62
     7
370
    25
100
AcDbLine
 10
-6.0
 20
48.0
 30
0.0
 11
-24.4156200003
 21
48.0
 31
0.0
  0
LINE
  5
179
330
E4
100
AcDbEntity
 67
     1
  8
0
  6
Continuous
 62
     7
370
    25
100
AcDbLine
 10
24.4156200003
 20
48.0
 30
0.0
 11
6.0
 21
48.0
 31
0.0
  0
LINE
  5
17A
330
E4
100
AcDbEntity
 67
     1
  8
0
  6
Continuous
 62
     7
370
    25
100
AcDbLine
 10
24.4156200003
 20
-48.0
 30
0.0
 11
6.0
 21
-48.0
 31
0.0
  0
LINE
  5
17B
330
E4
100
AcDbEntity
 67
     1
  8
0
  6
Continuous
 62
     7
370
    25
100
AcDbLine
 10
6.0
 20
-48.0
 30
0.0
 11
6.0
 21
-56.112
 31
0.0
  0
LINE
  5
17C
330
E4
100
AcDbEntity
 67
     1
  8
0
  6
Continuous
 62
     7
370
    25
100
AcDbLine
 10
-6.0
 20
-49.1715728753
 30
0.0
 11
6.0
 21
-49.1715728753
 31
0.0
  0
LINE
  5
17D
330
E4
100
AcDbEntity
 67
     1
  8
0
  6
Continuous
 62
     7
370
    25
100
AcDbLine
 10
-6.0
 20
-48.0
 30
0.0
 11
-6.0
 21
-56.112
 31
0.0
  0
LINE
  5
17E
330
E4
100
AcDbEntity
 67
     1
  8
0
  6
Continuous
 62
     7
370
    25
100
AcDbLine
 10
-6.0
 20
-48.0
 30
0.0
 11
-24.4156200003
 21
-48.0
 31
0.0
  0
LINE
  5
17F
330
E4
100
AcDbEntity
 67
     1
  8
0
  6
Continuous
 62
     7
370
    25
100
AcDbLine
 10
-2.2479
 20
-34.925
 30
0.0
 11
-2.2479
 21
-44.45
 31
0.0
  0
LINE
  5
180
330
E4
100
AcDbEntity
 67
     1
  8
0
  6
Continuous
 62
     7
370
    25
100
AcDbLine
 10
2.2479
 20
-44.45
 30
0.0
 11
2.2479
 21
-34.925
 31
0.0
  0
LINE
  5
181
330
E4
100
AcDbEntity
 67
     1
  8
0
  6
Continuous
 62
     7
370
    25
100
AcDbLine
 10
-34.925
 20
2.2479
 30
0.0
 11
-44.45
 21
2.2479
 31
0.0
  0
LINE
  5
182
330
E4
100
AcDbEntity
 67
     1
  8
0
  6
Continuous
 62
     7
370
    25
100
AcDbLine
 10
-44.45
 20
-2.2479
 30
0.0
 11
-34.925
 21
-2.2479
 31
0.0
  0
LINE
  5
183
330
E4
100
AcDbEntity
 67
     1
  8
0
  6
Continuous
 62
     7
370
    25
100
AcDbLine
 10
2.2479
 20
34.925
 30
0.0
 11
2.2479
 21
44.45
 31
0.0
  0
LINE
  5
184
330
E4
100
AcDbEntity
 67
     1
  8
0
  6
Continuous
 62
     7
370
    25
100
AcDbLine
 10
-2.2479
 20
44.45
 30
0.0
 11
-2.2479
 21
34.925
 31
0.0
  0
LINE
  5
185
330
E4
100
AcDbEntity
 67
     1
  8
0
  6
Continuous
 62
     7
370
    25
100
AcDbLine
 10
34.925
 20
-2.2479
 30
0.0
 11
44.45
 21
-2.2479
 31
0.0
  0
LINE
  5
186
330
E4
100
AcDbEntity
 67
     1
  8
0
  6
Continuous
 62
     7
370
    25
100
AcDbLine
 10
44.45
 20
2.2479
 30
0.0
 11
34.925
 21
2.2479
 31
0.0
  0
LINE
  5
187
330
E4
100
AcDbEntity
 67
     1
  8
0
  6
Continuous
 62
     7
370
    25
100
AcDbLine
 10
6.0
 20
-50.5857864376
 30
0.0
 11
-6.0
 21
-50.5857864376
 31
0.0
  0
LINE
  5
188
330
E4
100
AcDbEntity
 67
     1
  8
0
  6
Continuous
 62
     7
370
    25
100
AcDbLine
 10
6.0
 20
55.5262135624
 30
0.0
 11
-6.0
 21
55.5262135624
 31
0.0
  0
LINE
  5
189
330
E4
100
AcDbEntity
 67
     1
  8
0
  6
Continuous
 62
     7
370
    25
100
AcDbLine
 10
-6.0
 20
-55.5262135624
 30
0.0
 11
6.0
 21
-55.5262135624
 31
0.0
  0
LINE
  5
18A
330
E4
100
AcDbEntity
 67
     1
  8
0
  6
Continuous
 62
     7
370
    25
100
AcDbLine
 10
-6.0
 20
56.112
 30
0.0
 11
6.0
 21
56.112
 31
0.0
  0
LINE
  5
18B
330
E4
100
AcDbEntity
 67
     1
  8
0
  6
Continuous
 62
     7
370
    25
100
AcDbLine
 10
6.0
 20
-56.112
 30
0.0
 11
-6.0
 21
-56.112
 31
0.0
  0
LINE
  5
18C
330
E4
100
AcDbEntity
 67
     1
  8
0
  6
Continuous
 62
     7
370
    25
100
AcDbLine
 10
-6.604
 20
62.8857965601
 30
0.0
 11
-6.604
 21
56.7073132409
 31
0.0
  0
LINE
  5
18D
330
E4
100
AcDbEntity
 67
     1
  8
0
  6
Continuous
 62
     7
370
    25
100
AcDbLine
 10
-29.4596012017
 20
56.7073132409
 30
0.0
 11
29.4596012017
 21
56.7073132409
 31
0.0
  0
LINE
  5
18E
330
E4
100
AcDbEntity
 67
     1
  8
0
  6
Continuous
 62
     7
370
    25
100
AcDbLine
 10
6.604
 20
56.7073132409
 30
0.0
 11
6.604
 21
62.8857965601
 31
0.0
  0
LINE
  5
18F
330
E4
100
AcDbEntity
 67
     1
  8
0
  6
Continuous
 62
     7
370
    25
100
AcDbLine
 10
6.604
 20
-62.8857965601
 30
0.0
 11
6.604
 21
-56.7073132409
 31
0.0
  0
LINE
  5
190
330
E4
100
AcDbEntity
 67
     1
  8
0
  6
Continuous
 62
     7
370
    25
100
AcDbLine
 10
29.4596012017
 20
-56.7073132409
 30
0.0
 11
-29.4596012017
 21
-56.7073132409
 31
0.0
  0
LINE
  5
191
330
E4
100
AcDbEntity
 67
     1
  8
0
  6
Continuous
 62
     7
370
    25
100
AcDbLine
 10
-6.604
 20
-56.7073132409
 30
0.0
 11
-6.604
 21
-62.8857965601
 31
0.0
  0
LINE
  5
192
330
E4
100
AcDbEntity
 67
     1
  8
0
  6
Continuous
 62
     7
370
    25
100
AcDbLine
 10
30.4078461909
 20
56.4682310245
 30
0.0
 11
30.1301116638
 21
55.9524701468
 31
0.0
  0
LINE
  5
193
330
E4
100
AcDbEntity
 67
     1
  8
0
  6
Continuous
 62
     7
370
    25
100
AcDbLine
 10
-30.1301116638
 20
55.9524701468
 30
0.0
 11
-30.4078461909
 21
56.4682310245
 31
0.0
  0
LINE
  5
194
330
E4
100
AcDbEntity
 67
     1
  8
0
  6
Continuous
 62
     7
370
    25
100
AcDbLine
 10
-30.1301116638
 20
-55.9524701468
 30
0.0
 11
-30.4078461909
 21
-56.4682310245
 31
0.0
  0
LINE
  5
195
330
E4
100
AcDbEntity
 67
     1
  8
0
  6
Continuous
 62
     7
370
    25
100
AcDbLine
 10
30.4078461909
 20
-56.4682310245
 30
0.0
 11
30.1301116638
 21
-55.9524701468
 31
0.0
  0
LINE
  5
196
330
E4
100
AcDbEntity
 67
     1
  8
0
  6
Continuous
 62
     7
370
    25
100
AcDbLine
 10
22.0564018255
 20
56.0232163145
 30
0.0
 11
21.5383293394
 21
54.7073132409
 31
0.0
  0
LINE
  5
197
330
E4
100
AcDbEntity
 67
     1
  8
0
  6
Continuous
 62
     7
370
    25
100
AcDbLine
 10
21.5383293394
 20
56.7073132409
 30
0.0
 11
21.5383293394
 21
54.7073132409
 31
0.0
  0
LINE
  5
198
330
E4
100
AcDbEntity
 67
     1
  8
0
  6
Continuous
 62
     7
370
    25
100
AcDbLine
 10
-21.5383293394
 20
54.7073132409
 30
0.0
 11
-22.0564018255
 21
56.0232163145
 31
0.0
  0
LINE
  5
199
330
E4
100
AcDbEntity
 67
     1
  8
0
  6
Continuous
 62
     7
370
    25
100
AcDbLine
 10
-21.5383293394
 20
56.7073132409
 30
0.0
 11
-21.5383293394
 21
54.7073132409
 31
0.0
  0
LINE
  5
19A
330
E4
100
AcDbEntity
 67
     1
  8
0
  6
Continuous
 62
     7
370
    25
100
AcDbLine
 10
-21.5383293394
 20
-54.7073132409
 30
0.0
 11
-21.5383293394
 21
-56.7073132409
 31
0.0
  0
LINE
  5
19B
330
E4
100
AcDbEntity
 67
     1
  8
0
  6
Continuous
 62
     7
370
    25
100
AcDbLine
 10
-21.5383293394
 20
-54.7073132409
 30
0.0
 11
-22.0564018255
 21
-56.0232163145
 31
0.0
  0
LINE
  5
19C
330
E4
100
AcDbEntity
 67
     1
  8
0
  6
Continuous
 62
     7
370
    25
100
AcDbLine
 10
21.5383293394
 20
-54.7073132409
 30
0.0
 11
21.5383293394
 21
-56.7073132409
 31
0.0
  0
LINE
  5
19D
330
E4
100
AcDbEntity
 67
     1
  8
0
  6
Continuous
 62
     7
370
    25
100
AcDbLine
 10
22.0564018255
 20
-56.0232163145
 30
0.0
 11
21.5383293394
 21
-54.7073132409
 31
0.0
  0
LINE
  5
19E
330
E4
100
AcDbEntity
 67
     1
  8
0
  6
Continuous
 62
     7
370
    25
100
AcDbLine
 10
21.5383293394
 20
54.7073132409
 30
0.0
 11
6.0
 21
54.7073132409
 31
0.0
  0
LINE
  5
19F
330
E4
100
AcDbEntity
 67
     1
  8
0
  6
Continuous
 62
     7
370
    25
100
AcDbLine
 10
-6.0
 20
54.7073132409
 30
0.0
 11
-21.5383293394
 21
54.7073132409
 31
0.0
  0
LINE
  5
1A0
330
E4
100
AcDbEntity
 67
     1
  8
0
  6
Continuous
 62
     7
370
    25
100
AcDbLine
 10
-21.5383293394
 20
-54.7073132409
 30
0.0
 11
-6.0
 21
-54.7073132409
 31
0.0
  0
LINE
  5
1A1
330
E4
100
AcDbEntity
 67
     1
  8
0
  6
Continuous
 62
     7
370
    25
100
AcDbLine
 10
6.0
 20
-54.7073132409
 30
0.0
 11
21.5383293394
 21
-54.7073132409
 31
0.0
  0
ARC
  5
1A2
330
E4
100
AcDbEntity
 67
     1
  8
0
  6
Continuous
 62
     7
370
    25
100
AcDbCircle
 10
-24.4156200003
 20
28.0
 30
0.0
 40
20.0
100
AcDbArc
 50
90.0
 51
131.0879864713
  0
ARC
  5
1A3
330
E4
100
AcDbEntity
 67
     1
  8
0
  6
Continuous
 62
     7
370
    25
100
AcDbCircle
 10
24.4156200003
 20
28.0
 30
0.0
 40
20.0
100
AcDbArc
 50
48.9120135287
 51
90.0
  0
ARC
  5
1A4
330
E4
100
AcDbEntity
 67
     1
  8
0
  6
Continuous
 62
     7
370
    25
100
AcDbCircle
 10
0.0
 20
0.0
 30
0.0
 40
57.15000000000002
100
AcDbArc
 50
311.0879864713
 51
48.9120135287
  0
ARC
  5
1A5
330
E4
100
AcDbEntity
 67
     1
  8
0
  6
Continuous
 62
     7
370
    25
100
AcDbCircle
 10
24.4156200003
 20
-28.0
 30
0.0
 40
19.99999999999995
100
AcDbArc
 50
270.0
 51
311.0879864713
  0
ARC
  5
1A6
330
E4
100
AcDbEntity
 67
     1
  8
0
  6
Continuous
 62
     7
370
    25
100
AcDbCircle
 10
-24.4156200003
 20
-28.0
 30
0.0
 40
20.00000000000002
100
AcDbArc
 50
228.9120135287
 51
270.0
  0
ARC
  5
1A7
330
E4
100
AcDbEntity
 67
     1
  8
0
  6
Continuous
 62
     7
370
    25
100
AcDbCircle
 10
0.0
 20
0.0
 30
0.0
 40
57.15000000000003
100
AcDbArc
 50
131.0879864713
 51
228.9120135287
  0
ARC
  5
1A8
330
E4
100
AcDbEntity
 67
     1
  8
0
  6
Continuous
 62
     7
370
    25
100
AcDbCircle
 10
0.0
 20
0.0
 30
0.0
 40
37.17290000000012
100
AcDbArc
 50
103.1365587869
 51
166.8634412131
  0
ARC
  5
1A9
330
E4
100
AcDbEntity
 67
     1
  8
0
  6
Continuous
 62
     7
370
    25
100
AcDbCircle
 10
-34.0110528909
 20
7.9375
 30
0.0
 40
2.247900000000013
100
AcDbArc
 50
166.8634412131
 51
346.8634412131
  0
ARC
  5
1AA
330
E4
100
AcDbEntity
 67
     1
  8
0
  6
Continuous
 62
     7
370
    25
100
AcDbCircle
 10
0.0
 20
0.0
 30
0.0
 40
32.67710000000009
100
AcDbArc
 50
103.1365587869
 51
166.8634412131
  0
ARC
  5
1AB
330
E4
100
AcDbEntity
 67
     1
  8
0
  6
Continuous
 62
     7
370
    25
100
AcDbCircle
 10
-7.9375
 20
34.0110528909
 30
0.0
 40
2.247900000000017
100
AcDbArc
 50
283.1365587869
 51
103.1365587869
  0
ARC
  5
1AC
330
E4
100
AcDbEntity
 67
     1
  8
0
  6
Continuous
 62
     7
370
    25
100
AcDbCircle
 10
0.0
 20
-44.45
 30
0.0
 40
2.247900000000009
100
AcDbArc
 50
180.0
 51
0.0
  0
ARC
  5
1AD
330
E4
100
AcDbEntity
 67
     1
  8
0
  6
Continuous
 62
     7
370
    25
100
AcDbCircle
 10
0.0
 20
-34.925
 30
0.0
 40
2.247900000000008
100
AcDbArc
 50
0.0
 51
180.0
  0
ARC
  5
1AE
330
E4
100
AcDbEntity
 67
     1
  8
0
  6
Continuous
 62
     7
370
    25
100
AcDbCircle
 10
0.0
 20
0.0
 30
0.0
 40
37.17290000000016
100
AcDbArc
 50
193.1365587869
 51
256.8634412131
  0
ARC
  5
1AF
330
E4
100
AcDbEntity
 67
     1
  8
0
  6
Continuous
 62
     7
370
    25
100
AcDbCircle
 10
-7.9375
 20
-34.0110528909
 30
0.0
 40
2.247900000000016
100
AcDbArc
 50
256.8634412131
 51
76.8634412131
  0
ARC
  5
1B0
330
E4
100
AcDbEntity
 67
     1
  8
0
  6
Continuous
 62
     7
370
    25
100
AcDbCircle
 10
0.0
 20
0.0
 30
0.0
 40
32.67710000000009
100
AcDbArc
 50
193.1365587869
 51
256.8634412131
  0
ARC
  5
1B1
330
E4
100
AcDbEntity
 67
     1
  8
0
  6
Continuous
 62
     7
370
    25
100
AcDbCircle
 10
-34.0110528909
 20
-7.9375
 30
0.0
 40
2.247900000000015
100
AcDbArc
 50
13.1365587869
 51
193.1365587869
  0
ARC
  5
1B2
330
E4
100
AcDbEntity
 67
     1
  8
0
  6
Continuous
 62
     7
370
    25
100
AcDbCircle
 10
0.0
 20
0.0
 30
0.0
 40
46.6979
100
AcDbArc
 50
190.2865606115
 51
259.7134393885
  0
ARC
  5
1B3
330
E4
100
AcDbEntity
 67
     1
  8
0
  6
Continuous
 62
     7
370
    25
100
AcDbCircle
 10
-7.9375
 20
-43.7355529718
 30
0.0
 40
2.247900000000015
100
AcDbArc
 50
259.7134393885
 51
79.7134393885
  0
ARC
  5
1B4
330
E4
100
AcDbEntity
 67
     1
  8
0
  6
Continuous
 62
     7
370
    25
100
AcDbCircle
 10
0.0
 20
0.0
 30
0.0
 40
42.20210000000006
100
AcDbArc
 50
190.2865606115
 51
259.7134393885
  0
ARC
  5
1B5
330
E4
100
AcDbEntity
 67
     1
  8
0
  6
Continuous
 62
     7
370
    25
100
AcDbCircle
 10
-43.7355529718
 20
-7.9375
 30
0.0
 40
2.247900000000022
100
AcDbArc
 50
10.2865606115
 51
190.2865606115
  0
ARC
  5
1B6
330
E4
100
AcDbEntity
 67
     1
  8
0
  6
Continuous
 62
     7
370
    25
100
AcDbCircle
 10
-44.45
 20
0.0
 30
0.0
 40
2.247900000000009
100
AcDbArc
 50
90.0
 51
270.0
  0
ARC
  5
1B7
330
E4
100
AcDbEntity
 67
     1
  8
0
  6
Continuous
 62
     7
370
    25
100
AcDbCircle
 10
-34.925
 20
0.0
 30
0.0
 40
2.247900000000008
100
AcDbArc
 50
270.0
 51
90.0
  0
ARC
  5
1B8
330
E4
100
AcDbEntity
 67
     1
  8
0
  6
Continuous
 62
     7
370
    25
100
AcDbCircle
 10
0.0
 20
0.0
 30
0.0
 40
37.17290000000017
100
AcDbArc
 50
13.1365587869
 51
76.8634412131
  0
ARC
  5
1B9
330
E4
100
AcDbEntity
 67
     1
  8
0
  6
Continuous
 62
     7
370
    25
100
AcDbCircle
 10
7.9375
 20
34.0110528909
 30
0.0
 40
2.247900000000019
100
AcDbArc
 50
76.8634412131
 51
256.8634412131
  0
ARC
  5
1BA
330
E4
100
AcDbEntity
 67
     1
  8
0
  6
Continuous
 62
     7
370
    25
100
AcDbCircle
 10
0.0
 20
0.0
 30
0.0
 40
32.67710000000007
100
AcDbArc
 50
13.1365587869
 51
76.8634412131
  0
ARC
  5
1BB
330
E4
100
AcDbEntity
 67
     1
  8
0
  6
Continuous
 62
     7
370
    25
100
AcDbCircle
 10
34.0110528909
 20
7.9375
 30
0.0
 40
2.247900000000024
100
AcDbArc
 50
193.1365587869
 51
13.1365587869
  0
ARC
  5
1BC
330
E4
100
AcDbEntity
 67
     1
  8
0
  6
Continuous
 62
     7
370
    25
100
AcDbCircle
 10
0.0
 20
44.45
 30
0.0
 40
2.247900000000009
100
AcDbArc
 50
0.0
 51
180.0
  0
ARC
  5
1BD
330
E4
100
AcDbEntity
 67
     1
  8
0
  6
Continuous
 62
     7
370
    25
100
AcDbCircle
 10
0.0
 20
34.925
 30
0.0
 40
2.247900000000008
100
AcDbArc
 50
180.0
 51
0.0
  0
ARC
  5
1BE
330
E4
100
AcDbEntity
 67
     1
  8
0
  6
Continuous
 62
     7
370
    25
100
AcDbCircle
 10
0.0
 20
0.0
 30
0.0
 40
46.69789999999999
100
AcDbArc
 50
100.2865606115
 51
169.7134393885
  0
ARC
  5
1BF
330
E4
100
AcDbEntity
 67
     1
  8
0
  6
Continuous
 62
     7
370
    25
100
AcDbCircle
 10
-43.7355529718
 20
7.9375
 30
0.0
 40
2.247900000000015
100
AcDbArc
 50
169.7134393885
 51
349.7134393885
  0
ARC
  5
1C0
330
E4
100
AcDbEntity
 67
     1
  8
0
  6
Continuous
 62
     7
370
    25
100
AcDbCircle
 10
0.0
 20
0.0
 30
0.0
 40
42.20209999999998
100
AcDbArc
 50
100.2865606115
 51
169.7134393885
  0
ARC
  5
1C1
330
E4
100
AcDbEntity
 67
     1
  8
0
  6
Continuous
 62
     7
370
    25
100
AcDbCircle
 10
-7.9375
 20
43.7355529718
 30
0.0
 40
2.247900000000024
100
AcDbArc
 50
280.2865606115
 51
100.2865606115
  0
ARC
  5
1C2
330
E4
100
AcDbEntity
 67
     1
  8
0
  6
Continuous
 62
     7
370
    25
100
AcDbCircle
 10
0.0
 20
0.0
 30
0.0
 40
46.6979
100
AcDbArc
 50
10.2865606115
 51
79.7134393885
  0
ARC
  5
1C3
330
E4
100
AcDbEntity
 67
     1
  8
0
  6
Continuous
 62
     7
370
    25
100
AcDbCircle
 10
7.9375
 20
43.7355529718
 30
0.0
 40
2.247900000000019
100
AcDbArc
 50
79.7134393885
 51
259.7134393885
  0
ARC
  5
1C4
330
E4
100
AcDbEntity
 67
     1
  8
0
  6
Continuous
 62
     7
370
    25
100
AcDbCircle
 10
0.0
 20
0.0
 30
0.0
 40
42.2021
100
AcDbArc
 50
10.2865606115
 51
79.7134393885
  0
ARC
  5
1C5
330
E4
100
AcDbEntity
 67
     1
  8
0
  6
Continuous
 62
     7
370
    25
100
AcDbCircle
 10
43.7355529718
 20
7.9375
 30
0.0
 40
2.247900000000028
100
AcDbArc
 50
190.2865606115
 51
10.2865606115
  0
ARC
  5
1C6
330
E4
100
AcDbEntity
 67
     1
  8
0
  6
Continuous
 62
     7
370
    25
100
AcDbCircle
 10
44.45
 20
0.0
 30
0.0
 40
2.24790000000001
100
AcDbArc
 50
270.0
 51
90.0
  0
ARC
  5
1C7
330
E4
100
AcDbEntity
 67
     1
  8
0
  6
Continuous
 62
     7
370
    25
100
AcDbCircle
 10
34.925
 20
0.0
 30
0.0
 40
2.247900000000008
100
AcDbArc
 50
90.0
 51
270.0
  0
ARC
  5
1C8
330
E4
100
AcDbEntity
 67
     1
  8
0
  6
Continuous
 62
     7
370
    25
100
AcDbCircle
 10
0.0
 20
0.0
 30
0.0
 40
46.69789999999994
100
AcDbArc
 50
280.2865606115
 51
349.7134393885
  0
ARC
  5
1C9
330
E4
100
AcDbEntity
 67
     1
  8
0
  6
Continuous
 62
     7
370
    25
100
AcDbCircle
 10
43.7355529718
 20
-7.9375
 30
0.0
 40
2.247900000000016
100
AcDbArc
 50
349.7134393885
 51
169.7134393885
  0
ARC
  5
1CA
330
E4
100
AcDbEntity
 67
     1
  8
0
  6
Continuous
 62
     7
370
    25
100
AcDbCircle
 10
0.0
 20
0.0
 30
0.0
 40
42.20209999999997
100
AcDbArc
 50
280.2865606115
 51
349.7134393885
  0
ARC
  5
1CB
330
E4
100
AcDbEntity
 67
     1
  8
0
  6
Continuous
 62
     7
370
    25
100
AcDbCircle
 10
7.9375
 20
-43.7355529718
 30
0.0
 40
2.247900000000024
100
AcDbArc
 50
100.2865606115
 51
280.2865606115
  0
ARC
  5
1CC
330
E4
100
AcDbEntity
 67
     1
  8
0
  6
Continuous
 62
     7
370
    25
100
AcDbCircle
 10
0.0
 20
0.0
 30
0.0
 40
37.17290000000019
100
AcDbArc
 50
283.1365587869
 51
346.8634412131
  0
ARC
  5
1CD
330
E4
100
AcDbEntity
 67
     1
  8
0
  6
Continuous
 62
     7
370
    25
100
AcDbCircle
 10
34.0110528909
 20
-7.9375
 30
0.0
 40
2.24790000000002
100
AcDbArc
 50
346.8634412131
 51
166.8634412131
  0
ARC
  5
1CE
330
E4
100
AcDbEntity
 67
     1
  8
0
  6
Continuous
 62
     7
370
    25
100
AcDbCircle
 10
0.0
 20
0.0
 30
0.0
 40
32.67710000000005
100
AcDbArc
 50
283.1365587869
 51
346.8634412131
  0
ARC
  5
1CF
330
E4
100
AcDbEntity
 67
     1
  8
0
  6
Continuous
 62
     7
370
    25
100
AcDbCircle
 10
7.9375
 20
-34.0110528909
 30
0.0
 40
2.247900000000021
100
AcDbArc
 50
103.1365587869
 51
283.1365587869
  0
ARC
  5
1D0
330
E4
100
AcDbEntity
 67
     1
  8
0
  6
Continuous
 62
     7
370
    25
100
AcDbCircle
 10
-5.604
 20
62.8857965601
 30
0.0
 40
1.000000000000007
100
AcDbArc
 50
95.0924000054
 51
180.0
  0
ARC
  5
1D1
330
E4
100
AcDbEntity
 67
     1
  8
0
  6
Continuous
 62
     7
370
    25
100
AcDbCircle
 10
-29.4596012017
 20
54.7073132409
 30
0.0
 40
2.000000000000339
100
AcDbArc
 50
90.0
 51
118.3022311055
  0
ARC
  5
1D2
330
E4
100
AcDbEntity
 67
     1
  8
0
  6
Continuous
 62
     7
370
    25
100
AcDbCircle
 10
29.4596012017
 20
54.7073132409
 30
0.0
 40
1.99999999999979
100
AcDbArc
 50
61.6977688945
 51
90.0
  0
ARC
  5
1D3
330
E4
100
AcDbEntity
 67
     1
  8
0
  6
Continuous
 62
     7
370
    25
100
AcDbCircle
 10
5.604
 20
62.8857965601
 30
0.0
 40
1.000000000000019
100
AcDbArc
 50
0.0
 51
84.9075999946
  0
ARC
  5
1D4
330
E4
100
AcDbEntity
 67
     1
  8
0
  6
Continuous
 62
     7
370
    25
100
AcDbCircle
 10
29.4596012017
 20
-54.7073132409
 30
0.0
 40
2.000000000000426
100
AcDbArc
 50
270.0
 51
298.3022311055
  0
ARC
  5
1D5
330
E4
100
AcDbEntity
 67
     1
  8
0
  6
Continuous
 62
     7
370
    25
100
AcDbCircle
 10
5.604
 20
-62.8857965601
 30
0.0
 40
1.00000000000002
100
AcDbArc
 50
275.0924000054
 51
0.0
  0
ARC
  5
1D6
330
E4
100
AcDbEntity
 67
     1
  8
0
  6
Continuous
 62
     7
370
    25
100
AcDbCircle
 10
-5.604
 20
-62.8857965601
 30
0.0
 40
1.000000000000023
100
AcDbArc
 50
180.0
 51
264.9075999946
  0
ARC
  5
1D7
330
E4
100
AcDbEntity
 67
     1
  8
0
  6
Continuous
 62
     7
370
    25
100
AcDbCircle
 10
-29.4596012017
 20
-54.7073132409
 30
0.0
 40
1.999999999999799
100
AcDbArc
 50
241.6977688945
 51
270.0
  0
ARC
  5
1D8
330
E4
100
AcDbEntity
 67
     1
  8
0
  6
Continuous
 62
     7
370
    25
100
AcDbCircle
 10
29.2206942741
 20
55.8198761194
 30
0.0
 40
0.9190327332072269
100
AcDbArc
 50
8.2953348366
 51
74.9326226077
  0
ARC
  5
1D9
330
E4
100
AcDbEntity
 67
     1
  8
0
  6
Continuous
 62
     7
370
    25
100
AcDbCircle
 10
-29.2206942741
 20
55.8198761194
 30
0.0
 40
0.9190327332072153
100
AcDbArc
 50
105.0673773923
 51
171.7046651634
  0
ARC
  5
1DA
330
E4
100
AcDbEntity
 67
     1
  8
0
  6
Continuous
 62
     7
370
    25
100
AcDbCircle
 10
0.0
 20
0.0
 30
0.0
 40
63.54921356237307
100
AcDbArc
 50
118.3022311055
 51
241.6977688945
  0
ARC
  5
1DB
330
E4
100
AcDbEntity
 67
     1
  8
0
  6
Continuous
 62
     7
370
    25
100
AcDbCircle
 10
0.0
 20
0.0
 30
0.0
 40
63.54921356237306
100
AcDbArc
 50
298.3022311055
 51
61.6977688945
  0
ARC
  5
1DC
330
E4
100
AcDbEntity
 67
     1
  8
0
  6
Continuous
 62
     7
370
    25
100
AcDbCircle
 10
29.2206942741
 20
-55.8198761194
 30
0.0
 40
0.9190327332072368
100
AcDbArc
 50
285.0673773924
 51
351.7046651634
  0
ARC
  5
1DD
330
E4
100
AcDbEntity
 67
     1
  8
0
  6
Continuous
 62
     7
370
    25
100
AcDbCircle
 10
-29.2206942741
 20
-55.8198761194
 30
0.0
 40
0.9190327332072485
100
AcDbArc
 50
188.2953348366
 51
254.9326226077
  0
ARC
  5
1DE
330
E4
100
AcDbEntity
 67
     1
  8
0
  6
Continuous
 62
     7
370
    25
100
AcDbCircle
 10
0.0
 20
0.0
 30
0.0
 40
60.20868398919927
100
AcDbArc
 50
111.4896142498
 51
248.5103857502
  0
ARC
  5
1DF
330
E4
100
AcDbEntity
 67
     1
  8
0
  6
Continuous
 62
     7
370
    25
100
AcDbCircle
 10
0.0
 20
0.0
 30
0.0
 40
60.20868398919926
100
AcDbArc
 50
291.4896142498
 51
68.5103857502
  0
ARC
  5
1E0
330
E4
100
AcDbEntity
 67
     1
  8
0
  6
Continuous
 62
     7
370
    25
100
AcDbCircle
 10
0.0
 20
0.0
 30
0.0
 40
58.79447042682619
100
AcDbArc
 50
111.4896142498
 51
248.5103857502
  0
ARC
  5
1E1
330
E4
100
AcDbEntity
 67
     1
  8
0
  6
Continuous
 62
     7
370
    25
100
AcDbCircle
 10
0.0
 20
0.0
 30
0.0
 40
58.79447042682618
100
AcDbArc
 50
291.4896142498
 51
68.5103857502
  0
VIEWPORT
  5
207
330
E4
100
AcDbEntity
 67
     1
  8
0
100
AcDbViewport
 10
0.0
 20
0.0
 30
0.0
 40
205.6
 41
156.0
 68
     1
 69
     1
 12
0.0
 22
-81.857499988
 13
0.0
 23
0.0
 14
10.0
 24
10.0
 15
10.0
 25
10.0
 16
0.0
 26
0.0
 36
1.0
 17
0.0
 27
0.0
 37
0.0
 42
50.0
 43
0.0
 44
0.0
 45
166.9892999755
 50
0.0
 51
0.0
 72
   100
 90
   557152
  1

281
     0
 71
     1
 74
     0
110
0.0
120
0.0
130
0.0
111
1.0
121
0.0
131
0.0
112
0.0
122
1.0
132
0.0
 79
     0
146
0.0
  0
ENDSEC
  0
SECTION
  2
OBJECTS
  0
DICTIONARY
  5
C
330
0
100
AcDbDictionary
281
     1
  3
ACAD_GROUP
350
D
  3
ACAD_LAYOUT
350
1A
  3
ACAD_MLINESTYLE
350
17
  3
ACAD_PLOTSETTINGS
350
19
  3
ACAD_PLOTSTYLENAME
350
E
  3
ACAD_SCALELIST
350
47
  3
DWGPROPS
350
20B
  0
DICTIONARY
  5
D
102
{ACAD_REACTORS
330
C
102
}
330
C
100
AcDbDictionary
281
     1
  0
DICTIONARY
  5
1A
102
{ACAD_REACTORS
330
C
102
}
330
C
100
AcDbDictionary
281
     1
  3
_Back
350
1E
  3
_Bottom
350
1E3
  3
_Left
350
26
  3
_Right
350
C4
  3
_Top
350
E5
  3
Model
350
22
  0
DICTIONARY
  5
17
102
{ACAD_REACTORS
330
C
102
}
330
C
100
AcDbDictionary
281
     1
  3
Standard
350
18
  0
DICTIONARY
  5
19
102
{ACAD_REACTORS
330
C
102
}
330
C
100
AcDbDictionary
281
     1
  0
ACDBDICTIONARYWDFLT
  5
E
102
{ACAD_REACTORS
330
C
102
}
330
C
100
AcDbDictionary
281
     1
  3
Normal
350
F
100
AcDbDictionaryWithDefault
340
F
  0
DICTIONARY
  5
47
102
{ACAD_REACTORS
330
C
102
}
330
C
100
AcDbDictionary
281
     1
  3
A0
350
48
  3
A1
350
49
  3
A2
350
4A
  3
A3
350
4B
  3
A4
350
4C
  3
A5
350
4D
  3
A6
350
4E
  3
A7
350
4F
  3
A8
350
50
  3
A9
350
51
  3
B0
350
52
  3
B1
350
53
  3
B2
350
54
  3
B3
350
55
  3
B4
350
56
  3
B5
350
57
  3
B6
350
58
  0
XRECORD
  5
20B
102
{ACAD_REACTORS
330
C
102
}
330
C
100
AcDbXrecord
280
     1
  1
DWGPROPS COOKIE
  2

  3

  4

  6

  7

  8
Zach Robinson
  9

300
=
301
=
302
=
303
=
304
=
305
=
306
=
307
=
308
=
309
=
 40
0.0
 41
2460111.86672897
 42
2460111.866837396
  1

 90
        0
  0
LAYOUT
  5
1E
102
{ACAD_REACTORS
330
1A
102
}
330
1A
100
AcDbPlotSettings
  1

  2
none_device
  4
ISO_A4_(210.00_x_297.00_MM)
  6

 40
7.5
 41
20.0
 42
7.5
 43
20.0
 44
210.0
 45
297.0
 46
0.0
 47
0.0
 48
0.0
 49
0.0
140
0.0
141
0.0
142
1.0
143
0.8395641024
 70
   688
 72
     1
 73
     1
 74
     1
  7

 75
     0
147
1.1910942799
148
66.675
149
163.714999976
100
AcDbLayout
  1
_Back
 70
     1
 71
     1
 10
-83.4662820488
 20
-170.0117307443
 11
165.8842563762
 21
6.2967307683
 12
0.0
 22
0.0
 32
0.0
 14
1.0000000000E+20
 24
1.0000000000E+20
 34
1.0000000000E+20
 15
-1.0000000000E+20
 25
-1.0000000000E+20
 35
-1.0000000000E+20
146
0.0
 13
0.0
 23
0.0
 33
0.0
 16
1.0
 26
0.0
 36
0.0
 17
0.0
 27
1.0
 37
0.0
 76
     0
330
1B
331
201
  0
LAYOUT
  5
1E3
102
{ACAD_REACTORS
330
1A
102
}
330
1A
100
AcDbPlotSettings
  1

  2
none_device
  4
ISO_A4_(210.00_x_297.00_MM)
  6

 40
7.5
 41
20.0
 42
7.5
 43
20.0
 44
210.0
 45
297.0
 46
0.0
 47
0.0
 48
0.0
 49
0.0
140
0.0
141
0.0
142
1.0
143
0.8395641024
 70
   688
 72
     1
 73
     1
 74
     1
  7

 75
     0
147
1.1910942799
148
66.675
149
163.714999976
100
AcDbLayout
  1
_Bottom
 70
     1
 71
     5
 10
0.0
 20
0.0
 11
0.0
 21
0.0
 12
0.0
 22
0.0
 32
0.0
 14
0.0
 24
0.0
 34
0.0
 15
0.0
 25
0.0
 35
0.0
146
0.0
 13
0.0
 23
0.0
 33
0.0
 16
1.0
 26
0.0
 36
0.0
 17
0.0
 27
1.0
 37
0.0
 76
     0
330
1E2
331
209
  0
LAYOUT
  5
26
102
{ACAD_REACTORS
330
1A
102
}
330
1A
100
AcDbPlotSettings
  1

  2
none_device
  4
ISO_A4_(210.00_x_297.00_MM)
  6

 40
7.5
 41
20.0
 42
7.5
 43
20.0
 44
210.0
 45
297.0
 46
0.0
 47
0.0
 48
0.0
 49
0.0
140
0.0
141
0.0
142
1.0
143
0.8395641024
 70
   688
 72
     1
 73
     1
 74
     1
  7

 75
     0
147
1.1910942799
148
66.675
149
163.714999976
100
AcDbLayout
  1
_Left
 70
     1
 71
     2
 10
0.0
 20
0.0
 11
0.0
 21
0.0
 12
0.0
 22
0.0
 32
0.0
 14
0.0
 24
0.0
 34
0.0
 15
0.0
 25
0.0
 35
0.0
146
0.0
 13
0.0
 23
0.0
 33
0.0
 16
1.0
 26
0.0
 36
0.0
 17
0.0
 27
1.0
 37
0.0
 76
     0
330
23
331
203
  0
LAYOUT
  5
C4
102
{ACAD_REACTORS
330
1A
102
}
330
1A
100
AcDbPlotSettings
  1

  2
none_device
  4
ISO_A4_(210.00_x_297.00_MM)
  6

 40
7.5
 41
20.0
 42
7.5
 43
20.0
 44
210.0
 45
297.0
 46
0.0
 47
0.0
 48
0.0
 49
0.0
140
0.0
141
0.0
142
1.0
143
0.8395641024
 70
   688
 72
     1
 73
     1
 74
     1
  7

 75
     0
147
1.1910942799
148
66.675
149
163.714999976
100
AcDbLayout
  1
_Right
 70
     1
 71
     3
 10
0.0
 20
0.0
 11
0.0
 21
0.0
 12
0.0
 22
0.0
 32
0.0
 14
0.0
 24
0.0
 34
0.0
 15
0.0
 25
0.0
 35
0.0
146
0.0
 13
0.0
 23
0.0
 33
0.0
 16
1.0
 26
0.0
 36
0.0
 17
0.0
 27
1.0
 37
0.0
 76
     0
330
C3
331
205
  0
LAYOUT
  5
E5
102
{ACAD_REACTORS
330
1A
102
}
330
1A
100
AcDbPlotSettings
  1

  2
none_device
  4
ANSI_A_(11.00_x_8.50_Inches)
  6

 40
6.35
 41
19.05
 42
6.35000508
 43
19.05000254
 44
279.4
 45
215.9
 46
133.34999746
 47
195.77049873
 48
0.0
 49
0.0
140
0.0
141
0.0
142
0.0514002993
143
1.0
 70
   672
 72
     0
 73
     0
 74
     1
  7

 75
     0
147
0.0524934376
148
1693.545
149
1693.5449999999
100
AcDbLayout
  1
_Top
 70
     1
 71
     4
 10
0.0
 20
0.0
 11
0.0
 21
0.0
 12
0.0
 22
0.0
 32
0.0
 14
-66.675
 24
-163.714999976
 34
0.0
 15
66.675
 25
0.0
 35
0.0
146
0.0
 13
0.0
 23
0.0
 33
0.0
 16
1.0
 26
0.0
 36
0.0
 17
0.0
 27
1.0
 37
0.0
 76
     0
330
E4
331
207
  0
LAYOUT
  5
22
102
{ACAD_REACTORS
330
1A
102
}
330
1A
100
AcDbPlotSettings
  1

  2
none_device
  4
Letter_(8.50_x_11.00_Inches)
  6

 40
6.35
 41
6.35
 42
6.35000508
 43
6.35000508
 44
215.9
 45
279.4
 46
0.0
 47
0.0
 48
0.0
 49
0.0
140
0.0
141
0.0
142
1.0
143
1.0
 70
  1712
 72
     1
 73
     0
 74
     0
  7

 75
     0
147
1.0
148
0.0
149
0.0
100
AcDbLayout
  1
Model
 70
     1
 71
     0
 10
0.0
 20
0.0
 11
420.0
 21
297.0
 12
0.0
 22
0.0
 32
0.0
 14
-66.675
 24
-163.714999976
 34
0.0
 15
66.675
 25
0.0
 35
0.0
146
0.0
 13
0.0
 23
0.0
 33
0.0
 16
1.0
 26
0.0
 36
0.0
 17
0.0
 27
1.0
 37
0.0
 76
     0
330
1F
331
29
  0
MLINESTYLE
  5
18
102
{ACAD_REACTORS
330
17
102
}
330
17
100
AcDbMlineStyle
  2
Standard
 70
     0
  3

 62
   256
 51
90.0
 52
90.0
 71
     2
 49
0.5
 62
   256
  6
BYLAYER
 49
-0.5
 62
   256
  6
BYLAYER
  0
ACDBPLACEHOLDER
  5
F
102
{ACAD_REACTORS
330
E
102
}
330
E
  0
SCALE
  5
48
102
{ACAD_REACTORS
330
47
102
}
330
47
100
AcDbScale
 70
     0
300
1:1
140
1.0
141
1.0
290
     1
  0
SCALE
  5
49
102
{ACAD_REACTORS
330
47
102
}
330
47
100
AcDbScale
 70
     0
300
1:2
140
1.0
141
2.0
290
     0
  0
SCALE
  5
4A
102
{ACAD_REACTORS
330
47
102
}
330
47
100
AcDbScale
 70
     0
300
1:4
140
1.0
141
4.0
290
     0
  0
SCALE
  5
4B
102
{ACAD_REACTORS
330
47
102
}
330
47
100
AcDbScale
 70
     0
300
1:5
140
1.0
141
5.0
290
     0
  0
SCALE
  5
4C
102
{ACAD_REACTORS
330
47
102
}
330
47
100
AcDbScale
 70
     0
300
1:8
140
1.0
141
8.0
290
     0
  0
SCALE
  5
4D
102
{ACAD_REACTORS
330
47
102
}
330
47
100
AcDbScale
 70
     0
300
1:10
140
1.0
141
10.0
290
     0
  0
SCALE
  5
4E
102
{ACAD_REACTORS
330
47
102
}
330
47
100
AcDbScale
 70
     0
300
1:16
140
1.0
141
16.0
290
     0
  0
SCALE
  5
4F
102
{ACAD_REACTORS
330
47
102
}
330
47
100
AcDbScale
 70
     0
300
1:20
140
1.0
141
20.0
290
     0
  0
SCALE
  5
50
102
{ACAD_REACTORS
330
47
102
}
330
47
100
AcDbScale
 70
     0
300
1:30
140
1.0
141
30.0
290
     0
  0
SCALE
  5
51
102
{ACAD_REACTORS
330
47
102
}
330
47
100
AcDbScale
 70
     0
300
1:40
140
1.0
141
40.0
290
     0
  0
SCALE
  5
52
102
{ACAD_REACTORS
330
47
102
}
330
47
100
AcDbScale
 70
     0
300
1:50
140
1.0
141
50.0
290
     0
  0
SCALE
  5
53
102
{ACAD_REACTORS
330
47
102
}
330
47
100
AcDbScale
 70
     0
300
1:100
140
1.0
141
100.0
290
     0
  0
SCALE
  5
54
102
{ACAD_REACTORS
330
47
102
}
330
47
100
AcDbScale
 70
     0
300
2:1
140
2.0
141
1.0
290
     0
  0
SCALE
  5
55
102
{ACAD_REACTORS
330
47
102
}
330
47
100
AcDbScale
 70
     0
300
4:1
140
4.0
141
1.0
290
     0
  0
SCALE
  5
56
102
{ACAD_REACTORS
330
47
102
}
330
47
100
AcDbScale
 70
     0
300
8:1
140
8.0
141
1.0
290
     0
  0
SCALE
  5
57
102
{ACAD_REACTORS
330
47
102
}
330
47
100
AcDbScale
 70
     0
300
10:1
140
10.0
141
1.0
290
     0
  0
SCALE
  5
58
102
{ACAD_REACTORS
330
47
102
}
330
47
100
AcDbScale
 70
     0
300
100:1
140
100.0
141
1.0
290
     0
  0
ENDSEC
  0
EOF
