  0
SECTION
  2
HEADER
  9
$ACADVER
  1
AC1015
  9
$ACADMAINTVER
 70
     6
  9
$DWGCODEPAGE
  3
ANSI_1252
  9
$INSBASE
 10
0.0
 20
0.0
 30
0.0
  9
$EXTMIN
 10
0.0
 20
0.0
 30
0.0
  9
$EXTMAX
 10
431.8
 20
279.4
 30
0.0
  9
$LIMMIN
 10
0.0
 20
0.0
  9
$LIMMAX
 10
431.8
 20
279.4
  9
$ORTHOMODE
 70
     0
  9
$REGENMODE
 70
     1
  9
$FILLMODE
 70
     1
  9
$QTEXTMODE
 70
     0
  9
$MIRRTEXT
 70
     1
  9
$LTSCALE
 40
1.0
  9
$ATTMODE
 70
     1
  9
$TEXTSIZE
 40
3.175
  9
$TRACEWID
 40
1.0
  9
$TEXTSTYLE
  7
Standard
  9
$CLAYER
  8
0
  9
$CELTYPE
  6
ByLayer
  9
$CECOLOR
 62
   256
  9
$CELTSCALE
 40
1.0
  9
$DISPSILH
 70
     0
  9
$DIMSCALE
 40
1.0
  9
$DIMASZ
 40
3.302
  9
$DIMEXO
 40
1.27
  9
$DIMDLI
 40
3.75
  9
$DIMRND
 40
0.0
  9
$DIMDLE
 40
0.0
  9
$DIMEXE
 40
3.175
  9
$DIMTP
 40
0.0
  9
$DIMTM
 40
0.0
  9
$DIMTXT
 40
3.175
  9
$DIMCEN
 40
2.5
  9
$DIMTSZ
 40
0.0
  9
$DIMTOL
 70
     0
  9
$DIMLIM
 70
     0
  9
$DIMTIH
 70
     1
  9
$DIMTOH
 70
     1
  9
$DIMSE1
 70
     0
  9
$DIMSE2
 70
     0
  9
$DIMTAD
 70
     0
  9
$DIMZIN
 70
     0
  9
$DIMBLK
  1

  9
$DIMASO
 70
     1
  9
$DIMSHO
 70
     1
  9
$DIMPOST
  1

  9
$DIMAPOST
  1

  9
$DIMALT
 70
     0
  9
$DIMALTD
 70
     3
  9
$DIMALTF
 40
0.0393700787
  9
$DIMLFAC
 40
5.0
  9
$DIMTOFL
 70
     1
  9
$DIMTVP
 40
0.0
  9
$DIMTIX
 70
     0
  9
$DIMSOXD
 70
     0
  9
$DIMSAH
 70
     0
  9
$DIMBLK1
  1

  9
$DIMBLK2
  1

  9
$DIMSTYLE
  2
ISO-25
  9
$DIMCLRD
 70
     0
  9
$DIMCLRE
 70
     0
  9
$DIMCLRT
 70
     0
  9
$DIMTFAC
 40
1.0
  9
$DIMGAP
 40
1.524
  9
$DIMJUST
 70
     0
  9
$DIMSD1
 70
     0
  9
$DIMSD2
 70
     0
  9
$DIMTOLJ
 70
     0
  9
$DIMTZIN
 70
     0
  9
$DIMALTZ
 70
     0
  9
$DIMALTTZ
 70
     0
  9
$DIMUPT
 70
     0
  9
$DIMDEC
 70
     0
  9
$DIMTDEC
 70
     0
  9
$DIMALTU
 70
     2
  9
$DIMALTTD
 70
     3
  9
$DIMTXSTY
  7
Standard
  9
$DIMAUNIT
 70
     0
  9
$DIMADEC
 70
     0
  9
$DIMALTRND
 40
0.0
  9
$DIMAZIN
 70
     0
  9
$DIMDSEP
 70
    44
  9
$DIMATFIT
 70
     3
  9
$DIMFRAC
 70
     0
  9
$DIMLDRBLK
  1

  9
$DIMLUNIT
 70
     2
  9
$DIMLWD
 70
    -2
  9
$DIMLWE
 70
    -2
  9
$DIMTMOVE
 70
     0
  9
$LUNITS
 70
     2
  9
$LUPREC
 70
     2
  9
$SKETCHINC
 40
1.0
  9
$FILLETRAD
 40
10.0
  9
$AUNITS
 70
     0
  9
$AUPREC
 70
     2
  9
$MENU
  1
.
  9
$ELEVATION
 40
0.0
  9
$PELEVATION
 40
0.0
  9
$THICKNESS
 40
0.0
  9
$LIMCHECK
 70
     0
  9
$CHAMFERA
 40
0.0
  9
$CHAMFERB
 40
0.0
  9
$CHAMFERC
 40
0.0
  9
$CHAMFERD
 40
0.0
  9
$SKPOLY
 70
     0
  9
$TDCREATE
 40
2458578.507828796
  9
$TDUCREATE
 40
2458578.674495463
  9
$TDUPDATE
 40
2458578.507829699
  9
$TDUUPDATE
 40
2458578.674496366
  9
$TDINDWG
 40
0.0000000116
  9
$TDUSRTIMER
 40
0.0000000116
  9
$USRTIMER
 70
     1
  9
$ANGBASE
 50
0.0
  9
$ANGDIR
 70
     0
  9
$PDMODE
 70
     0
  9
$PDSIZE
 40
-1.0
  9
$PLINEWID
 40
0.0
  9
$SPLFRAME
 70
     0
  9
$SPLINETYPE
 70
     6
  9
$SPLINESEGS
 70
     8
  9
$HANDSEED
  5
16D
  9
$SURFTAB1
 70
     6
  9
$SURFTAB2
 70
     6
  9
$SURFTYPE
 70
     6
  9
$SURFU
 70
     6
  9
$SURFV
 70
     6
  9
$UCSBASE
  2

  9
$UCSNAME
  2

  9
$UCSORG
 10
0.0
 20
0.0
 30
0.0
  9
$UCSXDIR
 10
1.0
 20
0.0
 30
0.0
  9
$UCSYDIR
 10
0.0
 20
1.0
 30
0.0
  9
$UCSORTHOREF
  2

  9
$UCSORTHOVIEW
 70
     0
  9
$UCSORGTOP
 10
0.0
 20
0.0
 30
0.0
  9
$UCSORGBOTTOM
 10
0.0
 20
0.0
 30
0.0
  9
$UCSORGLEFT
 10
0.0
 20
0.0
 30
0.0
  9
$UCSORGRIGHT
 10
0.0
 20
0.0
 30
0.0
  9
$UCSORGFRONT
 10
0.0
 20
0.0
 30
0.0
  9
$UCSORGBACK
 10
0.0
 20
0.0
 30
0.0
  9
$PUCSBASE
  2

  9
$PUCSNAME
  2

  9
$PUCSORG
 10
0.0
 20
0.0
 30
0.0
  9
$PUCSXDIR
 10
1.0
 20
0.0
 30
0.0
  9
$PUCSYDIR
 10
0.0
 20
1.0
 30
0.0
  9
$PUCSORTHOREF
  2

  9
$PUCSORTHOVIEW
 70
     0
  9
$PUCSORGTOP
 10
0.0
 20
0.0
 30
0.0
  9
$PUCSORGBOTTOM
 10
0.0
 20
0.0
 30
0.0
  9
$PUCSORGLEFT
 10
0.0
 20
0.0
 30
0.0
  9
$PUCSORGRIGHT
 10
0.0
 20
0.0
 30
0.0
  9
$PUCSORGFRONT
 10
0.0
 20
0.0
 30
0.0
  9
$PUCSORGBACK
 10
0.0
 20
0.0
 30
0.0
  9
$USERI1
 70
     0
  9
$USERI2
 70
     0
  9
$USERI3
 70
     0
  9
$USERI4
 70
     0
  9
$USERI5
 70
     0
  9
$USERR1
 40
0.0
  9
$USERR2
 40
0.0
  9
$USERR3
 40
0.0
  9
$USERR4
 40
0.0
  9
$USERR5
 40
0.0
  9
$WORLDVIEW
 70
     1
  9
$SHADEDGE
 70
     3
  9
$SHADEDIF
 70
    70
  9
$TILEMODE
 70
     1
  9
$MAXACTVP
 70
    64
  9
$PINSBASE
 10
0.0
 20
0.0
 30
0.0
  9
$PLIMCHECK
 70
     0
  9
$PEXTMIN
 10
1.0000000000E+20
 20
1.0000000000E+20
 30
1.0000000000E+20
  9
$PEXTMAX
 10
-1.0000000000E+20
 20
-1.0000000000E+20
 30
-1.0000000000E+20
  9
$PLIMMIN
 10
0.0
 20
0.0
  9
$PLIMMAX
 10
420.0
 20
297.0
  9
$UNITMODE
 70
     0
  9
$VISRETAIN
 70
     1
  9
$PLINEGEN
 70
     0
  9
$PSLTSCALE
 70
     1
  9
$TREEDEPTH
 70
  3020
  9
$CMLSTYLE
  2
Standard
  9
$CMLJUST
 70
     0
  9
$CMLSCALE
 40
20.0
  9
$PROXYGRAPHICS
 70
     1
  9
$MEASUREMENT
 70
     1
  9
$CELWEIGHT
370
    -1
  9
$ENDCAPS
280
     0
  9
$JOINSTYLE
280
     0
  9
$LWDISPLAY
290
     1
  9
$INSUNITS
 70
     4
  9
$HYPERLINKBASE
  1

  9
$STYLESHEET
  1

  9
$XEDIT
290
     1
  9
$CEPSNTYPE
380
     0
  9
$PSTYLEMODE
290
     1
  9
$FINGERPRINTGUID
  2
{B5D3C8E4-D8CD-4592-9CA8-FD64ABDB746C}
  9
$VERSIONGUID
  2
{FAEB1C32-E019-11D5-929B-00C0DF256EC4}
  9
$EXTNAMES
290
     1
  9
$PSVPSCALE
 40
0.0
  9
$OLESTARTUP
290
     0
  0
ENDSEC
  0
SECTION
  2
CLASSES
  0
CLASS
  1
ACDBDICTIONARYWDFLT
  2
AcDbDictionaryWithDefault
  3
ObjectDBX Classes
 90
        0
280
     0
281
     0
  0
CLASS
  1
VISUALSTYLE
  2
AcDbVisualStyle
  3
ObjectDBX Classes
 90
     4095
280
     0
281
     0
  0
CLASS
  1
MATERIAL
  2
AcDbMaterial
  3
ObjectDBX Classes
 90
     1153
280
     0
281
     0
  0
CLASS
  1
SCALE
  2
AcDbScale
  3
ObjectDBX Classes
 90
     1153
280
     0
281
     0
  0
CLASS
  1
TABLESTYLE
  2
AcDbTableStyle
  3
ObjectDBX Classes
 90
     4095
280
     0
281
     0
  0
CLASS
  1
MLEADERSTYLE
  2
AcDbMLeaderStyle
  3
ACDB_MLEADERSTYLE_CLASS
 90
     4095
280
     0
281
     0
  0
CLASS
  1
SUN
  2
AcDbSun
  3
SCENEOE
 90
     1153
280
     0
281
     0
  0
CLASS
  1
ACDBPLACEHOLDER
  2
AcDbPlaceHolder
  3
ObjectDBX Classes
 90
        0
280
     0
281
     0
  0
CLASS
  1
LAYOUT
  2
AcDbLayout
  3
ObjectDBX Classes
 90
        0
280
     0
281
     0
  0
ENDSEC
  0
SECTION
  2
TABLES
  0
TABLE
  2
VPORT
  5
8
330
0
100
AcDbSymbolTable
 70
     1
  0
VPORT
  5
29
330
8
100
AcDbSymbolTableRecord
100
AcDbViewportTableRecord
  2
*Active
 70
     0
 10
0.0
 20
0.0
 11
1.0
 21
1.0
 12
215.9
 22
139.7
 13
0.0
 23
0.0
 14
10.0
 24
10.0
 15
10.0
 25
10.0
 16
0.0
 26
0.0
 36
1.0
 17
0.0
 27
0.0
 37
0.0
 40
279.4
 41
1.5454545455
 42
50.0
 43
0.0
 44
0.0
 50
0.0
 51
0.0
 71
     0
 72
  2000
 73
     1
 74
     3
 75
     0
 76
     0
 77
     0
 78
     0
281
     0
 65
     1
110
0.0
120
0.0
130
0.0
111
1.0
121
0.0
131
0.0
112
0.0
122
1.0
132
0.0
 79
     0
146
0.0
  0
ENDTAB
  0
TABLE
  2
LTYPE
  5
5
330
0
100
AcDbSymbolTable
 70
     6
  0
LTYPE
  5
14
330
5
100
AcDbSymbolTableRecord
100
AcDbLinetypeTableRecord
  2
ByBlock
 70
     0
  3

 72
    65
 73
     0
 40
0.0
  0
LTYPE
  5
15
330
5
100
AcDbSymbolTableRecord
100
AcDbLinetypeTableRecord
  2
ByLayer
 70
     0
  3

 72
    65
 73
     0
 40
0.0
  0
LTYPE
  5
16
330
5
100
AcDbSymbolTableRecord
100
AcDbLinetypeTableRecord
  2
Continuous
 70
     0
  3
Solid line
 72
    65
 73
     0
 40
0.0
  0
LTYPE
  5
6E
330
5
100
AcDbSymbolTableRecord
100
AcDbLinetypeTableRecord
  2
HIDDEN
 70
     0
  3
Hidden __ __ __ __ __ __ __ __ __ __ __ __ __ __
 72
    65
 73
     2
 40
1.905
 49
1.27
 74
     0
 49
-0.635
 74
     0
  0
LTYPE
  5
6F
330
5
100
AcDbSymbolTableRecord
100
AcDbLinetypeTableRecord
  2
PHANTOM
 70
     0
  3
Phantom ______  __  __  ______  __  __  ______
 72
    65
 73
     6
 40
12.7
 49
6.35
 74
     0
 49
-1.27
 74
     0
 49
1.27
 74
     0
 49
-1.27
 74
     0
 49
1.27
 74
     0
 49
-1.27
 74
     0
  0
LTYPE
  5
70
330
5
100
AcDbSymbolTableRecord
100
AcDbLinetypeTableRecord
  2
CENTER
 70
     0
  3
Center ____ _ ____ _ ____ _ ____ _ ____ _ ____
 72
    65
 73
     4
 40
10.16
 49
6.35
 74
     0
 49
-1.27
 74
     0
 49
1.27
 74
     0
 49
-1.27
 74
     0
  0
LTYPE
  5
71
330
5
100
AcDbSymbolTableRecord
100
AcDbLinetypeTableRecord
  2
CENTERX2
 70
     0
  3
Center (2x) ________  __  ________  __  _____
 72
    65
 73
     4
 40
20.32
 49
12.7
 74
     0
 49
-2.54
 74
     0
 49
2.54
 74
     0
 49
-2.54
 74
     0
  0
LTYPE
  5
72
330
5
100
AcDbSymbolTableRecord
100
AcDbLinetypeTableRecord
  2
DOT2
 70
     0
  3
Dot (.5x) ........................................
 72
    65
 73
     2
 40
0.635
 49
0.0
 74
     0
 49
-0.635
 74
     0
  0
ENDTAB
  0
TABLE
  2
LAYER
  5
2
330
0
100
AcDbSymbolTable
 70
     2
  0
LAYER
  5
10
330
2
100
AcDbSymbolTableRecord
100
AcDbLayerTableRecord
  2
0
 70
     0
 62
     7
  6
Continuous
370
    -3
390
F
  0
LAYER
  5
73
330
2
100
AcDbSymbolTableRecord
100
AcDbLayerTableRecord
  2
FORMAT
 70
     0
 62
     7
  6
Continuous
370
    -3
390
F
  0
ENDTAB
  0
TABLE
  2
STYLE
  5
3
330
0
100
AcDbSymbolTable
 70
     2
  0
STYLE
  5
11
330
3
100
AcDbSymbolTableRecord
100
AcDbTextStyleTableRecord
  2
Standard
 70
     0
 40
0.0
 41
1.0
 50
0.0
 71
     0
 42
3.175
  3
txt
  4

  0
STYLE
  5
B8
330
3
100
AcDbSymbolTableRecord
100
AcDbTextStyleTableRecord
  2
SLDTEXTSTYLE0
 70
     0
 40
0.0
 41
0.7
 50
0.0
 71
     0
 42
3.175
  3
TXT
  4

  0
ENDTAB
  0
TABLE
  2
VIEW
  5
6
330
0
100
AcDbSymbolTable
 70
     0
  0
ENDTAB
  0
TABLE
  2
UCS
  5
7
330
0
100
AcDbSymbolTable
 70
     0
  0
ENDTAB
  0
TABLE
  2
APPID
  5
9
330
0
100
AcDbSymbolTable
 70
     1
  0
APPID
  5
12
330
9
100
AcDbSymbolTableRecord
100
AcDbRegAppTableRecord
  2
ACAD
 70
     0
  0
ENDTAB
  0
TABLE
  2
DIMSTYLE
  5
A
330
0
100
AcDbSymbolTable
 70
     1
100
AcDbDimStyleTable
  0
DIMSTYLE
105
27
330
A
100
AcDbSymbolTableRecord
100
AcDbDimStyleTableRecord
  2
ISO-25
 70
     0
 41
2.5
 42
0.625
 43
3.75
 44
1.25
 73
     0
 74
     0
 77
     1
 78
     8
140
2.5
141
2.5
143
0.0393700787
147
0.625
171
     3
172
     1
178
     0
271
     2
272
     2
274
     3
278
    44
283
     0
284
     8
340
11
  0
ENDTAB
  0
TABLE
  2
BLOCK_RECORD
  5
1
330
0
100
AcDbSymbolTable
 70
     5
  0
BLOCK_RECORD
  5
1F
330
1
100
AcDbSymbolTableRecord
100
AcDbBlockTableRecord
  2
*Model_Space
340
22
  0
BLOCK_RECORD
  5
1B
330
1
100
AcDbSymbolTableRecord
100
AcDbBlockTableRecord
  2
*Paper_Space
340
1E
  0
BLOCK_RECORD
  5
23
330
1
100
AcDbSymbolTableRecord
100
AcDbBlockTableRecord
  2
*Paper_Space0
340
26
  0
BLOCK_RECORD
  5
BB
330
1
100
AcDbSymbolTableRecord
100
AcDbBlockTableRecord
  2
SW_NOTE_0
340
0
102
{BLKREFS
331
C1
102
}
  0
BLOCK_RECORD
  5
C6
330
1
100
AcDbSymbolTableRecord
100
AcDbBlockTableRecord
  2
SW_NOTE_1
340
0
102
{BLKREFS
331
CC
102
}
  0
BLOCK_RECORD
  5
132
330
1
100
AcDbSymbolTableRecord
100
AcDbBlockTableRecord
  2
SW_CENTERMARKSYMBOL_0
340
0
102
{BLKREFS
331
13D
102
}
  0
BLOCK_RECORD
  5
13E
330
1
100
AcDbSymbolTableRecord
100
AcDbBlockTableRecord
  2
SW_CENTERMARKSYMBOL_1
340
0
102
{BLKREFS
331
149
102
}
  0
ENDTAB
  0
ENDSEC
  0
SECTION
  2
BLOCKS
  0
BLOCK
  5
20
330
1F
100
AcDbEntity
  8
0
100
AcDbBlockBegin
  2
*Model_Space
 70
     0
 10
0.0
 20
0.0
 30
0.0
  3
*Model_Space
  1

  0
ENDBLK
  5
21
330
1F
100
AcDbEntity
  8
0
100
AcDbBlockEnd
  0
BLOCK
  5
1C
330
1B
100
AcDbEntity
 67
     1
  8
0
100
AcDbBlockBegin
  2
*Paper_Space
 70
     0
 10
0.0
 20
0.0
 30
0.0
  3
*Paper_Space
  1

  0
ENDBLK
  5
1D
330
1B
100
AcDbEntity
 67
     1
  8
0
100
AcDbBlockEnd
  0
BLOCK
  5
24
330
23
100
AcDbEntity
  8
0
100
AcDbBlockBegin
  2
*Paper_Space0
 70
     0
 10
0.0
 20
0.0
 30
0.0
  3
*Paper_Space0
  1

  0
ENDBLK
  5
25
330
23
100
AcDbEntity
  8
0
100
AcDbBlockEnd
  0
BLOCK
  5
BC
330
BB
100
AcDbEntity
  8
0
100
AcDbBlockBegin
  2
SW_NOTE_0
 70
     0
 10
0.0
 20
0.0
 30
0.0
  3
SW_NOTE_0
  1

  0
MTEXT
  5
BE
330
BB
100
AcDbEntity
  8
0
  6
Continuous
 62
     0
370
     0
100
AcDbMText
 10
0.0
 20
2.0463950369
 30
0.0
 40
1.5875
 41
0.0
 71
     1
 72
     1
  1
87 34th Street, Unit 11, Brooklyn, NY 11232
  7
SLDTEXTSTYLE0
 73
     1
 44
1.0
  0
MTEXT
  5
BF
330
BB
100
AcDbEntity
  8
0
  6
Continuous
 62
     0
370
     0
100
AcDbMText
 10
0.0
 20
-0.0702716042
 30
0.0
 40
1.5875
 41
0.0
 71
     1
 72
     1
  1
T +1 718-387-6132
  7
SLDTEXTSTYLE0
 73
     1
 44
1.0
  0
MTEXT
  5
C0
330
BB
100
AcDbEntity
  8
0
  6
Continuous
 62
     0
370
     0
100
AcDbMText
 10
0.0
 20
-2.1869382453
 30
0.0
 40
1.5875
 41
0.0
 71
     1
 72
     1
  1
www.rollandhill.com
  7
SLDTEXTSTYLE0
 73
     1
 44
1.0
  0
ENDBLK
  5
BD
330
BB
100
AcDbEntity
  8
0
100
AcDbBlockEnd
  0
BLOCK
  5
C7
330
C6
100
AcDbEntity
  8
0
100
AcDbBlockBegin
  2
SW_NOTE_1
 70
     0
 10
0.0
 20
0.0
 30
0.0
  3
SW_NOTE_1
  1

  0
MTEXT
  5
C9
330
C6
100
AcDbEntity
  8
0
  6
Continuous
 62
     0
370
     0
100
AcDbMText
 10
0.0
 20
2.0463950369
 30
0.0
 40
1.5875
 41
0.0
 71
     1
 72
     1
  1
\LPROPRIETARY AND CONFIDENTIAL
  7
SLDTEXTSTYLE0
 73
     1
 44
1.0
  0
MTEXT
  5
CA
330
C6
100
AcDbEntity
  8
0
  6
Continuous
 62
     0
370
     0
100
AcDbMText
 10
37.3117625713
 20
2.0463950369
 30
0.0
 40
1.5875
 41
0.0
 71
     1
 72
     1
  1
THE INFORMATION CONTAINED IN THIS DRAWING IS THE SOLE PROPERTY OF ROLL & HILL LLC. ANY REPRODUCTION IN
  7
SLDTEXTSTYLE0
 73
     1
 44
1.0
  0
MTEXT
  5
CB
330
C6
100
AcDbEntity
  8
0
  6
Continuous
 62
     0
370
     0
100
AcDbMText
 10
0.0
 20
-0.0702716042
 30
0.0
 40
1.5875
 41
0.0
 71
     1
 72
     1
  1
PART OR AS A WHOLE WITHOUT THE WRITTEN PERMISSION OF ROLL & HILL LLC. IS PROHIBITED.
  7
SLDTEXTSTYLE0
 73
     1
 44
1.0
  0
ENDBLK
  5
C8
330
C6
100
AcDbEntity
  8
0
100
AcDbBlockEnd
  0
BLOCK
  5
133
330
132
100
AcDbEntity
  8
0
100
AcDbBlockBegin
  2
SW_CENTERMARKSYMBOL_0
 70
     0
 10
0.0
 20
0.0
 30
0.0
  3
SW_CENTERMARKSYMBOL_0
  1

  0
LINE
  5
135
330
132
100
AcDbEntity
  8
0
  6
Continuous
 62
     0
370
     0
100
AcDbLine
 10
0.0
 20
0.0
 30
0.0
 11
0.0
 21
0.508
 31
0.0
  0
LINE
  5
136
330
132
100
AcDbEntity
  8
0
  6
Continuous
 62
     0
370
     0
100
AcDbLine
 10
0.0
 20
0.0
 30
0.0
 11
-0.508
 21
0.0
 31
0.0
  0
LINE
  5
137
330
132
100
AcDbEntity
  8
0
  6
Continuous
 62
     0
370
     0
100
AcDbLine
 10
0.0
 20
0.0
 30
0.0
 11
0.0
 21
-0.508
 31
0.0
  0
LINE
  5
138
330
132
100
AcDbEntity
  8
0
  6
Continuous
 62
     0
370
     0
100
AcDbLine
 10
0.0
 20
0.0
 30
0.0
 11
0.508
 21
0.0
 31
0.0
  0
LINE
  5
139
330
132
100
AcDbEntity
  8
0
  6
Continuous
 62
     0
370
     0
100
AcDbLine
 10
0.0
 20
1.016
 30
0.0
 11
0.0
 21
3.048
 31
0.0
  0
LINE
  5
13A
330
132
100
AcDbEntity
  8
0
  6
Continuous
 62
     0
370
     0
100
AcDbLine
 10
-1.016
 20
0.0
 30
0.0
 11
-3.048
 21
0.0
 31
0.0
  0
LINE
  5
13B
330
132
100
AcDbEntity
  8
0
  6
Continuous
 62
     0
370
     0
100
AcDbLine
 10
0.0
 20
-1.016
 30
0.0
 11
0.0
 21
-3.048
 31
0.0
  0
LINE
  5
13C
330
132
100
AcDbEntity
  8
0
  6
Continuous
 62
     0
370
     0
100
AcDbLine
 10
1.016
 20
0.0
 30
0.0
 11
3.048
 21
0.0
 31
0.0
  0
ENDBLK
  5
134
330
132
100
AcDbEntity
  8
0
100
AcDbBlockEnd
  0
BLOCK
  5
13F
330
13E
100
AcDbEntity
  8
0
100
AcDbBlockBegin
  2
SW_CENTERMARKSYMBOL_1
 70
     0
 10
0.0
 20
0.0
 30
0.0
  3
SW_CENTERMARKSYMBOL_1
  1

  0
LINE
  5
141
330
13E
100
AcDbEntity
  8
0
  6
Continuous
 62
     0
370
     0
100
AcDbLine
 10
0.0
 20
0.0
 30
0.0
 11
0.0
 21
0.508
 31
0.0
  0
LINE
  5
142
330
13E
100
AcDbEntity
  8
0
  6
Continuous
 62
     0
370
     0
100
AcDbLine
 10
0.0
 20
0.0
 30
0.0
 11
-0.508
 21
0.0
 31
0.0
  0
LINE
  5
143
330
13E
100
AcDbEntity
  8
0
  6
Continuous
 62
     0
370
     0
100
AcDbLine
 10
0.0
 20
0.0
 30
0.0
 11
0.0
 21
-0.508
 31
0.0
  0
LINE
  5
144
330
13E
100
AcDbEntity
  8
0
  6
Continuous
 62
     0
370
     0
100
AcDbLine
 10
0.0
 20
0.0
 30
0.0
 11
0.508
 21
0.0
 31
0.0
  0
LINE
  5
145
330
13E
100
AcDbEntity
  8
0
  6
Continuous
 62
     0
370
     0
100
AcDbLine
 10
0.0
 20
0.508
 30
0.0
 11
0.0
 21
0.85344
 31
0.0
  0
LINE
  5
146
330
13E
100
AcDbEntity
  8
0
  6
Continuous
 62
     0
370
     0
100
AcDbLine
 10
-0.508
 20
0.0
 30
0.0
 11
-0.85344
 21
0.0
 31
0.0
  0
LINE
  5
147
330
13E
100
AcDbEntity
  8
0
  6
Continuous
 62
     0
370
     0
100
AcDbLine
 10
0.0
 20
-0.508
 30
0.0
 11
0.0
 21
-0.85344
 31
0.0
  0
LINE
  5
148
330
13E
100
AcDbEntity
  8
0
  6
Continuous
 62
     0
370
     0
100
AcDbLine
 10
0.508
 20
0.0
 30
0.0
 11
0.85344
 21
0.0
 31
0.0
  0
ENDBLK
  5
140
330
13E
100
AcDbEntity
  8
0
100
AcDbBlockEnd
  0
ENDSEC
  0
SECTION
  2
ENTITIES
  0
HATCH
  5
74
330
1F
100
AcDbEntity
  8
0
  6
Continuous
 62
     7
100
AcDbHatch
 10
0.0
 20
0.0
 30
0.0
210
0.0
220
0.0
230
1.0
  2
SOLID
 70
     1
 71
     0
 91
        2
 92
        0
 93
        6
 72
     4
 94
        3
 73
     1
 74
     0
 95
       20
 96
       16
 40
0.0
 40
0.0
 40
0.0
 40
0.0
 40
1.0
 40
1.0
 40
1.0
 40
2.0
 40
2.0
 40
2.0
 40
3.0
 40
3.0
 40
3.0
 40
4.0
 40
4.0
 40
4.0
 40
5.0
 40
5.0
 40
5.0
 40
5.0
 10
261.0219043336847
 20
23.63056361828031
 42
1.0
 10
261.2341319795987
 20
23.68742184709604
 42
1.0
 10
261.3945785321864
 20
23.72473719781129
 42
1.0
 10
261.5515161764629
 20
23.77337299628437
 42
1.0
 10
262.5617362220245
 20
24.08644572151765
 42
1.0
 10
262.9966382899503
 20
24.76217905347502
 42
1.0
 10
262.9131259646454
 20
25.88395655371281
 42
1.0
 10
262.8488620904764
 20
26.74717259793779
 42
1.0
 10
262.3071445332423
 20
27.30037799580671
 42
1.0
 10
261.2989762515715
 20
27.40941936834727
 42
1.0
 10
260.5093946232761
 20
27.49481913962259
 42
1.0
 10
259.7094699986221
 20
27.48819126576296
 42
1.0
 10
258.913837050576
 20
27.51251762112626
 42
1.0
 10
258.5159962651877
 20
27.52468175973202
 42
1.0
 10
258.1174764912431
 20
27.51463645747964
 42
1.0
 10
257.7192638284546
 20
27.51463645747964
 42
1.0
 72
     4
 94
        3
 73
     1
 74
     0
 95
       14
 96
       10
 40
17.0
 40
17.0
 40
17.0
 40
17.0
 40
18.0
 40
18.0
 40
18.0
 40
19.0
 40
19.0
 40
19.0
 40
20.0
 40
20.0
 40
20.0
 40
20.0
 10
257.7192638284546
 20
27.51463645747964
 42
1.0
 10
258.2057453879524
 20
27.36893835120056
 42
1.0
 10
258.4151924094879
 20
27.04153921726714
 42
1.0
 10
258.4151320634913
 20
26.55729487989966
 42
1.0
 10
258.4149081683119
 20
24.76100595804667
 42
1.0
 10
258.4191609275175
 20
22.96470127704905
 42
1.0
 10
258.4124688639662
 20
21.16843695483816
 42
1.0
 10
258.4104423723632
 20
20.62446660851326
 42
1.0
 10
258.2139995287706
 20
20.39587059142628
 42
1.0
 10
257.7053577757453
 20
20.25910042553502
 42
1.0
 72
     1
 10
257.7053577757453
 20
20.25910042553502
 11
260.1134120717832
 21
20.25910042553502
 72
     4
 94
        3
 73
     1
 74
     0
 95
       14
 96
       10
 40
13.0
 40
13.0
 40
13.0
 40
13.0
 40
14.0
 40
14.0
 40
14.0
 40
15.0
 40
15.0
 40
15.0
 40
16.0
 40
16.0
 40
16.0
 40
16.0
 10
260.1134120717832
 20
20.25910042553502
 42
1.0
 10
259.6377614656041
 20
20.40079128856704
 42
1.0
 10
259.4435911100346
 20
20.64162793377141
 42
1.0
 10
259.4408326829897
 20
21.14221143023692
 42
1.0
 10
259.4366701545022
 20
21.89763799307775
 42
1.0
 10
259.4392191002215
 20
22.65310606781492
 42
1.0
 10
259.4405559370167
 20
23.40855338660287
 42
1.0
 10
259.4406539512153
 20
23.46398560492077
 42
1.0
 10
259.4539911852495
 20
23.51939476107442
 42
1.0
 10
259.4607286043899
 20
23.57138302951071
 42
1.0
 72
     4
 94
        3
 73
     1
 74
     0
 95
       20
 96
       16
 40
8.0
 40
8.0
 40
8.0
 40
8.0
 40
9.0
 40
9.0
 40
9.0
 40
10.0
 40
10.0
 40
10.0
 40
11.0
 40
11.0
 40
11.0
 40
12.0
 40
12.0
 40
12.0
 40
13.0
 40
13.0
 40
13.0
 40
13.0
 10
259.4607286043899
 20
23.57138302951071
 42
1.0
 10
260.3725694925604
 20
23.65083910446931
 42
1.0
 10
260.6054131759577
 20
23.52556773374194
 42
1.0
 10
261.0037355762117
 20
22.71920223094413
 42
1.0
 10
261.378026816807
 20
21.9614848264415
 42
1.0
 10
261.7451764738302
 20
21.200166649339
 42
1.0
 10
262.1067370153144
 20
20.43629933433309
 42
1.0
 10
262.1765046750147
 20
20.28890135435546
 42
1.0
 10
262.2549406335689
 20
20.22203337745712
 42
1.0
 10
262.427398730108
 20
20.22724465786873
 42
1.0
 10
262.8718696744063
 20
20.24067529366942
 42
1.0
 10
263.3170171088603
 20
20.2311736819415
 42
1.0
 10
263.7618904879274
 20
20.2323936704376
 42
1.0
 10
263.8264337986554
 20
20.23257048036439
 42
1.0
 10
263.8909540472192
 20
20.24131411562171
 42
1.0
 10
263.9554858268652
 20
20.24609336482204
 42
1.0
 72
     4
 94
        3
 73
     1
 74
     0
 95
       14
 96
       10
 40
5.0
 40
5.0
 40
5.0
 40
5.0
 40
6.0
 40
6.0
 40
6.0
 40
7.0
 40
7.0
 40
7.0
 40
8.0
 40
8.0
 40
8.0
 40
8.0
 10
263.9554858268652
 20
20.24609336482204
 42
1.0
 10
263.5606000734738
 20
20.32757122285868
 42
1.0
 10
263.3178377375433
 20
20.57267359973515
 42
1.0
 10
263.1292772534607
 20
20.88520667032095
 42
1.0
 10
262.8739775562312
 20
21.30835818112304
 42
1.0
 10
262.6276890153665
 20
21.7369354504649
 42
1.0
 10
262.3739921385617
 20
22.16106556577572
 42
1.0
 10
262.033208300972
 20
22.73079019980925
 42
1.0
 10
261.7521543160346
 20
23.35408286053947
 42
1.0
 10
261.0219043336847
 20
23.63056361828031
 42
1.0
 97
        0
 92
        0
 93
        2
 72
     1
 10
259.4558811296203
 20
23.74052094311722
 11
259.4558811296203
 21
27.35855230546976
 72
     4
 94
        3
 73
     1
 74
     0
 95
       20
 96
       16
 40
1.0
 40
1.0
 40
1.0
 40
1.0
 40
2.0
 40
2.0
 40
2.0
 40
3.0
 40
3.0
 40
3.0
 40
4.0
 40
4.0
 40
4.0
 40
5.0
 40
5.0
 40
5.0
 40
6.0
 40
6.0
 40
6.0
 40
6.0
 10
259.4558811296203
 20
27.35855230546976
 42
1.0
 10
259.8103733099057
 20
27.35855230546976
 42
1.0
 10
260.1467440101549
 20
27.38072599997261
 42
1.0
 10
260.4792308497364
 20
27.35420547185249
 42
1.0
 10
261.3230227860075
 20
27.28690123567825
 42
1.0
 10
261.7108519014664
 20
26.95476897687368
 42
1.0
 10
261.8164781518313
 20
26.10478869315943
 42
1.0
 10
261.8719876284001
 20
25.65810454981779
 42
1.0
 10
261.8389787525148
 20
25.18024881635489
 42
1.0
 10
261.7413862071132
 20
24.73962656292206
 42
1.0
 10
261.608259863196
 20
24.13857044109259
 42
1.0
 10
261.1506181168165
 20
23.81517009427841
 42
1.0
 10
260.5489927438957
 20
23.74778168120397
 42
1.0
 10
260.1942113256325
 20
23.70804326575078
 42
1.0
 10
259.8313410453958
 20
23.74052094311722
 42
1.0
 10
259.4558811296203
 20
23.74052094311722
 42
1.0
 97
        0
 75
     0
 76
     1
 98
        1
 10
0.0
 20
0.0
  0
HATCH
  5
75
330
1F
100
AcDbEntity
  8
0
  6
Continuous
 62
     7
100
AcDbHatch
 10
0.0
 20
0.0
 30
0.0
210
0.0
220
0.0
230
1.0
  2
SOLID
 70
     1
 71
     0
 91
        2
 92
        0
 93
        2
 72
     4
 94
        3
 73
     1
 74
     0
 95
       14
 96
       10
 40
0.0
 40
0.0
 40
0.0
 40
0.0
 40
1.0
 40
1.0
 40
1.0
 40
2.0
 40
2.0
 40
2.0
 40
3.0
 40
3.0
 40
3.0
 40
3.0
 10
267.2336118279071
 20
20.23490821509466
 42
1.0
 10
268.1650050112285
 20
19.98240211471103
 42
1.0
 10
269.1482911393735
 20
20.33660467264827
 42
1.0
 10
269.7215189161771
 20
21.13111084177937
 42
1.0
 10
270.3723808569537
 20
22.03321892002499
 42
1.0
 10
270.372934348899
 20
23.32205720159637
 42
1.0
 10
269.7103360726668
 20
24.21398909980579
 42
1.0
 10
269.2464106552308
 20
24.83848445240961
 42
1.0
 10
268.6216197225536
 20
25.16033694362372
 42
1.0
 10
267.7758432870376
 20
25.16748813643033
 42
1.0
 72
     4
 94
        3
 73
     1
 74
     0
 95
       14
 96
       10
 40
3.0
 40
3.0
 40
3.0
 40
3.0
 40
4.0
 40
4.0
 40
4.0
 40
5.0
 40
5.0
 40
5.0
 40
6.0
 40
6.0
 40
6.0
 40
6.0
 10
267.7758432870376
 20
25.16748813643033
 42
1.0
 10
266.9062728477855
 20
25.1505801106106
 42
1.0
 10
266.225828300013
 20
24.723612195973
 42
1.0
 10
265.7739382574312
 20
23.92202056120339
 42
1.0
 10
265.4879189885011
 20
23.41465794151554
 42
1.0
 10
265.4259332718035
 20
22.86561853145873
 42
1.0
 10
265.4837047623288
 20
22.29272284982232
 42
1.0
 10
265.5792320909092
 20
21.34541139190241
 42
1.0
 10
266.3034040398354
 20
20.48709452013179
 42
1.0
 10
267.2336118279071
 20
20.23490821509466
 42
1.0
 97
        0
 92
        0
 93
        2
 72
     4
 94
        3
 73
     1
 74
     0
 95
       17
 96
       13
 40
0.0
 40
0.0
 40
0.0
 40
0.0
 40
1.0
 40
1.0
 40
1.0
 40
2.0
 40
2.0
 40
2.0
 40
3.0
 40
3.0
 40
3.0
 40
4.0
 40
4.0
 40
4.0
 40
4.0
 10
266.4699528411193
 20
22.82140374989816
 42
1.0
 10
266.4968487059656
 20
23.23360918874381
 42
1.0
 10
266.5993976948625
 20
23.64490674705059
 42
1.0
 10
266.7072125446274
 20
24.04607386528146
 42
1.0
 10
266.7597204805012
 20
24.2414496033099
 42
1.0
 10
266.882078331128
 20
24.42789874624283
 42
1.0
 10
267.0072628343699
 20
24.59213287496141
 42
1.0
 10
267.4640605055332
 20
25.19142205062979
 42
1.0
 10
268.2143234497673
 20
25.18405330473933
 42
1.0
 10
268.6683621173312
 20
24.58056604641373
 42
1.0
 10
269.0963628325642
 20
24.01168817818241
 42
1.0
 10
269.195680043492
 20
23.34551372899321
 42
1.0
 10
269.218762963826
 20
22.68351122534059
 42
1.0
 72
     4
 94
        3
 73
     1
 74
     0
 95
       17
 96
       13
 40
4.0
 40
4.0
 40
4.0
 40
4.0
 40
5.0
 40
5.0
 40
5.0
 40
6.0
 40
6.0
 40
6.0
 40
7.0
 40
7.0
 40
7.0
 40
8.0
 40
8.0
 40
8.0
 40
8.0
 10
269.218762963826
 20
22.68351122534059
 42
1.0
 10
269.202432645224
 20
22.05765558940843
 42
1.0
 10
269.1208448575376
 20
21.47214721006825
 42
1.0
 10
268.810867074766
 20
20.94311038392242
 42
1.0
 10
268.6078393105943
 20
20.5966013640246
 42
1.0
 10
268.3388937306983
 20
20.33416469565678
 42
1.0
 10
267.9076604687568
 20
20.30531315927085
 42
1.0
 10
267.4153070900211
 20
20.27237193240103
 42
1.0
 10
267.1048165584612
 20
20.54785025472892
 42
1.0
 10
266.8746830637486
 20
20.93428603108956
 42
1.0
 10
266.5287029361534
 20
21.51524885782822
 42
1.0
 10
266.4269741915698
 20
22.16270989809668
 42
1.0
 10
266.4699528411193
 20
22.82140374989816
 42
1.0
 97
        0
 75
     0
 76
     1
 98
        1
 10
0.0
 20
0.0
  0
HATCH
  5
76
330
1F
100
AcDbEntity
  8
0
  6
Continuous
 62
     7
100
AcDbHatch
 10
0.0
 20
0.0
 30
0.0
210
0.0
220
0.0
230
1.0
  2
SOLID
 70
     1
 71
     0
 91
        1
 92
        0
 93
        4
 72
     1
 10
273.9540333846496
 20
27.87257450949275
 11
272.4594267850394
 21
27.32510813123116
 72
     4
 94
        3
 73
     1
 74
     0
 95
       14
 96
       10
 40
6.0
 40
6.0
 40
6.0
 40
6.0
 40
7.0
 40
7.0
 40
7.0
 40
8.0
 40
8.0
 40
8.0
 40
9.0
 40
9.0
 40
9.0
 40
9.0
 10
272.4594267850394
 20
27.32510813123116
 42
1.0
 10
272.9826104338649
 20
27.28380667758701
 42
1.0
 10
273.0476395875227
 20
27.23250104921648
 42
1.0
 10
273.0527409382852
 20
26.65700799131587
 42
1.0
 10
273.0685846452182
 20
24.86961337752774
 42
1.0
 10
273.0702866329497
 20
23.08209538116094
 42
1.0
 10
273.0783845276048
 20
21.29462927466367
 42
1.0
 10
273.0805785081768
 20
20.81042375860576
 42
1.0
 10
273.0059923935969
 20
20.37668517687364
 42
1.0
 10
272.426404840594
 20
20.2590796695872
 42
1.0
 72
     1
 10
272.426404840594
 20
20.2590796695872
 11
274.6224502449564
 21
20.2590796695872
 72
     4
 94
        3
 73
     1
 74
     0
 95
       17
 96
       13
 40
1.0
 40
1.0
 40
1.0
 40
1.0
 40
2.0
 40
2.0
 40
2.0
 40
3.0
 40
3.0
 40
3.0
 40
4.0
 40
4.0
 40
4.0
 40
5.0
 40
5.0
 40
5.0
 40
5.0
 10
274.6224502449564
 20
20.2590796695872
 42
1.0
 10
274.1836818051716
 20
20.38260600321025
 42
1.0
 10
274.0006220316647
 20
20.58964274029083
 42
1.0
 10
273.9590578615309
 20
21.04279505200226
 42
1.0
 10
273.9506540088286
 20
21.13443409966764
 42
1.0
 10
273.954217881965
 20
21.22727776105204
 42
1.0
 10
273.9542086570993
 20
21.31956562427539
 42
1.0
 10
273.9539872603212
 20
23.41776441505853
 42
1.0
 10
273.9540349221275
 20
25.51596282147274
 42
1.0
 10
273.9540333846496
 20
27.61416161225588
 42
1.0
 10
273.9540333846496
 20
27.71082379150879
 42
1.0
 10
273.9540333846496
 20
27.8074859707617
 42
1.0
 10
273.9540333846496
 20
27.87257450949275
 42
1.0
 97
        0
 75
     0
 76
     1
 98
        1
 10
0.0
 20
0.0
  0
HATCH
  5
77
330
1F
100
AcDbEntity
  8
0
  6
Continuous
 62
     7
100
AcDbHatch
 10
0.0
 20
0.0
 30
0.0
210
0.0
220
0.0
230
1.0
  2
SOLID
 70
     1
 71
     0
 91
        1
 92
        0
 93
        4
 72
     1
 10
276.9460186560295
 20
20.2549177176549
 11
279.1055120673172
 21
20.2549177176549
 72
     4
 94
        3
 73
     1
 74
     0
 95
       14
 96
       10
 40
6.0
 40
6.0
 40
6.0
 40
6.0
 40
7.0
 40
7.0
 40
7.0
 40
8.0
 40
8.0
 40
8.0
 40
9.0
 40
9.0
 40
9.0
 40
9.0
 10
279.1055120673172
 20
20.2549177176549
 42
1.0
 10
278.6550987719953
 20
20.40793364087759
 42
1.0
 10
278.4823339486704
 20
20.63637283524633
 42
1.0
 10
278.4822124879378
 20
21.11904779232805
 42
1.0
 10
278.4816605334703
 20
23.30086999117493
 42
1.0
 10
278.4819664915176
 20
25.48269219002111
 42
1.0
 10
278.4819649540404
 20
27.66451419668386
 42
1.0
 10
278.4819649540404
 20
27.75219577693941
 42
1.0
 10
278.4819664915176
 20
27.83987735719566
 42
1.0
 10
278.4819664915176
 20
27.88441039662488
 42
1.0
 72
     1
 10
278.4819664915176
 20
27.88441039662488
 11
276.9846800684063
 21
27.3296354262854
 72
     4
 94
        3
 73
     1
 74
     0
 95
       17
 96
       13
 40
1.0
 40
1.0
 40
1.0
 40
1.0
 40
2.0
 40
2.0
 40
2.0
 40
3.0
 40
3.0
 40
3.0
 40
4.0
 40
4.0
 40
4.0
 40
5.0
 40
5.0
 40
5.0
 40
5.0
 10
276.9846800684063
 20
27.3296354262854
 42
1.0
 10
277.5366914227135
 20
27.25167954511983
 42
1.0
 10
277.5738092075535
 20
27.20775573119973
 42
1.0
 10
277.5772915943764
 20
26.57154691311976
 42
1.0
 10
277.5773838430334
 20
26.55476419172763
 42
1.0
 10
277.577359243392
 20
26.53798031722657
 42
1.0
 10
277.577359243392
 20
26.52119721146337
 42
1.0
 10
277.5773700057348
 20
24.72538990447762
 42
1.0
 10
277.5776652014392
 20
22.92958298186009
 42
1.0
 10
277.5771993457187
 20
21.13377529050539
 42
1.0
 10
277.5770686601204
 20
20.6342380475635
 42
1.0
 10
277.4179566381115
 20
20.4199152040148
 42
1.0
 10
276.9460186560295
 20
20.2549177176549
 42
1.0
 97
        0
 75
     0
 76
     1
 98
        1
 10
0.0
 20
0.0
  0
HATCH
  5
78
330
1F
100
AcDbEntity
  8
0
  6
Continuous
 62
     7
100
AcDbHatch
 10
0.0
 20
0.0
 30
0.0
210
0.0
220
0.0
230
1.0
  2
SOLID
 70
     1
 71
     0
 91
        3
 92
        0
 93
        9
 72
     4
 94
        3
 73
     1
 74
     0
 95
       14
 96
       10
 40
0.0
 40
0.0
 40
0.0
 40
0.0
 40
1.0
 40
1.0
 40
1.0
 40
2.0
 40
2.0
 40
2.0
 40
3.0
 40
3.0
 40
3.0
 40
3.0
 10
287.0539854214827
 20
21.61211917311517
 42
1.0
 10
287.2972697310664
 20
21.3082559388604
 42
1.0
 10
287.5152010346028
 20
21.01001756649998
 42
1.0
 10
287.7601488949774
 20
20.73592220529573
 42
1.0
 10
288.1784811821614
 20
20.26780485511384
 42
1.0
 10
288.7048673968812
 20
20.09831485913089
 42
1.0
 10
289.3271645408483
 20
20.20870037148624
 42
1.0
 10
289.9739444785289
 20
20.32342848939635
 42
1.0
 10
290.7160910783766
 20
21.04182259740494
 42
1.0
 10
290.8103661314317
 20
21.70506046432864
 42
1.0
 72
     4
 94
        3
 73
     1
 74
     0
 95
       14
 96
       10
 40
24.0
 40
24.0
 40
24.0
 40
24.0
 40
25.0
 40
25.0
 40
25.0
 40
26.0
 40
26.0
 40
26.0
 40
27.0
 40
27.0
 40
27.0
 40
27.0
 10
290.8103661314317
 20
21.70506046432864
 42
1.0
 10
290.6825002672103
 20
21.49939669476813
 42
1.0
 10
290.5884281612034
 20
21.32571784099438
 42
1.0
 10
290.4735170834558
 20
21.16713932372221
 42
1.0
 10
289.9836367374808
 20
20.49110656799653
 42
1.0
 10
289.3841588364346
 20
20.43289382139212
 42
1.0
 10
288.8166481701822
 20
21.05011190802389
 42
1.0
 10
288.4270667146001
 20
21.47381844824843
 42
1.0
 10
288.0996055050067
 20
21.95463920731319
 42
1.0
 10
287.7314564875268
 20
22.4264857094768
 42
1.0
 72
     4
 94
        3
 73
     1
 74
     0
 95
       11
 96
        7
 40
22.0
 40
22.0
 40
22.0
 40
22.0
 40
23.0
 40
23.0
 40
23.0
 40
24.0
 40
24.0
 40
24.0
 40
24.0
 10
287.7314564875268
 20
22.4264857094768
 42
1.0
 10
288.1508588591387
 20
23.00030157147278
 42
1.0
 10
288.5466855488353
 20
23.55949371503118
 42
1.0
 10
288.9612633156569
 20
24.10441845059237
 42
1.0
 10
289.4290162836425
 20
24.71923384406366
 42
1.0
 10
289.9536528488242
 20
25.26443186627322
 42
1.0
 10
290.7742138825406
 20
25.39867403457779
 42
1.0
 72
     1
 10
290.7742138825406
 20
25.39867403457779
 11
287.7715077796773
 21
25.39867403457779
 72
     4
 94
        3
 73
     1
 74
     0
 95
       17
 96
       13
 40
16.0
 40
16.0
 40
16.0
 40
16.0
 40
17.0
 40
17.0
 40
17.0
 40
18.0
 40
18.0
 40
18.0
 40
19.0
 40
19.0
 40
19.0
 40
20.0
 40
20.0
 40
20.0
 40
20.0
 10
287.7715077796773
 20
25.39867403457779
 42
1.0
 10
287.9710693005408
 20
25.34310267453518
 42
1.0
 10
288.1718392788191
 20
25.32949945687163
 42
1.0
 10
288.3670435880915
 20
25.28904726743022
 42
1.0
 10
288.7601181928394
 20
25.20759054971102
 42
1.0
 10
288.9174636530569
 20
24.97387165717582
 42
1.0
 10
288.8543009972361
 20
24.57697987985169
 42
1.0
 10
288.8373887433532
 20
24.47070865762303
 42
1.0
 10
288.8131334963293
 20
24.35736772890119
 42
1.0
 10
288.7595985254019
 20
24.26650702928458
 42
1.0
 10
288.4211781752921
 20
23.692108847638
 42
1.0
 10
288.0735790837579
 20
23.12311989664797
 42
1.0
 10
287.7233847299918
 20
22.54303496963325
 42
1.0
 72
     1
 10
287.7233847299918
 20
22.54303496963325
 11
285.8065406500284
 21
24.86455968857224
 72
     4
 94
        3
 73
     1
 74
     0
 95
       20
 96
       16
 40
10.0
 40
10.0
 40
10.0
 40
10.0
 40
11.0
 40
11.0
 40
11.0
 40
12.0
 40
12.0
 40
12.0
 40
13.0
 40
13.0
 40
13.0
 40
14.0
 40
14.0
 40
14.0
 40
15.0
 40
15.0
 40
15.0
 40
15.0
 10
285.8065406500283
 20
24.86455968857225
 42
1.0
 10
285.9002991106001
 20
24.9215528310502
 42
1.0
 10
286.0025259979348
 20
24.975621306713
 42
1.0
 10
286.0959738880259
 20
25.04203380586477
 42
1.0
 10
286.361711520857
 20
25.23088333574105
 42
1.0
 10
286.6551698752792
 20
25.39378370261948
 42
1.0
 10
286.8815726805328
 20
25.62247811827483
 42
1.0
 10
287.5614237619422
 20
26.30921056516709
 42
1.0
 10
287.361321048954
 20
27.32558686332681
 42
1.0
 10
286.4793408590448
 20
27.71426216803416
 42
1.0
 10
285.840402057257
 20
27.99583274545401
 42
1.0
 10
285.1912113546599
 20
27.99239110178883
 42
1.0
 10
284.558084218296
 20
27.68711127408746
 42
1.0
 10
283.9109291360762
 20
27.37506654483262
 42
1.0
 10
283.6309452355653
 20
26.8393466878164
 42
1.0
 10
283.7149530130354
 20
26.1296866058298
 42
1.0
 72
     4
 94
        3
 73
     1
 74
     0
 95
       11
 96
        7
 40
8.0
 40
8.0
 40
8.0
 40
8.0
 40
9.0
 40
9.0
 40
9.0
 40
10.0
 40
10.0
 40
10.0
 40
10.0
 10
283.7149530130354
 20
26.1296866058298
 42
1.0
 10
283.7707819005811
 20
25.65802498535045
 42
1.0
 10
284.0198409761273
 20
25.28515591156022
 42
1.0
 10
284.3077767109179
 20
24.93075271279267
 42
1.0
 10
284.4323277733789
 20
24.77744812814591
 42
1.0
 10
284.5641388051866
 20
24.6300390014551
 42
1.0
 10
284.7027239634148
 20
24.46818604120849
 42
1.0
 72
     4
 94
        3
 73
     1
 74
     0
 95
       20
 96
       16
 40
3.0
 40
3.0
 40
3.0
 40
3.0
 40
4.0
 40
4.0
 40
4.0
 40
5.0
 40
5.0
 40
5.0
 40
6.0
 40
6.0
 40
6.0
 40
7.0
 40
7.0
 40
7.0
 40
8.0
 40
8.0
 40
8.0
 40
8.0
 10
284.7027239634148
 20
24.46818604120849
 42
1.0
 10
284.5513685160267
 20
24.38851087568819
 42
1.0
 10
284.4255536469583
 20
24.32317807019961
 42
1.0
 10
284.3005597909425
 20
24.25632085564481
 42
1.0
 10
283.8607304915963
 20
24.02105948868024
 42
1.0
 10
283.460866385652
 20
23.73663343094009
 42
1.0
 10
283.1417229300147
 20
23.34576433784628
 42
1.0
 10
282.3522343191156
 20
22.37884389028816
 42
1.0
 10
282.6109241545095
 20
20.5355588898502
 42
1.0
 10
284.198169930981
 20
20.23446388406056
 42
1.0
 10
285.1515567317372
 20
20.05360962220845
 42
1.0
 10
285.9488126796034
 20
20.36759637788916
 42
1.0
 10
286.5896302790503
 20
21.09003174583673
 42
1.0
 10
286.7443651022574
 20
21.26447318851251
 42
1.0
 10
286.8995550188436
 20
21.43851181205056
 42
1.0
 10
287.0539854214827
 20
21.61211917311517
 42
1.0
 97
        0
 92
        0
 93
        2
 72
     4
 94
        3
 73
     1
 74
     0
 95
       14
 96
       10
 40
0.0
 40
0.0
 40
0.0
 40
0.0
 40
1.0
 40
1.0
 40
1.0
 40
2.0
 40
2.0
 40
2.0
 40
3.0
 40
3.0
 40
3.0
 40
3.0
 10
284.688382372121
 20
27.15085253116304
 42
1.0
 10
284.8337724063213
 20
27.5710895609412
 42
1.0
 10
285.1818973152029
 20
27.79269159230804
 42
1.0
 10
285.6158934244382
 20
27.76810636414938
 42
1.0
 10
285.9916529561654
 20
27.74682017860581
 42
1.0
 10
286.2400293916459
 20
27.5110460628537
 42
1.0
 10
286.3549927436335
 20
27.06650131962916
 42
1.0
 10
286.5713650448558
 20
26.2298440482801
 42
1.0
 10
286.3259713159692
 20
25.4295804098103
 42
1.0
 10
285.6520579731507
 20
24.9254318870995
 42
1.0
 72
     4
 94
        3
 73
     1
 74
     0
 95
       11
 96
        7
 40
3.0
 40
3.0
 40
3.0
 40
3.0
 40
4.0
 40
4.0
 40
4.0
 40
5.0
 40
5.0
 40
5.0
 40
5.0
 10
285.6520579731507
 20
24.9254318870995
 42
1.0
 10
285.3510444536752
 20
25.31853032275095
 42
1.0
 10
285.0380140090768
 20
25.68714980838475
 42
1.0
 10
284.7721626029031
 20
26.08712768767229
 42
1.0
 10
284.5571094574822
 20
26.41068293535724
 42
1.0
 10
284.5630810205802
 20
26.788679112661
 42
1.0
 10
284.688382372121
 20
27.15085253116304
 42
1.0
 97
        0
 92
        0
 93
        2
 72
     1
 10
284.845288113738
 20
24.3712657578988
 11
287.0009947176327
 21
21.77781006188367
 72
     4
 94
        3
 73
     1
 74
     0
 95
       14
 96
       10
 40
1.0
 40
1.0
 40
1.0
 40
1.0
 40
2.0
 40
2.0
 40
2.0
 40
3.0
 40
3.0
 40
3.0
 40
4.0
 40
4.0
 40
4.0
 40
4.0
 10
287.0009947176327
 20
21.77781006188367
 42
1.0
 10
286.5509442670314
 20
21.22618922689351
 42
1.0
 10
286.0339581905155
 20
20.90925282038733
 42
1.0
 10
285.3603677179978
 20
20.87638462370451
 42
1.0
 10
284.4974276510072
 20
20.83427541775252
 42
1.0
 10
283.8665083325146
 20
21.39392726712143
 42
1.0
 10
283.7780264951535
 20
22.28619625730053
 42
1.0
 10
283.6988925217564
 20
23.08417174469389
 42
1.0
 10
284.1054815548355
 20
23.90423117633508
 42
1.0
 10
284.845288113738
 20
24.3712657578988
 42
1.0
 97
        0
 75
     0
 76
     1
 98
        1
 10
0.0
 20
0.0
  0
HATCH
  5
79
330
1F
100
AcDbEntity
  8
0
  6
Continuous
 62
     7
100
AcDbHatch
 10
0.0
 20
0.0
 30
0.0
210
0.0
220
0.0
230
1.0
  2
SOLID
 70
     1
 71
     0
 91
        1
 92
        0
 93
        2
 72
     4
 94
        3
 73
     1
 74
     0
 95
       11
 96
        7
 40
0.0
 40
0.0
 40
0.0
 40
0.0
 40
1.0
 40
1.0
 40
1.0
 40
2.0
 40
2.0
 40
2.0
 40
2.0
 10
303.0570519104932
 20
26.35430478392947
 42
1.0
 10
303.0628482011429
 20
25.96449808787493
 42
1.0
 10
303.3259905717408
 20
25.69768229885988
 42
1.0
 10
303.6993639381942
 20
25.70301926806731
 42
1.0
 10
304.0680572227529
 20
25.70828897263022
 42
1.0
 10
304.3293945946187
 20
25.98752450590587
 42
1.0
 10
304.327448147944
 20
26.37412133304796
 42
1.0
 72
     4
 94
        3
 73
     1
 74
     0
 95
       11
 96
        7
 40
2.0
 40
2.0
 40
2.0
 40
2.0
 40
3.0
 40
3.0
 40
3.0
 40
4.0
 40
4.0
 40
4.0
 40
4.0
 10
304.327448147944
 20
26.37412133304796
 42
1.0
 10
304.3255386007336
 20
26.75299425696746
 42
1.0
 10
304.0507636744179
 20
27.04560238626284
 42
1.0
 10
303.6924299141011
 20
27.05034857969325
 42
1.0
 10
303.3266947364936
 20
27.05519259513757
 42
1.0
 10
303.0511172468595
 20
26.75330175249256
 42
1.0
 10
303.0570519104932
 20
26.35430478392947
 42
1.0
 97
        0
 75
     0
 76
     1
 98
        1
 10
0.0
 20
0.0
  0
HATCH
  5
7A
330
1F
100
AcDbEntity
  8
0
  6
Continuous
 62
     7
100
AcDbHatch
 10
0.0
 20
0.0
 30
0.0
210
0.0
220
0.0
230
1.0
  2
SOLID
 70
     1
 71
     0
 91
        1
 92
        0
 93
        4
 72
     1
 10
302.6973344203136
 20
20.2539775500868
 11
304.8038079156778
 21
20.2539775500868
 72
     4
 94
        3
 73
     1
 74
     0
 95
       17
 96
       13
 40
6.0
 40
6.0
 40
6.0
 40
6.0
 40
7.0
 40
7.0
 40
7.0
 40
8.0
 40
8.0
 40
8.0
 40
9.0
 40
9.0
 40
9.0
 40
10.0
 40
10.0
 40
10.0
 40
10.0
 10
304.8038079156778
 20
20.2539775500868
 42
1.0
 10
304.4578262506061
 20
20.33981031349822
 42
1.0
 10
304.2621822227331
 20
20.55023795748124
 42
1.0
 10
304.2107535961514
 20
20.89393877449616
 42
1.0
 10
304.1922454404932
 20
21.01764883669525
 42
1.0
 10
304.1821011631179
 20
21.14380579453512
 42
1.0
 10
304.1818797663412
 20
21.26887114326077
 42
1.0
 10
304.1797703470369
 20
22.46084295323946
 42
1.0
 10
304.1808527312862
 20
23.65282014439031
 42
1.0
 10
304.1800932173391
 20
24.84479541369365
 42
1.0
 10
304.1800409430993
 20
24.93136078519359
 42
1.0
 10
304.1727133247369
 20
25.01792115989102
 42
1.0
 10
304.1706223551654
 20
25.06377258638473
 42
1.0
 72
     1
 10
304.1706223551654
 20
25.06377258638473
 11
302.7125031745686
 21
24.50968064047992
 72
     4
 94
        3
 73
     1
 74
     0
 95
       17
 96
       13
 40
1.0
 40
1.0
 40
1.0
 40
1.0
 40
2.0
 40
2.0
 40
2.0
 40
3.0
 40
3.0
 40
3.0
 40
4.0
 40
4.0
 40
4.0
 40
5.0
 40
5.0
 40
5.0
 40
5.0
 10
302.7125031745686
 20
24.50968064047994
 42
1.0
 10
302.7604109773859
 20
24.50557288463289
 42
1.0
 10
302.8224697242704
 20
24.49650561033552
 42
1.0
 10
302.8846514693661
 20
24.49557889569631
 42
1.0
 10
303.1332831261333
 20
24.4918735746181
 42
1.0
 10
303.2632153602819
 20
24.35030186610297
 42
1.0
 10
303.2668591822546
 20
24.11891186780057
 42
1.0
 10
303.2829750227277
 20
23.09531768874206
 42
1.0
 10
303.296603224403
 20
22.071496731734
 42
1.0
 10
303.2916556214044
 20
21.04785181591346
 42
1.0
 10
303.2897768237453
 20
20.65853557522151
 42
1.0
 10
303.1321361678242
 20
20.3494649042487
 42
1.0
 10
302.6973344203136
 20
20.2539775500868
 42
1.0
 97
        0
 75
     0
 76
     1
 98
        1
 10
0.0
 20
0.0
  0
HATCH
  5
7B
330
1F
100
AcDbEntity
  8
0
  6
Continuous
 62
     7
100
AcDbHatch
 10
0.0
 20
0.0
 30
0.0
210
0.0
220
0.0
230
1.0
  2
SOLID
 70
     1
 71
     0
 91
        1
 92
        0
 93
        4
 72
     1
 10
308.65963267846
 20
27.88697759989075
 11
307.1608133901539
 21
27.32540717062984
 72
     4
 94
        3
 73
     1
 74
     0
 95
       20
 96
       16
 40
5.0
 40
5.0
 40
5.0
 40
5.0
 40
6.0
 40
6.0
 40
6.0
 40
7.0
 40
7.0
 40
7.0
 40
8.0
 40
8.0
 40
8.0
 40
9.0
 40
9.0
 40
9.0
 40
10.0
 40
10.0
 40
10.0
 40
10.0
 10
307.1608133901539
 20
27.32540717062984
 42
1.0
 10
307.6774858212348
 20
27.28280885460759
 42
1.0
 10
307.7501131893193
 20
27.20350460556406
 42
1.0
 10
307.7547502218385
 20
26.63215658734291
 42
1.0
 10
307.7552944889174
 20
26.56503146731187
 42
1.0
 10
307.7550361926765
 20
26.49789904426262
 42
1.0
 10
307.7550361926765
 20
26.43077008053731
 42
1.0
 10
307.7550484924979
 20
24.69380511724257
 42
1.0
 10
307.7587445887104
 20
22.95682170421714
 42
1.0
 10
307.7500732149022
 20
21.21990094340409
 42
1.0
 10
307.7490584796685
 20
21.01681475508336
 42
1.0
 10
307.7285516030971
 20
20.78446498637255
 42
1.0
 10
307.6283941606454
 20
20.61954360515536
 42
1.0
 10
307.5293898264143
 20
20.45652254628292
 42
1.0
 10
307.3179589782804
 20
20.36177625633667
 42
1.0
 10
307.178408284104
 20
20.25443648715803
 42
1.0
 72
     1
 10
307.178408284104
 20
20.25443648715803
 11
309.3620693061908
 21
20.25443648715802
 72
     4
 94
        3
 73
     1
 74
     0
 95
       14
 96
       10
 40
1.0
 40
1.0
 40
1.0
 40
1.0
 40
2.0
 40
2.0
 40
2.0
 40
3.0
 40
3.0
 40
3.0
 40
4.0
 40
4.0
 40
4.0
 40
4.0
 10
309.3620693061908
 20
20.25443648715802
 42
1.0
 10
308.807415027844
 20
20.43200746554105
 42
1.0
 10
308.6597679764911
 20
20.6374237012035
 42
1.0
 10
308.6597187772069
 20
21.15880542625192
 42
1.0
 10
308.6595035303402
 20
23.32371921490944
 42
1.0
 10
308.65963267846
 20
25.48863300356693
 42
1.0
 10
308.65963267846
 20
27.65354698440997
 42
1.0
 10
308.65963267846
 20
27.74275854708867
 42
1.0
 10
308.65963267846
 20
27.83196991758182
 42
1.0
 10
308.65963267846
 20
27.88697759989075
 42
1.0
 97
        0
 75
     0
 76
     1
 98
        1
 10
0.0
 20
0.0
  0
HATCH
  5
7C
330
1F
100
AcDbEntity
  8
0
  6
Continuous
 62
     7
100
AcDbHatch
 10
0.0
 20
0.0
 30
0.0
210
0.0
220
0.0
230
1.0
  2
SOLID
 70
     1
 71
     0
 91
        1
 92
        0
 93
        4
 72
     1
 10
313.1781318226163
 20
27.87703492426926
 11
311.6691528821608
 21
27.32445797038016
 72
     4
 94
        3
 73
     1
 74
     0
 95
       17
 96
       13
 40
6.0
 40
6.0
 40
6.0
 40
6.0
 40
7.0
 40
7.0
 40
7.0
 40
8.0
 40
8.0
 40
8.0
 40
9.0
 40
9.0
 40
9.0
 40
10.0
 40
10.0
 40
10.0
 40
10.0
 10
311.6691528821608
 20
27.32445797038016
 42
1.0
 10
312.2096131670664
 20
27.27631108979181
 42
1.0
 10
312.2683694120104
 20
27.21300429544448
 42
1.0
 10
312.2823973578678
 20
26.60716642601487
 42
1.0
 10
312.2845313768121
 20
26.51487279724974
 42
1.0
 10
312.2871512386867
 20
26.42255802816857
 42
1.0
 10
312.2871819882395
 20
26.33025248395311
 42
1.0
 10
312.2877662297369
 20
24.60974045310045
 42
1.0
 10
312.2890700107628
 20
22.88922803787955
 42
1.0
 10
312.2876555313485
 20
21.16871754450475
 42
1.0
 10
312.2872188877024
 20
20.63608302071405
 42
1.0
 10
312.1185268426077
 20
20.41647125413319
 42
1.0
 10
311.6156486607861
 20
20.25320881127337
 42
1.0
 72
     1
 10
311.6156486607861
 20
20.25320881127337
 11
313.8867245107604
 21
20.25320881127337
 72
     4
 94
        3
 73
     1
 74
     0
 95
       17
 96
       13
 40
1.0
 40
1.0
 40
1.0
 40
1.0
 40
2.0
 40
2.0
 40
2.0
 40
3.0
 40
3.0
 40
3.0
 40
4.0
 40
4.0
 40
4.0
 40
5.0
 40
5.0
 40
5.0
 40
5.0
 10
313.8867245107604
 20
20.25320881127337
 42
1.0
 10
313.3266152617988
 20
20.4348325806782
 42
1.0
 10
313.1888880160859
 20
20.62648762285203
 42
1.0
 10
313.1786115156352
 20
21.17082388885262
 42
1.0
 10
313.1771847363981
 20
21.24633325874564
 42
1.0
 10
313.1781441224363
 20
21.32188875296783
 42
1.0
 10
313.1781441224363
 20
21.39742349124222
 42
1.0
 10
313.1781256727049
 20
23.48721689184593
 42
1.0
 10
313.1781318226163
 20
25.57700952371036
 42
1.0
 10
313.1781318226163
 20
27.66680273212925
 42
1.0
 10
313.1781318226163
 20
27.75161518695077
 42
1.0
 10
313.1781318226163
 20
27.83642744958889
 42
1.0
 10
313.1781318226163
 20
27.87703492426926
 42
1.0
 97
        0
 75
     0
 76
     1
 98
        1
 10
0.0
 20
0.0
  0
HATCH
  5
7D
330
1F
100
AcDbEntity
  8
0
  6
Continuous
 62
     7
100
AcDbHatch
 10
0.0
 20
0.0
 30
0.0
210
0.0
220
0.0
230
1.0
  2
SOLID
 70
     1
 71
     0
 91
        1
 92
        0
 93
       12
 72
     1
 10
296.2715297073844
 20
27.50458020069891
 11
293.841527870193
 21
27.50458020069891
 72
     4
 94
        3
 73
     1
 74
     0
 95
       17
 96
       13
 40
21.0
 40
21.0
 40
21.0
 40
21.0
 40
22.0
 40
22.0
 40
22.0
 40
23.0
 40
23.0
 40
23.0
 40
24.0
 40
24.0
 40
24.0
 40
25.0
 40
25.0
 40
25.0
 40
25.0
 10
293.841527870193
 20
27.50458020069891
 42
1.0
 10
294.4654639653083
 20
27.35271373418588
 42
1.0
 10
294.541848928711
 20
26.88863860486635
 42
1.0
 10
294.5396718603926
 20
26.35648992400541
 42
1.0
 10
294.5326947869268
 20
24.65236702027423
 42
1.0
 10
294.54232862173
 20
22.9481603240125
 42
1.0
 10
294.5304592944584
 20
21.24409084762873
 42
1.0
 10
294.52894334152
 20
21.02641399663968
 42
1.0
 10
294.4888489999954
 20
20.77588586122133
 42
1.0
 10
294.3739502220706
 20
20.60171040217499
 42
1.0
 10
294.2655211499942
 20
20.43733713173098
 42
1.0
 10
294.0348564567621
 20
20.35359533789035
 42
1.0
 10
293.8906841048422
 20
20.25643828302682
 42
1.0
 72
     1
 10
293.8906841048422
 20
20.25643828302682
 11
296.2880237673525
 21
20.25643828302682
 72
     4
 94
        3
 73
     1
 74
     0
 95
       14
 96
       10
 40
17.0
 40
17.0
 40
17.0
 40
17.0
 40
18.0
 40
18.0
 40
18.0
 40
19.0
 40
19.0
 40
19.0
 40
20.0
 40
20.0
 40
20.0
 40
20.0
 10
296.2880237673525
 20
20.25643828302682
 42
1.0
 10
295.7413366980624
 20
20.4024294709773
 42
1.0
 10
295.5628078711177
 20
20.63015527572819
 42
1.0
 10
295.5619960829322
 20
21.2138824872384
 42
1.0
 10
295.560827599936
 20
22.05336910178782
 42
1.0
 10
295.561359567195
 20
22.89285956003151
 42
1.0
 10
295.5621928800676
 20
23.73234771205876
 42
1.0
 10
295.5622759038603
 20
23.81306182808445
 42
1.0
 10
295.5696219719554
 20
23.89376787235267
 42
1.0
 10
295.5733857171835
 20
23.97022240661697
 42
1.0
 72
     1
 10
295.5733857171835
 20
23.97022240661697
 11
298.4851131190222
 21
23.97022240661697
 72
     4
 94
        3
 73
     1
 74
     0
 95
       11
 96
        7
 40
14.0
 40
14.0
 40
14.0
 40
14.0
 40
15.0
 40
15.0
 40
15.0
 40
16.0
 40
16.0
 40
16.0
 40
16.0
 10
298.4851131190222
 20
23.97022240661697
 42
1.0
 10
298.4851131190222
 20
23.04419117651474
 42
1.0
 10
298.4852207424561
 20
22.13796342697173
 42
1.0
 10
298.485073144605
 20
21.23173567742801
 42
1.0
 10
298.4849747460367
 20
20.62384393007452
 42
1.0
 10
298.3307257657572
 20
20.41986831094703
 42
1.0
 10
297.7632396991476
 20
20.25412130424438
 42
1.0
 72
     1
 10
297.7632396991476
 20
20.25412130424438
 11
300.2193725060648
 21
20.25412130424438
 72
     4
 94
        3
 73
     1
 74
     0
 95
       17
 96
       13
 40
9.0
 40
9.0
 40
9.0
 40
9.0
 40
10.0
 40
10.0
 40
10.0
 40
11.0
 40
11.0
 40
11.0
 40
12.0
 40
12.0
 40
12.0
 40
13.0
 40
13.0
 40
13.0
 40
13.0
 10
300.2193725060648
 20
20.25412130424438
 42
1.0
 10
299.739442715284
 20
20.41422423058344
 42
1.0
 10
299.5427163031618
 20
20.62720562490344
 42
1.0
 10
299.542119761843
 20
21.03839632851544
 42
1.0
 10
299.5393769017586
 20
22.92724217217554
 42
1.0
 10
299.5395583241182
 20
24.8160968563317
 42
1.0
 10
299.5421628112159
 20
26.70494346873036
 42
1.0
 10
299.5426363543262
 20
27.0468754177367
 42
1.0
 10
299.7248336028849
 20
27.28837413924314
 42
1.0
 10
300.049118383702
 20
27.40930924651266
 42
1.0
 10
300.1052670665942
 20
27.43024796211264
 42
1.0
 10
300.1600043450263
 20
27.45496618208605
 42
1.0
 10
300.2549312885929
 20
27.49433829349534
 42
1.0
 72
     1
 10
300.2549312885929
 20
27.49433829349534
 11
297.7186989723292
 21
27.49433829349534
 72
     4
 94
        3
 73
     1
 74
     0
 95
       14
 96
       10
 40
5.0
 40
5.0
 40
5.0
 40
5.0
 40
6.0
 40
6.0
 40
6.0
 40
7.0
 40
7.0
 40
7.0
 40
8.0
 40
8.0
 40
8.0
 40
8.0
 10
297.7186989723292
 20
27.49433829349534
 42
1.0
 10
298.3648823686909
 20
27.26685790861022
 42
1.0
 10
298.4850762195593
 20
27.0944786077999
 42
1.0
 10
298.4851069691121
 20
26.45733654080182
 42
1.0
 10
298.4851377186649
 20
25.7773505457302
 42
1.0
 10
298.4851131190222
 20
25.09736416629037
 42
1.0
 10
298.4851131190222
 20
24.41737817121947
 42
1.0
 10
298.4851131190222
 20
24.32893553953832
 42
1.0
 10
298.4851131190222
 20
24.24049329222682
 42
1.0
 10
298.4851131190222
 20
24.16049564077468
 42
1.0
 72
     1
 10
298.4851131190222
 20
24.16049564077468
 11
295.5632814142282
 21
24.16049564077468
 72
     4
 94
        3
 73
     1
 74
     0
 95
       14
 96
       10
 40
1.0
 40
1.0
 40
1.0
 40
1.0
 40
2.0
 40
2.0
 40
2.0
 40
3.0
 40
3.0
 40
3.0
 40
4.0
 40
4.0
 40
4.0
 40
4.0
 10
295.5632814142282
 20
24.16049564077468
 42
1.0
 10
295.5632814142282
 20
25.01272602299438
 42
1.0
 10
295.5627432970579
 20
25.84365465270932
 42
1.0
 10
295.5644406723573
 20
26.67457866999212
 42
1.0
 10
295.5645605956114
 20
26.73240397223375
 42
1.0
 10
295.5792681065788
 20
26.79059327230427
 42
1.0
 10
295.5906023916358
 20
26.8479388815276
 42
1.0
 10
295.6648994604227
 20
27.22384581892186
 42
1.0
 10
295.9411319155254
 20
27.38780204855992
 42
1.0
 10
296.2715297073844
 20
27.50458020069891
 42
1.0
 97
        0
 75
     0
 76
     1
 98
        1
 10
0.0
 20
0.0
  0
SPLINE
  5
7E
330
1F
100
AcDbEntity
  8
0
  6
Continuous
 62
   179
370
     0
100
AcDbSpline
210
0.0
220
0.0
230
1.0
 70
     8
 71
     3
 72
    14
 73
    10
 74
     0
 42
0.000000001
 43
0.00000001
 40
24.0
 40
24.0
 40
24.0
 40
24.0
 40
25.0
 40
25.0
 40
25.0
 40
26.0
 40
26.0
 40
26.0
 40
27.0
 40
27.0
 40
27.0
 40
27.0
 10
287.7314564875268
 20
22.42648570947681
 30
0.0
 10
288.0996055050067
 20
21.95463920731319
 30
0.0
 10
288.4270667146001
 20
21.47381844824843
 30
0.0
 10
288.8166481701822
 20
21.05011190802389
 30
0.0
 10
289.3841588364346
 20
20.43289382139212
 30
0.0
 10
289.9836367374808
 20
20.49110656799654
 30
0.0
 10
290.4735170834558
 20
21.16713932372222
 30
0.0
 10
290.5884281612034
 20
21.32571784099438
 30
0.0
 10
290.6825002672103
 20
21.49939669476814
 30
0.0
 10
290.8103661314317
 20
21.70506046432864
 30
0.0
  0
SPLINE
  5
7F
330
1F
100
AcDbEntity
  8
0
  6
Continuous
 62
   179
370
     0
100
AcDbSpline
210
0.0
220
0.0
230
1.0
 70
     8
 71
     3
 72
    11
 73
     7
 74
     0
 42
0.000000001
 43
0.00000001
 40
22.0
 40
22.0
 40
22.0
 40
22.0
 40
23.0
 40
23.0
 40
23.0
 40
24.0
 40
24.0
 40
24.0
 40
24.0
 10
290.7742138825406
 20
25.39867403457779
 30
0.0
 10
289.9536528488242
 20
25.26443186627322
 30
0.0
 10
289.4290162836425
 20
24.71923384406366
 30
0.0
 10
288.9612633156569
 20
24.10441845059237
 30
0.0
 10
288.5466855488353
 20
23.55949371503119
 30
0.0
 10
288.1508588591388
 20
23.00030157147279
 30
0.0
 10
287.7314564875268
 20
22.42648570947681
 30
0.0
  0
SPLINE
  5
80
330
1F
100
AcDbEntity
  8
0
  6
Continuous
 62
   179
370
     0
100
AcDbSpline
210
0.0
220
0.0
230
1.0
 70
     8
 71
     3
 72
    11
 73
     7
 74
     0
 42
0.000000001
 43
0.00000001
 40
20.0
 40
20.0
 40
20.0
 40
20.0
 40
21.0
 40
21.0
 40
21.0
 40
22.0
 40
22.0
 40
22.0
 40
22.0
 10
287.7715077796773
 20
25.39867403457779
 30
0.0
 10
288.2706160663608
 20
25.39867403457779
 30
0.0
 10
288.76972127809
 20
25.39867441894744
 30
0.0
 10
289.2688295647749
 20
25.39867441894744
 30
0.0
 10
289.7706253623487
 20
25.39867441894744
 30
0.0
 10
290.2724180849667
 20
25.39867403457779
 30
0.0
 10
290.7742138825406
 20
25.39867403457779
 30
0.0
  0
SPLINE
  5
81
330
1F
100
AcDbEntity
  8
0
  6
Continuous
 62
   179
370
     0
100
AcDbSpline
210
0.0
220
0.0
230
1.0
 70
     8
 71
     3
 72
    17
 73
    13
 74
     0
 42
0.000000001
 43
0.00000001
 40
16.0
 40
16.0
 40
16.0
 40
16.0
 40
17.0
 40
17.0
 40
17.0
 40
18.0
 40
18.0
 40
18.0
 40
19.0
 40
19.0
 40
19.0
 40
20.0
 40
20.0
 40
20.0
 40
20.0
 10
287.7233847299918
 20
22.54303496963325
 30
0.0
 10
288.0735790837579
 20
23.12311989664797
 30
0.0
 10
288.4211781752921
 20
23.692108847638
 30
0.0
 10
288.7595985254019
 20
24.26650702928458
 30
0.0
 10
288.8131334963293
 20
24.3573677289012
 30
0.0
 10
288.8373887433532
 20
24.47070865762303
 30
0.0
 10
288.8543009972361
 20
24.57697987985169
 30
0.0
 10
288.9174636530569
 20
24.97387165717582
 30
0.0
 10
288.7601181928394
 20
25.20759054971102
 30
0.0
 10
288.3670435880915
 20
25.28904726743022
 30
0.0
 10
288.1718392788191
 20
25.32949945687163
 30
0.0
 10
287.9710693005408
 20
25.34310267453518
 30
0.0
 10
287.7715077796773
 20
25.39867403457779
 30
0.0
  0
SPLINE
  5
82
330
1F
100
AcDbEntity
  8
0
  6
Continuous
 62
   179
370
     0
100
AcDbSpline
210
0.0
220
0.0
230
1.0
 70
     8
 71
     3
 72
     8
 73
     4
 74
     0
 42
0.000000001
 43
0.00000001
 40
15.0
 40
15.0
 40
15.0
 40
15.0
 40
16.0
 40
16.0
 40
16.0
 40
16.0
 10
285.8065406500283
 20
24.86455968857225
 30
0.0
 10
286.4380688096612
 20
24.09970377545334
 30
0.0
 10
287.0596648638312
 20
23.34687900912474
 30
0.0
 10
287.7233847299918
 20
22.54303496963325
 30
0.0
  0
SPLINE
  5
83
330
1F
100
AcDbEntity
  8
0
  6
Continuous
 62
   179
370
     0
100
AcDbSpline
210
0.0
220
0.0
230
1.0
 70
     8
 71
     3
 72
    26
 73
    22
 74
     0
 42
0.000000001
 43
0.00000001
 40
8.0
 40
8.0
 40
8.0
 40
8.0
 40
9.0
 40
9.0
 40
9.0
 40
10.0
 40
10.0
 40
10.0
 40
11.0
 40
11.0
 40
11.0
 40
12.0
 40
12.0
 40
12.0
 40
13.0
 40
13.0
 40
13.0
 40
14.0
 40
14.0
 40
14.0
 40
15.0
 40
15.0
 40
15.0
 40
15.0
 10
284.7027239634148
 20
24.4681860412085
 30
0.0
 10
284.5641388051866
 20
24.63003900145511
 30
0.0
 10
284.4323277733789
 20
24.77744812814592
 30
0.0
 10
284.3077767109179
 20
24.93075271279267
 30
0.0
 10
284.0198409761273
 20
25.28515591156022
 30
0.0
 10
283.7707819005811
 20
25.65802498535045
 30
0.0
 10
283.7149530130354
 20
26.1296866058298
 30
0.0
 10
283.6309452355654
 20
26.8393466878164
 30
0.0
 10
283.9109291360762
 20
27.37506654483262
 30
0.0
 10
284.558084218296
 20
27.68711127408746
 30
0.0
 10
285.1912113546599
 20
27.99239110178883
 30
0.0
 10
285.840402057257
 20
27.99583274545402
 30
0.0
 10
286.4793408590448
 20
27.71426216803416
 30
0.0
 10
287.361321048954
 20
27.32558686332681
 30
0.0
 10
287.5614237619422
 20
26.30921056516709
 30
0.0
 10
286.8815726805328
 20
25.62247811827483
 30
0.0
 10
286.6551698752792
 20
25.39378370261948
 30
0.0
 10
286.361711520857
 20
25.23088333574105
 30
0.0
 10
286.0959738880259
 20
25.04203380586477
 30
0.0
 10
286.0025259979348
 20
24.97562130671301
 30
0.0
 10
285.9002991106001
 20
24.9215528310502
 30
0.0
 10
285.8065406500283
 20
24.86455968857225
 30
0.0
  0
SPLINE
  5
84
330
1F
100
AcDbEntity
  8
0
  6
Continuous
 62
   179
370
     0
100
AcDbSpline
210
0.0
220
0.0
230
1.0
 70
     8
 71
     3
 72
    20
 73
    16
 74
     0
 42
0.000000001
 43
0.00000001
 40
3.0
 40
3.0
 40
3.0
 40
3.0
 40
4.0
 40
4.0
 40
4.0
 40
5.0
 40
5.0
 40
5.0
 40
6.0
 40
6.0
 40
6.0
 40
7.0
 40
7.0
 40
7.0
 40
8.0
 40
8.0
 40
8.0
 40
8.0
 10
287.0539854214827
 20
21.61211917311518
 30
0.0
 10
286.8995550188436
 20
21.43851181205056
 30
0.0
 10
286.7443651022574
 20
21.26447318851252
 30
0.0
 10
286.5896302790503
 20
21.09003174583674
 30
0.0
 10
285.9488126796034
 20
20.36759637788917
 30
0.0
 10
285.1515567317372
 20
20.05360962220845
 30
0.0
 10
284.198169930981
 20
20.23446388406056
 30
0.0
 10
282.6109241545095
 20
20.5355588898502
 30
0.0
 10
282.3522343191156
 20
22.37884389028816
 30
0.0
 10
283.1417229300147
 20
23.34576433784628
 30
0.0
 10
283.460866385652
 20
23.7366334309401
 30
0.0
 10
283.8607304915963
 20
24.02105948868025
 30
0.0
 10
284.3005597909425
 20
24.25632085564482
 30
0.0
 10
284.4255536469583
 20
24.32317807019961
 30
0.0
 10
284.5513685160267
 20
24.38851087568819
 30
0.0
 10
284.7027239634148
 20
24.4681860412085
 30
0.0
  0
SPLINE
  5
85
330
1F
100
AcDbEntity
  8
0
  6
Continuous
 62
   179
370
     0
100
AcDbSpline
210
0.0
220
0.0
230
1.0
 70
     8
 71
     3
 72
    14
 73
    10
 74
     0
 42
0.000000001
 43
0.00000001
 40
0.0
 40
0.0
 40
0.0
 40
0.0
 40
1.0
 40
1.0
 40
1.0
 40
2.0
 40
2.0
 40
2.0
 40
3.0
 40
3.0
 40
3.0
 40
3.0
 10
290.8103661314317
 20
21.70506046432864
 30
0.0
 10
290.7160910783766
 20
21.04182259740494
 30
0.0
 10
289.9739444785289
 20
20.32342848939635
 30
0.0
 10
289.3271645408483
 20
20.20870037148624
 30
0.0
 10
288.7048673968812
 20
20.0983148591309
 30
0.0
 10
288.1784811821614
 20
20.26780485511384
 30
0.0
 10
287.7601488949774
 20
20.73592220529573
 30
0.0
 10
287.5152010346028
 20
21.01001756649998
 30
0.0
 10
287.2972697310665
 20
21.30825593886041
 30
0.0
 10
287.0539854214827
 20
21.61211917311518
 30
0.0
  0
SPLINE
  5
86
330
1F
100
AcDbEntity
  8
0
  6
Continuous
 62
   179
370
     0
100
AcDbSpline
210
0.0
220
0.0
230
1.0
 70
     8
 71
     3
 72
    14
 73
    10
 74
     0
 42
0.000000001
 43
0.00000001
 40
1.0
 40
1.0
 40
1.0
 40
1.0
 40
2.0
 40
2.0
 40
2.0
 40
3.0
 40
3.0
 40
3.0
 40
4.0
 40
4.0
 40
4.0
 40
4.0
 10
284.845288113738
 20
24.3712657578988
 30
0.0
 10
284.1054815548355
 20
23.90423117633508
 30
0.0
 10
283.6988925217564
 20
23.08417174469389
 30
0.0
 10
283.7780264951535
 20
22.28619625730053
 30
0.0
 10
283.8665083325146
 20
21.39392726712143
 30
0.0
 10
284.4974276510072
 20
20.83427541775253
 30
0.0
 10
285.3603677179978
 20
20.87638462370452
 30
0.0
 10
286.0339581905155
 20
20.90925282038733
 30
0.0
 10
286.5509442670314
 20
21.22618922689351
 30
0.0
 10
287.0009947176327
 20
21.77781006188367
 30
0.0
  0
SPLINE
  5
87
330
1F
100
AcDbEntity
  8
0
  6
Continuous
 62
   179
370
     0
100
AcDbSpline
210
0.0
220
0.0
230
1.0
 70
     8
 71
     3
 72
     8
 73
     4
 74
     0
 42
0.000000001
 43
0.00000001
 40
0.0
 40
0.0
 40
0.0
 40
0.0
 40
1.0
 40
1.0
 40
1.0
 40
1.0
 10
287.0009947176327
 20
21.77781006188367
 30
0.0
 10
286.2819902310068
 20
22.64282111123716
 30
0.0
 10
285.5612360948443
 20
23.50993158628786
 30
0.0
 10
284.845288113738
 20
24.3712657578988
 30
0.0
  0
SPLINE
  5
88
330
1F
100
AcDbEntity
  8
0
  6
Continuous
 62
   179
370
     0
100
AcDbSpline
210
0.0
220
0.0
230
1.0
 70
     8
 71
     3
 72
    11
 73
     7
 74
     0
 42
0.000000001
 43
0.00000001
 40
3.0
 40
3.0
 40
3.0
 40
3.0
 40
4.0
 40
4.0
 40
4.0
 40
5.0
 40
5.0
 40
5.0
 40
5.0
 10
284.6883823721211
 20
27.15085253116305
 30
0.0
 10
284.5630810205802
 20
26.788679112661
 30
0.0
 10
284.5571094574822
 20
26.41068293535724
 30
0.0
 10
284.7721626029031
 20
26.08712768767229
 30
0.0
 10
285.0380140090768
 20
25.68714980838475
 30
0.0
 10
285.3510444536753
 20
25.31853032275096
 30
0.0
 10
285.6520579731507
 20
24.9254318870995
 30
0.0
  0
SPLINE
  5
89
330
1F
100
AcDbEntity
  8
0
  6
Continuous
 62
   179
370
     0
100
AcDbSpline
210
0.0
220
0.0
230
1.0
 70
     8
 71
     3
 72
    14
 73
    10
 74
     0
 42
0.000000001
 43
0.00000001
 40
0.0
 40
0.0
 40
0.0
 40
0.0
 40
1.0
 40
1.0
 40
1.0
 40
2.0
 40
2.0
 40
2.0
 40
3.0
 40
3.0
 40
3.0
 40
3.0
 10
285.6520579731507
 20
24.9254318870995
 30
0.0
 10
286.3259713159692
 20
25.4295804098103
 30
0.0
 10
286.5713650448558
 20
26.2298440482801
 30
0.0
 10
286.3549927436335
 20
27.06650131962916
 30
0.0
 10
286.2400293916459
 20
27.5110460628537
 30
0.0
 10
285.9916529561654
 20
27.74682017860582
 30
0.0
 10
285.6158934244382
 20
27.76810636414938
 30
0.0
 10
285.1818973152029
 20
27.79269159230804
 30
0.0
 10
284.8337724063213
 20
27.5710895609412
 30
0.0
 10
284.6883823721211
 20
27.15085253116305
 30
0.0
  0
SPLINE
  5
8A
330
1F
100
AcDbEntity
  8
0
  6
Continuous
 62
   179
370
     0
100
AcDbSpline
210
0.0
220
0.0
230
1.0
 70
     8
 71
     3
 72
    17
 73
    13
 74
     0
 42
0.000000001
 43
0.00000001
 40
21.0
 40
21.0
 40
21.0
 40
21.0
 40
22.0
 40
22.0
 40
22.0
 40
23.0
 40
23.0
 40
23.0
 40
24.0
 40
24.0
 40
24.0
 40
25.0
 40
25.0
 40
25.0
 40
25.0
 10
293.8906841048423
 20
20.25643828302682
 30
0.0
 10
294.0348564567621
 20
20.35359533789035
 30
0.0
 10
294.2655211499942
 20
20.43733713173099
 30
0.0
 10
294.3739502220706
 20
20.601710402175
 30
0.0
 10
294.4888489999955
 20
20.77588586122134
 30
0.0
 10
294.5289433415201
 20
21.02641399663968
 30
0.0
 10
294.5304592944584
 20
21.24409084762874
 30
0.0
 10
294.5423286217301
 20
22.94816032401251
 30
0.0
 10
294.5326947869268
 20
24.65236702027423
 30
0.0
 10
294.5396718603926
 20
26.35648992400541
 30
0.0
 10
294.541848928711
 20
26.88863860486636
 30
0.0
 10
294.4654639653083
 20
27.35271373418588
 30
0.0
 10
293.841527870193
 20
27.50458020069892
 30
0.0
  0
SPLINE
  5
8B
330
1F
100
AcDbEntity
  8
0
  6
Continuous
 62
   179
370
     0
100
AcDbSpline
210
0.0
220
0.0
230
1.0
 70
    24
 71
     3
 72
     8
 73
     4
 74
     0
 42
0.000000001
 43
0.00000001
 40
20.0
 40
20.0
 40
20.0
 40
20.0
 40
21.0
 40
21.0
 40
21.0
 40
21.0
 10
296.2880237673526
 20
20.25643828302682
 30
0.0
 10
295.4693261565182
 20
20.25643828302682
 30
0.0
 10
294.6506254707311
 20
20.25643828302682
 30
0.0
 10
293.8906841048423
 20
20.25643828302682
 30
0.0
  0
SPLINE
  5
8C
330
1F
100
AcDbEntity
  8
0
  6
Continuous
 62
   179
370
     0
100
AcDbSpline
210
0.0
220
0.0
230
1.0
 70
     8
 71
     3
 72
    14
 73
    10
 74
     0
 42
0.000000001
 43
0.00000001
 40
17.0
 40
17.0
 40
17.0
 40
17.0
 40
18.0
 40
18.0
 40
18.0
 40
19.0
 40
19.0
 40
19.0
 40
20.0
 40
20.0
 40
20.0
 40
20.0
 10
295.5733857171836
 20
23.97022240661698
 30
0.0
 10
295.5696219719554
 20
23.89376787235267
 30
0.0
 10
295.5622759038603
 20
23.81306182808446
 30
0.0
 10
295.5621928800676
 20
23.73234771205876
 30
0.0
 10
295.561359567195
 20
22.89285956003151
 30
0.0
 10
295.560827599936
 20
22.05336910178782
 30
0.0
 10
295.5619960829322
 20
21.2138824872384
 30
0.0
 10
295.5628078711177
 20
20.63015527572819
 30
0.0
 10
295.7413366980624
 20
20.4024294709773
 30
0.0
 10
296.2880237673526
 20
20.25643828302682
 30
0.0
  0
SPLINE
  5
8D
330
1F
100
AcDbEntity
  8
0
  6
Continuous
 62
   179
370
     0
100
AcDbSpline
210
0.0
220
0.0
230
1.0
 70
    24
 71
     3
 72
     8
 73
     4
 74
     0
 42
0.000000001
 43
0.00000001
 40
16.0
 40
16.0
 40
16.0
 40
16.0
 40
17.0
 40
17.0
 40
17.0
 40
17.0
 10
298.4851131190222
 20
23.97022240661698
 30
0.0
 10
297.5154382802974
 20
23.97022240661698
 30
0.0
 10
296.5557754958725
 20
23.97022240661698
 30
0.0
 10
295.5733857171836
 20
23.97022240661698
 30
0.0
  0
SPLINE
  5
8E
330
1F
100
AcDbEntity
  8
0
  6
Continuous
 62
   179
370
     0
100
AcDbSpline
210
0.0
220
0.0
230
1.0
 70
     8
 71
     3
 72
    11
 73
     7
 74
     0
 42
0.000000001
 43
0.00000001
 40
14.0
 40
14.0
 40
14.0
 40
14.0
 40
15.0
 40
15.0
 40
15.0
 40
16.0
 40
16.0
 40
16.0
 40
16.0
 10
297.7632396991476
 20
20.25412130424438
 30
0.0
 10
298.3307257657572
 20
20.41986831094704
 30
0.0
 10
298.4849747460367
 20
20.62384393007452
 30
0.0
 10
298.485073144605
 20
21.23173567742802
 30
0.0
 10
298.4852207424561
 20
22.13796342697173
 30
0.0
 10
298.4851131190222
 20
23.04419117651474
 30
0.0
 10
298.4851131190222
 20
23.97022240661698
 30
0.0
  0
SPLINE
  5
8F
330
1F
100
AcDbEntity
  8
0
  6
Continuous
 62
   179
370
     0
100
AcDbSpline
210
0.0
220
0.0
230
1.0
 70
    24
 71
     3
 72
     8
 73
     4
 74
     0
 42
0.000000001
 43
0.00000001
 40
13.0
 40
13.0
 40
13.0
 40
13.0
 40
14.0
 40
14.0
 40
14.0
 40
14.0
 10
300.2193725060649
 20
20.25412130424438
 30
0.0
 10
299.4006625954106
 20
20.25412130424438
 30
0.0
 10
298.5819526847563
 20
20.25412130424438
 30
0.0
 10
297.7632396991476
 20
20.25412130424438
 30
0.0
  0
SPLINE
  5
90
330
1F
100
AcDbEntity
  8
0
  6
Continuous
 62
   179
370
     0
100
AcDbSpline
210
0.0
220
0.0
230
1.0
 70
     8
 71
     3
 72
    17
 73
    13
 74
     0
 42
0.000000001
 43
0.00000001
 40
9.0
 40
9.0
 40
9.0
 40
9.0
 40
10.0
 40
10.0
 40
10.0
 40
11.0
 40
11.0
 40
11.0
 40
12.0
 40
12.0
 40
12.0
 40
13.0
 40
13.0
 40
13.0
 40
13.0
 10
300.254931288593
 20
27.49433829349534
 30
0.0
 10
300.1600043450263
 20
27.45496618208605
 30
0.0
 10
300.1052670665943
 20
27.43024796211265
 30
0.0
 10
300.049118383702
 20
27.40930924651266
 30
0.0
 10
299.7248336028849
 20
27.28837413924314
 30
0.0
 10
299.5426363543262
 20
27.0468754177367
 30
0.0
 10
299.5421628112159
 20
26.70494346873036
 30
0.0
 10
299.5395583241182
 20
24.8160968563317
 30
0.0
 10
299.5393769017586
 20
22.92724217217554
 30
0.0
 10
299.542119761843
 20
21.03839632851544
 30
0.0
 10
299.5427163031618
 20
20.62720562490344
 30
0.0
 10
299.739442715284
 20
20.41422423058345
 30
0.0
 10
300.2193725060649
 20
20.25412130424438
 30
0.0
  0
SPLINE
  5
91
330
1F
100
AcDbEntity
  8
0
  6
Continuous
 62
   179
370
     0
100
AcDbSpline
210
0.0
220
0.0
230
1.0
 70
    24
 71
     3
 72
     8
 73
     4
 74
     0
 42
0.000000001
 43
0.00000001
 40
8.0
 40
8.0
 40
8.0
 40
8.0
 40
9.0
 40
9.0
 40
9.0
 40
9.0
 10
297.7186989723292
 20
27.49433829349534
 30
0.0
 10
298.5854396840106
 20
27.49433829349534
 30
0.0
 10
299.3949493285535
 20
27.49433829349534
 30
0.0
 10
300.254931288593
 20
27.49433829349534
 30
0.0
  0
SPLINE
  5
92
330
1F
100
AcDbEntity
  8
0
  6
Continuous
 62
   179
370
     0
100
AcDbSpline
210
0.0
220
0.0
230
1.0
 70
     8
 71
     3
 72
    14
 73
    10
 74
     0
 42
0.000000001
 43
0.00000001
 40
5.0
 40
5.0
 40
5.0
 40
5.0
 40
6.0
 40
6.0
 40
6.0
 40
7.0
 40
7.0
 40
7.0
 40
8.0
 40
8.0
 40
8.0
 40
8.0
 10
298.4851131190222
 20
24.16049564077469
 30
0.0
 10
298.4851131190222
 20
24.24049329222683
 30
0.0
 10
298.4851131190222
 20
24.32893553953833
 30
0.0
 10
298.4851131190222
 20
24.41737817121947
 30
0.0
 10
298.4851131190222
 20
25.09736416629037
 30
0.0
 10
298.4851377186649
 20
25.7773505457302
 30
0.0
 10
298.4851069691121
 20
26.45733654080182
 30
0.0
 10
298.4850762195594
 20
27.0944786077999
 30
0.0
 10
298.3648823686909
 20
27.26685790861022
 30
0.0
 10
297.7186989723292
 20
27.49433829349534
 30
0.0
  0
SPLINE
  5
93
330
1F
100
AcDbEntity
  8
0
  6
Continuous
 62
   179
370
     0
100
AcDbSpline
210
0.0
220
0.0
230
1.0
 70
    24
 71
     3
 72
     8
 73
     4
 74
     0
 42
0.000000001
 43
0.00000001
 40
4.0
 40
4.0
 40
4.0
 40
4.0
 40
5.0
 40
5.0
 40
5.0
 40
5.0
 10
295.5632814142282
 20
24.16049564077469
 30
0.0
 10
296.5292663066504
 20
24.16049564077469
 30
0.0
 10
297.4889290910767
 20
24.16049564077469
 30
0.0
 10
298.4851131190222
 20
24.16049564077469
 30
0.0
  0
SPLINE
  5
94
330
1F
100
AcDbEntity
  8
0
  6
Continuous
 62
   179
370
     0
100
AcDbSpline
210
0.0
220
0.0
230
1.0
 70
     8
 71
     3
 72
    14
 73
    10
 74
     0
 42
0.000000001
 43
0.00000001
 40
1.0
 40
1.0
 40
1.0
 40
1.0
 40
2.0
 40
2.0
 40
2.0
 40
3.0
 40
3.0
 40
3.0
 40
4.0
 40
4.0
 40
4.0
 40
4.0
 10
296.2715297073845
 20
27.50458020069892
 30
0.0
 10
295.9411319155254
 20
27.38780204855992
 30
0.0
 10
295.6648994604227
 20
27.22384581892186
 30
0.0
 10
295.5906023916359
 20
26.8479388815276
 30
0.0
 10
295.5792681065788
 20
26.79059327230428
 30
0.0
 10
295.5645605956114
 20
26.73240397223375
 30
0.0
 10
295.5644406723574
 20
26.67457866999212
 30
0.0
 10
295.562743297058
 20
25.84365465270932
 30
0.0
 10
295.5632814142282
 20
25.01272602299438
 30
0.0
 10
295.5632814142282
 20
24.16049564077469
 30
0.0
  0
SPLINE
  5
95
330
1F
100
AcDbEntity
  8
0
  6
Continuous
 62
   179
370
     0
100
AcDbSpline
210
0.0
220
0.0
230
1.0
 70
    24
 71
     3
 72
     8
 73
     4
 74
     0
 42
0.000000001
 43
0.00000001
 40
0.0
 40
0.0
 40
0.0
 40
0.0
 40
1.0
 40
1.0
 40
1.0
 40
1.0
 10
293.841527870193
 20
27.50458020069892
 30
0.0
 10
294.6515264326192
 20
27.50458020069892
 30
0.0
 10
295.4615280700011
 20
27.50458020069892
 30
0.0
 10
296.2715297073845
 20
27.50458020069892
 30
0.0
  0
SPLINE
  5
96
330
1F
100
AcDbEntity
  8
0
  6
Continuous
 62
   179
370
     0
100
AcDbSpline
210
0.0
220
0.0
230
1.0
 70
     8
 71
     3
 72
    14
 73
    10
 74
     0
 42
0.000000001
 43
0.00000001
 40
17.0
 40
17.0
 40
17.0
 40
17.0
 40
18.0
 40
18.0
 40
18.0
 40
19.0
 40
19.0
 40
19.0
 40
20.0
 40
20.0
 40
20.0
 40
20.0
 10
257.7053577757453
 20
20.25910042553502
 30
0.0
 10
258.2139995287706
 20
20.39587059142628
 30
0.0
 10
258.4104423723632
 20
20.62446660851326
 30
0.0
 10
258.4124688639662
 20
21.16843695483816
 30
0.0
 10
258.4191609275175
 20
22.96470127704906
 30
0.0
 10
258.4149081683119
 20
24.76100595804667
 30
0.0
 10
258.4151320634913
 20
26.55729487989966
 30
0.0
 10
258.4151924094879
 20
27.04153921726714
 30
0.0
 10
258.2057453879524
 20
27.36893835120057
 30
0.0
 10
257.7192638284546
 20
27.51463645747964
 30
0.0
  0
SPLINE
  5
97
330
1F
100
AcDbEntity
  8
0
  6
Continuous
 62
   179
370
     0
100
AcDbSpline
210
0.0
220
0.0
230
1.0
 70
    24
 71
     3
 72
     8
 73
     4
 74
     0
 42
0.000000001
 43
0.00000001
 40
16.0
 40
16.0
 40
16.0
 40
16.0
 40
17.0
 40
17.0
 40
17.0
 40
17.0
 10
260.1134120717832
 20
20.25910042553502
 30
0.0
 10
259.3107272904223
 20
20.25910042553502
 30
0.0
 10
258.5080426051526
 20
20.25910042553502
 30
0.0
 10
257.7053577757453
 20
20.25910042553502
 30
0.0
  0
SPLINE
  5
98
330
1F
100
AcDbEntity
  8
0
  6
Continuous
 62
   179
370
     0
100
AcDbSpline
210
0.0
220
0.0
230
1.0
 70
     8
 71
     3
 72
    14
 73
    10
 74
     0
 42
0.000000001
 43
0.00000001
 40
13.0
 40
13.0
 40
13.0
 40
13.0
 40
14.0
 40
14.0
 40
14.0
 40
15.0
 40
15.0
 40
15.0
 40
16.0
 40
16.0
 40
16.0
 40
16.0
 10
259.4607286043899
 20
23.57138302951071
 30
0.0
 10
259.4539911852495
 20
23.51939476107442
 30
0.0
 10
259.4406539512153
 20
23.46398560492077
 30
0.0
 10
259.4405559370167
 20
23.40855338660287
 30
0.0
 10
259.4392191002215
 20
22.65310606781493
 30
0.0
 10
259.4366701545022
 20
21.89763799307776
 30
0.0
 10
259.4408326829897
 20
21.14221143023692
 30
0.0
 10
259.4435911100346
 20
20.64162793377142
 30
0.0
 10
259.6377614656041
 20
20.40079128856705
 30
0.0
 10
260.1134120717832
 20
20.25910042553502
 30
0.0
  0
SPLINE
  5
99
330
1F
100
AcDbEntity
  8
0
  6
Continuous
 62
   179
370
     0
100
AcDbSpline
210
0.0
220
0.0
230
1.0
 70
     8
 71
     3
 72
    20
 73
    16
 74
     0
 42
0.000000001
 43
0.00000001
 40
8.0
 40
8.0
 40
8.0
 40
8.0
 40
9.0
 40
9.0
 40
9.0
 40
10.0
 40
10.0
 40
10.0
 40
11.0
 40
11.0
 40
11.0
 40
12.0
 40
12.0
 40
12.0
 40
13.0
 40
13.0
 40
13.0
 40
13.0
 10
263.9554858268652
 20
20.24609336482204
 30
0.0
 10
263.8909540472192
 20
20.24131411562172
 30
0.0
 10
263.8264337986555
 20
20.23257048036439
 30
0.0
 10
263.7618904879275
 20
20.2323936704376
 30
0.0
 10
263.3170171088603
 20
20.2311736819415
 30
0.0
 10
262.8718696744063
 20
20.24067529366942
 30
0.0
 10
262.427398730108
 20
20.22724465786874
 30
0.0
 10
262.2549406335689
 20
20.22203337745712
 30
0.0
 10
262.1765046750147
 20
20.28890135435546
 30
0.0
 10
262.1067370153144
 20
20.43629933433309
 30
0.0
 10
261.7451764738302
 20
21.20016664933901
 30
0.0
 10
261.3780268168071
 20
21.9614848264415
 30
0.0
 10
261.0037355762117
 20
22.71920223094413
 30
0.0
 10
260.6054131759577
 20
23.52556773374194
 30
0.0
 10
260.3725694925604
 20
23.65083910446932
 30
0.0
 10
259.4607286043899
 20
23.57138302951071
 30
0.0
  0
SPLINE
  5
9A
330
1F
100
AcDbEntity
  8
0
  6
Continuous
 62
   179
370
     0
100
AcDbSpline
210
0.0
220
0.0
230
1.0
 70
     8
 71
     3
 72
    14
 73
    10
 74
     0
 42
0.000000001
 43
0.00000001
 40
5.0
 40
5.0
 40
5.0
 40
5.0
 40
6.0
 40
6.0
 40
6.0
 40
7.0
 40
7.0
 40
7.0
 40
8.0
 40
8.0
 40
8.0
 40
8.0
 10
261.0219043336847
 20
23.63056361828031
 30
0.0
 10
261.7521543160346
 20
23.35408286053947
 30
0.0
 10
262.033208300972
 20
22.73079019980925
 30
0.0
 10
262.3739921385617
 20
22.16106556577573
 30
0.0
 10
262.6276890153665
 20
21.7369354504649
 30
0.0
 10
262.8739775562312
 20
21.30835818112305
 30
0.0
 10
263.1292772534608
 20
20.88520667032095
 30
0.0
 10
263.3178377375433
 20
20.57267359973515
 30
0.0
 10
263.5606000734738
 20
20.32757122285868
 30
0.0
 10
263.9554858268652
 20
20.24609336482204
 30
0.0
  0
SPLINE
  5
9B
330
1F
100
AcDbEntity
  8
0
  6
Continuous
 62
   179
370
     0
100
AcDbSpline
210
0.0
220
0.0
230
1.0
 70
     8
 71
     3
 72
    20
 73
    16
 74
     0
 42
0.000000001
 43
0.00000001
 40
0.0
 40
0.0
 40
0.0
 40
0.0
 40
1.0
 40
1.0
 40
1.0
 40
2.0
 40
2.0
 40
2.0
 40
3.0
 40
3.0
 40
3.0
 40
4.0
 40
4.0
 40
4.0
 40
5.0
 40
5.0
 40
5.0
 40
5.0
 10
257.7192638284546
 20
27.51463645747964
 30
0.0
 10
258.1174764912431
 20
27.51463645747964
 30
0.0
 10
258.5159962651877
 20
27.52468175973202
 30
0.0
 10
258.913837050576
 20
27.51251762112626
 30
0.0
 10
259.7094699986222
 20
27.48819126576296
 30
0.0
 10
260.5093946232761
 20
27.49481913962259
 30
0.0
 10
261.2989762515716
 20
27.40941936834727
 30
0.0
 10
262.3071445332423
 20
27.30037799580672
 30
0.0
 10
262.8488620904764
 20
26.74717259793779
 30
0.0
 10
262.9131259646454
 20
25.88395655371281
 30
0.0
 10
262.9966382899504
 20
24.76217905347503
 30
0.0
 10
262.5617362220245
 20
24.08644572151765
 30
0.0
 10
261.5515161764629
 20
23.77337299628438
 30
0.0
 10
261.3945785321864
 20
23.72473719781129
 30
0.0
 10
261.2341319795987
 20
23.68742184709605
 30
0.0
 10
261.0219043336847
 20
23.63056361828031
 30
0.0
  0
SPLINE
  5
9C
330
1F
100
AcDbEntity
  8
0
  6
Continuous
 62
   179
370
     0
100
AcDbSpline
210
0.0
220
0.0
230
1.0
 70
     8
 71
     3
 72
    20
 73
    16
 74
     0
 42
0.000000001
 43
0.00000001
 40
1.0
 40
1.0
 40
1.0
 40
1.0
 40
2.0
 40
2.0
 40
2.0
 40
3.0
 40
3.0
 40
3.0
 40
4.0
 40
4.0
 40
4.0
 40
5.0
 40
5.0
 40
5.0
 40
6.0
 40
6.0
 40
6.0
 40
6.0
 10
259.4558811296203
 20
23.74052094311723
 30
0.0
 10
259.8313410453958
 20
23.74052094311723
 30
0.0
 10
260.1942113256325
 20
23.70804326575078
 30
0.0
 10
260.5489927438957
 20
23.74778168120398
 30
0.0
 10
261.1506181168165
 20
23.81517009427841
 30
0.0
 10
261.6082598631961
 20
24.13857044109259
 30
0.0
 10
261.7413862071132
 20
24.73962656292206
 30
0.0
 10
261.8389787525148
 20
25.18024881635489
 30
0.0
 10
261.8719876284001
 20
25.65810454981779
 30
0.0
 10
261.8164781518313
 20
26.10478869315943
 30
0.0
 10
261.7108519014664
 20
26.95476897687368
 30
0.0
 10
261.3230227860075
 20
27.28690123567825
 30
0.0
 10
260.4792308497364
 20
27.35420547185249
 30
0.0
 10
260.146744010155
 20
27.38072599997261
 30
0.0
 10
259.8103733099057
 20
27.35855230546976
 30
0.0
 10
259.4558811296203
 20
27.35855230546976
 30
0.0
  0
SPLINE
  5
9D
330
1F
100
AcDbEntity
  8
0
  6
Continuous
 62
   179
370
     0
100
AcDbSpline
210
0.0
220
0.0
230
1.0
 70
    24
 71
     3
 72
     8
 73
     4
 74
     0
 42
0.000000001
 43
0.00000001
 40
0.0
 40
0.0
 40
0.0
 40
0.0
 40
1.0
 40
1.0
 40
1.0
 40
1.0
 10
259.4558811296203
 20
27.35855230546976
 30
0.0
 10
259.4558811296203
 20
26.13864548795524
 30
0.0
 10
259.4558811296203
 20
24.94385548148867
 30
0.0
 10
259.4558811296203
 20
23.74052094311723
 30
0.0
  0
SPLINE
  5
9E
330
1F
100
AcDbEntity
  8
0
  6
Continuous
 62
   179
370
     0
100
AcDbSpline
210
0.0
220
0.0
230
1.0
 70
     8
 71
     3
 72
    14
 73
    10
 74
     0
 42
0.000000001
 43
0.00000001
 40
3.0
 40
3.0
 40
3.0
 40
3.0
 40
4.0
 40
4.0
 40
4.0
 40
5.0
 40
5.0
 40
5.0
 40
6.0
 40
6.0
 40
6.0
 40
6.0
 10
267.2336118279071
 20
20.23490821509466
 30
0.0
 10
266.3034040398355
 20
20.48709452013179
 30
0.0
 10
265.5792320909092
 20
21.34541139190241
 30
0.0
 10
265.4837047623288
 20
22.29272284982233
 30
0.0
 10
265.4259332718035
 20
22.86561853145873
 30
0.0
 10
265.4879189885011
 20
23.41465794151554
 30
0.0
 10
265.7739382574312
 20
23.92202056120339
 30
0.0
 10
266.225828300013
 20
24.72361219597301
 30
0.0
 10
266.9062728477855
 20
25.1505801106106
 30
0.0
 10
267.7758432870376
 20
25.16748813643033
 30
0.0
  0
SPLINE
  5
9F
330
1F
100
AcDbEntity
  8
0
  6
Continuous
 62
   179
370
     0
100
AcDbSpline
210
0.0
220
0.0
230
1.0
 70
     8
 71
     3
 72
    14
 73
    10
 74
     0
 42
0.000000001
 43
0.00000001
 40
0.0
 40
0.0
 40
0.0
 40
0.0
 40
1.0
 40
1.0
 40
1.0
 40
2.0
 40
2.0
 40
2.0
 40
3.0
 40
3.0
 40
3.0
 40
3.0
 10
267.7758432870376
 20
25.16748813643033
 30
0.0
 10
268.6216197225536
 20
25.16033694362373
 30
0.0
 10
269.2464106552308
 20
24.83848445240962
 30
0.0
 10
269.7103360726668
 20
24.21398909980579
 30
0.0
 10
270.372934348899
 20
23.32205720159637
 30
0.0
 10
270.3723808569537
 20
22.03321892002499
 30
0.0
 10
269.7215189161772
 20
21.13111084177938
 30
0.0
 10
269.1482911393735
 20
20.33660467264828
 30
0.0
 10
268.1650050112285
 20
19.98240211471103
 30
0.0
 10
267.2336118279071
 20
20.23490821509466
 30
0.0
  0
SPLINE
  5
A0
330
1F
100
AcDbEntity
  8
0
  6
Continuous
 62
   179
370
     0
100
AcDbSpline
210
0.0
220
0.0
230
1.0
 70
     8
 71
     3
 72
    17
 73
    13
 74
     0
 42
0.000000001
 43
0.00000001
 40
4.0
 40
4.0
 40
4.0
 40
4.0
 40
5.0
 40
5.0
 40
5.0
 40
6.0
 40
6.0
 40
6.0
 40
7.0
 40
7.0
 40
7.0
 40
8.0
 40
8.0
 40
8.0
 40
8.0
 10
266.4699528411193
 20
22.82140374989816
 30
0.0
 10
266.4269741915698
 20
22.16270989809668
 30
0.0
 10
266.5287029361534
 20
21.51524885782823
 30
0.0
 10
266.8746830637486
 20
20.93428603108956
 30
0.0
 10
267.1048165584612
 20
20.54785025472892
 30
0.0
 10
267.4153070900211
 20
20.27237193240103
 30
0.0
 10
267.9076604687568
 20
20.30531315927085
 30
0.0
 10
268.3388937306983
 20
20.33416469565678
 30
0.0
 10
268.6078393105943
 20
20.59660136402461
 30
0.0
 10
268.810867074766
 20
20.94311038392242
 30
0.0
 10
269.1208448575376
 20
21.47214721006825
 30
0.0
 10
269.202432645224
 20
22.05765558940843
 30
0.0
 10
269.218762963826
 20
22.6835112253406
 30
0.0
  0
SPLINE
  5
A1
330
1F
100
AcDbEntity
  8
0
  6
Continuous
 62
   179
370
     0
100
AcDbSpline
210
0.0
220
0.0
230
1.0
 70
     8
 71
     3
 72
    17
 73
    13
 74
     0
 42
0.000000001
 43
0.00000001
 40
0.0
 40
0.0
 40
0.0
 40
0.0
 40
1.0
 40
1.0
 40
1.0
 40
2.0
 40
2.0
 40
2.0
 40
3.0
 40
3.0
 40
3.0
 40
4.0
 40
4.0
 40
4.0
 40
4.0
 10
269.218762963826
 20
22.6835112253406
 30
0.0
 10
269.195680043492
 20
23.34551372899321
 30
0.0
 10
269.0963628325642
 20
24.01168817818242
 30
0.0
 10
268.6683621173312
 20
24.58056604641373
 30
0.0
 10
268.2143234497673
 20
25.18405330473933
 30
0.0
 10
267.4640605055332
 20
25.19142205062979
 30
0.0
 10
267.0072628343699
 20
24.59213287496141
 30
0.0
 10
266.882078331128
 20
24.42789874624284
 30
0.0
 10
266.7597204805012
 20
24.2414496033099
 30
0.0
 10
266.7072125446275
 20
24.04607386528146
 30
0.0
 10
266.5993976948625
 20
23.64490674705059
 30
0.0
 10
266.4968487059656
 20
23.23360918874381
 30
0.0
 10
266.4699528411193
 20
22.82140374989816
 30
0.0
  0
SPLINE
  5
A2
330
1F
100
AcDbEntity
  8
0
  6
Continuous
 62
   179
370
     0
100
AcDbSpline
210
0.0
220
0.0
230
1.0
 70
     8
 71
     3
 72
    17
 73
    13
 74
     0
 42
0.000000001
 43
0.00000001
 40
6.0
 40
6.0
 40
6.0
 40
6.0
 40
7.0
 40
7.0
 40
7.0
 40
8.0
 40
8.0
 40
8.0
 40
9.0
 40
9.0
 40
9.0
 40
10.0
 40
10.0
 40
10.0
 40
10.0
 10
311.6156486607862
 20
20.25320881127337
 30
0.0
 10
312.1185268426077
 20
20.41647125413319
 30
0.0
 10
312.2872188877024
 20
20.63608302071405
 30
0.0
 10
312.2876555313485
 20
21.16871754450475
 30
0.0
 10
312.2890700107628
 20
22.88922803787956
 30
0.0
 10
312.287766229737
 20
24.60974045310045
 30
0.0
 10
312.2871819882396
 20
26.33025248395311
 30
0.0
 10
312.2871512386867
 20
26.42255802816858
 30
0.0
 10
312.2845313768121
 20
26.51487279724975
 30
0.0
 10
312.2823973578678
 20
26.60716642601487
 30
0.0
 10
312.2683694120104
 20
27.21300429544448
 30
0.0
 10
312.2096131670664
 20
27.27631108979181
 30
0.0
 10
311.6691528821609
 20
27.32445797038016
 30
0.0
  0
SPLINE
  5
A3
330
1F
100
AcDbEntity
  8
0
  6
Continuous
 62
   179
370
     0
100
AcDbSpline
210
0.0
220
0.0
230
1.0
 70
    24
 71
     3
 72
     8
 73
     4
 74
     0
 42
0.000000001
 43
0.00000001
 40
5.0
 40
5.0
 40
5.0
 40
5.0
 40
6.0
 40
6.0
 40
6.0
 40
6.0
 10
313.8867245107604
 20
20.25320881127337
 30
0.0
 10
313.0865658051385
 20
20.25320881127337
 30
0.0
 10
312.3511103079175
 20
20.25320881127337
 30
0.0
 10
311.6156486607862
 20
20.25320881127337
 30
0.0
  0
SPLINE
  5
A4
330
1F
100
AcDbEntity
  8
0
  6
Continuous
 62
   179
370
     0
100
AcDbSpline
210
0.0
220
0.0
230
1.0
 70
     8
 71
     3
 72
    17
 73
    13
 74
     0
 42
0.000000001
 43
0.00000001
 40
1.0
 40
1.0
 40
1.0
 40
1.0
 40
2.0
 40
2.0
 40
2.0
 40
3.0
 40
3.0
 40
3.0
 40
4.0
 40
4.0
 40
4.0
 40
5.0
 40
5.0
 40
5.0
 40
5.0
 10
313.1781318226163
 20
27.87703492426926
 30
0.0
 10
313.1781318226163
 20
27.83642744958889
 30
0.0
 10
313.1781318226163
 20
27.75161518695077
 30
0.0
 10
313.1781318226163
 20
27.66680273212925
 30
0.0
 10
313.1781318226163
 20
25.57700952371036
 30
0.0
 10
313.1781256727049
 20
23.48721689184594
 30
0.0
 10
313.1781441224363
 20
21.39742349124223
 30
0.0
 10
313.1781441224363
 20
21.32188875296784
 30
0.0
 10
313.1771847363982
 20
21.24633325874564
 30
0.0
 10
313.1786115156352
 20
21.17082388885262
 30
0.0
 10
313.1888880160859
 20
20.62648762285203
 30
0.0
 10
313.3266152617988
 20
20.4348325806782
 30
0.0
 10
313.8867245107604
 20
20.25320881127337
 30
0.0
  0
SPLINE
  5
A5
330
1F
100
AcDbEntity
  8
0
  6
Continuous
 62
   179
370
     0
100
AcDbSpline
210
0.0
220
0.0
230
1.0
 70
     8
 71
     3
 72
     8
 73
     4
 74
     0
 42
0.000000001
 43
0.00000001
 40
0.0
 40
0.0
 40
0.0
 40
0.0
 40
1.0
 40
1.0
 40
1.0
 40
1.0
 10
311.6691528821609
 20
27.32445797038016
 30
0.0
 10
312.1410908642435
 20
27.49727756634619
 30
0.0
 10
312.6458878181427
 20
27.68213176842718
 30
0.0
 10
313.1781318226163
 20
27.87703492426926
 30
0.0
  0
SPLINE
  5
A6
330
1F
100
AcDbEntity
  8
0
  6
Continuous
 62
   179
370
     0
100
AcDbSpline
210
0.0
220
0.0
230
1.0
 70
     8
 71
     3
 72
    14
 73
    10
 74
     0
 42
0.000000001
 43
0.00000001
 40
6.0
 40
6.0
 40
6.0
 40
6.0
 40
7.0
 40
7.0
 40
7.0
 40
8.0
 40
8.0
 40
8.0
 40
9.0
 40
9.0
 40
9.0
 40
9.0
 10
278.4819664915177
 20
27.88441039662488
 30
0.0
 10
278.4819664915177
 20
27.83987735719566
 30
0.0
 10
278.4819649540404
 20
27.75219577693941
 30
0.0
 10
278.4819649540404
 20
27.66451419668386
 30
0.0
 10
278.4819664915177
 20
25.48269219002111
 30
0.0
 10
278.4816605334703
 20
23.30086999117493
 30
0.0
 10
278.4822124879378
 20
21.11904779232805
 30
0.0
 10
278.4823339486704
 20
20.63637283524633
 30
0.0
 10
278.6550987719953
 20
20.40793364087759
 30
0.0
 10
279.1055120673173
 20
20.25491771765491
 30
0.0
  0
SPLINE
  5
A7
330
1F
100
AcDbEntity
  8
0
  6
Continuous
 62
   179
370
     0
100
AcDbSpline
210
0.0
220
0.0
230
1.0
 70
     8
 71
     3
 72
     8
 73
     4
 74
     0
 42
0.000000001
 43
0.00000001
 40
5.0
 40
5.0
 40
5.0
 40
5.0
 40
6.0
 40
6.0
 40
6.0
 40
6.0
 10
276.9846800684063
 20
27.3296354262854
 30
0.0
 10
277.4478728777531
 20
27.5012575193644
 30
0.0
 10
277.9568994326009
 20
27.68986239811422
 30
0.0
 10
278.4819664915177
 20
27.88441039662488
 30
0.0
  0
SPLINE
  5
A8
330
1F
100
AcDbEntity
  8
0
  6
Continuous
 62
   179
370
     0
100
AcDbSpline
210
0.0
220
0.0
230
1.0
 70
     8
 71
     3
 72
    17
 73
    13
 74
     0
 42
0.000000001
 43
0.00000001
 40
1.0
 40
1.0
 40
1.0
 40
1.0
 40
2.0
 40
2.0
 40
2.0
 40
3.0
 40
3.0
 40
3.0
 40
4.0
 40
4.0
 40
4.0
 40
5.0
 40
5.0
 40
5.0
 40
5.0
 10
276.9460186560295
 20
20.25491771765491
 30
0.0
 10
277.4179566381115
 20
20.4199152040148
 30
0.0
 10
277.5770686601204
 20
20.6342380475635
 30
0.0
 10
277.5771993457187
 20
21.13377529050539
 30
0.0
 10
277.5776652014392
 20
22.92958298186009
 30
0.0
 10
277.5773700057348
 20
24.72538990447762
 30
0.0
 10
277.577359243392
 20
26.52119721146338
 30
0.0
 10
277.577359243392
 20
26.53798031722657
 30
0.0
 10
277.5773838430334
 20
26.55476419172763
 30
0.0
 10
277.5772915943764
 20
26.57154691311976
 30
0.0
 10
277.5738092075535
 20
27.20775573119973
 30
0.0
 10
277.5366914227135
 20
27.25167954511983
 30
0.0
 10
276.9846800684063
 20
27.3296354262854
 30
0.0
  0
SPLINE
  5
A9
330
1F
100
AcDbEntity
  8
0
  6
Continuous
 62
   179
370
     0
100
AcDbSpline
210
0.0
220
0.0
230
1.0
 70
    24
 71
     3
 72
     8
 73
     4
 74
     0
 42
0.000000001
 43
0.00000001
 40
0.0
 40
0.0
 40
0.0
 40
0.0
 40
1.0
 40
1.0
 40
1.0
 40
1.0
 10
279.1055120673173
 20
20.25491771765491
 30
0.0
 10
278.3856819552066
 20
20.25491771765491
 30
0.0
 10
277.6658503056181
 20
20.25491771765491
 30
0.0
 10
276.9460186560295
 20
20.25491771765491
 30
0.0
  0
SPLINE
  5
AA
330
1F
100
AcDbEntity
  8
0
  6
Continuous
 62
   179
370
     0
100
AcDbSpline
210
0.0
220
0.0
230
1.0
 70
     8
 71
     3
 72
    20
 73
    16
 74
     0
 42
0.000000001
 43
0.00000001
 40
5.0
 40
5.0
 40
5.0
 40
5.0
 40
6.0
 40
6.0
 40
6.0
 40
7.0
 40
7.0
 40
7.0
 40
8.0
 40
8.0
 40
8.0
 40
9.0
 40
9.0
 40
9.0
 40
10.0
 40
10.0
 40
10.0
 40
10.0
 10
307.178408284104
 20
20.25443648715803
 30
0.0
 10
307.3179589782804
 20
20.36177625633667
 30
0.0
 10
307.5293898264143
 20
20.45652254628292
 30
0.0
 10
307.6283941606455
 20
20.61954360515536
 30
0.0
 10
307.7285516030972
 20
20.78446498637256
 30
0.0
 10
307.7490584796685
 20
21.01681475508337
 30
0.0
 10
307.7500732149022
 20
21.21990094340409
 30
0.0
 10
307.7587445887104
 20
22.95682170421714
 30
0.0
 10
307.7550484924979
 20
24.69380511724258
 30
0.0
 10
307.7550361926766
 20
26.43077008053731
 30
0.0
 10
307.7550361926766
 20
26.49789904426263
 30
0.0
 10
307.7552944889175
 20
26.56503146731187
 30
0.0
 10
307.7547502218385
 20
26.63215658734291
 30
0.0
 10
307.7501131893193
 20
27.20350460556406
 30
0.0
 10
307.6774858212348
 20
27.28280885460759
 30
0.0
 10
307.160813390154
 20
27.32540717062984
 30
0.0
  0
SPLINE
  5
AB
330
1F
100
AcDbEntity
  8
0
  6
Continuous
 62
   179
370
     0
100
AcDbSpline
210
0.0
220
0.0
230
1.0
 70
    24
 71
     3
 72
     8
 73
     4
 74
     0
 42
0.000000001
 43
0.00000001
 40
4.0
 40
4.0
 40
4.0
 40
4.0
 40
5.0
 40
5.0
 40
5.0
 40
5.0
 10
309.3620693061908
 20
20.25443648715802
 30
0.0
 10
308.5715044609525
 20
20.25443648715802
 30
0.0
 10
307.8517004859625
 20
20.25443648715802
 30
0.0
 10
307.178408284104
 20
20.25443648715803
 30
0.0
  0
SPLINE
  5
AC
330
1F
100
AcDbEntity
  8
0
  6
Continuous
 62
   179
370
     0
100
AcDbSpline
210
0.0
220
0.0
230
1.0
 70
     8
 71
     3
 72
    14
 73
    10
 74
     0
 42
0.000000001
 43
0.00000001
 40
1.0
 40
1.0
 40
1.0
 40
1.0
 40
2.0
 40
2.0
 40
2.0
 40
3.0
 40
3.0
 40
3.0
 40
4.0
 40
4.0
 40
4.0
 40
4.0
 10
308.65963267846
 20
27.88697759989075
 30
0.0
 10
308.65963267846
 20
27.83196991758182
 30
0.0
 10
308.65963267846
 20
27.74275854708867
 30
0.0
 10
308.65963267846
 20
27.65354698440997
 30
0.0
 10
308.65963267846
 20
25.48863300356693
 30
0.0
 10
308.6595035303402
 20
23.32371921490945
 30
0.0
 10
308.6597187772069
 20
21.15880542625192
 30
0.0
 10
308.6597679764911
 20
20.6374237012035
 30
0.0
 10
308.807415027844
 20
20.43200746554105
 30
0.0
 10
309.3620693061909
 20
20.25443648715802
 30
0.0
  0
SPLINE
  5
AD
330
1F
100
AcDbEntity
  8
0
  6
Continuous
 62
   179
370
     0
100
AcDbSpline
210
0.0
220
0.0
230
1.0
 70
     8
 71
     3
 72
     8
 73
     4
 74
     0
 42
0.000000001
 43
0.00000001
 40
0.0
 40
0.0
 40
0.0
 40
0.0
 40
1.0
 40
1.0
 40
1.0
 40
1.0
 10
307.160813390154
 20
27.32540717062984
 30
0.0
 10
307.6336123597078
 20
27.50255342081908
 30
0.0
 10
308.1420254609839
 20
27.69304267058278
 30
0.0
 10
308.65963267846
 20
27.88697759989075
 30
0.0
  0
SPLINE
  5
AE
330
1F
100
AcDbEntity
  8
0
  6
Continuous
 62
   179
370
     0
100
AcDbSpline
210
0.0
220
0.0
230
1.0
 70
     8
 71
     3
 72
    14
 73
    10
 74
     0
 42
0.000000001
 43
0.00000001
 40
6.0
 40
6.0
 40
6.0
 40
6.0
 40
7.0
 40
7.0
 40
7.0
 40
8.0
 40
8.0
 40
8.0
 40
9.0
 40
9.0
 40
9.0
 40
9.0
 10
272.426404840594
 20
20.25907966958721
 30
0.0
 10
273.005992393597
 20
20.37668517687365
 30
0.0
 10
273.0805785081768
 20
20.81042375860577
 30
0.0
 10
273.0783845276048
 20
21.29462927466368
 30
0.0
 10
273.0702866329497
 20
23.08209538116095
 30
0.0
 10
273.0685846452182
 20
24.86961337752775
 30
0.0
 10
273.0527409382852
 20
26.65700799131587
 30
0.0
 10
273.0476395875227
 20
27.23250104921648
 30
0.0
 10
272.9826104338649
 20
27.28380667758701
 30
0.0
 10
272.4594267850394
 20
27.32510813123116
 30
0.0
  0
SPLINE
  5
AF
330
1F
100
AcDbEntity
  8
0
  6
Continuous
 62
   179
370
     0
100
AcDbSpline
210
0.0
220
0.0
230
1.0
 70
    24
 71
     3
 72
     8
 73
     4
 74
     0
 42
0.000000001
 43
0.00000001
 40
5.0
 40
5.0
 40
5.0
 40
5.0
 40
6.0
 40
6.0
 40
6.0
 40
6.0
 10
274.6224502449564
 20
20.25907966958721
 30
0.0
 10
273.8904356226618
 20
20.25907966958721
 30
0.0
 10
273.1584194628893
 20
20.25907966958721
 30
0.0
 10
272.426404840594
 20
20.25907966958721
 30
0.0
  0
SPLINE
  5
B0
330
1F
100
AcDbEntity
  8
0
  6
Continuous
 62
   179
370
     0
100
AcDbSpline
210
0.0
220
0.0
230
1.0
 70
     8
 71
     3
 72
    17
 73
    13
 74
     0
 42
0.000000001
 43
0.00000001
 40
1.0
 40
1.0
 40
1.0
 40
1.0
 40
2.0
 40
2.0
 40
2.0
 40
3.0
 40
3.0
 40
3.0
 40
4.0
 40
4.0
 40
4.0
 40
5.0
 40
5.0
 40
5.0
 40
5.0
 10
273.9540333846496
 20
27.87257450949275
 30
0.0
 10
273.9540333846496
 20
27.8074859707617
 30
0.0
 10
273.9540333846496
 20
27.71082379150879
 30
0.0
 10
273.9540333846496
 20
27.61416161225588
 30
0.0
 10
273.9540349221275
 20
25.51596282147274
 30
0.0
 10
273.9539872603212
 20
23.41776441505854
 30
0.0
 10
273.9542086570993
 20
21.31956562427539
 30
0.0
 10
273.954217881965
 20
21.22727776105204
 30
0.0
 10
273.9506540088286
 20
21.13443409966764
 30
0.0
 10
273.9590578615309
 20
21.04279505200227
 30
0.0
 10
274.0006220316647
 20
20.58964274029083
 30
0.0
 10
274.1836818051717
 20
20.38260600321025
 30
0.0
 10
274.6224502449564
 20
20.25907966958721
 30
0.0
  0
SPLINE
  5
B1
330
1F
100
AcDbEntity
  8
0
  6
Continuous
 62
   179
370
     0
100
AcDbSpline
210
0.0
220
0.0
230
1.0
 70
     8
 71
     3
 72
     8
 73
     4
 74
     0
 42
0.000000001
 43
0.00000001
 40
0.0
 40
0.0
 40
0.0
 40
0.0
 40
1.0
 40
1.0
 40
1.0
 40
1.0
 10
272.4594267850394
 20
27.32510813123116
 30
0.0
 10
272.932774634105
 20
27.49849255803981
 30
0.0
 10
273.4351023989377
 20
27.68249307566929
 30
0.0
 10
273.9540333846496
 20
27.87257450949275
 30
0.0
  0
SPLINE
  5
B2
330
1F
100
AcDbEntity
  8
0
  6
Continuous
 62
   179
370
     0
100
AcDbSpline
210
0.0
220
0.0
230
1.0
 70
     8
 71
     3
 72
    17
 73
    13
 74
     0
 42
0.000000001
 43
0.00000001
 40
6.0
 40
6.0
 40
6.0
 40
6.0
 40
7.0
 40
7.0
 40
7.0
 40
8.0
 40
8.0
 40
8.0
 40
9.0
 40
9.0
 40
9.0
 40
10.0
 40
10.0
 40
10.0
 40
10.0
 10
304.1706223551654
 20
25.06377258638473
 30
0.0
 10
304.1727133247369
 20
25.01792115989103
 30
0.0
 10
304.1800409430993
 20
24.93136078519359
 30
0.0
 10
304.1800932173391
 20
24.84479541369365
 30
0.0
 10
304.1808527312862
 20
23.65282014439031
 30
0.0
 10
304.1797703470369
 20
22.46084295323947
 30
0.0
 10
304.1818797663413
 20
21.26887114326077
 30
0.0
 10
304.1821011631179
 20
21.14380579453512
 30
0.0
 10
304.1922454404933
 20
21.01764883669525
 30
0.0
 10
304.2107535961514
 20
20.89393877449616
 30
0.0
 10
304.2621822227331
 20
20.55023795748125
 30
0.0
 10
304.4578262506062
 20
20.33981031349823
 30
0.0
 10
304.8038079156779
 20
20.2539775500868
 30
0.0
  0
SPLINE
  5
B3
330
1F
100
AcDbEntity
  8
0
  6
Continuous
 62
   179
370
     0
100
AcDbSpline
210
0.0
220
0.0
230
1.0
 70
     8
 71
     3
 72
     8
 73
     4
 74
     0
 42
0.000000001
 43
0.00000001
 40
5.0
 40
5.0
 40
5.0
 40
5.0
 40
6.0
 40
6.0
 40
6.0
 40
6.0
 10
302.7125031745686
 20
24.50968064047994
 30
0.0
 10
303.1898069535648
 20
24.6910587978335
 30
0.0
 10
303.6729961969132
 20
24.87467283202501
 30
0.0
 10
304.1706223551654
 20
25.06377258638473
 30
0.0
  0
SPLINE
  5
B4
330
1F
100
AcDbEntity
  8
0
  6
Continuous
 62
   179
370
     0
100
AcDbSpline
210
0.0
220
0.0
230
1.0
 70
     8
 71
     3
 72
    17
 73
    13
 74
     0
 42
0.000000001
 43
0.00000001
 40
1.0
 40
1.0
 40
1.0
 40
1.0
 40
2.0
 40
2.0
 40
2.0
 40
3.0
 40
3.0
 40
3.0
 40
4.0
 40
4.0
 40
4.0
 40
5.0
 40
5.0
 40
5.0
 40
5.0
 10
302.6973344203136
 20
20.2539775500868
 30
0.0
 10
303.1321361678242
 20
20.3494649042487
 30
0.0
 10
303.2897768237453
 20
20.65853557522151
 30
0.0
 10
303.2916556214045
 20
21.04785181591347
 30
0.0
 10
303.2966032244031
 20
22.071496731734
 30
0.0
 10
303.2829750227277
 20
23.09531768874207
 30
0.0
 10
303.2668591822546
 20
24.11891186780057
 30
0.0
 10
303.2632153602819
 20
24.35030186610297
 30
0.0
 10
303.1332831261333
 20
24.4918735746181
 30
0.0
 10
302.8846514693662
 20
24.49557889569631
 30
0.0
 10
302.8224697242705
 20
24.49650561033552
 30
0.0
 10
302.760410977386
 20
24.5055728846329
 30
0.0
 10
302.7125031745686
 20
24.50968064047994
 30
0.0
  0
SPLINE
  5
B5
330
1F
100
AcDbEntity
  8
0
  6
Continuous
 62
   179
370
     0
100
AcDbSpline
210
0.0
220
0.0
230
1.0
 70
    24
 71
     3
 72
     8
 73
     4
 74
     0
 42
0.000000001
 43
0.00000001
 40
0.0
 40
0.0
 40
0.0
 40
0.0
 40
1.0
 40
1.0
 40
1.0
 40
1.0
 10
304.8038079156779
 20
20.2539775500868
 30
0.0
 10
304.101651108875
 20
20.2539775500868
 30
0.0
 10
303.3994912271164
 20
20.2539775500868
 30
0.0
 10
302.6973344203136
 20
20.2539775500868
 30
0.0
  0
SPLINE
  5
B6
330
1F
100
AcDbEntity
  8
0
  6
Continuous
 62
   179
370
     0
100
AcDbSpline
210
0.0
220
0.0
230
1.0
 70
     8
 71
     3
 72
    11
 73
     7
 74
     0
 42
0.000000001
 43
0.00000001
 40
2.0
 40
2.0
 40
2.0
 40
2.0
 40
3.0
 40
3.0
 40
3.0
 40
4.0
 40
4.0
 40
4.0
 40
4.0
 10
303.0570519104932
 20
26.35430478392947
 30
0.0
 10
303.0511172468595
 20
26.75330175249256
 30
0.0
 10
303.3266947364937
 20
27.05519259513757
 30
0.0
 10
303.6924299141011
 20
27.05034857969325
 30
0.0
 10
304.0507636744179
 20
27.04560238626284
 30
0.0
 10
304.3255386007336
 20
26.75299425696746
 30
0.0
 10
304.327448147944
 20
26.37412133304796
 30
0.0
  0
SPLINE
  5
B7
330
1F
100
AcDbEntity
  8
0
  6
Continuous
 62
   179
370
     0
100
AcDbSpline
210
0.0
220
0.0
230
1.0
 70
     8
 71
     3
 72
    11
 73
     7
 74
     0
 42
0.000000001
 43
0.00000001
 40
0.0
 40
0.0
 40
0.0
 40
0.0
 40
1.0
 40
1.0
 40
1.0
 40
2.0
 40
2.0
 40
2.0
 40
2.0
 10
304.327448147944
 20
26.37412133304796
 30
0.0
 10
304.3293945946187
 20
25.98752450590587
 30
0.0
 10
304.068057222753
 20
25.70828897263022
 30
0.0
 10
303.6993639381942
 20
25.70301926806731
 30
0.0
 10
303.3259905717408
 20
25.69768229885988
 30
0.0
 10
303.0628482011429
 20
25.96449808787493
 30
0.0
 10
303.0570519104932
 20
26.35430478392947
 30
0.0
  0
MTEXT
  5
B9
330
1F
100
AcDbEntity
  8
0
  6
Continuous
 62
     7
370
     0
100
AcDbMText
 10
257.9690483454
 20
40.3166048975
 30
0.0
 40
3.7041666667
 41
0.0
 71
     1
 72
     1
  1
CORAP4 - Cora Pendant - 4 Lights
  7
SLDTEXTSTYLE0
 73
     1
 44
1.0
  0
MTEXT
  5
BA
330
1F
100
AcDbEntity
  8
0
  6
Continuous
 62
     7
370
     0
100
AcDbMText
 10
258.6105142387
 20
44.3546043689
 30
0.0
 40
1.5875
 41
0.0
 71
     1
 72
     1
  1
\LDESCRIPTION
  7
SLDTEXTSTYLE0
 73
     1
 44
1.0
  0
INSERT
  5
C1
330
1F
100
AcDbEntity
  8
0
  6
Continuous
 62
     7
370
     0
100
AcDbBlockReference
  2
SW_NOTE_0
 10
317.1049495712
 20
24.1495665419
 30
0.0
  0
MTEXT
  5
C2
330
1F
100
AcDbEntity
  8
0
  6
Continuous
 62
     7
370
     0
100
AcDbMText
 10
273.8792930731
 20
32.371143085
 30
0.0
 40
1.5875
 41
0.0
 71
     2
 72
     1
  1
\LSCALE
  7
SLDTEXTSTYLE0
 73
     1
 44
1.0
  0
MTEXT
  5
C3
330
1F
100
AcDbEntity
  8
0
  6
Continuous
 62
     7
370
     0
100
AcDbMText
 10
278.3960862508
 20
33.4394651033
 30
0.0
 40
2.6458333333
 41
0.0
 71
     1
 72
     1
  1
1:5
  7
SLDTEXTSTYLE0
 73
     1
 44
1.0
  0
MTEXT
  5
C4
330
1F
100
AcDbEntity
  8
0
  6
Continuous
 62
     7
370
     0
100
AcDbMText
 10
261.5657280329
 20
32.371143085
 30
0.0
 40
1.5875
 41
0.0
 71
     2
 72
     1
  1
\LSIZE
  7
SLDTEXTSTYLE0
 73
     1
 44
1.0
  0
MTEXT
  5
C5
330
1F
100
AcDbEntity
  8
0
  6
Continuous
 62
     7
370
     0
100
AcDbMText
 10
264.7495209372
 20
33.4394651033
 30
0.0
 40
2.6458333333
 41
0.0
 71
     1
 72
     1
  1
B
  7
SLDTEXTSTYLE0
 73
     1
 44
1.0
  0
INSERT
  5
CC
330
1F
100
AcDbEntity
  8
0
  6
Continuous
 62
     7
370
     0
100
AcDbBlockReference
  2
SW_NOTE_1
 10
258.0900415808
 20
15.6806800849
 30
0.0
  0
LINE
  5
CD
330
1F
100
AcDbEntity
  8
0
  6
Continuous
 62
     7
370
    15
100
AcDbLine
 10
97.4445577241
 20
123.502503621
 30
0.0
 11
97.4445577241
 21
185.7325065011
 31
0.0
  0
LINE
  5
CE
330
1F
100
AcDbEntity
  8
0
  6
Continuous
 62
     7
370
    15
100
AcDbLine
 10
96.8654375054
 20
185.7325065011
 30
0.0
 11
96.8654375054
 21
103.1825023764
 31
0.0
  0
LINE
  5
CF
330
1F
100
AcDbEntity
  8
0
  6
Continuous
 62
     7
370
    15
100
AcDbLine
 10
109.854997275
 20
193.987499463
 30
0.0
 11
84.4549975819
 21
193.987499463
 31
0.0
  0
LINE
  5
D0
330
1F
100
AcDbEntity
  8
0
  6
Continuous
 62
     7
370
    15
100
AcDbLine
 10
109.854997275
 20
185.7325065011
 30
0.0
 11
109.854997275
 21
193.987499463
 31
0.0
  0
LINE
  5
D1
330
1F
100
AcDbEntity
  8
0
  6
Continuous
 62
     7
370
    15
100
AcDbLine
 10
84.4549975819
 20
185.7325065011
 30
0.0
 11
109.854997275
 21
185.7325065011
 31
0.0
  0
LINE
  5
D2
330
1F
100
AcDbEntity
  8
0
  6
Continuous
 62
     7
370
    15
100
AcDbLine
 10
84.4549975819
 20
193.987499463
 30
0.0
 11
84.4549975819
 21
185.7325065011
 31
0.0
  0
LINE
  5
D3
330
1F
100
AcDbEntity
  8
0
  6
Continuous
 62
     7
370
    15
100
AcDbLine
 10
97.393122641
 20
103.1825023764
 30
0.0
 11
76.5968728341
 21
103.1825023764
 31
0.0
  0
LINE
  5
D4
330
1F
100
AcDbEntity
  8
0
  6
Continuous
 62
     7
370
    15
100
AcDbLine
 10
97.393122641
 20
123.502503621
 30
0.0
 11
97.393122641
 21
103.1825023764
 31
0.0
  0
LINE
  5
D5
330
1F
100
AcDbEntity
  8
0
  6
Continuous
 62
     7
370
    15
100
AcDbLine
 10
117.7131216503
 20
123.502503621
 30
0.0
 11
97.393122641
 21
123.502503621
 31
0.0
  0
LINE
  5
D6
330
1F
100
AcDbEntity
  8
0
  6
Continuous
 62
     7
370
    15
100
AcDbLine
 10
117.7131216503
 20
123.502503621
 30
0.0
 11
117.7131216503
 21
57.4625024633
 31
0.0
  0
LINE
  5
D7
330
1F
100
AcDbEntity
  8
0
  6
Continuous
 62
     7
370
    15
100
AcDbLine
 10
117.7131216503
 20
57.4625024633
 30
0.0
 11
116.9956217981
 21
57.4625024633
 31
0.0
  0
LINE
  5
D8
330
1F
100
AcDbEntity
  8
0
  6
Continuous
 62
     7
370
    15
100
AcDbLine
 10
116.9956217981
 20
57.4625024633
 30
0.0
 11
98.1106224931
 21
57.4625024633
 31
0.0
  0
LINE
  5
D9
330
1F
100
AcDbEntity
  8
0
  6
Continuous
 62
     7
370
    15
100
AcDbLine
 10
98.1106224931
 20
57.4625024633
 30
0.0
 11
96.9168725885
 21
57.4625024633
 31
0.0
  0
ARC
  5
DA
330
1F
100
AcDbEntity
  8
0
  6
Continuous
 62
     7
370
    15
100
AcDbCircle
 10
96.9168725
 20
37.1425025
 30
0.0
 40
20.32000000000001
100
AcDbArc
 50
180.0
 51
270.0
  0
LINE
  5
DB
330
1F
100
AcDbEntity
  8
0
  6
Continuous
 62
     7
370
    15
100
AcDbLine
 10
76.5968728341
 20
103.1825023764
 30
0.0
 11
76.5968728341
 21
37.142502057
 31
0.0
  0
LINE
  5
DC
330
1F
100
AcDbEntity
  8
0
  6
Continuous
 62
     7
370
    15
100
AcDbLine
 10
96.9168725885
 20
16.8225037926
 30
0.0
 11
96.9168725885
 21
57.4625024633
 31
0.0
  0
LINE
  5
DD
330
1F
100
AcDbEntity
  8
0
  6
Continuous
 62
     7
370
    15
100
AcDbLine
 10
116.9956217981
 20
37.1551740044
 30
0.0
 11
98.1106224931
 21
37.1551740044
 31
0.0
  0
LINE
  5
DE
330
1F
100
AcDbEntity
  8
0
  6
Continuous
 62
     7
370
    15
100
AcDbLine
 10
116.9956217981
 20
57.4625024633
 30
0.0
 11
116.9956217981
 21
37.1551740044
 31
0.0
  0
LINE
  5
DF
330
1F
100
AcDbEntity
  8
0
  6
Continuous
 62
     7
370
    15
100
AcDbLine
 10
117.7131216503
 20
57.4625024633
 30
0.0
 11
117.7131216503
 21
37.142502057
 31
0.0
  0
LINE
  5
E0
330
1F
100
AcDbEntity
  8
0
  6
Continuous
 62
     7
370
    15
100
AcDbLine
 10
117.7131216503
 20
37.142502057
 30
0.0
 11
96.9168725885
 21
37.142502057
 31
0.0
  0
LINE
  5
E1
330
1F
100
AcDbEntity
  8
0
  6
Continuous
 62
     7
370
    15
100
AcDbLine
 10
98.1106224931
 20
57.4625024633
 30
0.0
 11
98.1106224931
 21
37.1551740044
 31
0.0
  0
LINE
  5
E2
330
1F
100
AcDbEntity
  8
0
  6
Continuous
 62
     7
370
    15
100
AcDbLine
 10
76.5968728341
 20
123.502503621
 30
0.0
 11
96.8654375054
 21
123.502503621
 31
0.0
  0
LINE
  5
E3
330
1F
100
AcDbEntity
  8
0
  6
Continuous
 62
     7
370
    15
100
AcDbLine
 10
76.5968728341
 20
103.1825023764
 30
0.0
 11
76.5968728341
 21
123.502503621
 31
0.0
  0
LINE
  5
E4
330
1F
100
AcDbEntity
  8
0
  6
Continuous
 62
     7
370
    15
100
AcDbLine
 10
97.4445577241
 20
143.8225018853
 30
0.0
 11
117.7131216503
 21
143.8225018853
 31
0.0
  0
LINE
  5
E5
330
1F
100
AcDbEntity
  8
0
  6
Continuous
 62
     7
370
    15
100
AcDbLine
 10
117.7131216503
 20
143.8225018853
 30
0.0
 11
117.7131216503
 21
123.502503621
 31
0.0
  0
CIRCLE
  5
E6
330
1F
100
AcDbEntity
  8
0
  6
Continuous
 62
     7
370
    15
100
AcDbCircle
 10
97.1304477804
 20
238.4121387808
 30
0.0
 40
0.3454400000000106
  0
CIRCLE
  5
E7
330
1F
100
AcDbEntity
  8
0
  6
Continuous
 62
     7
370
    15
100
AcDbCircle
 10
97.1304477804
 20
233.3321387808
 30
0.0
 40
2.540000000000006
  0
ARC
  5
E8
330
1F
100
AcDbEntity
  8
0
  6
Continuous
 62
     7
370
    15
100
AcDbCircle
 10
97.1304477804
 20
233.3321387808
 30
0.0
 40
6.508750000000006
100
AcDbArc
 50
189.1254720996
 51
260.8745279049
  0
SPLINE
  5
E9
330
1F
100
AcDbEntity
  8
0
  6
Continuous
 62
     7
370
    15
100
AcDbSpline
210
0.0
220
0.0
230
1.0
 70
     8
 71
     3
 72
    26
 73
    22
 74
     0
 42
0.000000001
 43
0.00000001
 40
0.0
 40
0.0
 40
0.0
 40
0.0
 40
0.1249999999999997
 40
0.1249999999999997
 40
0.2499999999999993
 40
0.2499999999999993
 40
0.374999999999999
 40
0.374999999999999
 40
0.4374999999999991
 40
0.4374999999999991
 40
0.4999999999999993
 40
0.4999999999999993
 40
0.5624999999999996
 40
0.5624999999999996
 40
0.6249999999999997
 40
0.6249999999999997
 40
0.7499999999999998
 40
0.7499999999999998
 40
0.8749999999999999
 40
0.8749999999999999
 40
1.0
 40
1.0
 40
1.0
 40
1.0
 10
90.70407644825043
 20
232.299870373832
 30
0.0
 10
90.69778212872367
 20
232.3390555648916
 30
0.0
 10
90.68589707524264
 20
232.3826164637681
 30
0.0
 10
90.64234021061299
 20
232.4744062210995
 30
0.0
 10
90.61038740150747
 20
232.5227828848273
 30
0.0
 10
90.5190383766354
 20
232.6110118804785
 30
0.0
 10
90.45914775945708
 20
232.6505284308461
 30
0.0
 10
90.35316036747068
 20
232.68691321736
 30
0.0
 10
90.31531413080398
 20
232.6951945057305
 30
0.0
 10
90.23747267581417
 20
232.7021753053643
 30
0.0
 10
90.19750751197395
 20
232.700855151737
 30
0.0
 10
90.11913712981152
 20
232.6882665126105
 30
0.0
 10
90.08076900989518
 20
232.6770039862305
 30
0.0
 10
90.00902969288273
 20
232.6459960183344
 30
0.0
 10
89.97568087970787
 20
232.626278664893
 30
0.0
 10
89.8864202608296
 20
232.5585311788347
 30
0.0
 10
89.84191827490837
 20
232.502246038451
 30
0.0
 10
89.78279616620969
 20
232.3898468557061
 30
0.0
 10
89.76760135350978
 20
232.3338968666964
 30
0.0
 10
89.75498232839037
 20
232.2330835728689
 30
0.0
 10
89.75733754348202
 20
232.1879918954877
 30
0.0
 10
89.76363186307312
 20
232.1488067044385
 30
0.0
  0
ARC
  5
EA
330
1F
100
AcDbEntity
  8
0
  6
Continuous
 62
     7
370
    15
100
AcDbCircle
 10
97.1304477804
 20
233.3321387808
 30
0.0
 40
7.461249999999999
100
AcDbArc
 50
189.1254720966
 51
260.8745279049
  0
SPLINE
  5
EB
330
1F
100
AcDbEntity
  8
0
  6
Continuous
 62
     7
370
    15
100
AcDbSpline
210
0.0
220
0.0
230
1.0
 70
     8
 71
     3
 72
    26
 73
    22
 74
     0
 42
0.000000001
 43
0.00000001
 40
0.0
 40
0.0
 40
0.0
 40
0.0
 40
0.1250000000000009
 40
0.1250000000000009
 40
0.2500000000000018
 40
0.2500000000000018
 40
0.3750000000000026
 40
0.3750000000000026
 40
0.4375000000000026
 40
0.4375000000000026
 40
0.5000000000000024
 40
0.5000000000000024
 40
0.5625000000000024
 40
0.5625000000000024
 40
0.6250000000000024
 40
0.6250000000000024
 40
0.7500000000000016
 40
0.7500000000000016
 40
0.8750000000000008
 40
0.8750000000000008
 40
1.0
 40
1.0
 40
1.0
 40
1.0
 10
95.94711570470473
 20
225.9653228633596
 30
0.0
 10
95.98630089575484
 20
225.9590285438081
 30
0.0
 10
96.03139257312817
 20
225.9566733287631
 30
0.0
 10
96.13220586690744
 20
225.9692923539781
 30
0.0
 10
96.18815585587555
 20
225.9844871667269
 30
0.0
 10
96.30055503850271
 20
226.0436092754912
 30
0.0
 10
96.35684017880973
 20
226.0881112614272
 30
0.0
 10
96.42458766476241
 20
226.1773718802794
 30
0.0
 10
96.44430501817075
 20
226.210720693438
 30
0.0
 10
96.47531298601311
 20
226.2824600104052
 30
0.0
 10
96.4865755123726
 20
226.3208281302927
 30
0.0
 10
96.49916415147561
 20
226.399198512393
 30
0.0
 10
96.50048430510003
 20
226.4391636761999
 30
0.0
 10
96.49350350547701
 20
226.5170051311276
 30
0.0
 10
96.48522221712018
 20
226.5548513677656
 30
0.0
 10
96.44883743066289
 20
226.6608387596821
 30
0.0
 10
96.40932088035272
 20
226.7207293768371
 30
0.0
 10
96.32109188480334
 20
226.8120784017052
 30
0.0
 10
96.27271522111961
 20
226.8440312108279
 30
0.0
 10
96.18092546384939
 20
226.8875880755024
 30
0.0
 10
96.13736456499097
 20
226.8994731290107
 30
0.0
 10
96.09817937394087
 20
226.9057674485622
 30
0.0
  0
ARC
  5
EC
330
1F
100
AcDbEntity
  8
0
  6
Continuous
 62
     7
370
    15
100
AcDbCircle
 10
97.1304477804
 20
233.3321387808
 30
0.0
 40
8.41375000000001
100
AcDbArc
 50
187.1669305777
 51
262.8330694287
  0
SPLINE
  5
ED
330
1F
100
AcDbEntity
  8
0
  6
Continuous
 62
     7
370
    15
100
AcDbSpline
210
0.0
220
0.0
230
1.0
 70
     8
 71
     3
 72
    26
 73
    22
 74
     0
 42
0.000000001
 43
0.00000001
 40
0.0
 40
0.0
 40
0.0
 40
0.0
 40
0.1249999999999996
 40
0.1249999999999996
 40
0.2499999999999993
 40
0.2499999999999993
 40
0.374999999999999
 40
0.374999999999999
 40
0.4374999999999988
 40
0.4374999999999988
 40
0.4999999999999987
 40
0.4999999999999987
 40
0.5624999999999984
 40
0.5624999999999984
 40
0.6249999999999982
 40
0.6249999999999982
 40
0.7499999999999989
 40
0.7499999999999989
 40
0.8749999999999994
 40
0.8749999999999994
 40
1.0
 40
1.0
 40
1.0
 40
1.0
 10
88.78243546353929
 20
232.2824343365456
 30
0.0
 10
88.77748402755046
 20
232.3218117531561
 30
0.0
 10
88.76709466930147
 20
232.3657533922201
 30
0.0
 10
88.7267002879686
 20
232.4589781420144
 30
0.0
 10
88.69641948252473
 20
232.508418575156
 30
0.0
 10
88.60813916638632
 20
232.599718004656
 30
0.0
 10
88.5496340673123
 20
232.6412583124476
 30
0.0
 10
88.44495209003115
 20
232.6812441050298
 30
0.0
 10
88.40741098654853
 20
232.6908140015561
 30
0.0
 10
88.32985358322773
 20
232.7004510593104
 30
0.0
 10
88.28986664824127
 20
232.700497539983
 30
0.0
 10
88.21111181491115
 20
232.6905946678352
 30
0.0
 10
88.17238119696223
 20
232.680650002765
 30
0.0
 10
88.09962404978401
 20
232.6521119364936
 30
0.0
 10
88.0656208513474
 20
232.6335458419581
 30
0.0
 10
87.97409701562913
 20
232.5688885340082
 30
0.0
 10
87.92769740678841
 20
232.5141571893462
 30
0.0
 10
87.86476844336647
 20
232.4038442453769
 30
0.0
 10
87.8476703413266
 20
232.3484462443824
 30
0.0
 10
87.8316132585711
 20
232.2481231158883
 30
0.0
 10
87.83242602928233
 20
232.2029772875956
 30
0.0
 10
87.83737746542512
 20
232.1635998710044
 30
0.0
  0
ARC
  5
EE
330
1F
100
AcDbEntity
  8
0
  6
Continuous
 62
     7
370
    15
100
AcDbCircle
 10
97.1304477804
 20
233.3321387808
 30
0.0
 40
9.366250000000008
100
AcDbArc
 50
187.1669305719
 51
262.8330694226
  0
SPLINE
  5
EF
330
1F
100
AcDbEntity
  8
0
  6
Continuous
 62
     7
370
    15
100
AcDbSpline
210
0.0
220
0.0
230
1.0
 70
     8
 71
     3
 72
    26
 73
    22
 74
     0
 42
0.000000001
 43
0.00000001
 40
0.0
 40
0.0
 40
0.0
 40
0.0
 40
0.1250000000000013
 40
0.1250000000000013
 40
0.2500000000000028
 40
0.2500000000000028
 40
0.3750000000000042
 40
0.3750000000000042
 40
0.4375000000000042
 40
0.4375000000000042
 40
0.5000000000000038
 40
0.5000000000000038
 40
0.5625000000000033
 40
0.5625000000000033
 40
0.625000000000003
 40
0.625000000000003
 40
0.750000000000002
 40
0.750000000000002
 40
0.875000000000001
 40
0.875000000000001
 40
1.0
 40
1.0
 40
1.0
 40
1.0
 10
95.96190887081603
 20
224.0390684657918
 30
0.0
 10
96.00128628740701
 20
224.0341170296611
 30
0.0
 10
96.04643211569666
 20
224.033304258964
 30
0.0
 10
96.1467552441747
 20
224.049361341748
 30
0.0
 10
96.20215324515567
 20
224.0664594438023
 30
0.0
 10
96.31246618908774
 20
224.1293884072425
 30
0.0
 10
96.36719753372584
 20
224.1757880160864
 30
0.0
 10
96.4318548416437
 20
224.2673118517946
 30
0.0
 10
96.45042093616922
 20
224.3013150502255
 30
0.0
 10
96.47895900242496
 20
224.3740721973885
 30
0.0
 10
96.48890366748944
 20
224.412802815328
 30
0.0
 10
96.49880653963139
 20
224.4915576486381
 30
0.0
 10
96.49876005895868
 20
224.531544583614
 30
0.0
 10
96.48912300120944
 20
224.6091019869154
 30
0.0
 10
96.47955310468811
 20
224.6466430903892
 30
0.0
 10
96.43956731212575
 20
224.7513250676493
 30
0.0
 10
96.39802700435325
 20
224.809830166717
 30
0.0
 10
96.30672757488641
 20
224.8981104828563
 30
0.0
 10
96.25728714175902
 20
224.9283912883066
 30
0.0
 10
96.16406239198406
 20
224.9687856696554
 30
0.0
 10
96.12012075292557
 20
224.9791750279137
 30
0.0
 10
96.08074333631781
 20
224.9841264639109
 30
0.0
  0
ARC
  5
F0
330
1F
100
AcDbEntity
  8
0
  6
Continuous
 62
     7
370
    15
100
AcDbCircle
 10
97.1304477804
 20
233.3321387808
 30
0.0
 40
7.461250000000023
100
AcDbArc
 50
99.1254720951
 51
170.8745278998
  0
SPLINE
  5
F1
330
1F
100
AcDbEntity
  8
0
  6
Continuous
 62
     7
370
    15
100
AcDbSpline
210
0.0
220
0.0
230
1.0
 70
     8
 71
     3
 72
    26
 73
    22
 74
     0
 42
0.000000001
 43
0.00000001
 40
0.0
 40
0.0
 40
0.0
 40
0.0
 40
0.1249999999999997
 40
0.1249999999999997
 40
0.2499999999999994
 40
0.2499999999999994
 40
0.3749999999999991
 40
0.3749999999999991
 40
0.437499999999999
 40
0.437499999999999
 40
0.4999999999999989
 40
0.4999999999999989
 40
0.5624999999999987
 40
0.5624999999999987
 40
0.6249999999999986
 40
0.6249999999999986
 40
0.7499999999999991
 40
0.7499999999999991
 40
0.8749999999999996
 40
0.8749999999999996
 40
1.0
 40
1.0
 40
1.0
 40
1.0
 10
89.76363186307312
 20
234.5154708571217
 30
0.0
 10
89.75733754348202
 20
234.4762856660725
 30
0.0
 10
89.75498232839037
 20
234.4311939886913
 30
0.0
 10
89.76760135350978
 20
234.3303806948637
 30
0.0
 10
89.78279616620969
 20
234.2744307058541
 30
0.0
 10
89.84191827490837
 20
234.1620315231092
 30
0.0
 10
89.8864202608296
 20
234.1057463827255
 30
0.0
 10
89.97568087970787
 20
234.0379988966672
 30
0.0
 10
90.00902969288273
 20
234.0182815432258
 30
0.0
 10
90.08076900989518
 20
233.9872735753297
 30
0.0
 10
90.11913712981152
 20
233.9760110489497
 30
0.0
 10
90.19750751197395
 20
233.9634224098232
 30
0.0
 10
90.23747267581417
 20
233.9621022561959
 30
0.0
 10
90.31531413080398
 20
233.9690830558297
 30
0.0
 10
90.35316036747068
 20
233.9773643442002
 30
0.0
 10
90.45914775945707
 20
234.0137491307141
 30
0.0
 10
90.51903837663538
 20
234.0532656810817
 30
0.0
 10
90.61038740150747
 20
234.1414946767329
 30
0.0
 10
90.64234021061299
 20
234.1898713404607
 30
0.0
 10
90.68589707524264
 20
234.2816610977921
 30
0.0
 10
90.69778212872367
 20
234.3252219966686
 30
0.0
 10
90.70407644825043
 20
234.3644071877282
 30
0.0
  0
ARC
  5
F2
330
1F
100
AcDbEntity
  8
0
  6
Continuous
 62
     7
370
    15
100
AcDbCircle
 10
97.1304477804
 20
233.3321387808
 30
0.0
 40
6.50875
100
AcDbArc
 50
99.1254720951
 51
170.8745279036
  0
SPLINE
  5
F3
330
1F
100
AcDbEntity
  8
0
  6
Continuous
 62
     7
370
    15
100
AcDbSpline
210
0.0
220
0.0
230
1.0
 70
     8
 71
     3
 72
    26
 73
    22
 74
     0
 42
0.000000001
 43
0.00000001
 40
0.0
 40
0.0
 40
0.0
 40
0.0
 40
0.1250000000000004
 40
0.1250000000000004
 40
0.2500000000000009
 40
0.2500000000000009
 40
0.3750000000000013
 40
0.3750000000000013
 40
0.4375000000000012
 40
0.4375000000000012
 40
0.5000000000000011
 40
0.5000000000000011
 40
0.562500000000001
 40
0.562500000000001
 40
0.6250000000000009
 40
0.6250000000000009
 40
0.7500000000000006
 40
0.7500000000000006
 40
0.8750000000000002
 40
0.8750000000000002
 40
1.0
 40
1.0
 40
1.0
 40
1.0
 10
96.09817937394085
 20
239.758510112998
 30
0.0
 10
96.13736456499097
 20
239.7648044325494
 30
0.0
 10
96.18092546384939
 20
239.7766894860578
 30
0.0
 10
96.27271522111961
 20
239.8202463507323
 30
0.0
 10
96.32109188480334
 20
239.852199159855
 30
0.0
 10
96.40932088035272
 20
239.9435481847231
 30
0.0
 10
96.44883743066289
 20
240.0034388018781
 30
0.0
 10
96.48522221712018
 20
240.1094261937946
 30
0.0
 10
96.49350350547701
 20
240.1472724304326
 30
0.0
 10
96.50048430510003
 20
240.2251138853603
 30
0.0
 10
96.49916415147561
 20
240.2650790491672
 30
0.0
 10
96.4865755123726
 20
240.3434494312674
 30
0.0
 10
96.47531298601311
 20
240.381817551155
 30
0.0
 10
96.44430501817075
 20
240.4535568681223
 30
0.0
 10
96.42458766476241
 20
240.4869056812807
 30
0.0
 10
96.35684017880973
 20
240.576166300133
 30
0.0
 10
96.30055503850271
 20
240.620668286069
 30
0.0
 10
96.18815585587554
 20
240.6797903948333
 30
0.0
 10
96.13220586690744
 20
240.6949852075821
 30
0.0
 10
96.03139257312819
 20
240.7076042327971
 30
0.0
 10
95.98630089575484
 20
240.7052490177521
 30
0.0
 10
95.94711570470473
 20
240.6989546982006
 30
0.0
  0
ARC
  5
F4
330
1F
100
AcDbEntity
  8
0
  6
Continuous
 62
     7
370
    15
100
AcDbCircle
 10
97.1304477804
 20
233.3321387808
 30
0.0
 40
9.36625000000001
100
AcDbArc
 50
97.1669305715
 51
172.8330694213
  0
SPLINE
  5
F5
330
1F
100
AcDbEntity
  8
0
  6
Continuous
 62
     7
370
    15
100
AcDbSpline
210
0.0
220
0.0
230
1.0
 70
     8
 71
     3
 72
    26
 73
    22
 74
     0
 42
0.000000001
 43
0.00000001
 40
0.0
 40
0.0
 40
0.0
 40
0.0
 40
0.1250000000000001
 40
0.1250000000000001
 40
0.2500000000000001
 40
0.2500000000000001
 40
0.3750000000000001
 40
0.3750000000000001
 40
0.4375000000000003
 40
0.4375000000000003
 40
0.5000000000000003
 40
0.5000000000000003
 40
0.5625000000000003
 40
0.5625000000000003
 40
0.6250000000000003
 40
0.6250000000000003
 40
0.7500000000000002
 40
0.7500000000000002
 40
0.8750000000000001
 40
0.8750000000000001
 40
1.0
 40
1.0
 40
1.0
 40
1.0
 10
87.83737746542512
 20
234.5006776905558
 30
0.0
 10
87.83242602928233
 20
234.4613002739646
 30
0.0
 10
87.8316132585711
 20
234.4161544456719
 30
0.0
 10
87.8476703413266
 20
234.3158313171778
 30
0.0
 10
87.86476844336647
 20
234.2604333161833
 30
0.0
 10
87.92769740678841
 20
234.150120372214
 30
0.0
 10
87.97409701562913
 20
234.095389027552
 30
0.0
 10
88.0656208513474
 20
234.0307317196021
 30
0.0
 10
88.09962404978401
 20
234.0121656250667
 30
0.0
 10
88.17238119696223
 20
233.9836275587952
 30
0.0
 10
88.21111181491115
 20
233.973682893725
 30
0.0
 10
88.28986664824127
 20
233.9637800215772
 30
0.0
 10
88.32985358322773
 20
233.9638265022498
 30
0.0
 10
88.40741098654853
 20
233.973463560004
 30
0.0
 10
88.44495209003115
 20
233.9830334565304
 30
0.0
 10
88.5496340673123
 20
234.0230192491126
 30
0.0
 10
88.60813916638632
 20
234.0645595569042
 30
0.0
 10
88.69641948252473
 20
234.1558589864043
 30
0.0
 10
88.7267002879686
 20
234.2052994195457
 30
0.0
 10
88.76709466930147
 20
234.2985241693401
 30
0.0
 10
88.77748402755044
 20
234.3424658084041
 30
0.0
 10
88.78243546353929
 20
234.3818432250146
 30
0.0
  0
ARC
  5
F6
330
1F
100
AcDbEntity
  8
0
  6
Continuous
 62
     7
370
    15
100
AcDbCircle
 10
97.1304477804
 20
233.3321387808
 30
0.0
 40
8.413750000000004
100
AcDbArc
 50
97.1669305766
 51
172.8330694285
  0
SPLINE
  5
F7
330
1F
100
AcDbEntity
  8
0
  6
Continuous
 62
     7
370
    15
100
AcDbSpline
210
0.0
220
0.0
230
1.0
 70
     8
 71
     3
 72
    26
 73
    22
 74
     0
 42
0.000000001
 43
0.00000001
 40
0.0
 40
0.0
 40
0.0
 40
0.0
 40
0.1250000000000019
 40
0.1250000000000019
 40
0.2500000000000037
 40
0.2500000000000037
 40
0.3750000000000054
 40
0.3750000000000054
 40
0.4375000000000041
 40
0.4375000000000041
 40
0.5000000000000029
 40
0.5000000000000029
 40
0.5625000000000016
 40
0.5625000000000016
 40
0.6250000000000003
 40
0.6250000000000003
 40
0.7500000000000002
 40
0.7500000000000002
 40
0.8750000000000001
 40
0.8750000000000001
 40
1.0
 40
1.0
 40
1.0
 40
1.0
 10
96.08074333631782
 20
241.6801510976493
 30
0.0
 10
96.12012075292559
 20
241.6851025336465
 30
0.0
 10
96.16406239198406
 20
241.6954918919048
 30
0.0
 10
96.25728714175902
 20
241.7358862732536
 30
0.0
 10
96.30672757488641
 20
241.7661670787039
 30
0.0
 10
96.39802700435325
 20
241.8544473948432
 30
0.0
 10
96.43956731212575
 20
241.9129524939109
 30
0.0
 10
96.47955310468811
 20
242.017634471171
 30
0.0
 10
96.48912300120944
 20
242.0551755746448
 30
0.0
 10
96.49876005895868
 20
242.1327329779462
 30
0.0
 10
96.49880653963139
 20
242.1727199129221
 30
0.0
 10
96.48890366748944
 20
242.2514747462322
 30
0.0
 10
96.47895900242496
 20
242.2902053641717
 30
0.0
 10
96.45042093616922
 20
242.3629625113347
 30
0.0
 10
96.4318548416437
 20
242.3969657097656
 30
0.0
 10
96.36719753372584
 20
242.4884895454738
 30
0.0
 10
96.31246618908774
 20
242.5348891543177
 30
0.0
 10
96.20215324515567
 20
242.5978181177579
 30
0.0
 10
96.1467552441747
 20
242.6149162198121
 30
0.0
 10
96.04643211569666
 20
242.6309733025962
 30
0.0
 10
96.00128628740701
 20
242.6301605318991
 30
0.0
 10
95.96190887081603
 20
242.6252090957684
 30
0.0
  0
ARC
  5
F8
330
1F
100
AcDbEntity
  8
0
  6
Continuous
 62
     7
370
    15
100
AcDbCircle
 10
97.1304477804
 20
233.3321387808
 30
0.0
 40
6.508749999999998
100
AcDbArc
 50
9.1254720996
 51
80.8745279049
  0
SPLINE
  5
F9
330
1F
100
AcDbEntity
  8
0
  6
Continuous
 62
     7
370
    15
100
AcDbSpline
210
0.0
220
0.0
230
1.0
 70
     8
 71
     3
 72
    26
 73
    22
 74
     0
 42
0.000000001
 43
0.00000001
 40
0.0
 40
0.0
 40
0.0
 40
0.0
 40
0.1250000000000011
 40
0.1250000000000011
 40
0.2500000000000021
 40
0.2500000000000021
 40
0.3750000000000031
 40
0.3750000000000031
 40
0.4375000000000031
 40
0.4375000000000031
 40
0.5000000000000032
 40
0.5000000000000032
 40
0.5625000000000033
 40
0.5625000000000033
 40
0.6250000000000036
 40
0.6250000000000036
 40
0.7500000000000023
 40
0.7500000000000023
 40
0.8750000000000011
 40
0.8750000000000011
 40
1.0
 40
1.0
 40
1.0
 40
1.0
 10
103.5568191125251
 20
234.3644071877282
 30
0.0
 10
103.5631134320519
 20
234.3252219966686
 30
0.0
 10
103.5749984855329
 20
234.2816610977921
 30
0.0
 10
103.6185553501626
 20
234.1898713404607
 30
0.0
 10
103.6505081592681
 20
234.1414946767329
 30
0.0
 10
103.7418571841402
 20
234.0532656810817
 30
0.0
 10
103.8017478013185
 20
234.0137491307141
 30
0.0
 10
103.9077351933049
 20
233.9773643442002
 30
0.0
 10
103.9455814299716
 20
233.9690830558297
 30
0.0
 10
104.0234228849614
 20
233.9621022561959
 30
0.0
 10
104.0633880488016
 20
233.9634224098232
 30
0.0
 10
104.1417584309641
 20
233.9760110489497
 30
0.0
 10
104.1801265508804
 20
233.9872735753297
 30
0.0
 10
104.2518658678929
 20
234.0182815432258
 30
0.0
 10
104.2852146810677
 20
234.0379988966672
 30
0.0
 10
104.374475299946
 20
234.1057463827255
 30
0.0
 10
104.4189772858672
 20
234.1620315231092
 30
0.0
 10
104.4780993945659
 20
234.2744307058541
 30
0.0
 10
104.4932942072658
 20
234.3303806948637
 30
0.0
 10
104.5059132323852
 20
234.4311939886913
 30
0.0
 10
104.5035580172936
 20
234.4762856660725
 30
0.0
 10
104.4972636977025
 20
234.5154708571217
 30
0.0
  0
ARC
  5
FA
330
1F
100
AcDbEntity
  8
0
  6
Continuous
 62
     7
370
    15
100
AcDbCircle
 10
97.1304477804
 20
233.3321387808
 30
0.0
 40
7.461249999999995
100
AcDbArc
 50
9.1254720966
 51
80.8745279049
  0
SPLINE
  5
FB
330
1F
100
AcDbEntity
  8
0
  6
Continuous
 62
     7
370
    15
100
AcDbSpline
210
0.0
220
0.0
230
1.0
 70
     8
 71
     3
 72
    26
 73
    22
 74
     0
 42
0.000000001
 43
0.00000001
 40
0.0
 40
0.0
 40
0.0
 40
0.0
 40
0.125
 40
0.125
 40
0.25
 40
0.25
 40
0.375
 40
0.375
 40
0.4375
 40
0.4375
 40
0.5
 40
0.5
 40
0.5625
 40
0.5625
 40
0.625
 40
0.625
 40
0.75
 40
0.75
 40
0.875
 40
0.875
 40
1.0
 40
1.0
 40
1.0
 40
1.0
 10
98.31377985607085
 20
240.6989546982006
 30
0.0
 10
98.27459466502076
 20
240.7052490177521
 30
0.0
 10
98.22950298764741
 20
240.7076042327971
 30
0.0
 10
98.12868969386815
 20
240.6949852075821
 30
0.0
 10
98.07273970490004
 20
240.6797903948333
 30
0.0
 10
97.96034052227289
 20
240.620668286069
 30
0.0
 10
97.90405538196585
 20
240.576166300133
 30
0.0
 10
97.83630789601317
 20
240.4869056812807
 30
0.0
 10
97.81659054260484
 20
240.4535568681223
 30
0.0
 10
97.78558257476249
 20
240.381817551155
 30
0.0
 10
97.77432004840298
 20
240.3434494312675
 30
0.0
 10
97.76173140929997
 20
240.2650790491672
 30
0.0
 10
97.76041125567555
 20
240.2251138853603
 30
0.0
 10
97.76739205529859
 20
240.1472724304326
 30
0.0
 10
97.7756733436554
 20
240.1094261937946
 30
0.0
 10
97.8120581301127
 20
240.0034388018781
 30
0.0
 10
97.85157468042286
 20
239.9435481847231
 30
0.0
 10
97.93980367597224
 20
239.852199159855
 30
0.0
 10
97.98818033965597
 20
239.8202463507323
 30
0.0
 10
98.0799700969262
 20
239.7766894860578
 30
0.0
 10
98.12353099578462
 20
239.7648044325494
 30
0.0
 10
98.16271618683473
 20
239.758510112998
 30
0.0
  0
ARC
  5
FC
330
1F
100
AcDbEntity
  8
0
  6
Continuous
 62
     7
370
    15
100
AcDbCircle
 10
97.1304477804
 20
233.3321387808
 30
0.0
 40
8.413750000000004
100
AcDbArc
 50
7.1669305777
 51
82.8330694287
  0
SPLINE
  5
FD
330
1F
100
AcDbEntity
  8
0
  6
Continuous
 62
     7
370
    15
100
AcDbSpline
210
0.0
220
0.0
230
1.0
 70
     8
 71
     3
 72
    26
 73
    22
 74
     0
 42
0.000000001
 43
0.00000001
 40
0.0
 40
0.0
 40
0.0
 40
0.0
 40
0.1249999999999986
 40
0.1249999999999986
 40
0.2499999999999971
 40
0.2499999999999971
 40
0.3749999999999958
 40
0.3749999999999958
 40
0.4374999999999954
 40
0.4374999999999954
 40
0.4999999999999951
 40
0.4999999999999951
 40
0.5624999999999949
 40
0.5624999999999949
 40
0.6249999999999944
 40
0.6249999999999944
 40
0.7499999999999963
 40
0.7499999999999963
 40
0.8749999999999982
 40
0.8749999999999982
 40
1.0
 40
1.0
 40
1.0
 40
1.0
 10
105.4784600972363
 20
234.3818432250146
 30
0.0
 10
105.4834115332251
 20
234.3424658084041
 30
0.0
 10
105.4938008914741
 20
234.2985241693401
 30
0.0
 10
105.534195272807
 20
234.2052994195458
 30
0.0
 10
105.5644760782509
 20
234.1558589864043
 30
0.0
 10
105.6527563943893
 20
234.0645595569042
 30
0.0
 10
105.7112614934633
 20
234.0230192491126
 30
0.0
 10
105.8159434707444
 20
233.9830334565304
 30
0.0
 10
105.8534845742271
 20
233.973463560004
 30
0.0
 10
105.9310419775478
 20
233.9638265022498
 30
0.0
 10
105.9710289125343
 20
233.9637800215772
 30
0.0
 10
106.0497837458644
 20
233.973682893725
 30
0.0
 10
106.0885143638133
 20
233.9836275587952
 30
0.0
 10
106.1612715109916
 20
234.0121656250667
 30
0.0
 10
106.1952747094282
 20
234.0307317196021
 30
0.0
 10
106.2867985451465
 20
234.095389027552
 30
0.0
 10
106.3331981539872
 20
234.150120372214
 30
0.0
 10
106.3961271174091
 20
234.2604333161833
 30
0.0
 10
106.413225219449
 20
234.3158313171778
 30
0.0
 10
106.4292823022045
 20
234.4161544456719
 30
0.0
 10
106.4284695314933
 20
234.4613002739646
 30
0.0
 10
106.4235180953505
 20
234.5006776905558
 30
0.0
  0
ARC
  5
FE
330
1F
100
AcDbEntity
  8
0
  6
Continuous
 62
     7
370
    15
100
AcDbCircle
 10
97.1304477804
 20
233.3321387808
 30
0.0
 40
9.366250000000006
100
AcDbArc
 50
7.1669305719
 51
82.8330694226
  0
SPLINE
  5
FF
330
1F
100
AcDbEntity
  8
0
  6
Continuous
 62
     7
370
    15
100
AcDbSpline
210
0.0
220
0.0
230
1.0
 70
     8
 71
     3
 72
    26
 73
    22
 74
     0
 42
0.000000001
 43
0.00000001
 40
0.0
 40
0.0
 40
0.0
 40
0.0
 40
0.124999999999999
 40
0.124999999999999
 40
0.249999999999998
 40
0.249999999999998
 40
0.3749999999999969
 40
0.3749999999999969
 40
0.4374999999999983
 40
0.4374999999999983
 40
0.4999999999999997
 40
0.4999999999999997
 40
0.5625000000000011
 40
0.5625000000000011
 40
0.6250000000000024
 40
0.6250000000000024
 40
0.7500000000000016
 40
0.7500000000000016
 40
0.8750000000000008
 40
0.8750000000000008
 40
1.0
 40
1.0
 40
1.0
 40
1.0
 10
98.29898668995955
 20
242.6252090957684
 30
0.0
 10
98.25960927336858
 20
242.6301605318991
 30
0.0
 10
98.2144634450789
 20
242.6309733025962
 30
0.0
 10
98.11414031660088
 20
242.6149162198121
 30
0.0
 10
98.05874231561991
 20
242.5978181177579
 30
0.0
 10
97.94842937168784
 20
242.5348891543177
 30
0.0
 10
97.89369802704975
 20
242.4884895454738
 30
0.0
 10
97.82904071913188
 20
242.3969657097656
 30
0.0
 10
97.81047462460637
 20
242.3629625113347
 30
0.0
 10
97.78193655835062
 20
242.2902053641717
 30
0.0
 10
97.77199189328614
 20
242.2514747462322
 30
0.0
 10
97.7620890211442
 20
242.1727199129221
 30
0.0
 10
97.76213550181693
 20
242.1327329779462
 30
0.0
 10
97.77177255956616
 20
242.0551755746448
 30
0.0
 10
97.78134245608747
 20
242.017634471171
 30
0.0
 10
97.82132824864983
 20
241.9129524939109
 30
0.0
 10
97.86286855642234
 20
241.8544473948432
 30
0.0
 10
97.95416798588917
 20
241.7661670787039
 30
0.0
 10
98.00360841901656
 20
241.7358862732536
 30
0.0
 10
98.09683316879152
 20
241.6954918919048
 30
0.0
 10
98.14077480785002
 20
241.6851025336465
 30
0.0
 10
98.18015222445779
 20
241.6801510976493
 30
0.0
  0
ARC
  5
100
330
1F
100
AcDbEntity
  8
0
  6
Continuous
 62
     7
370
    15
100
AcDbCircle
 10
97.1304477804
 20
233.3321387808
 30
0.0
 40
7.461249999999996
100
AcDbArc
 50
279.1254720951
 51
350.8745278998
  0
SPLINE
  5
101
330
1F
100
AcDbEntity
  8
0
  6
Continuous
 62
     7
370
    15
100
AcDbSpline
210
0.0
220
0.0
230
1.0
 70
     8
 71
     3
 72
    26
 73
    22
 74
     0
 42
0.000000001
 43
0.00000001
 40
0.0
 40
0.0
 40
0.0
 40
0.0
 40
0.1249999999999997
 40
0.1249999999999997
 40
0.2499999999999994
 40
0.2499999999999994
 40
0.3749999999999991
 40
0.3749999999999991
 40
0.437499999999999
 40
0.437499999999999
 40
0.4999999999999989
 40
0.4999999999999989
 40
0.5624999999999987
 40
0.5624999999999987
 40
0.6249999999999986
 40
0.6249999999999986
 40
0.7499999999999991
 40
0.7499999999999991
 40
0.8749999999999996
 40
0.8749999999999996
 40
1.0
 40
1.0
 40
1.0
 40
1.0
 10
104.4972636977025
 20
232.1488067044385
 30
0.0
 10
104.5035580172936
 20
232.1879918954877
 30
0.0
 10
104.5059132323852
 20
232.2330835728689
 30
0.0
 10
104.4932942072658
 20
232.3338968666964
 30
0.0
 10
104.4780993945659
 20
232.3898468557061
 30
0.0
 10
104.4189772858672
 20
232.502246038451
 30
0.0
 10
104.374475299946
 20
232.5585311788347
 30
0.0
 10
104.2852146810677
 20
232.626278664893
 30
0.0
 10
104.2518658678929
 20
232.6459960183344
 30
0.0
 10
104.1801265508804
 20
232.6770039862305
 30
0.0
 10
104.1417584309641
 20
232.6882665126105
 30
0.0
 10
104.0633880488016
 20
232.700855151737
 30
0.0
 10
104.0234228849614
 20
232.7021753053643
 30
0.0
 10
103.9455814299716
 20
232.6951945057305
 30
0.0
 10
103.9077351933049
 20
232.68691321736
 30
0.0
 10
103.8017478013185
 20
232.6505284308461
 30
0.0
 10
103.7418571841402
 20
232.6110118804785
 30
0.0
 10
103.6505081592681
 20
232.5227828848273
 30
0.0
 10
103.6185553501626
 20
232.4744062210995
 30
0.0
 10
103.574998485533
 20
232.3826164637681
 30
0.0
 10
103.5631134320519
 20
232.3390555648916
 30
0.0
 10
103.5568191125251
 20
232.299870373832
 30
0.0
  0
ARC
  5
102
330
1F
100
AcDbEntity
  8
0
  6
Continuous
 62
     7
370
    15
100
AcDbCircle
 10
97.1304477804
 20
233.3321387808
 30
0.0
 40
6.508750000000004
100
AcDbArc
 50
279.1254720951
 51
350.8745279037
  0
SPLINE
  5
103
330
1F
100
AcDbEntity
  8
0
  6
Continuous
 62
     7
370
    15
100
AcDbSpline
210
0.0
220
0.0
230
1.0
 70
     8
 71
     3
 72
    26
 73
    22
 74
     0
 42
0.000000001
 43
0.00000001
 40
0.0
 40
0.0
 40
0.0
 40
0.0
 40
0.1250000000000012
 40
0.1250000000000012
 40
0.2500000000000027
 40
0.2500000000000027
 40
0.375000000000004
 40
0.375000000000004
 40
0.4375000000000037
 40
0.4375000000000037
 40
0.5000000000000034
 40
0.5000000000000034
 40
0.5625000000000031
 40
0.5625000000000031
 40
0.6250000000000029
 40
0.6250000000000029
 40
0.750000000000002
 40
0.750000000000002
 40
0.875000000000001
 40
0.875000000000001
 40
1.0
 40
1.0
 40
1.0
 40
1.0
 10
98.16271618683473
 20
226.9057674485622
 30
0.0
 10
98.1235309957846
 20
226.8994731290107
 30
0.0
 10
98.07997009692619
 20
226.8875880755024
 30
0.0
 10
97.98818033965595
 20
226.8440312108279
 30
0.0
 10
97.93980367597224
 20
226.8120784017052
 30
0.0
 10
97.85157468042286
 20
226.7207293768371
 30
0.0
 10
97.8120581301127
 20
226.6608387596821
 30
0.0
 10
97.7756733436554
 20
226.5548513677656
 30
0.0
 10
97.76739205529859
 20
226.5170051311276
 30
0.0
 10
97.76041125567556
 20
226.4391636761999
 30
0.0
 10
97.76173140929997
 20
226.399198512393
 30
0.0
 10
97.77432004840298
 20
226.3208281302927
 30
0.0
 10
97.78558257476247
 20
226.2824600104052
 30
0.0
 10
97.81659054260483
 20
226.210720693438
 30
0.0
 10
97.83630789601317
 20
226.1773718802795
 30
0.0
 10
97.90405538196583
 20
226.0881112614272
 30
0.0
 10
97.96034052227287
 20
226.0436092754912
 30
0.0
 10
98.07273970490004
 20
225.9844871667269
 30
0.0
 10
98.12868969386814
 20
225.9692923539781
 30
0.0
 10
98.22950298764741
 20
225.9566733287631
 30
0.0
 10
98.27459466502076
 20
225.9590285438081
 30
0.0
 10
98.31377985607085
 20
225.9653228633596
 30
0.0
  0
ARC
  5
104
330
1F
100
AcDbEntity
  8
0
  6
Continuous
 62
     7
370
    15
100
AcDbCircle
 10
97.1304477804
 20
233.3321387808
 30
0.0
 40
9.366250000000013
100
AcDbArc
 50
277.1669305715
 51
352.8330694213
  0
SPLINE
  5
105
330
1F
100
AcDbEntity
  8
0
  6
Continuous
 62
     7
370
    15
100
AcDbSpline
210
0.0
220
0.0
230
1.0
 70
     8
 71
     3
 72
    26
 73
    22
 74
     0
 42
0.000000001
 43
0.00000001
 40
0.0
 40
0.0
 40
0.0
 40
0.0
 40
0.1250000000000012
 40
0.1250000000000012
 40
0.2500000000000023
 40
0.2500000000000023
 40
0.3750000000000036
 40
0.3750000000000036
 40
0.4375000000000034
 40
0.4375000000000034
 40
0.5000000000000033
 40
0.5000000000000033
 40
0.5625000000000033
 40
0.5625000000000033
 40
0.6250000000000031
 40
0.6250000000000031
 40
0.7500000000000021
 40
0.7500000000000021
 40
0.8750000000000011
 40
0.8750000000000011
 40
1.0
 40
1.0
 40
1.0
 40
1.0
 10
106.4235180953505
 20
232.1635998710044
 30
0.0
 10
106.4284695314932
 20
232.2029772875956
 30
0.0
 10
106.4292823022045
 20
232.2481231158883
 30
0.0
 10
106.413225219449
 20
232.3484462443824
 30
0.0
 10
106.3961271174091
 20
232.4038442453769
 30
0.0
 10
106.3331981539872
 20
232.5141571893462
 30
0.0
 10
106.2867985451465
 20
232.5688885340082
 30
0.0
 10
106.1952747094282
 20
232.6335458419581
 30
0.0
 10
106.1612715109916
 20
232.6521119364936
 30
0.0
 10
106.0885143638133
 20
232.6806500027649
 30
0.0
 10
106.0497837458644
 20
232.6905946678352
 30
0.0
 10
105.9710289125343
 20
232.700497539983
 30
0.0
 10
105.9310419775479
 20
232.7004510593104
 30
0.0
 10
105.8534845742271
 20
232.6908140015561
 30
0.0
 10
105.8159434707444
 20
232.6812441050298
 30
0.0
 10
105.7112614934633
 20
232.6412583124476
 30
0.0
 10
105.6527563943893
 20
232.599718004656
 30
0.0
 10
105.5644760782508
 20
232.5084185751559
 30
0.0
 10
105.534195272807
 20
232.4589781420144
 30
0.0
 10
105.4938008914741
 20
232.3657533922201
 30
0.0
 10
105.4834115332251
 20
232.3218117531561
 30
0.0
 10
105.4784600972363
 20
232.2824343365456
 30
0.0
  0
ARC
  5
106
330
1F
100
AcDbEntity
  8
0
  6
Continuous
 62
     7
370
    15
100
AcDbCircle
 10
97.1304477804
 20
233.3321387808
 30
0.0
 40
8.413750000000013
100
AcDbArc
 50
277.1669305766
 51
352.8330694283
  0
SPLINE
  5
107
330
1F
100
AcDbEntity
  8
0
  6
Continuous
 62
     7
370
    15
100
AcDbSpline
210
0.0
220
0.0
230
1.0
 70
     8
 71
     3
 72
    26
 73
    22
 74
     0
 42
0.000000001
 43
0.00000001
 40
0.0
 40
0.0
 40
0.0
 40
0.0
 40
0.1249999999999983
 40
0.1249999999999983
 40
0.2499999999999966
 40
0.2499999999999966
 40
0.3749999999999949
 40
0.3749999999999949
 40
0.4374999999999947
 40
0.4374999999999947
 40
0.4999999999999946
 40
0.4999999999999946
 40
0.5624999999999944
 40
0.5624999999999944
 40
0.6249999999999944
 40
0.6249999999999944
 40
0.7499999999999963
 40
0.7499999999999963
 40
0.8749999999999982
 40
0.8749999999999982
 40
1.0
 40
1.0
 40
1.0
 40
1.0
 10
98.18015222445779
 20
224.9841264639109
 30
0.0
 10
98.14077480785001
 20
224.9791750279137
 30
0.0
 10
98.09683316879152
 20
224.9687856696554
 30
0.0
 10
98.00360841901656
 20
224.9283912883066
 30
0.0
 10
97.95416798588917
 20
224.8981104828563
 30
0.0
 10
97.86286855642234
 20
224.809830166717
 30
0.0
 10
97.82132824864983
 20
224.7513250676493
 30
0.0
 10
97.78134245608747
 20
224.6466430903892
 30
0.0
 10
97.77177255956616
 20
224.6091019869154
 30
0.0
 10
97.76213550181693
 20
224.531544583614
 30
0.0
 10
97.7620890211442
 20
224.4915576486381
 30
0.0
 10
97.77199189328614
 20
224.412802815328
 30
0.0
 10
97.78193655835062
 20
224.3740721973885
 30
0.0
 10
97.81047462460637
 20
224.3013150502255
 30
0.0
 10
97.82904071913188
 20
224.2673118517946
 30
0.0
 10
97.89369802704975
 20
224.1757880160864
 30
0.0
 10
97.94842937168784
 20
224.1293884072425
 30
0.0
 10
98.05874231561991
 20
224.0664594438023
 30
0.0
 10
98.1141403166009
 20
224.049361341748
 30
0.0
 10
98.21446344507892
 20
224.033304258964
 30
0.0
 10
98.25960927336858
 20
224.0341170296611
 30
0.0
 10
98.29898668995956
 20
224.0390684657918
 30
0.0
  0
LINE
  5
108
330
1F
100
AcDbEntity
  8
0
  6
Continuous
 62
     7
370
    15
100
AcDbLine
 10
109.854997275
 20
207.3050714142
 30
0.0
 11
109.854997275
 21
258.1050700552
 31
0.0
  0
LINE
  5
109
330
1F
100
AcDbEntity
  8
0
  6
Continuous
 62
     7
370
    15
100
AcDbLine
 10
109.854997275
 20
207.3050714142
 30
0.0
 11
84.4549975819
 21
207.3050714142
 31
0.0
  0
LINE
  5
10A
330
1F
100
AcDbEntity
  8
0
  6
Continuous
 62
     7
370
    15
100
AcDbLine
 10
84.4549975819
 20
207.3050714142
 30
0.0
 11
84.4549975819
 21
258.1050700552
 31
0.0
  0
LINE
  5
10B
330
1F
100
AcDbEntity
  8
0
  6
Continuous
 62
     7
370
    15
100
AcDbLine
 10
109.854997275
 20
258.1050700552
 30
0.0
 11
84.4549975819
 21
258.1050700552
 31
0.0
  0
ARC
  5
10C
330
1F
100
AcDbEntity
  8
0
  6
Continuous
 62
     7
370
    15
100
AcDbCircle
 10
97.1549975
 20
232.7050708446
 30
0.0
 40
11.57958320115089
100
AcDbArc
 50
346.9046842337
 51
13.0953157663
  0
LINE
  5
10D
330
1F
100
AcDbEntity
  8
0
  6
Continuous
 62
     7
370
    15
100
AcDbLine
 10
108.4334473587
 20
230.0814650066
 30
0.0
 11
108.4334473587
 21
235.3286764629
 31
0.0
  0
ARC
  5
10E
330
1F
100
AcDbEntity
  8
0
  6
Continuous
 62
     7
370
    15
100
AcDbCircle
 10
97.1549975
 20
232.7050708446
 30
0.0
 40
11.57958320115089
100
AcDbArc
 50
168.0240172524
 51
191.9759827477
  0
LINE
  5
10F
330
1F
100
AcDbEntity
  8
0
  6
Continuous
 62
     7
370
    15
100
AcDbLine
 10
85.8274477995
 20
235.1078531749
 30
0.0
 11
85.8274477995
 21
230.3022882945
 31
0.0
  0
SPLINE
  5
110
330
1F
100
AcDbEntity
  8
0
  6
Continuous
 62
     7
370
    15
100
AcDbSpline
210
0.0
220
0.0
230
1.0
 70
     8
 71
     3
 72
    17
 73
    13
 74
     0
 42
0.000000001
 43
0.00000001
 40
0.0
 40
0.0
 40
0.0
 40
0.0
 40
0.1209058028017407
 40
0.2283007012498471
 40
0.3356953149861752
 40
0.4430901914654196
 40
0.5504850510106694
 40
0.6578799018538241
 40
0.7652744644189532
 40
0.8726694130741871
 40
0.9800643102118144
 40
1.0
 40
1.0
 40
1.0
 40
1.0
 10
88.7824354689132
 20
232.2824343151712
 30
0.0
 10
88.76828693841759
 20
232.3415128426331
 30
0.0
 10
88.7415709383667
 20
232.4530680280402
 30
0.0
 10
88.63218737026054
 20
232.5852350742325
 30
0.0
 10
88.49492363557897
 20
232.6718431918348
 30
0.0
 10
88.33571692841001
 20
232.7076919064335
 30
0.0
 10
88.17388483376776
 20
232.6889349975928
 30
0.0
 10
88.02733294404267
 20
232.6176516571092
 30
0.0
 10
87.91257604327367
 20
232.5018302370342
 30
0.0
 10
87.8429203656121
 20
232.3547591156043
 30
0.0
 10
87.82968836675464
 20
232.2362851000593
 30
0.0
 10
87.83633654220277
 20
232.1734393255914
 30
0.0
 10
87.8373774230044
 20
232.1635997898244
 30
0.0
  0
SPLINE
  5
111
330
1F
100
AcDbEntity
  8
0
  6
Continuous
 62
     7
370
    15
100
AcDbSpline
210
0.0
220
0.0
230
1.0
 70
     8
 71
     3
 72
    17
 73
    13
 74
     0
 42
0.000000001
 43
0.00000001
 40
0.0
 40
0.0
 40
0.0
 40
0.0
 40
0.1209060339404662
 40
0.2283004108890117
 40
0.3356952569807285
 40
0.4430901455996452
 40
0.5504848212688274
 40
0.6578795536317037
 40
0.7652748564886569
 40
0.8726697451075736
 40
0.9800644076710848
 40
1.0
 40
1.0
 40
1.0
 40
1.0
 10
106.4235176421266
 20
232.1635997898244
 30
0.0
 10
106.4244358443044
 20
232.2243420609408
 30
0.0
 10
106.4261696364706
 20
232.3390384495514
 30
0.0
 10
106.3529122017032
 20
232.4941713110152
 30
0.0
 10
106.2413635370799
 20
232.6120659446281
 30
0.0
 10
106.0959880140251
 20
232.6862135858579
 30
0.0
 10
105.9345504108072
 20
232.708105492739
 30
0.0
 10
105.774912681343
 20
232.6753241406418
 30
0.0
 10
105.6350538329204
 20
232.5915185180083
 30
0.0
 10
105.5311563312779
 20
232.4662700939382
 30
0.0
 10
105.4890053604981
 20
232.354760326656
 30
0.0
 10
105.4798881177306
 20
232.2922251927368
 30
0.0
 10
105.4784606672387
 20
232.2824343151712
 30
0.0
  0
SPLINE
  5
112
330
1F
100
AcDbEntity
  8
0
  6
Continuous
 62
     7
370
    15
100
AcDbSpline
210
0.0
220
0.0
230
1.0
 70
     8
 71
     3
 72
    17
 73
    13
 74
     0
 42
0.000000001
 43
0.00000001
 40
0.0
 40
0.0
 40
0.0
 40
0.0
 40
0.1209060150826306
 40
0.2283005188037505
 40
0.3356956132657862
 40
0.4430902745740382
 40
0.5504850776048681
 40
0.657879843648539
 40
0.7652746629052639
 40
0.8726696938556451
 40
0.9800643969750885
 40
1.0
 40
1.0
 40
1.0
 40
1.0
 10
87.8373774230044
 20
234.5006777948999
 30
0.0
 10
87.83645925932947
 20
234.4399354750751
 30
0.0
 10
87.83472553877647
 20
234.3252389223859
 30
0.0
 10
87.90798407649942
 20
234.170106511432
 30
0.0
 10
88.01953166084041
 20
234.0522106315829
 30
0.0
 10
88.16490809291358
 20
233.9780641911031
 30
0.0
 10
88.32634546580725
 20
233.9561720773575
 30
0.0
 10
88.48598327863886
 20
233.9889532225444
 30
0.0
 10
88.62584153035897
 20
234.0727594656332
 30
0.0
 10
88.72973944349287
 20
234.1980073640437
 30
0.0
 10
88.77189038229614
 20
234.309517270116
 30
0.0
 10
88.78100796500651
 20
234.372052392484
 30
0.0
 10
88.7824354689132
 20
234.3818432695531
 30
0.0
  0
SPLINE
  5
113
330
1F
100
AcDbEntity
  8
0
  6
Continuous
 62
     7
370
    15
100
AcDbSpline
210
0.0
220
0.0
230
1.0
 70
     8
 71
     3
 72
    17
 73
    13
 74
     0
 42
0.000000001
 43
0.00000001
 40
0.0
 40
0.0
 40
0.0
 40
0.0
 40
0.1209057941960392
 40
0.2283007602046318
 40
0.3356959910015348
 40
0.4430904539471413
 40
0.5504852541730393
 40
0.6578796299553259
 40
0.7652747527928695
 40
0.8726695348168212
 40
0.9800643329538377
 40
1.0
 40
1.0
 40
1.0
 40
1.0
 10
96.08074310194064
 20
241.6801503903532
 30
0.0
 10
96.13982165809195
 20
241.6942990040451
 30
0.0
 10
96.25137693441945
 20
241.7210151699922
 30
0.0
 10
96.38354387409886
 20
241.8303993765202
 30
0.0
 10
96.47015284875744
 20
241.9676629319701
 30
0.0
 10
96.50600048598098
 20
242.1268701232691
 30
0.0
 10
96.48724371839612
 20
242.2887016527508
 30
0.0
 10
96.41596107192662
 20
242.4352540578313
 30
0.0
 10
96.30013929682326
 20
242.5500107414392
 30
0.0
 10
96.15306785514508
 20
242.6196665613374
 30
0.0
 10
96.03459390018384
 20
242.6328973883246
 30
0.0
 10
95.97174811259782
 20
242.626249665155
 30
0.0
 10
95.96190857659388
 20
242.6252088553571
 30
0.0
  0
SPLINE
  5
114
330
1F
100
AcDbEntity
  8
0
  6
Continuous
 62
     7
370
    15
100
AcDbSpline
210
0.0
220
0.0
230
1.0
 70
     8
 71
     3
 72
    17
 73
    13
 74
     0
 42
0.000000001
 43
0.00000001
 40
0.0
 40
0.0
 40
0.0
 40
0.0
 40
0.1209058319751593
 40
0.2283004314264989
 40
0.3356953405656647
 40
0.4430901500168464
 40
0.5504849950941828
 40
0.6578798609532857
 40
0.765274822141494
 40
0.8726693619279662
 40
0.9800643022040354
 40
1.0
 40
1.0
 40
1.0
 40
1.0
 10
98.18015205632258
 20
224.9841264493131
 30
0.0
 10
98.1210734466945
 20
224.9699780366855
 30
0.0
 10
98.0095182648986
 20
224.9432622972202
 30
0.0
 10
97.87735225936888
 20
224.8338778086141
 30
0.0
 10
97.79074268615214
 20
224.6966149998515
 30
0.0
 10
97.7548957934849
 20
224.537407803422
 30
0.0
 10
97.7736510563413
 20
224.3755758328254
 30
0.0
 10
97.84493477297089
 20
224.2290236555343
 30
0.0
 10
97.96075671362745
 20
224.1142675453087
 30
0.0
 10
98.10782738910459
 20
224.0446111910962
 30
0.0
 10
98.22630127483129
 20
224.0313794000184
 30
0.0
 10
98.28914704636217
 20
224.0380275700213
 30
0.0
 10
98.29898658166934
 20
224.0390684499704
 30
0.0
  0
SPLINE
  5
115
330
1F
100
AcDbEntity
  8
0
  6
Continuous
 62
     7
370
    15
100
AcDbSpline
210
0.0
220
0.0
230
1.0
 70
     8
 71
     3
 72
    17
 73
    13
 74
     0
 42
0.000000001
 43
0.00000001
 40
0.0
 40
0.0
 40
0.0
 40
0.0
 40
0.120905971936143
 40
0.2283008934191993
 40
0.3356955441571579
 40
0.4430901949923046
 40
0.5504849959502953
 40
0.6578798856099822
 40
0.765274693366093
 40
0.8726692911954524
 40
0.9800644004391684
 40
1.0
 40
1.0
 40
1.0
 40
1.0
 10
95.96190857659388
 20
224.0390684499704
 30
0.0
 10
96.02265086690757
 20
224.0381503471453
 30
0.0
 10
96.13734759300701
 20
224.0364167380286
 30
0.0
 10
96.29248038259752
 20
224.1096746501495
 30
0.0
 10
96.41037583449186
 20
224.2212229020051
 30
0.0
 10
96.48452187008121
 20
224.3665990723578
 30
0.0
 10
96.50641555780709
 20
224.5280364757344
 30
0.0
 10
96.4736328743759
 20
224.6876742381462
 30
0.0
 10
96.3898270084965
 20
224.8275322838476
 30
0.0
 10
96.26457953788298
 20
224.9314310067565
 30
0.0
 10
96.15306929821121
 20
224.9735812132639
 30
0.0
 10
96.09053397741388
 20
224.9826989292952
 30
0.0
 10
96.08074310194064
 20
224.9841264493131
 30
0.0
  0
SPLINE
  5
116
330
1F
100
AcDbEntity
  8
0
  6
Continuous
 62
     7
370
    15
100
AcDbSpline
210
0.0
220
0.0
230
1.0
 70
     8
 71
     3
 72
    17
 73
    13
 74
     0
 42
0.000000001
 43
0.00000001
 40
0.0
 40
0.0
 40
0.0
 40
0.0
 40
0.1209055210194621
 40
0.2283003419704836
 40
0.3356951759770298
 40
0.4430900525107712
 40
0.5504847160948021
 40
0.6578794363725207
 40
0.765274727144252
 40
0.8726696036779935
 40
0.9800642541563549
 40
0.9999999999999999
 40
0.9999999999999999
 40
0.9999999999999999
 40
0.9999999999999999
 10
98.29898658166934
 20
242.6252088553571
 30
0.0
 10
98.23824458391732
 20
242.6261269765609
 30
0.0
 10
98.12354825953255
 20
242.6278606226593
 30
0.0
 10
97.96841519625328
 20
242.5546036448291
 30
0.0
 10
97.85052043540607
 20
242.4430547323059
 30
0.0
 10
97.77637278259263
 20
242.2976792272881
 30
0.0
 10
97.75448088238737
 20
242.1362416419121
 30
0.0
 10
97.78726221936496
 20
241.9766038230436
 30
0.0
 10
97.87106789580118
 20
241.8367453143975
 30
0.0
 10
97.99631611978077
 20
241.7328465430579
 30
0.0
 10
98.10782650495803
 20
241.6906989968761
 30
0.0
 10
98.1703611852588
 20
241.6815783787254
 30
0.0
 10
98.18015205632258
 20
241.6801503903532
 30
0.0
  0
SPLINE
  5
117
330
1F
100
AcDbEntity
  8
0
  6
Continuous
 62
     7
370
    15
100
AcDbSpline
210
0.0
220
0.0
230
1.0
 70
     8
 71
     3
 72
    17
 73
    13
 74
     0
 42
0.000000001
 43
0.00000001
 40
0.0
 40
0.0
 40
0.0
 40
0.0
 40
0.1209059645499042
 40
0.2283005203989062
 40
0.3356954877912919
 40
0.4430902090193669
 40
0.5504850204297365
 40
0.6578798185888989
 40
0.7652746591089931
 40
0.872669339501809
 40
0.9800639499268412
 40
1.0
 40
1.0
 40
1.0
 40
1.0
 10
89.76363190408159
 20
234.5154709226751
 30
0.0
 10
89.76063831840523
 20
234.4547954956753
 30
0.0
 10
89.75498568439068
 20
234.3402252045317
 30
0.0
 10
89.82289932587845
 20
234.182679589861
 30
0.0
 10
89.93035287881324
 20
234.0610406337661
 30
0.0
 10
90.0731100493823
 20
233.9819687347215
 30
0.0
 10
90.23370505128749
 20
233.9545718540568
 30
0.0
 10
90.39436993062981
 20
233.9818785608195
 30
0.0
 10
90.53701043254004
 20
234.0608559981729
 30
0.0
 10
90.64512838596913
 20
234.1824794018101
 30
0.0
 10
90.69106577399862
 20
234.292483645161
 30
0.0
 10
90.70231519233529
 20
234.3546708280432
 30
0.0
 10
90.70407650391866
 20
234.3644074208402
 30
0.0
  0
SPLINE
  5
118
330
1F
100
AcDbEntity
  8
0
  6
Continuous
 62
     7
370
    15
100
AcDbSpline
210
0.0
220
0.0
230
1.0
 70
     8
 71
     3
 72
    17
 73
    13
 74
     0
 42
0.000000001
 43
0.00000001
 40
0.0
 40
0.0
 40
0.0
 40
0.0
 40
0.1209059507575279
 40
0.2283006675596661
 40
0.3356953385415483
 40
0.4430908201618624
 40
0.5504854412144708
 40
0.6578796790256455
 40
0.7652743500075276
 40
0.8726692746196913
 40
0.9800639272480541
 40
1.0
 40
1.0
 40
1.0
 40
1.0
 10
104.4972639061074
 20
232.1488066620493
 30
0.0
 10
104.5002577360944
 20
232.2094821354063
 30
0.0
 10
104.5059108357168
 20
232.3240526010048
 30
0.0
 10
104.4379959476825
 20
232.4815975549141
 30
0.0
 10
104.3305432128968
 20
232.6032376390968
 30
0.0
 10
104.1877851078142
 20
232.6823084356301
 30
0.0
 10
104.0271903507022
 20
232.7097058282828
 30
0.0
 10
103.8665258240644
 20
232.6823989334818
 30
0.0
 10
103.7238858390542
 20
232.6034213293302
 30
0.0
 10
103.6157671957234
 20
232.4817983810232
 30
0.0
 10
103.5698300556654
 20
232.371793892832
 30
0.0
 10
103.5585802188236
 20
232.3096067556419
 30
0.0
 10
103.5568188406091
 20
232.2998701638841
 30
0.0
  0
SPLINE
  5
119
330
1F
100
AcDbEntity
  8
0
  6
Continuous
 62
     7
370
    15
100
AcDbSpline
210
0.0
220
0.0
230
1.0
 70
     8
 71
     3
 72
    17
 73
    13
 74
     0
 42
0.000000001
 43
0.00000001
 40
0.0
 40
0.0
 40
0.0
 40
0.0
 40
0.1209060282158534
 40
0.2283006716062386
 40
0.3356954829317216
 40
0.4430902494876136
 40
0.5504849648684189
 40
0.6578797349637997
 40
0.7652745575331081
 40
0.8726694880846703
 40
0.9800643804141149
 40
1.0
 40
1.0
 40
1.0
 40
1.0
 10
90.70407650391866
 20
232.2998701638841
 30
0.0
 10
90.68791721707119
 20
232.3584308340743
 30
0.0
 10
90.65740446188111
 20
232.4690079536061
 30
0.0
 10
90.54356718953888
 20
232.5973588778442
 30
0.0
 10
90.40342435476279
 20
232.6792265669625
 30
0.0
 10
90.24308507094865
 20
232.7096112702538
 30
0.0
 10
90.08198869539558
 20
232.685336102036
 30
0.0
 10
89.93795824426834
 20
232.6090858042012
 30
0.0
 10
89.82722730914607
 20
232.4894094520648
 30
0.0
 10
89.76263827661111
 20
232.3400437405996
 30
0.0
 10
89.75346311800679
 20
232.2211866575894
 30
0.0
 10
89.76225534146825
 20
232.1586048419974
 30
0.0
 10
89.76363190408159
 20
232.1488066620493
 30
0.0
  0
SPLINE
  5
11A
330
1F
100
AcDbEntity
  8
0
  6
Continuous
 62
     7
370
    15
100
AcDbSpline
210
0.0
220
0.0
230
1.0
 70
     8
 71
     3
 72
    17
 73
    13
 74
     0
 42
0.000000001
 43
0.00000001
 40
0.0
 40
0.0
 40
0.0
 40
0.0
 40
0.1209062014242885
 40
0.2283007651308681
 40
0.3356950910875294
 40
0.4430902280161497
 40
0.5504845121483357
 40
0.6578797261508662
 40
0.765274635357931
 40
0.872669443193621
 40
0.980064364119166
 40
0.9999999999999999
 40
0.9999999999999999
 40
0.9999999999999999
 40
0.9999999999999999
 10
103.5568188406091
 20
234.3644074208402
 30
0.0
 10
103.5729784352684
 20
234.3058467692983
 30
0.0
 10
103.6034917404709
 20
234.1952697980917
 30
0.0
 10
103.7173285657583
 20
234.0669189309932
 30
0.0
 10
103.8574710416178
 20
233.9850507409997
 30
0.0
 10
104.0178101969624
 20
233.9546663325645
 30
0.0
 10
104.1789066444315
 20
233.9789417255099
 30
0.0
 10
104.3229373008469
 20
234.0551916018946
 30
0.0
 10
104.4336688034205
 20
234.1748679732893
 30
0.0
 10
104.498256656753
 20
234.3242339857975
 30
0.0
 10
104.5074332213431
 20
234.4430909571404
 30
0.0
 10
104.4986405409073
 20
234.5056727428509
 30
0.0
 10
104.4972639061074
 20
234.5154709226751
 30
0.0
  0
SPLINE
  5
11B
330
1F
100
AcDbEntity
  8
0
  6
Continuous
 62
     7
370
    15
100
AcDbSpline
210
0.0
220
0.0
230
1.0
 70
     8
 71
     3
 72
    12
 73
     8
 74
     0
 42
0.000000001
 43
0.00000001
 40
0.0
 40
0.0
 40
0.0
 40
0.0
 40
0.1827649485059823
 40
0.3726159307484589
 40
0.5638214192827473
 40
0.7810157373597493
 40
0.9999999999999999
 40
0.9999999999999999
 40
0.9999999999999999
 40
0.9999999999999999
 10
85.82744779954959
 20
230.3022882945203
 30
0.0
 10
85.77265023314084
 20
230.5922141773746
 30
0.0
 10
85.66093052771012
 20
231.1833067450191
 30
0.0
 10
85.58011461945722
 20
232.0897541108357
 30
0.0
 10
85.56735745107305
 20
233.0563820138173
 30
0.0
 10
85.63545537427167
 20
234.0677021830986
 30
0.0
 10
85.76327547947946
 20
234.7601889257942
 30
0.0
 10
85.82744779954959
 20
235.1078531748914
 30
0.0
  0
LINE
  5
11C
330
1F
100
AcDbEntity
  8
0
  6
Continuous
 62
     7
370
    15
100
AcDbLine
 10
116.9956217981
 20
252.555856765
 30
0.0
 11
116.9956217981
 21
233.6708559699
 31
0.0
  0
LINE
  5
11D
330
1F
100
AcDbEntity
  8
0
  6
Continuous
 62
     7
370
    15
100
AcDbLine
 10
109.854997275
 20
252.555856765
 30
0.0
 11
116.9956217981
 21
252.555856765
 31
0.0
  0
LINE
  5
11E
330
1F
100
AcDbEntity
  8
0
  6
Continuous
 62
     7
370
    15
100
AcDbLine
 10
109.854997275
 20
233.6708559699
 30
0.0
 11
116.9956217981
 21
233.6708559699
 31
0.0
  0
LINE
  5
11F
330
1F
100
AcDbEntity
  8
0
  6
Continuous
 62
     7
370
    15
100
AcDbLine
 10
109.854997275
 20
253.2733566172
 30
0.0
 11
117.7131216503
 21
253.2733566172
 31
0.0
  0
LINE
  5
120
330
1F
100
AcDbEntity
  8
0
  6
Continuous
 62
     7
370
    15
100
AcDbLine
 10
109.854997275
 20
232.9533561177
 30
0.0
 11
117.7131216503
 21
232.9533561177
 31
0.0
  0
LINE
  5
121
330
1F
100
AcDbEntity
  8
0
  6
Continuous
 62
     7
370
    15
100
AcDbLine
 10
117.7131216503
 20
253.2733566172
 30
0.0
 11
117.7131216503
 21
232.9533561177
 31
0.0
  0
LINE
  5
122
330
1F
100
AcDbEntity
  8
0
  6
Continuous
 62
     7
370
    15
100
AcDbLine
 10
116.9956217981
 20
212.874606163
 30
0.0
 11
109.854997275
 21
212.874606163
 31
0.0
  0
LINE
  5
123
330
1F
100
AcDbEntity
  8
0
  6
Continuous
 62
     7
370
    15
100
AcDbLine
 10
116.9956217981
 20
231.7596062131
 30
0.0
 11
116.9956217981
 21
212.874606163
 31
0.0
  0
LINE
  5
124
330
1F
100
AcDbEntity
  8
0
  6
Continuous
 62
     7
370
    15
100
AcDbLine
 10
116.9956217981
 20
231.7596062131
 30
0.0
 11
109.854997275
 21
231.7596062131
 31
0.0
  0
LINE
  5
125
330
1F
100
AcDbEntity
  8
0
  6
Continuous
 62
     7
370
    15
100
AcDbLine
 10
117.7131216503
 20
212.1571055658
 30
0.0
 11
109.854997275
 21
212.1571055658
 31
0.0
  0
LINE
  5
126
330
1F
100
AcDbEntity
  8
0
  6
Continuous
 62
     7
370
    15
100
AcDbLine
 10
117.7131216503
 20
232.9533561177
 30
0.0
 11
117.7131216503
 21
212.1571055658
 31
0.0
  0
LINE
  5
127
330
1F
100
AcDbEntity
  8
0
  6
Continuous
 62
     7
370
    15
100
AcDbLine
 10
77.3143726863
 20
252.555856765
 30
0.0
 11
84.4549975819
 21
252.555856765
 31
0.0
  0
LINE
  5
128
330
1F
100
AcDbEntity
  8
0
  6
Continuous
 62
     7
370
    15
100
AcDbLine
 10
77.3143726863
 20
233.6708559699
 30
0.0
 11
77.3143726863
 21
252.555856765
 31
0.0
  0
LINE
  5
129
330
1F
100
AcDbEntity
  8
0
  6
Continuous
 62
     7
370
    15
100
AcDbLine
 10
77.3143726863
 20
233.6708559699
 30
0.0
 11
84.4549975819
 21
233.6708559699
 31
0.0
  0
LINE
  5
12A
330
1F
100
AcDbEntity
  8
0
  6
Continuous
 62
     7
370
    15
100
AcDbLine
 10
76.5968728341
 20
232.9533561177
 30
0.0
 11
84.4549975819
 21
232.9533561177
 31
0.0
  0
LINE
  5
12B
330
1F
100
AcDbEntity
  8
0
  6
Continuous
 62
     7
370
    15
100
AcDbLine
 10
76.5968728341
 20
232.9533561177
 30
0.0
 11
76.5968728341
 21
253.2733566172
 31
0.0
  0
LINE
  5
12C
330
1F
100
AcDbEntity
  8
0
  6
Continuous
 62
     7
370
    15
100
AcDbLine
 10
76.5968728341
 20
253.2733566172
 30
0.0
 11
84.4549975819
 21
253.2733566172
 31
0.0
  0
LINE
  5
12D
330
1F
100
AcDbEntity
  8
0
  6
Continuous
 62
     7
370
    15
100
AcDbLine
 10
77.3143726863
 20
212.874606163
 30
0.0
 11
77.3143726863
 21
231.7596062131
 31
0.0
  0
LINE
  5
12E
330
1F
100
AcDbEntity
  8
0
  6
Continuous
 62
     7
370
    15
100
AcDbLine
 10
84.4549975819
 20
212.874606163
 30
0.0
 11
77.3143726863
 21
212.874606163
 31
0.0
  0
LINE
  5
12F
330
1F
100
AcDbEntity
  8
0
  6
Continuous
 62
     7
370
    15
100
AcDbLine
 10
84.4549975819
 20
231.7596062131
 30
0.0
 11
77.3143726863
 21
231.7596062131
 31
0.0
  0
LINE
  5
130
330
1F
100
AcDbEntity
  8
0
  6
Continuous
 62
     7
370
    15
100
AcDbLine
 10
76.5968728341
 20
212.1571055658
 30
0.0
 11
76.5968728341
 21
232.9533561177
 31
0.0
  0
LINE
  5
131
330
1F
100
AcDbEntity
  8
0
  6
Continuous
 62
     7
370
    15
100
AcDbLine
 10
84.4549975819
 20
212.1571055658
 30
0.0
 11
76.5968728341
 21
212.1571055658
 31
0.0
  0
INSERT
  5
13D
330
1F
100
AcDbEntity
  8
0
  6
Continuous
 62
     7
370
     0
100
AcDbBlockReference
  2
SW_CENTERMARKSYMBOL_0
 10
97.1304477804
 20
233.3321387808
 30
0.0
  0
INSERT
  5
149
330
1F
100
AcDbEntity
  8
0
  6
Continuous
 62
     7
370
     0
100
AcDbBlockReference
  2
SW_CENTERMARKSYMBOL_1
 10
97.1304477804
 20
238.4121387808
 30
0.0
  0
LINE
  5
14A
330
1F
100
AcDbEntity
  8
0
  6
Continuous
 62
     7
370
    15
100
AcDbLine
 10
216.0490402958
 20
143.8225018853
 30
0.0
 11
216.0490402958
 21
185.7325065011
 31
0.0
  0
LINE
  5
14B
330
1F
100
AcDbEntity
  8
0
  6
Continuous
 62
     7
370
    15
100
AcDbLine
 10
215.4699215671
 20
185.7325065011
 30
0.0
 11
215.4699215671
 21
143.8225018853
 31
0.0
  0
LINE
  5
14C
330
1F
100
AcDbEntity
  8
0
  6
Continuous
 62
     7
370
    15
100
AcDbLine
 10
197.0549205324
 20
143.8225018853
 30
0.0
 11
197.0549205324
 21
185.7325065011
 31
0.0
  0
LINE
  5
14D
330
1F
100
AcDbEntity
  8
0
  6
Continuous
 62
     7
370
    15
100
AcDbLine
 10
196.4758010587
 20
185.7325065011
 30
0.0
 11
196.4758010587
 21
143.8225018853
 31
0.0
  0
LINE
  5
14E
330
1F
100
AcDbEntity
  8
0
  6
Continuous
 62
     7
370
    15
100
AcDbLine
 10
176.2586707255
 20
123.502503621
 30
0.0
 11
176.2586707255
 21
185.7325065011
 31
0.0
  0
LINE
  5
14F
330
1F
100
AcDbEntity
  8
0
  6
Continuous
 62
     7
370
    15
100
AcDbLine
 10
175.6795512518
 20
185.7325065011
 30
0.0
 11
175.6795512518
 21
123.502503621
 31
0.0
  0
LINE
  5
150
330
1F
100
AcDbEntity
  8
0
  6
Continuous
 62
     7
370
    15
100
AcDbLine
 10
216.4224216721
 20
143.8225018853
 30
0.0
 11
196.1024211726
 21
143.8225018853
 31
0.0
  0
LINE
  5
151
330
1F
100
AcDbEntity
  8
0
  6
Continuous
 62
     7
370
    15
100
AcDbLine
 10
216.4224216721
 20
143.8225018853
 30
0.0
 11
216.4224216721
 21
77.7825030559
 31
0.0
  0
LINE
  5
152
330
1F
100
AcDbEntity
  8
0
  6
Continuous
 62
     7
370
    15
100
AcDbLine
 10
216.4224216721
 20
77.7825030559
 30
0.0
 11
215.7049218199
 21
77.7825030559
 31
0.0
  0
LINE
  5
153
330
1F
100
AcDbEntity
  8
0
  6
Continuous
 62
     7
370
    15
100
AcDbLine
 10
215.7049218199
 20
77.7825030559
 30
0.0
 11
196.8199210247
 21
77.7825030559
 31
0.0
  0
LINE
  5
154
330
1F
100
AcDbEntity
  8
0
  6
Continuous
 62
     7
370
    15
100
AcDbLine
 10
196.8199210247
 20
77.7825030559
 30
0.0
 11
195.6261711201
 21
77.7825030559
 31
0.0
  0
LINE
  5
155
330
1F
100
AcDbEntity
  8
0
  6
Continuous
 62
     7
370
    15
100
AcDbLine
 10
195.6261711201
 20
37.142502057
 30
0.0
 11
195.6261711201
 21
77.7825030559
 31
0.0
  0
ARC
  5
156
330
1F
100
AcDbEntity
  8
0
  6
Continuous
 62
     7
370
    15
100
AcDbCircle
 10
195.6261708995
 20
57.4625025
 30
0.0
 40
20.31999999999999
100
AcDbArc
 50
180.0
 51
270.0
  0
LINE
  5
157
330
1F
100
AcDbEntity
  8
0
  6
Continuous
 62
     7
370
    15
100
AcDbLine
 10
175.3061706206
 20
123.502503621
 30
0.0
 11
175.3061706206
 21
57.4625024633
 31
0.0
  0
LINE
  5
158
330
1F
100
AcDbEntity
  8
0
  6
Continuous
 62
     7
370
    15
100
AcDbLine
 10
196.1024211726
 20
123.502503621
 30
0.0
 11
175.3061706206
 21
123.502503621
 31
0.0
  0
LINE
  5
159
330
1F
100
AcDbEntity
  8
0
  6
Continuous
 62
     7
370
    15
100
AcDbLine
 10
196.1024211726
 20
143.8225018853
 30
0.0
 11
196.1024211726
 21
123.502503621
 31
0.0
  0
SPLINE
  5
15A
330
1F
100
AcDbEntity
  8
0
  6
Continuous
 62
     7
370
    15
100
AcDbSpline
210
0.0
220
0.0
230
1.0
 70
     8
 71
     3
 72
    17
 73
    13
 74
     0
 42
0.000000001
 43
0.00000001
 40
0.0
 40
0.0
 40
0.0
 40
0.0
 40
0.0626001036505239
 40
0.1248413436911032
 40
0.1870825878842878
 40
0.2496827039311243
 40
0.3745035007831244
 40
0.4993242031343365
 40
0.6241949214101533
 40
0.749065733531611
 40
0.8745328751538198
 40
1.0
 40
1.0
 40
1.0
 40
1.0
 10
196.6006141909339
 20
57.46250249999987
 30
0.0
 10
196.6067149043301
 20
57.46250323677886
 30
0.0
 10
196.6188813579532
 20
57.46250470611312
 30
0.0
 10
196.6381990308264
 20
57.46251412646495
 30
0.0
 10
196.6581839768777
 20
57.46252586280218
 30
0.0
 10
196.6856846855458
 20
57.46254284967275
 30
0.0
 10
196.7213344079591
 20
57.46256180691804
 30
0.0
 10
196.7650931306961
 20
57.46257046585811
 30
0.0
 10
196.8088873545235
 20
57.46256191295905
 30
0.0
 10
196.8516731482952
 20
57.46253972361527
 30
0.0
 10
196.8928505216542
 20
57.46251138107392
 30
0.0
 10
196.9176885797824
 20
57.46250546035776
 30
0.0
 10
196.9301076080162
 20
57.46250249999987
 30
0.0
  0
LINE
  5
15B
330
1F
100
AcDbEntity
  8
0
  6
Continuous
 62
     7
370
    15
100
AcDbLine
 10
196.6006139299
 20
57.4625024633
 30
0.0
 11
196.1024211726
 21
57.4625024633
 31
0.0
  0
LINE
  5
15C
330
1F
100
AcDbEntity
  8
0
  6
Continuous
 62
     7
370
    15
100
AcDbLine
 10
196.1024211726
 20
57.4625024633
 30
0.0
 11
195.6261711201
 21
57.4625024633
 31
0.0
  0
LINE
  5
15D
330
1F
100
AcDbEntity
  8
0
  6
Continuous
 62
     7
370
    15
100
AcDbLine
 10
196.8199210247
 20
77.7825030559
 30
0.0
 11
196.8199210247
 21
57.4751739451
 31
0.0
  0
LINE
  5
15E
330
1F
100
AcDbEntity
  8
0
  6
Continuous
 62
     7
370
    15
100
AcDbLine
 10
215.7049218199
 20
57.4751739451
 30
0.0
 11
196.8199210247
 21
57.4751739451
 31
0.0
  0
LINE
  5
15F
330
1F
100
AcDbEntity
  8
0
  6
Continuous
 62
     7
370
    15
100
AcDbLine
 10
215.7049218199
 20
77.7825030559
 30
0.0
 11
215.7049218199
 21
57.4751739451
 31
0.0
  0
LINE
  5
160
330
1F
100
AcDbEntity
  8
0
  6
Continuous
 62
     7
370
    15
100
AcDbLine
 10
216.4224216721
 20
77.7825030559
 30
0.0
 11
216.4224216721
 21
57.4625024633
 31
0.0
  0
LINE
  5
161
330
1F
100
AcDbEntity
  8
0
  6
Continuous
 62
     7
370
    15
100
AcDbLine
 10
216.4224216721
 20
57.4625024633
 30
0.0
 11
215.9242281696
 21
57.4625024633
 31
0.0
  0
SPLINE
  5
162
330
1F
100
AcDbEntity
  8
0
  6
Continuous
 62
     7
370
    15
100
AcDbSpline
210
0.0
220
0.0
230
1.0
 70
     8
 71
     3
 72
    17
 73
    13
 74
     0
 42
0.000000001
 43
0.00000001
 40
0.0
 40
0.0
 40
0.0
 40
0.0
 40
0.0626001036506038
 40
0.1248413436912203
 40
0.1870825878843747
 40
0.249682703931133
 40
0.3745035007830572
 40
0.4993242031343458
 40
0.6241949214101602
 40
0.7490657335316001
 40
0.8745328751538359
 40
1.0
 40
1.0
 40
1.0
 40
1.0
 10
215.5947341909338
 20
57.46250249999987
 30
0.0
 10
215.6008349043301
 20
57.46250323677886
 30
0.0
 10
215.6130013579532
 20
57.46250470611312
 30
0.0
 10
215.6323190308264
 20
57.46251412646495
 30
0.0
 10
215.6523039768778
 20
57.46252586280217
 30
0.0
 10
215.6798046855458
 20
57.46254284967275
 30
0.0
 10
215.715454407959
 20
57.46256180691804
 30
0.0
 10
215.7592131306961
 20
57.46257046585811
 30
0.0
 10
215.8030073545235
 20
57.46256191295905
 30
0.0
 10
215.8457931482952
 20
57.46253972361526
 30
0.0
 10
215.8869705216542
 20
57.46251138107392
 30
0.0
 10
215.9118085797824
 20
57.46250546035776
 30
0.0
 10
215.9242276080162
 20
57.46250249999987
 30
0.0
  0
LINE
  5
163
330
1F
100
AcDbEntity
  8
0
  6
Continuous
 62
     7
370
    15
100
AcDbLine
 10
215.5947336933
 20
57.4625024633
 30
0.0
 11
196.9301076612
 21
57.4625024633
 31
0.0
  0
LINE
  5
164
330
1F
100
AcDbEntity
  8
0
  6
Continuous
 62
     7
370
    15
100
AcDbLine
 10
170.4541364691
 20
185.7325065011
 30
0.0
 11
170.4541364691
 21
193.987499463
 31
0.0
  0
LINE
  5
165
330
1F
100
AcDbEntity
  8
0
  6
Continuous
 62
     7
370
    15
100
AcDbLine
 10
170.4541364691
 20
185.7325065011
 30
0.0
 11
221.2541351101
 21
185.7325065011
 31
0.0
  0
LINE
  5
166
330
1F
100
AcDbEntity
  8
0
  6
Continuous
 62
     7
370
    15
100
AcDbLine
 10
170.4541364691
 20
193.987499463
 30
0.0
 11
221.2541351101
 21
193.987499463
 31
0.0
  0
LINE
  5
167
330
1F
100
AcDbEntity
  8
0
  6
Continuous
 62
     7
370
    15
100
AcDbLine
 10
221.2541351101
 20
185.7325065011
 30
0.0
 11
221.2541351101
 21
193.987499463
 31
0.0
  0
LINE
  5
168
330
1F
100
AcDbEntity
  8
0
  6
Continuous
 62
     7
370
    15
100
AcDbLine
 10
195.6261711201
 20
37.142502057
 30
0.0
 11
196.1024211726
 21
37.142502057
 31
0.0
  0
ARC
  5
169
330
1F
100
AcDbEntity
  8
0
  6
Continuous
 62
     7
370
    15
100
AcDbCircle
 10
196.1024208995
 20
57.4625025
 30
0.0
 40
20.31999999999999
100
AcDbArc
 50
270.0
 51
360.0
  0
LINE
  5
16A
330
1F
100
AcDbEntity
  8
0
  6
Continuous
 62
     7
370
    15
100
AcDbLine
 10
175.3061706206
 20
16.8225037926
 30
0.0
 11
195.6261711201
 21
16.8225037926
 31
0.0
  0
LINE
  5
16B
330
1F
100
AcDbEntity
  8
0
  6
Continuous
 62
     7
370
    15
100
AcDbLine
 10
195.6261711201
 20
16.8225037926
 30
0.0
 11
195.6261711201
 21
37.142502057
 31
0.0
  0
LINE
  5
16C
330
1F
100
AcDbEntity
  8
0
  6
Continuous
 62
     7
370
    15
100
AcDbLine
 10
175.3061706206
 20
16.8225037926
 30
0.0
 11
175.3061706206
 21
57.4625024633
 31
0.0
  0
ENDSEC
  0
SECTION
  2
OBJECTS
  0
DICTIONARY
  5
C
330
0
100
AcDbDictionary
281
     1
  3
ACAD_GROUP
350
D
  3
ACAD_LAYOUT
350
1A
  3
ACAD_MLINESTYLE
350
17
  3
ACAD_PLOTSETTINGS
350
19
  3
ACAD_PLOTSTYLENAME
350
E
  3
ACAD_SCALELIST
350
47
  0
DICTIONARY
  5
D
102
{ACAD_REACTORS
330
C
102
}
330
C
100
AcDbDictionary
281
     1
  0
DICTIONARY
  5
1A
102
{ACAD_REACTORS
330
C
102
}
330
C
100
AcDbDictionary
281
     1
  3
Layout1
350
1E
  3
Layout2
350
26
  3
Model
350
22
  0
DICTIONARY
  5
17
102
{ACAD_REACTORS
330
C
102
}
330
C
100
AcDbDictionary
281
     1
  3
Standard
350
18
  0
DICTIONARY
  5
19
102
{ACAD_REACTORS
330
C
102
}
330
C
100
AcDbDictionary
281
     1
  0
ACDBDICTIONARYWDFLT
  5
E
102
{ACAD_REACTORS
330
C
102
}
330
C
100
AcDbDictionary
281
     1
  3
Normal
350
F
100
AcDbDictionaryWithDefault
340
F
  0
DICTIONARY
  5
47
102
{ACAD_REACTORS
330
C
102
}
330
C
100
AcDbDictionary
281
     1
  3
A0
350
48
  3
A1
350
49
  3
A2
350
4A
  3
A3
350
4B
  3
A4
350
4C
  3
A5
350
4D
  3
A6
350
4E
  3
A7
350
4F
  3
A8
350
50
  3
A9
350
51
  3
B0
350
52
  3
B1
350
53
  3
B2
350
54
  3
B3
350
55
  3
B4
350
56
  3
B5
350
57
  3
B6
350
58
  3
B7
350
59
  3
B8
350
5A
  3
B9
350
5B
  3
C0
350
5C
  3
C1
350
5D
  3
C2
350
5E
  3
C3
350
5F
  3
C4
350
60
  3
C5
350
61
  3
C6
350
62
  3
C7
350
63
  3
C8
350
64
  3
C9
350
65
  3
D0
350
66
  3
D1
350
67
  3
D2
350
68
  0
LAYOUT
  5
1E
102
{ACAD_REACTORS
330
1A
102
}
330
1A
100
AcDbPlotSettings
  1

  2
none_device
  4

  6

 40
0.0
 41
0.0
 42
0.0
 43
0.0
 44
0.0
 45
0.0
 46
0.0
 47
0.0
 48
0.0
 49
0.0
140
0.0
141
0.0
142
1.0
143
1.0
 70
   688
 72
     1
 73
     0
 74
     5
  7

 75
    16
147
1.0
148
0.0
149
0.0
100
AcDbLayout
  1
Layout1
 70
     1
 71
     1
 10
0.0
 20
0.0
 11
420.0
 21
297.0
 12
0.0
 22
0.0
 32
0.0
 14
1.0000000000E+20
 24
1.0000000000E+20
 34
1.0000000000E+20
 15
-1.0000000000E+20
 25
-1.0000000000E+20
 35
-1.0000000000E+20
146
0.0
 13
0.0
 23
0.0
 33
0.0
 16
1.0
 26
0.0
 36
0.0
 17
0.0
 27
1.0
 37
0.0
 76
     0
330
1B
  0
LAYOUT
  5
26
102
{ACAD_REACTORS
330
1A
102
}
330
1A
100
AcDbPlotSettings
  1

  2
none_device
  4

  6

 40
0.0
 41
0.0
 42
0.0
 43
0.0
 44
0.0
 45
0.0
 46
0.0
 47
0.0
 48
0.0
 49
0.0
140
0.0
141
0.0
142
1.0
143
1.0
 70
   688
 72
     1
 73
     0
 74
     5
  7

 75
    16
147
1.0
148
0.0
149
0.0
100
AcDbLayout
  1
Layout2
 70
     1
 71
     2
 10
0.0
 20
0.0
 11
0.0
 21
0.0
 12
0.0
 22
0.0
 32
0.0
 14
0.0
 24
0.0
 34
0.0
 15
0.0
 25
0.0
 35
0.0
146
0.0
 13
0.0
 23
0.0
 33
0.0
 16
1.0
 26
0.0
 36
0.0
 17
0.0
 27
1.0
 37
0.0
 76
     0
330
23
  0
LAYOUT
  5
22
102
{ACAD_REACTORS
330
1A
102
}
330
1A
100
AcDbPlotSettings
  1

  2
none_device
  4
Letter_(8.50_x_11.00_Inches)
  6

 40
6.35
 41
6.35
 42
6.35000508
 43
6.35000508
 44
215.9
 45
279.4
 46
0.0
 47
0.0
 48
0.0
 49
0.0
140
0.0
141
0.0
142
1.0
143
1.0
 70
  1712
 72
     1
 73
     0
 74
     0
  7

 75
     0
147
1.0
148
0.0
149
0.0
100
AcDbLayout
  1
Model
 70
     1
 71
     0
 10
0.0
 20
0.0
 11
431.8
 21
279.4
 12
0.0
 22
0.0
 32
0.0
 14
0.0
 24
0.0
 34
0.0
 15
431.8
 25
279.4
 35
0.0
146
0.0
 13
0.0
 23
0.0
 33
0.0
 16
1.0
 26
0.0
 36
0.0
 17
0.0
 27
1.0
 37
0.0
 76
     0
330
1F
331
29
  0
MLINESTYLE
  5
18
102
{ACAD_REACTORS
330
17
102
}
330
17
100
AcDbMlineStyle
  2
Standard
 70
     0
  3

 62
   256
 51
90.0
 52
90.0
 71
     2
 49
0.5
 62
   256
  6
BYLAYER
 49
-0.5
 62
   256
  6
BYLAYER
  0
ACDBPLACEHOLDER
  5
F
102
{ACAD_REACTORS
330
E
102
}
330
E
  0
SCALE
  5
48
102
{ACAD_REACTORS
330
47
102
}
330
47
100
AcDbScale
 70
     0
300
1:1
140
1.0
141
1.0
290
     1
  0
SCALE
  5
49
102
{ACAD_REACTORS
330
47
102
}
330
47
100
AcDbScale
 70
     0
300
1:2
140
1.0
141
2.0
290
     0
  0
SCALE
  5
4A
102
{ACAD_REACTORS
330
47
102
}
330
47
100
AcDbScale
 70
     0
300
1:4
140
1.0
141
4.0
290
     0
  0
SCALE
  5
4B
102
{ACAD_REACTORS
330
47
102
}
330
47
100
AcDbScale
 70
     0
300
1:5
140
1.0
141
5.0
290
     0
  0
SCALE
  5
4C
102
{ACAD_REACTORS
330
47
102
}
330
47
100
AcDbScale
 70
     0
300
1:8
140
1.0
141
8.0
290
     0
  0
SCALE
  5
4D
102
{ACAD_REACTORS
330
47
102
}
330
47
100
AcDbScale
 70
     0
300
1:10
140
1.0
141
10.0
290
     0
  0
SCALE
  5
4E
102
{ACAD_REACTORS
330
47
102
}
330
47
100
AcDbScale
 70
     0
300
1:16
140
1.0
141
16.0
290
     0
  0
SCALE
  5
4F
102
{ACAD_REACTORS
330
47
102
}
330
47
100
AcDbScale
 70
     0
300
1:20
140
1.0
141
20.0
290
     0
  0
SCALE
  5
50
102
{ACAD_REACTORS
330
47
102
}
330
47
100
AcDbScale
 70
     0
300
1:30
140
1.0
141
30.0
290
     0
  0
SCALE
  5
51
102
{ACAD_REACTORS
330
47
102
}
330
47
100
AcDbScale
 70
     0
300
1:40
140
1.0
141
40.0
290
     0
  0
SCALE
  5
52
102
{ACAD_REACTORS
330
47
102
}
330
47
100
AcDbScale
 70
     0
300
1:50
140
1.0
141
50.0
290
     0
  0
SCALE
  5
53
102
{ACAD_REACTORS
330
47
102
}
330
47
100
AcDbScale
 70
     0
300
1:100
140
1.0
141
100.0
290
     0
  0
SCALE
  5
54
102
{ACAD_REACTORS
330
47
102
}
330
47
100
AcDbScale
 70
     0
300
2:1
140
2.0
141
1.0
290
     0
  0
SCALE
  5
55
102
{ACAD_REACTORS
330
47
102
}
330
47
100
AcDbScale
 70
     0
300
4:1
140
4.0
141
1.0
290
     0
  0
SCALE
  5
56
102
{ACAD_REACTORS
330
47
102
}
330
47
100
AcDbScale
 70
     0
300
8:1
140
8.0
141
1.0
290
     0
  0
SCALE
  5
57
102
{ACAD_REACTORS
330
47
102
}
330
47
100
AcDbScale
 70
     0
300
10:1
140
10.0
141
1.0
290
     0
  0
SCALE
  5
58
102
{ACAD_REACTORS
330
47
102
}
330
47
100
AcDbScale
 70
     0
300
100:1
140
100.0
141
1.0
290
     0
  0
SCALE
  5
59
102
{ACAD_REACTORS
330
47
102
}
330
47
100
AcDbScale
 70
     0
300
1/128" = 1'-0"
140
0.0078125
141
12.0
290
     0
  0
SCALE
  5
5A
102
{ACAD_REACTORS
330
47
102
}
330
47
100
AcDbScale
 70
     0
300
1/64" = 1'-0"
140
0.015625
141
12.0
290
     0
  0
SCALE
  5
5B
102
{ACAD_REACTORS
330
47
102
}
330
47
100
AcDbScale
 70
     0
300
1/32" = 1'-0"
140
0.03125
141
12.0
290
     0
  0
SCALE
  5
5C
102
{ACAD_REACTORS
330
47
102
}
330
47
100
AcDbScale
 70
     0
300
1/16" = 1'-0"
140
0.0625
141
12.0
290
     0
  0
SCALE
  5
5D
102
{ACAD_REACTORS
330
47
102
}
330
47
100
AcDbScale
 70
     0
300
3/32" = 1'-0"
140
0.09375
141
12.0
290
     0
  0
SCALE
  5
5E
102
{ACAD_REACTORS
330
47
102
}
330
47
100
AcDbScale
 70
     0
300
1/8" = 1'-0"
140
0.125
141
12.0
290
     0
  0
SCALE
  5
5F
102
{ACAD_REACTORS
330
47
102
}
330
47
100
AcDbScale
 70
     0
300
3/16" = 1'-0"
140
0.1875
141
12.0
290
     0
  0
SCALE
  5
60
102
{ACAD_REACTORS
330
47
102
}
330
47
100
AcDbScale
 70
     0
300
1/4" = 1'-0"
140
0.25
141
12.0
290
     0
  0
SCALE
  5
61
102
{ACAD_REACTORS
330
47
102
}
330
47
100
AcDbScale
 70
     0
300
3/8" = 1'-0"
140
0.375
141
12.0
290
     0
  0
SCALE
  5
62
102
{ACAD_REACTORS
330
47
102
}
330
47
100
AcDbScale
 70
     0
300
1/2" = 1'-0"
140
0.5
141
12.0
290
     0
  0
SCALE
  5
63
102
{ACAD_REACTORS
330
47
102
}
330
47
100
AcDbScale
 70
     0
300
3/4" = 1'-0"
140
0.75
141
12.0
290
     0
  0
SCALE
  5
64
102
{ACAD_REACTORS
330
47
102
}
330
47
100
AcDbScale
 70
     0
300
1" = 1'-0"
140
1.0
141
12.0
290
     0
  0
SCALE
  5
65
102
{ACAD_REACTORS
330
47
102
}
330
47
100
AcDbScale
 70
     0
300
1-1/2" = 1'-0"
140
1.5
141
12.0
290
     0
  0
SCALE
  5
66
102
{ACAD_REACTORS
330
47
102
}
330
47
100
AcDbScale
 70
     0
300
3" = 1'-0"
140
3.0
141
12.0
290
     0
  0
SCALE
  5
67
102
{ACAD_REACTORS
330
47
102
}
330
47
100
AcDbScale
 70
     0
300
6" = 1'-0"
140
6.0
141
12.0
290
     0
  0
SCALE
  5
68
102
{ACAD_REACTORS
330
47
102
}
330
47
100
AcDbScale
 70
     0
300
1'-0" = 1'-0"
140
12.0
141
12.0
290
     0
  0
ENDSEC
  0
EOF
