  0
SECTION
  2
HEADER
  9
$ACADVER
  1
AC1015
  9
$ACADMAINTVER
 70
     6
  9
$DWGCODEPAGE
  3
ANSI_1252
  9
$INSBASE
 10
0.0
 20
0.0
 30
0.0
  9
$EXTMIN
 10
0.0
 20
0.0
 30
0.0
  9
$EXTMAX
 10
431.8
 20
279.4
 30
0.0
  9
$LIMMIN
 10
0.0
 20
0.0
  9
$LIMMAX
 10
431.8
 20
279.4
  9
$ORTHOMODE
 70
     0
  9
$REGENMODE
 70
     1
  9
$FILLMODE
 70
     1
  9
$QTEXTMODE
 70
     0
  9
$MIRRTEXT
 70
     1
  9
$LTSCALE
 40
1.0
  9
$ATTMODE
 70
     1
  9
$TEXTSIZE
 40
3.175
  9
$TRACEWID
 40
1.0
  9
$TEXTSTYLE
  7
Standard
  9
$CLAYER
  8
0
  9
$CELTYPE
  6
ByLayer
  9
$CECOLOR
 62
   256
  9
$CELTSCALE
 40
1.0
  9
$DISPSILH
 70
     0
  9
$DIMSCALE
 40
1.0
  9
$DIMASZ
 40
3.302
  9
$DIMEXO
 40
1.27
  9
$DIMDLI
 40
3.75
  9
$DIMRND
 40
0.0
  9
$DIMDLE
 40
0.0
  9
$DIMEXE
 40
3.175
  9
$DIMTP
 40
0.0
  9
$DIMTM
 40
0.0
  9
$DIMTXT
 40
3.175
  9
$DIMCEN
 40
2.5
  9
$DIMTSZ
 40
0.0
  9
$DIMTOL
 70
     0
  9
$DIMLIM
 70
     0
  9
$DIMTIH
 70
     1
  9
$DIMTOH
 70
     1
  9
$DIMSE1
 70
     0
  9
$DIMSE2
 70
     0
  9
$DIMTAD
 70
     0
  9
$DIMZIN
 70
     0
  9
$DIMBLK
  1

  9
$DIMASO
 70
     1
  9
$DIMSHO
 70
     1
  9
$DIMPOST
  1

  9
$DIMAPOST
  1

  9
$DIMALT
 70
     0
  9
$DIMALTD
 70
     3
  9
$DIMALTF
 40
0.0393700787
  9
$DIMLFAC
 40
4.0
  9
$DIMTOFL
 70
     1
  9
$DIMTVP
 40
0.0
  9
$DIMTIX
 70
     0
  9
$DIMSOXD
 70
     0
  9
$DIMSAH
 70
     0
  9
$DIMBLK1
  1

  9
$DIMBLK2
  1

  9
$DIMSTYLE
  2
ISO-25
  9
$DIMCLRD
 70
     0
  9
$DIMCLRE
 70
     0
  9
$DIMCLRT
 70
     0
  9
$DIMTFAC
 40
1.0
  9
$DIMGAP
 40
1.524
  9
$DIMJUST
 70
     0
  9
$DIMSD1
 70
     0
  9
$DIMSD2
 70
     0
  9
$DIMTOLJ
 70
     0
  9
$DIMTZIN
 70
     0
  9
$DIMALTZ
 70
     0
  9
$DIMALTTZ
 70
     0
  9
$DIMUPT
 70
     0
  9
$DIMDEC
 70
     0
  9
$DIMTDEC
 70
     0
  9
$DIMALTU
 70
     2
  9
$DIMALTTD
 70
     3
  9
$DIMTXSTY
  7
Standard
  9
$DIMAUNIT
 70
     0
  9
$DIMADEC
 70
     0
  9
$DIMALTRND
 40
0.0
  9
$DIMAZIN
 70
     0
  9
$DIMDSEP
 70
    44
  9
$DIMATFIT
 70
     3
  9
$DIMFRAC
 70
     0
  9
$DIMLDRBLK
  1

  9
$DIMLUNIT
 70
     2
  9
$DIMLWD
 70
    -2
  9
$DIMLWE
 70
    -2
  9
$DIMTMOVE
 70
     0
  9
$LUNITS
 70
     2
  9
$LUPREC
 70
     2
  9
$SKETCHINC
 40
1.0
  9
$FILLETRAD
 40
10.0
  9
$AUNITS
 70
     0
  9
$AUPREC
 70
     2
  9
$MENU
  1
.
  9
$ELEVATION
 40
0.0
  9
$PELEVATION
 40
0.0
  9
$THICKNESS
 40
0.0
  9
$LIMCHECK
 70
     0
  9
$CHAMFERA
 40
0.0
  9
$CHAMFERB
 40
0.0
  9
$CHAMFERC
 40
0.0
  9
$CHAMFERD
 40
0.0
  9
$SKPOLY
 70
     0
  9
$TDCREATE
 40
2458578.485000324
  9
$TDUCREATE
 40
2458578.651666991
  9
$TDUPDATE
 40
2458578.485001053
  9
$TDUUPDATE
 40
2458578.65166772
  9
$TDINDWG
 40
0.0000000116
  9
$TDUSRTIMER
 40
0.0000000116
  9
$USRTIMER
 70
     1
  9
$ANGBASE
 50
0.0
  9
$ANGDIR
 70
     0
  9
$PDMODE
 70
     0
  9
$PDSIZE
 40
-1.0
  9
$PLINEWID
 40
0.0
  9
$SPLFRAME
 70
     0
  9
$SPLINETYPE
 70
     6
  9
$SPLINESEGS
 70
     8
  9
$HANDSEED
  5
107
  9
$SURFTAB1
 70
     6
  9
$SURFTAB2
 70
     6
  9
$SURFTYPE
 70
     6
  9
$SURFU
 70
     6
  9
$SURFV
 70
     6
  9
$UCSBASE
  2

  9
$UCSNAME
  2

  9
$UCSORG
 10
0.0
 20
0.0
 30
0.0
  9
$UCSXDIR
 10
1.0
 20
0.0
 30
0.0
  9
$UCSYDIR
 10
0.0
 20
1.0
 30
0.0
  9
$UCSORTHOREF
  2

  9
$UCSORTHOVIEW
 70
     0
  9
$UCSORGTOP
 10
0.0
 20
0.0
 30
0.0
  9
$UCSORGBOTTOM
 10
0.0
 20
0.0
 30
0.0
  9
$UCSORGLEFT
 10
0.0
 20
0.0
 30
0.0
  9
$UCSORGRIGHT
 10
0.0
 20
0.0
 30
0.0
  9
$UCSORGFRONT
 10
0.0
 20
0.0
 30
0.0
  9
$UCSORGBACK
 10
0.0
 20
0.0
 30
0.0
  9
$PUCSBASE
  2

  9
$PUCSNAME
  2

  9
$PUCSORG
 10
0.0
 20
0.0
 30
0.0
  9
$PUCSXDIR
 10
1.0
 20
0.0
 30
0.0
  9
$PUCSYDIR
 10
0.0
 20
1.0
 30
0.0
  9
$PUCSORTHOREF
  2

  9
$PUCSORTHOVIEW
 70
     0
  9
$PUCSORGTOP
 10
0.0
 20
0.0
 30
0.0
  9
$PUCSORGBOTTOM
 10
0.0
 20
0.0
 30
0.0
  9
$PUCSORGLEFT
 10
0.0
 20
0.0
 30
0.0
  9
$PUCSORGRIGHT
 10
0.0
 20
0.0
 30
0.0
  9
$PUCSORGFRONT
 10
0.0
 20
0.0
 30
0.0
  9
$PUCSORGBACK
 10
0.0
 20
0.0
 30
0.0
  9
$USERI1
 70
     0
  9
$USERI2
 70
     0
  9
$USERI3
 70
     0
  9
$USERI4
 70
     0
  9
$USERI5
 70
     0
  9
$USERR1
 40
0.0
  9
$USERR2
 40
0.0
  9
$USERR3
 40
0.0
  9
$USERR4
 40
0.0
  9
$USERR5
 40
0.0
  9
$WORLDVIEW
 70
     1
  9
$SHADEDGE
 70
     3
  9
$SHADEDIF
 70
    70
  9
$TILEMODE
 70
     1
  9
$MAXACTVP
 70
    64
  9
$PINSBASE
 10
0.0
 20
0.0
 30
0.0
  9
$PLIMCHECK
 70
     0
  9
$PEXTMIN
 10
1.0000000000E+20
 20
1.0000000000E+20
 30
1.0000000000E+20
  9
$PEXTMAX
 10
-1.0000000000E+20
 20
-1.0000000000E+20
 30
-1.0000000000E+20
  9
$PLIMMIN
 10
0.0
 20
0.0
  9
$PLIMMAX
 10
420.0
 20
297.0
  9
$UNITMODE
 70
     0
  9
$VISRETAIN
 70
     1
  9
$PLINEGEN
 70
     0
  9
$PSLTSCALE
 70
     1
  9
$TREEDEPTH
 70
  3020
  9
$CMLSTYLE
  2
Standard
  9
$CMLJUST
 70
     0
  9
$CMLSCALE
 40
20.0
  9
$PROXYGRAPHICS
 70
     1
  9
$MEASUREMENT
 70
     1
  9
$CELWEIGHT
370
    -1
  9
$ENDCAPS
280
     0
  9
$JOINSTYLE
280
     0
  9
$LWDISPLAY
290
     1
  9
$INSUNITS
 70
     4
  9
$HYPERLINKBASE
  1

  9
$STYLESHEET
  1

  9
$XEDIT
290
     1
  9
$CEPSNTYPE
380
     0
  9
$PSTYLEMODE
290
     1
  9
$FINGERPRINTGUID
  2
{85CB7E2C-64F8-44E3-9F34-E8AEC4311C8D}
  9
$VERSIONGUID
  2
{FAEB1C32-E019-11D5-929B-00C0DF256EC4}
  9
$EXTNAMES
290
     1
  9
$PSVPSCALE
 40
0.0
  9
$OLESTARTUP
290
     0
  0
ENDSEC
  0
SECTION
  2
CLASSES
  0
CLASS
  1
ACDBDICTIONARYWDFLT
  2
AcDbDictionaryWithDefault
  3
ObjectDBX Classes
 90
        0
280
     0
281
     0
  0
CLASS
  1
VISUALSTYLE
  2
AcDbVisualStyle
  3
ObjectDBX Classes
 90
     4095
280
     0
281
     0
  0
CLASS
  1
MATERIAL
  2
AcDbMaterial
  3
ObjectDBX Classes
 90
     1153
280
     0
281
     0
  0
CLASS
  1
SCALE
  2
AcDbScale
  3
ObjectDBX Classes
 90
     1153
280
     0
281
     0
  0
CLASS
  1
TABLESTYLE
  2
AcDbTableStyle
  3
ObjectDBX Classes
 90
     4095
280
     0
281
     0
  0
CLASS
  1
MLEADERSTYLE
  2
AcDbMLeaderStyle
  3
ACDB_MLEADERSTYLE_CLASS
 90
     4095
280
     0
281
     0
  0
CLASS
  1
SUN
  2
AcDbSun
  3
SCENEOE
 90
     1153
280
     0
281
     0
  0
CLASS
  1
ACDBPLACEHOLDER
  2
AcDbPlaceHolder
  3
ObjectDBX Classes
 90
        0
280
     0
281
     0
  0
CLASS
  1
LAYOUT
  2
AcDbLayout
  3
ObjectDBX Classes
 90
        0
280
     0
281
     0
  0
ENDSEC
  0
SECTION
  2
TABLES
  0
TABLE
  2
VPORT
  5
8
330
0
100
AcDbSymbolTable
 70
     1
  0
VPORT
  5
29
330
8
100
AcDbSymbolTableRecord
100
AcDbViewportTableRecord
  2
*Active
 70
     0
 10
0.0
 20
0.0
 11
1.0
 21
1.0
 12
215.9
 22
139.7
 13
0.0
 23
0.0
 14
10.0
 24
10.0
 15
10.0
 25
10.0
 16
0.0
 26
0.0
 36
1.0
 17
0.0
 27
0.0
 37
0.0
 40
279.4
 41
1.5454545455
 42
50.0
 43
0.0
 44
0.0
 50
0.0
 51
0.0
 71
     0
 72
  2000
 73
     1
 74
     3
 75
     0
 76
     0
 77
     0
 78
     0
281
     0
 65
     1
110
0.0
120
0.0
130
0.0
111
1.0
121
0.0
131
0.0
112
0.0
122
1.0
132
0.0
 79
     0
146
0.0
  0
ENDTAB
  0
TABLE
  2
LTYPE
  5
5
330
0
100
AcDbSymbolTable
 70
     6
  0
LTYPE
  5
14
330
5
100
AcDbSymbolTableRecord
100
AcDbLinetypeTableRecord
  2
ByBlock
 70
     0
  3

 72
    65
 73
     0
 40
0.0
  0
LTYPE
  5
15
330
5
100
AcDbSymbolTableRecord
100
AcDbLinetypeTableRecord
  2
ByLayer
 70
     0
  3

 72
    65
 73
     0
 40
0.0
  0
LTYPE
  5
16
330
5
100
AcDbSymbolTableRecord
100
AcDbLinetypeTableRecord
  2
Continuous
 70
     0
  3
Solid line
 72
    65
 73
     0
 40
0.0
  0
LTYPE
  5
6E
330
5
100
AcDbSymbolTableRecord
100
AcDbLinetypeTableRecord
  2
HIDDEN
 70
     0
  3
Hidden __ __ __ __ __ __ __ __ __ __ __ __ __ __
 72
    65
 73
     2
 40
1.905
 49
1.27
 74
     0
 49
-0.635
 74
     0
  0
LTYPE
  5
6F
330
5
100
AcDbSymbolTableRecord
100
AcDbLinetypeTableRecord
  2
PHANTOM
 70
     0
  3
Phantom ______  __  __  ______  __  __  ______
 72
    65
 73
     6
 40
12.7
 49
6.35
 74
     0
 49
-1.27
 74
     0
 49
1.27
 74
     0
 49
-1.27
 74
     0
 49
1.27
 74
     0
 49
-1.27
 74
     0
  0
LTYPE
  5
70
330
5
100
AcDbSymbolTableRecord
100
AcDbLinetypeTableRecord
  2
CENTER
 70
     0
  3
Center ____ _ ____ _ ____ _ ____ _ ____ _ ____
 72
    65
 73
     4
 40
10.16
 49
6.35
 74
     0
 49
-1.27
 74
     0
 49
1.27
 74
     0
 49
-1.27
 74
     0
  0
LTYPE
  5
71
330
5
100
AcDbSymbolTableRecord
100
AcDbLinetypeTableRecord
  2
CENTERX2
 70
     0
  3
Center (2x) ________  __  ________  __  _____
 72
    65
 73
     4
 40
20.32
 49
12.7
 74
     0
 49
-2.54
 74
     0
 49
2.54
 74
     0
 49
-2.54
 74
     0
  0
LTYPE
  5
72
330
5
100
AcDbSymbolTableRecord
100
AcDbLinetypeTableRecord
  2
DOT2
 70
     0
  3
Dot (.5x) ........................................
 72
    65
 73
     2
 40
0.635
 49
0.0
 74
     0
 49
-0.635
 74
     0
  0
ENDTAB
  0
TABLE
  2
LAYER
  5
2
330
0
100
AcDbSymbolTable
 70
     2
  0
LAYER
  5
10
330
2
100
AcDbSymbolTableRecord
100
AcDbLayerTableRecord
  2
0
 70
     0
 62
     7
  6
Continuous
370
    -3
390
F
  0
LAYER
  5
73
330
2
100
AcDbSymbolTableRecord
100
AcDbLayerTableRecord
  2
FORMAT
 70
     0
 62
     7
  6
Continuous
370
    -3
390
F
  0
ENDTAB
  0
TABLE
  2
STYLE
  5
3
330
0
100
AcDbSymbolTable
 70
     2
  0
STYLE
  5
11
330
3
100
AcDbSymbolTableRecord
100
AcDbTextStyleTableRecord
  2
Standard
 70
     0
 40
0.0
 41
1.0
 50
0.0
 71
     0
 42
3.175
  3
txt
  4

  0
STYLE
  5
B8
330
3
100
AcDbSymbolTableRecord
100
AcDbTextStyleTableRecord
  2
SLDTEXTSTYLE0
 70
     0
 40
0.0
 41
0.7
 50
0.0
 71
     0
 42
3.175
  3
TXT
  4

  0
ENDTAB
  0
TABLE
  2
VIEW
  5
6
330
0
100
AcDbSymbolTable
 70
     0
  0
ENDTAB
  0
TABLE
  2
UCS
  5
7
330
0
100
AcDbSymbolTable
 70
     0
  0
ENDTAB
  0
TABLE
  2
APPID
  5
9
330
0
100
AcDbSymbolTable
 70
     1
  0
APPID
  5
12
330
9
100
AcDbSymbolTableRecord
100
AcDbRegAppTableRecord
  2
ACAD
 70
     0
  0
ENDTAB
  0
TABLE
  2
DIMSTYLE
  5
A
330
0
100
AcDbSymbolTable
 70
     1
100
AcDbDimStyleTable
  0
DIMSTYLE
105
27
330
A
100
AcDbSymbolTableRecord
100
AcDbDimStyleTableRecord
  2
ISO-25
 70
     0
 41
2.5
 42
0.625
 43
3.75
 44
1.25
 73
     0
 74
     0
 77
     1
 78
     8
140
2.5
141
2.5
143
0.0393700787
147
0.625
171
     3
172
     1
178
     0
271
     2
272
     2
274
     3
278
    44
283
     0
284
     8
340
11
  0
ENDTAB
  0
TABLE
  2
BLOCK_RECORD
  5
1
330
0
100
AcDbSymbolTable
 70
     3
  0
BLOCK_RECORD
  5
1F
330
1
100
AcDbSymbolTableRecord
100
AcDbBlockTableRecord
  2
*Model_Space
340
22
  0
BLOCK_RECORD
  5
1B
330
1
100
AcDbSymbolTableRecord
100
AcDbBlockTableRecord
  2
*Paper_Space
340
1E
  0
BLOCK_RECORD
  5
23
330
1
100
AcDbSymbolTableRecord
100
AcDbBlockTableRecord
  2
*Paper_Space0
340
26
  0
BLOCK_RECORD
  5
BB
330
1
100
AcDbSymbolTableRecord
100
AcDbBlockTableRecord
  2
SW_NOTE_0
340
0
102
{BLKREFS
331
C1
102
}
  0
BLOCK_RECORD
  5
C6
330
1
100
AcDbSymbolTableRecord
100
AcDbBlockTableRecord
  2
SW_NOTE_1
340
0
102
{BLKREFS
331
CC
102
}
  0
ENDTAB
  0
ENDSEC
  0
SECTION
  2
BLOCKS
  0
BLOCK
  5
20
330
1F
100
AcDbEntity
  8
0
100
AcDbBlockBegin
  2
*Model_Space
 70
     0
 10
0.0
 20
0.0
 30
0.0
  3
*Model_Space
  1

  0
ENDBLK
  5
21
330
1F
100
AcDbEntity
  8
0
100
AcDbBlockEnd
  0
BLOCK
  5
1C
330
1B
100
AcDbEntity
 67
     1
  8
0
100
AcDbBlockBegin
  2
*Paper_Space
 70
     0
 10
0.0
 20
0.0
 30
0.0
  3
*Paper_Space
  1

  0
ENDBLK
  5
1D
330
1B
100
AcDbEntity
 67
     1
  8
0
100
AcDbBlockEnd
  0
BLOCK
  5
24
330
23
100
AcDbEntity
  8
0
100
AcDbBlockBegin
  2
*Paper_Space0
 70
     0
 10
0.0
 20
0.0
 30
0.0
  3
*Paper_Space0
  1

  0
ENDBLK
  5
25
330
23
100
AcDbEntity
  8
0
100
AcDbBlockEnd
  0
BLOCK
  5
BC
330
BB
100
AcDbEntity
  8
0
100
AcDbBlockBegin
  2
SW_NOTE_0
 70
     0
 10
0.0
 20
0.0
 30
0.0
  3
SW_NOTE_0
  1

  0
MTEXT
  5
BE
330
BB
100
AcDbEntity
  8
0
  6
Continuous
 62
     0
370
     0
100
AcDbMText
 10
0.0
 20
2.0463950369
 30
0.0
 40
1.5875
 41
0.0
 71
     1
 72
     1
  1
87 34th Street, Unit 11, Brooklyn, NY 11232
  7
SLDTEXTSTYLE0
 73
     1
 44
1.0
  0
MTEXT
  5
BF
330
BB
100
AcDbEntity
  8
0
  6
Continuous
 62
     0
370
     0
100
AcDbMText
 10
0.0
 20
-0.0702716042
 30
0.0
 40
1.5875
 41
0.0
 71
     1
 72
     1
  1
T +1 718-387-6132
  7
SLDTEXTSTYLE0
 73
     1
 44
1.0
  0
MTEXT
  5
C0
330
BB
100
AcDbEntity
  8
0
  6
Continuous
 62
     0
370
     0
100
AcDbMText
 10
0.0
 20
-2.1869382453
 30
0.0
 40
1.5875
 41
0.0
 71
     1
 72
     1
  1
www.rollandhill.com
  7
SLDTEXTSTYLE0
 73
     1
 44
1.0
  0
ENDBLK
  5
BD
330
BB
100
AcDbEntity
  8
0
100
AcDbBlockEnd
  0
BLOCK
  5
C7
330
C6
100
AcDbEntity
  8
0
100
AcDbBlockBegin
  2
SW_NOTE_1
 70
     0
 10
0.0
 20
0.0
 30
0.0
  3
SW_NOTE_1
  1

  0
MTEXT
  5
C9
330
C6
100
AcDbEntity
  8
0
  6
Continuous
 62
     0
370
     0
100
AcDbMText
 10
0.0
 20
2.0463950369
 30
0.0
 40
1.5875
 41
0.0
 71
     1
 72
     1
  1
\LPROPRIETARY AND CONFIDENTIAL
  7
SLDTEXTSTYLE0
 73
     1
 44
1.0
  0
MTEXT
  5
CA
330
C6
100
AcDbEntity
  8
0
  6
Continuous
 62
     0
370
     0
100
AcDbMText
 10
37.3117625713
 20
2.0463950369
 30
0.0
 40
1.5875
 41
0.0
 71
     1
 72
     1
  1
THE INFORMATION CONTAINED IN THIS DRAWING IS THE SOLE PROPERTY OF ROLL & HILL LLC. ANY REPRODUCTION IN
  7
SLDTEXTSTYLE0
 73
     1
 44
1.0
  0
MTEXT
  5
CB
330
C6
100
AcDbEntity
  8
0
  6
Continuous
 62
     0
370
     0
100
AcDbMText
 10
0.0
 20
-0.0702716042
 30
0.0
 40
1.5875
 41
0.0
 71
     1
 72
     1
  1
PART OR AS A WHOLE WITHOUT THE WRITTEN PERMISSION OF ROLL & HILL LLC. IS PROHIBITED.
  7
SLDTEXTSTYLE0
 73
     1
 44
1.0
  0
ENDBLK
  5
C8
330
C6
100
AcDbEntity
  8
0
100
AcDbBlockEnd
  0
ENDSEC
  0
SECTION
  2
ENTITIES
  0
HATCH
  5
74
330
1F
100
AcDbEntity
  8
0
  6
Continuous
 62
     7
100
AcDbHatch
 10
0.0
 20
0.0
 30
0.0
210
0.0
220
0.0
230
1.0
  2
SOLID
 70
     1
 71
     0
 91
        2
 92
        0
 93
        6
 72
     4
 94
        3
 73
     1
 74
     0
 95
       20
 96
       16
 40
0.0
 40
0.0
 40
0.0
 40
0.0
 40
1.0
 40
1.0
 40
1.0
 40
2.0
 40
2.0
 40
2.0
 40
3.0
 40
3.0
 40
3.0
 40
4.0
 40
4.0
 40
4.0
 40
5.0
 40
5.0
 40
5.0
 40
5.0
 10
261.0219043336847
 20
23.63056361828031
 42
1.0
 10
261.2341319795987
 20
23.68742184709604
 42
1.0
 10
261.3945785321864
 20
23.72473719781129
 42
1.0
 10
261.5515161764629
 20
23.77337299628437
 42
1.0
 10
262.5617362220245
 20
24.08644572151765
 42
1.0
 10
262.9966382899503
 20
24.76217905347502
 42
1.0
 10
262.9131259646454
 20
25.88395655371281
 42
1.0
 10
262.8488620904764
 20
26.74717259793779
 42
1.0
 10
262.3071445332423
 20
27.30037799580671
 42
1.0
 10
261.2989762515715
 20
27.40941936834727
 42
1.0
 10
260.5093946232761
 20
27.49481913962259
 42
1.0
 10
259.7094699986221
 20
27.48819126576296
 42
1.0
 10
258.913837050576
 20
27.51251762112626
 42
1.0
 10
258.5159962651877
 20
27.52468175973202
 42
1.0
 10
258.1174764912431
 20
27.51463645747964
 42
1.0
 10
257.7192638284546
 20
27.51463645747964
 42
1.0
 72
     4
 94
        3
 73
     1
 74
     0
 95
       14
 96
       10
 40
17.0
 40
17.0
 40
17.0
 40
17.0
 40
18.0
 40
18.0
 40
18.0
 40
19.0
 40
19.0
 40
19.0
 40
20.0
 40
20.0
 40
20.0
 40
20.0
 10
257.7192638284546
 20
27.51463645747964
 42
1.0
 10
258.2057453879524
 20
27.36893835120056
 42
1.0
 10
258.4151924094879
 20
27.04153921726714
 42
1.0
 10
258.4151320634913
 20
26.55729487989966
 42
1.0
 10
258.4149081683119
 20
24.76100595804667
 42
1.0
 10
258.4191609275175
 20
22.96470127704905
 42
1.0
 10
258.4124688639662
 20
21.16843695483816
 42
1.0
 10
258.4104423723632
 20
20.62446660851326
 42
1.0
 10
258.2139995287706
 20
20.39587059142628
 42
1.0
 10
257.7053577757453
 20
20.25910042553502
 42
1.0
 72
     1
 10
257.7053577757453
 20
20.25910042553502
 11
260.1134120717832
 21
20.25910042553502
 72
     4
 94
        3
 73
     1
 74
     0
 95
       14
 96
       10
 40
13.0
 40
13.0
 40
13.0
 40
13.0
 40
14.0
 40
14.0
 40
14.0
 40
15.0
 40
15.0
 40
15.0
 40
16.0
 40
16.0
 40
16.0
 40
16.0
 10
260.1134120717832
 20
20.25910042553502
 42
1.0
 10
259.6377614656041
 20
20.40079128856704
 42
1.0
 10
259.4435911100346
 20
20.64162793377141
 42
1.0
 10
259.4408326829897
 20
21.14221143023692
 42
1.0
 10
259.4366701545022
 20
21.89763799307775
 42
1.0
 10
259.4392191002215
 20
22.65310606781492
 42
1.0
 10
259.4405559370167
 20
23.40855338660287
 42
1.0
 10
259.4406539512153
 20
23.46398560492077
 42
1.0
 10
259.4539911852495
 20
23.51939476107442
 42
1.0
 10
259.4607286043899
 20
23.57138302951071
 42
1.0
 72
     4
 94
        3
 73
     1
 74
     0
 95
       20
 96
       16
 40
8.0
 40
8.0
 40
8.0
 40
8.0
 40
9.0
 40
9.0
 40
9.0
 40
10.0
 40
10.0
 40
10.0
 40
11.0
 40
11.0
 40
11.0
 40
12.0
 40
12.0
 40
12.0
 40
13.0
 40
13.0
 40
13.0
 40
13.0
 10
259.4607286043899
 20
23.57138302951071
 42
1.0
 10
260.3725694925604
 20
23.65083910446931
 42
1.0
 10
260.6054131759577
 20
23.52556773374194
 42
1.0
 10
261.0037355762117
 20
22.71920223094413
 42
1.0
 10
261.378026816807
 20
21.9614848264415
 42
1.0
 10
261.7451764738302
 20
21.200166649339
 42
1.0
 10
262.1067370153144
 20
20.43629933433309
 42
1.0
 10
262.1765046750147
 20
20.28890135435546
 42
1.0
 10
262.2549406335689
 20
20.22203337745712
 42
1.0
 10
262.427398730108
 20
20.22724465786873
 42
1.0
 10
262.8718696744063
 20
20.24067529366942
 42
1.0
 10
263.3170171088603
 20
20.2311736819415
 42
1.0
 10
263.7618904879274
 20
20.2323936704376
 42
1.0
 10
263.8264337986554
 20
20.23257048036439
 42
1.0
 10
263.8909540472192
 20
20.24131411562171
 42
1.0
 10
263.9554858268652
 20
20.24609336482204
 42
1.0
 72
     4
 94
        3
 73
     1
 74
     0
 95
       14
 96
       10
 40
5.0
 40
5.0
 40
5.0
 40
5.0
 40
6.0
 40
6.0
 40
6.0
 40
7.0
 40
7.0
 40
7.0
 40
8.0
 40
8.0
 40
8.0
 40
8.0
 10
263.9554858268652
 20
20.24609336482204
 42
1.0
 10
263.5606000734738
 20
20.32757122285868
 42
1.0
 10
263.3178377375433
 20
20.57267359973515
 42
1.0
 10
263.1292772534607
 20
20.88520667032095
 42
1.0
 10
262.8739775562312
 20
21.30835818112304
 42
1.0
 10
262.6276890153665
 20
21.7369354504649
 42
1.0
 10
262.3739921385617
 20
22.16106556577572
 42
1.0
 10
262.033208300972
 20
22.73079019980925
 42
1.0
 10
261.7521543160346
 20
23.35408286053947
 42
1.0
 10
261.0219043336847
 20
23.63056361828031
 42
1.0
 97
        0
 92
        0
 93
        2
 72
     1
 10
259.4558811296203
 20
23.74052094311722
 11
259.4558811296203
 21
27.35855230546976
 72
     4
 94
        3
 73
     1
 74
     0
 95
       20
 96
       16
 40
1.0
 40
1.0
 40
1.0
 40
1.0
 40
2.0
 40
2.0
 40
2.0
 40
3.0
 40
3.0
 40
3.0
 40
4.0
 40
4.0
 40
4.0
 40
5.0
 40
5.0
 40
5.0
 40
6.0
 40
6.0
 40
6.0
 40
6.0
 10
259.4558811296203
 20
27.35855230546976
 42
1.0
 10
259.8103733099057
 20
27.35855230546976
 42
1.0
 10
260.1467440101549
 20
27.38072599997261
 42
1.0
 10
260.4792308497364
 20
27.35420547185249
 42
1.0
 10
261.3230227860075
 20
27.28690123567825
 42
1.0
 10
261.7108519014664
 20
26.95476897687368
 42
1.0
 10
261.8164781518313
 20
26.10478869315943
 42
1.0
 10
261.8719876284001
 20
25.65810454981779
 42
1.0
 10
261.8389787525148
 20
25.18024881635489
 42
1.0
 10
261.7413862071132
 20
24.73962656292206
 42
1.0
 10
261.608259863196
 20
24.13857044109259
 42
1.0
 10
261.1506181168165
 20
23.81517009427841
 42
1.0
 10
260.5489927438957
 20
23.74778168120397
 42
1.0
 10
260.1942113256325
 20
23.70804326575078
 42
1.0
 10
259.8313410453958
 20
23.74052094311722
 42
1.0
 10
259.4558811296203
 20
23.74052094311722
 42
1.0
 97
        0
 75
     0
 76
     1
 98
        1
 10
0.0
 20
0.0
  0
HATCH
  5
75
330
1F
100
AcDbEntity
  8
0
  6
Continuous
 62
     7
100
AcDbHatch
 10
0.0
 20
0.0
 30
0.0
210
0.0
220
0.0
230
1.0
  2
SOLID
 70
     1
 71
     0
 91
        2
 92
        0
 93
        2
 72
     4
 94
        3
 73
     1
 74
     0
 95
       14
 96
       10
 40
0.0
 40
0.0
 40
0.0
 40
0.0
 40
1.0
 40
1.0
 40
1.0
 40
2.0
 40
2.0
 40
2.0
 40
3.0
 40
3.0
 40
3.0
 40
3.0
 10
267.2336118279071
 20
20.23490821509466
 42
1.0
 10
268.1650050112285
 20
19.98240211471103
 42
1.0
 10
269.1482911393735
 20
20.33660467264827
 42
1.0
 10
269.7215189161771
 20
21.13111084177937
 42
1.0
 10
270.3723808569537
 20
22.03321892002499
 42
1.0
 10
270.372934348899
 20
23.32205720159637
 42
1.0
 10
269.7103360726668
 20
24.21398909980579
 42
1.0
 10
269.2464106552308
 20
24.83848445240961
 42
1.0
 10
268.6216197225536
 20
25.16033694362372
 42
1.0
 10
267.7758432870376
 20
25.16748813643033
 42
1.0
 72
     4
 94
        3
 73
     1
 74
     0
 95
       14
 96
       10
 40
3.0
 40
3.0
 40
3.0
 40
3.0
 40
4.0
 40
4.0
 40
4.0
 40
5.0
 40
5.0
 40
5.0
 40
6.0
 40
6.0
 40
6.0
 40
6.0
 10
267.7758432870376
 20
25.16748813643033
 42
1.0
 10
266.9062728477855
 20
25.1505801106106
 42
1.0
 10
266.225828300013
 20
24.723612195973
 42
1.0
 10
265.7739382574312
 20
23.92202056120339
 42
1.0
 10
265.4879189885011
 20
23.41465794151554
 42
1.0
 10
265.4259332718035
 20
22.86561853145873
 42
1.0
 10
265.4837047623288
 20
22.29272284982232
 42
1.0
 10
265.5792320909092
 20
21.34541139190241
 42
1.0
 10
266.3034040398354
 20
20.48709452013179
 42
1.0
 10
267.2336118279071
 20
20.23490821509466
 42
1.0
 97
        0
 92
        0
 93
        2
 72
     4
 94
        3
 73
     1
 74
     0
 95
       17
 96
       13
 40
0.0
 40
0.0
 40
0.0
 40
0.0
 40
1.0
 40
1.0
 40
1.0
 40
2.0
 40
2.0
 40
2.0
 40
3.0
 40
3.0
 40
3.0
 40
4.0
 40
4.0
 40
4.0
 40
4.0
 10
266.4699528411193
 20
22.82140374989816
 42
1.0
 10
266.4968487059656
 20
23.23360918874381
 42
1.0
 10
266.5993976948625
 20
23.64490674705059
 42
1.0
 10
266.7072125446274
 20
24.04607386528146
 42
1.0
 10
266.7597204805012
 20
24.2414496033099
 42
1.0
 10
266.882078331128
 20
24.42789874624283
 42
1.0
 10
267.0072628343699
 20
24.59213287496141
 42
1.0
 10
267.4640605055332
 20
25.19142205062979
 42
1.0
 10
268.2143234497673
 20
25.18405330473933
 42
1.0
 10
268.6683621173312
 20
24.58056604641373
 42
1.0
 10
269.0963628325642
 20
24.01168817818241
 42
1.0
 10
269.195680043492
 20
23.34551372899321
 42
1.0
 10
269.218762963826
 20
22.68351122534059
 42
1.0
 72
     4
 94
        3
 73
     1
 74
     0
 95
       17
 96
       13
 40
4.0
 40
4.0
 40
4.0
 40
4.0
 40
5.0
 40
5.0
 40
5.0
 40
6.0
 40
6.0
 40
6.0
 40
7.0
 40
7.0
 40
7.0
 40
8.0
 40
8.0
 40
8.0
 40
8.0
 10
269.218762963826
 20
22.68351122534059
 42
1.0
 10
269.202432645224
 20
22.05765558940843
 42
1.0
 10
269.1208448575376
 20
21.47214721006825
 42
1.0
 10
268.810867074766
 20
20.94311038392242
 42
1.0
 10
268.6078393105943
 20
20.5966013640246
 42
1.0
 10
268.3388937306983
 20
20.33416469565678
 42
1.0
 10
267.9076604687568
 20
20.30531315927085
 42
1.0
 10
267.4153070900211
 20
20.27237193240103
 42
1.0
 10
267.1048165584612
 20
20.54785025472892
 42
1.0
 10
266.8746830637486
 20
20.93428603108956
 42
1.0
 10
266.5287029361534
 20
21.51524885782822
 42
1.0
 10
266.4269741915698
 20
22.16270989809668
 42
1.0
 10
266.4699528411193
 20
22.82140374989816
 42
1.0
 97
        0
 75
     0
 76
     1
 98
        1
 10
0.0
 20
0.0
  0
HATCH
  5
76
330
1F
100
AcDbEntity
  8
0
  6
Continuous
 62
     7
100
AcDbHatch
 10
0.0
 20
0.0
 30
0.0
210
0.0
220
0.0
230
1.0
  2
SOLID
 70
     1
 71
     0
 91
        1
 92
        0
 93
        4
 72
     1
 10
273.9540333846496
 20
27.87257450949275
 11
272.4594267850394
 21
27.32510813123116
 72
     4
 94
        3
 73
     1
 74
     0
 95
       14
 96
       10
 40
6.0
 40
6.0
 40
6.0
 40
6.0
 40
7.0
 40
7.0
 40
7.0
 40
8.0
 40
8.0
 40
8.0
 40
9.0
 40
9.0
 40
9.0
 40
9.0
 10
272.4594267850394
 20
27.32510813123116
 42
1.0
 10
272.9826104338649
 20
27.28380667758701
 42
1.0
 10
273.0476395875227
 20
27.23250104921648
 42
1.0
 10
273.0527409382852
 20
26.65700799131587
 42
1.0
 10
273.0685846452182
 20
24.86961337752774
 42
1.0
 10
273.0702866329497
 20
23.08209538116094
 42
1.0
 10
273.0783845276048
 20
21.29462927466367
 42
1.0
 10
273.0805785081768
 20
20.81042375860576
 42
1.0
 10
273.0059923935969
 20
20.37668517687364
 42
1.0
 10
272.426404840594
 20
20.2590796695872
 42
1.0
 72
     1
 10
272.426404840594
 20
20.2590796695872
 11
274.6224502449564
 21
20.2590796695872
 72
     4
 94
        3
 73
     1
 74
     0
 95
       17
 96
       13
 40
1.0
 40
1.0
 40
1.0
 40
1.0
 40
2.0
 40
2.0
 40
2.0
 40
3.0
 40
3.0
 40
3.0
 40
4.0
 40
4.0
 40
4.0
 40
5.0
 40
5.0
 40
5.0
 40
5.0
 10
274.6224502449564
 20
20.2590796695872
 42
1.0
 10
274.1836818051716
 20
20.38260600321025
 42
1.0
 10
274.0006220316647
 20
20.58964274029083
 42
1.0
 10
273.9590578615309
 20
21.04279505200226
 42
1.0
 10
273.9506540088286
 20
21.13443409966764
 42
1.0
 10
273.954217881965
 20
21.22727776105204
 42
1.0
 10
273.9542086570993
 20
21.31956562427539
 42
1.0
 10
273.9539872603212
 20
23.41776441505853
 42
1.0
 10
273.9540349221275
 20
25.51596282147274
 42
1.0
 10
273.9540333846496
 20
27.61416161225588
 42
1.0
 10
273.9540333846496
 20
27.71082379150879
 42
1.0
 10
273.9540333846496
 20
27.8074859707617
 42
1.0
 10
273.9540333846496
 20
27.87257450949275
 42
1.0
 97
        0
 75
     0
 76
     1
 98
        1
 10
0.0
 20
0.0
  0
HATCH
  5
77
330
1F
100
AcDbEntity
  8
0
  6
Continuous
 62
     7
100
AcDbHatch
 10
0.0
 20
0.0
 30
0.0
210
0.0
220
0.0
230
1.0
  2
SOLID
 70
     1
 71
     0
 91
        1
 92
        0
 93
        4
 72
     1
 10
276.9460186560295
 20
20.2549177176549
 11
279.1055120673172
 21
20.2549177176549
 72
     4
 94
        3
 73
     1
 74
     0
 95
       14
 96
       10
 40
6.0
 40
6.0
 40
6.0
 40
6.0
 40
7.0
 40
7.0
 40
7.0
 40
8.0
 40
8.0
 40
8.0
 40
9.0
 40
9.0
 40
9.0
 40
9.0
 10
279.1055120673172
 20
20.2549177176549
 42
1.0
 10
278.6550987719953
 20
20.40793364087759
 42
1.0
 10
278.4823339486704
 20
20.63637283524633
 42
1.0
 10
278.4822124879378
 20
21.11904779232805
 42
1.0
 10
278.4816605334703
 20
23.30086999117493
 42
1.0
 10
278.4819664915176
 20
25.48269219002111
 42
1.0
 10
278.4819649540404
 20
27.66451419668386
 42
1.0
 10
278.4819649540404
 20
27.75219577693941
 42
1.0
 10
278.4819664915176
 20
27.83987735719566
 42
1.0
 10
278.4819664915176
 20
27.88441039662488
 42
1.0
 72
     1
 10
278.4819664915176
 20
27.88441039662488
 11
276.9846800684063
 21
27.3296354262854
 72
     4
 94
        3
 73
     1
 74
     0
 95
       17
 96
       13
 40
1.0
 40
1.0
 40
1.0
 40
1.0
 40
2.0
 40
2.0
 40
2.0
 40
3.0
 40
3.0
 40
3.0
 40
4.0
 40
4.0
 40
4.0
 40
5.0
 40
5.0
 40
5.0
 40
5.0
 10
276.9846800684063
 20
27.3296354262854
 42
1.0
 10
277.5366914227135
 20
27.25167954511983
 42
1.0
 10
277.5738092075535
 20
27.20775573119973
 42
1.0
 10
277.5772915943764
 20
26.57154691311976
 42
1.0
 10
277.5773838430334
 20
26.55476419172763
 42
1.0
 10
277.577359243392
 20
26.53798031722657
 42
1.0
 10
277.577359243392
 20
26.52119721146337
 42
1.0
 10
277.5773700057348
 20
24.72538990447762
 42
1.0
 10
277.5776652014392
 20
22.92958298186009
 42
1.0
 10
277.5771993457187
 20
21.13377529050539
 42
1.0
 10
277.5770686601204
 20
20.6342380475635
 42
1.0
 10
277.4179566381115
 20
20.4199152040148
 42
1.0
 10
276.9460186560295
 20
20.2549177176549
 42
1.0
 97
        0
 75
     0
 76
     1
 98
        1
 10
0.0
 20
0.0
  0
HATCH
  5
78
330
1F
100
AcDbEntity
  8
0
  6
Continuous
 62
     7
100
AcDbHatch
 10
0.0
 20
0.0
 30
0.0
210
0.0
220
0.0
230
1.0
  2
SOLID
 70
     1
 71
     0
 91
        3
 92
        0
 93
        9
 72
     4
 94
        3
 73
     1
 74
     0
 95
       14
 96
       10
 40
0.0
 40
0.0
 40
0.0
 40
0.0
 40
1.0
 40
1.0
 40
1.0
 40
2.0
 40
2.0
 40
2.0
 40
3.0
 40
3.0
 40
3.0
 40
3.0
 10
287.0539854214827
 20
21.61211917311517
 42
1.0
 10
287.2972697310664
 20
21.3082559388604
 42
1.0
 10
287.5152010346028
 20
21.01001756649998
 42
1.0
 10
287.7601488949774
 20
20.73592220529573
 42
1.0
 10
288.1784811821614
 20
20.26780485511384
 42
1.0
 10
288.7048673968812
 20
20.09831485913089
 42
1.0
 10
289.3271645408483
 20
20.20870037148624
 42
1.0
 10
289.9739444785289
 20
20.32342848939635
 42
1.0
 10
290.7160910783766
 20
21.04182259740494
 42
1.0
 10
290.8103661314317
 20
21.70506046432864
 42
1.0
 72
     4
 94
        3
 73
     1
 74
     0
 95
       14
 96
       10
 40
24.0
 40
24.0
 40
24.0
 40
24.0
 40
25.0
 40
25.0
 40
25.0
 40
26.0
 40
26.0
 40
26.0
 40
27.0
 40
27.0
 40
27.0
 40
27.0
 10
290.8103661314317
 20
21.70506046432864
 42
1.0
 10
290.6825002672103
 20
21.49939669476813
 42
1.0
 10
290.5884281612034
 20
21.32571784099438
 42
1.0
 10
290.4735170834558
 20
21.16713932372221
 42
1.0
 10
289.9836367374808
 20
20.49110656799653
 42
1.0
 10
289.3841588364346
 20
20.43289382139212
 42
1.0
 10
288.8166481701822
 20
21.05011190802389
 42
1.0
 10
288.4270667146001
 20
21.47381844824843
 42
1.0
 10
288.0996055050067
 20
21.95463920731319
 42
1.0
 10
287.7314564875268
 20
22.4264857094768
 42
1.0
 72
     4
 94
        3
 73
     1
 74
     0
 95
       11
 96
        7
 40
22.0
 40
22.0
 40
22.0
 40
22.0
 40
23.0
 40
23.0
 40
23.0
 40
24.0
 40
24.0
 40
24.0
 40
24.0
 10
287.7314564875268
 20
22.4264857094768
 42
1.0
 10
288.1508588591387
 20
23.00030157147278
 42
1.0
 10
288.5466855488353
 20
23.55949371503118
 42
1.0
 10
288.9612633156569
 20
24.10441845059237
 42
1.0
 10
289.4290162836425
 20
24.71923384406366
 42
1.0
 10
289.9536528488242
 20
25.26443186627322
 42
1.0
 10
290.7742138825406
 20
25.39867403457779
 42
1.0
 72
     1
 10
290.7742138825406
 20
25.39867403457779
 11
287.7715077796773
 21
25.39867403457779
 72
     4
 94
        3
 73
     1
 74
     0
 95
       17
 96
       13
 40
16.0
 40
16.0
 40
16.0
 40
16.0
 40
17.0
 40
17.0
 40
17.0
 40
18.0
 40
18.0
 40
18.0
 40
19.0
 40
19.0
 40
19.0
 40
20.0
 40
20.0
 40
20.0
 40
20.0
 10
287.7715077796773
 20
25.39867403457779
 42
1.0
 10
287.9710693005408
 20
25.34310267453518
 42
1.0
 10
288.1718392788191
 20
25.32949945687163
 42
1.0
 10
288.3670435880915
 20
25.28904726743022
 42
1.0
 10
288.7601181928394
 20
25.20759054971102
 42
1.0
 10
288.9174636530569
 20
24.97387165717582
 42
1.0
 10
288.8543009972361
 20
24.57697987985169
 42
1.0
 10
288.8373887433532
 20
24.47070865762303
 42
1.0
 10
288.8131334963293
 20
24.35736772890119
 42
1.0
 10
288.7595985254019
 20
24.26650702928458
 42
1.0
 10
288.4211781752921
 20
23.692108847638
 42
1.0
 10
288.0735790837579
 20
23.12311989664797
 42
1.0
 10
287.7233847299918
 20
22.54303496963325
 42
1.0
 72
     1
 10
287.7233847299918
 20
22.54303496963325
 11
285.8065406500284
 21
24.86455968857224
 72
     4
 94
        3
 73
     1
 74
     0
 95
       20
 96
       16
 40
10.0
 40
10.0
 40
10.0
 40
10.0
 40
11.0
 40
11.0
 40
11.0
 40
12.0
 40
12.0
 40
12.0
 40
13.0
 40
13.0
 40
13.0
 40
14.0
 40
14.0
 40
14.0
 40
15.0
 40
15.0
 40
15.0
 40
15.0
 10
285.8065406500283
 20
24.86455968857225
 42
1.0
 10
285.9002991106001
 20
24.9215528310502
 42
1.0
 10
286.0025259979348
 20
24.975621306713
 42
1.0
 10
286.0959738880259
 20
25.04203380586477
 42
1.0
 10
286.361711520857
 20
25.23088333574105
 42
1.0
 10
286.6551698752792
 20
25.39378370261948
 42
1.0
 10
286.8815726805328
 20
25.62247811827483
 42
1.0
 10
287.5614237619422
 20
26.30921056516709
 42
1.0
 10
287.361321048954
 20
27.32558686332681
 42
1.0
 10
286.4793408590448
 20
27.71426216803416
 42
1.0
 10
285.840402057257
 20
27.99583274545401
 42
1.0
 10
285.1912113546599
 20
27.99239110178883
 42
1.0
 10
284.558084218296
 20
27.68711127408746
 42
1.0
 10
283.9109291360762
 20
27.37506654483262
 42
1.0
 10
283.6309452355653
 20
26.8393466878164
 42
1.0
 10
283.7149530130354
 20
26.1296866058298
 42
1.0
 72
     4
 94
        3
 73
     1
 74
     0
 95
       11
 96
        7
 40
8.0
 40
8.0
 40
8.0
 40
8.0
 40
9.0
 40
9.0
 40
9.0
 40
10.0
 40
10.0
 40
10.0
 40
10.0
 10
283.7149530130354
 20
26.1296866058298
 42
1.0
 10
283.7707819005811
 20
25.65802498535045
 42
1.0
 10
284.0198409761273
 20
25.28515591156022
 42
1.0
 10
284.3077767109179
 20
24.93075271279267
 42
1.0
 10
284.4323277733789
 20
24.77744812814591
 42
1.0
 10
284.5641388051866
 20
24.6300390014551
 42
1.0
 10
284.7027239634148
 20
24.46818604120849
 42
1.0
 72
     4
 94
        3
 73
     1
 74
     0
 95
       20
 96
       16
 40
3.0
 40
3.0
 40
3.0
 40
3.0
 40
4.0
 40
4.0
 40
4.0
 40
5.0
 40
5.0
 40
5.0
 40
6.0
 40
6.0
 40
6.0
 40
7.0
 40
7.0
 40
7.0
 40
8.0
 40
8.0
 40
8.0
 40
8.0
 10
284.7027239634148
 20
24.46818604120849
 42
1.0
 10
284.5513685160267
 20
24.38851087568819
 42
1.0
 10
284.4255536469583
 20
24.32317807019961
 42
1.0
 10
284.3005597909425
 20
24.25632085564481
 42
1.0
 10
283.8607304915963
 20
24.02105948868024
 42
1.0
 10
283.460866385652
 20
23.73663343094009
 42
1.0
 10
283.1417229300147
 20
23.34576433784628
 42
1.0
 10
282.3522343191156
 20
22.37884389028816
 42
1.0
 10
282.6109241545095
 20
20.5355588898502
 42
1.0
 10
284.198169930981
 20
20.23446388406056
 42
1.0
 10
285.1515567317372
 20
20.05360962220845
 42
1.0
 10
285.9488126796034
 20
20.36759637788916
 42
1.0
 10
286.5896302790503
 20
21.09003174583673
 42
1.0
 10
286.7443651022574
 20
21.26447318851251
 42
1.0
 10
286.8995550188436
 20
21.43851181205056
 42
1.0
 10
287.0539854214827
 20
21.61211917311517
 42
1.0
 97
        0
 92
        0
 93
        2
 72
     4
 94
        3
 73
     1
 74
     0
 95
       14
 96
       10
 40
0.0
 40
0.0
 40
0.0
 40
0.0
 40
1.0
 40
1.0
 40
1.0
 40
2.0
 40
2.0
 40
2.0
 40
3.0
 40
3.0
 40
3.0
 40
3.0
 10
284.688382372121
 20
27.15085253116304
 42
1.0
 10
284.8337724063213
 20
27.5710895609412
 42
1.0
 10
285.1818973152029
 20
27.79269159230804
 42
1.0
 10
285.6158934244382
 20
27.76810636414938
 42
1.0
 10
285.9916529561654
 20
27.74682017860581
 42
1.0
 10
286.2400293916459
 20
27.5110460628537
 42
1.0
 10
286.3549927436335
 20
27.06650131962916
 42
1.0
 10
286.5713650448558
 20
26.2298440482801
 42
1.0
 10
286.3259713159692
 20
25.4295804098103
 42
1.0
 10
285.6520579731507
 20
24.9254318870995
 42
1.0
 72
     4
 94
        3
 73
     1
 74
     0
 95
       11
 96
        7
 40
3.0
 40
3.0
 40
3.0
 40
3.0
 40
4.0
 40
4.0
 40
4.0
 40
5.0
 40
5.0
 40
5.0
 40
5.0
 10
285.6520579731507
 20
24.9254318870995
 42
1.0
 10
285.3510444536752
 20
25.31853032275095
 42
1.0
 10
285.0380140090768
 20
25.68714980838475
 42
1.0
 10
284.7721626029031
 20
26.08712768767229
 42
1.0
 10
284.5571094574822
 20
26.41068293535724
 42
1.0
 10
284.5630810205802
 20
26.788679112661
 42
1.0
 10
284.688382372121
 20
27.15085253116304
 42
1.0
 97
        0
 92
        0
 93
        2
 72
     1
 10
284.845288113738
 20
24.3712657578988
 11
287.0009947176327
 21
21.77781006188367
 72
     4
 94
        3
 73
     1
 74
     0
 95
       14
 96
       10
 40
1.0
 40
1.0
 40
1.0
 40
1.0
 40
2.0
 40
2.0
 40
2.0
 40
3.0
 40
3.0
 40
3.0
 40
4.0
 40
4.0
 40
4.0
 40
4.0
 10
287.0009947176327
 20
21.77781006188367
 42
1.0
 10
286.5509442670314
 20
21.22618922689351
 42
1.0
 10
286.0339581905155
 20
20.90925282038733
 42
1.0
 10
285.3603677179978
 20
20.87638462370451
 42
1.0
 10
284.4974276510072
 20
20.83427541775252
 42
1.0
 10
283.8665083325146
 20
21.39392726712143
 42
1.0
 10
283.7780264951535
 20
22.28619625730053
 42
1.0
 10
283.6988925217564
 20
23.08417174469389
 42
1.0
 10
284.1054815548355
 20
23.90423117633508
 42
1.0
 10
284.845288113738
 20
24.3712657578988
 42
1.0
 97
        0
 75
     0
 76
     1
 98
        1
 10
0.0
 20
0.0
  0
HATCH
  5
79
330
1F
100
AcDbEntity
  8
0
  6
Continuous
 62
     7
100
AcDbHatch
 10
0.0
 20
0.0
 30
0.0
210
0.0
220
0.0
230
1.0
  2
SOLID
 70
     1
 71
     0
 91
        1
 92
        0
 93
        2
 72
     4
 94
        3
 73
     1
 74
     0
 95
       11
 96
        7
 40
0.0
 40
0.0
 40
0.0
 40
0.0
 40
1.0
 40
1.0
 40
1.0
 40
2.0
 40
2.0
 40
2.0
 40
2.0
 10
303.0570519104932
 20
26.35430478392947
 42
1.0
 10
303.0628482011429
 20
25.96449808787493
 42
1.0
 10
303.3259905717408
 20
25.69768229885988
 42
1.0
 10
303.6993639381942
 20
25.70301926806731
 42
1.0
 10
304.0680572227529
 20
25.70828897263022
 42
1.0
 10
304.3293945946187
 20
25.98752450590587
 42
1.0
 10
304.327448147944
 20
26.37412133304796
 42
1.0
 72
     4
 94
        3
 73
     1
 74
     0
 95
       11
 96
        7
 40
2.0
 40
2.0
 40
2.0
 40
2.0
 40
3.0
 40
3.0
 40
3.0
 40
4.0
 40
4.0
 40
4.0
 40
4.0
 10
304.327448147944
 20
26.37412133304796
 42
1.0
 10
304.3255386007336
 20
26.75299425696746
 42
1.0
 10
304.0507636744179
 20
27.04560238626284
 42
1.0
 10
303.6924299141011
 20
27.05034857969325
 42
1.0
 10
303.3266947364936
 20
27.05519259513757
 42
1.0
 10
303.0511172468595
 20
26.75330175249256
 42
1.0
 10
303.0570519104932
 20
26.35430478392947
 42
1.0
 97
        0
 75
     0
 76
     1
 98
        1
 10
0.0
 20
0.0
  0
HATCH
  5
7A
330
1F
100
AcDbEntity
  8
0
  6
Continuous
 62
     7
100
AcDbHatch
 10
0.0
 20
0.0
 30
0.0
210
0.0
220
0.0
230
1.0
  2
SOLID
 70
     1
 71
     0
 91
        1
 92
        0
 93
        4
 72
     1
 10
302.6973344203136
 20
20.2539775500868
 11
304.8038079156778
 21
20.2539775500868
 72
     4
 94
        3
 73
     1
 74
     0
 95
       17
 96
       13
 40
6.0
 40
6.0
 40
6.0
 40
6.0
 40
7.0
 40
7.0
 40
7.0
 40
8.0
 40
8.0
 40
8.0
 40
9.0
 40
9.0
 40
9.0
 40
10.0
 40
10.0
 40
10.0
 40
10.0
 10
304.8038079156778
 20
20.2539775500868
 42
1.0
 10
304.4578262506061
 20
20.33981031349822
 42
1.0
 10
304.2621822227331
 20
20.55023795748124
 42
1.0
 10
304.2107535961514
 20
20.89393877449616
 42
1.0
 10
304.1922454404932
 20
21.01764883669525
 42
1.0
 10
304.1821011631179
 20
21.14380579453512
 42
1.0
 10
304.1818797663412
 20
21.26887114326077
 42
1.0
 10
304.1797703470369
 20
22.46084295323946
 42
1.0
 10
304.1808527312862
 20
23.65282014439031
 42
1.0
 10
304.1800932173391
 20
24.84479541369365
 42
1.0
 10
304.1800409430993
 20
24.93136078519359
 42
1.0
 10
304.1727133247369
 20
25.01792115989102
 42
1.0
 10
304.1706223551654
 20
25.06377258638473
 42
1.0
 72
     1
 10
304.1706223551654
 20
25.06377258638473
 11
302.7125031745686
 21
24.50968064047992
 72
     4
 94
        3
 73
     1
 74
     0
 95
       17
 96
       13
 40
1.0
 40
1.0
 40
1.0
 40
1.0
 40
2.0
 40
2.0
 40
2.0
 40
3.0
 40
3.0
 40
3.0
 40
4.0
 40
4.0
 40
4.0
 40
5.0
 40
5.0
 40
5.0
 40
5.0
 10
302.7125031745686
 20
24.50968064047994
 42
1.0
 10
302.7604109773859
 20
24.50557288463289
 42
1.0
 10
302.8224697242704
 20
24.49650561033552
 42
1.0
 10
302.8846514693661
 20
24.49557889569631
 42
1.0
 10
303.1332831261333
 20
24.4918735746181
 42
1.0
 10
303.2632153602819
 20
24.35030186610297
 42
1.0
 10
303.2668591822546
 20
24.11891186780057
 42
1.0
 10
303.2829750227277
 20
23.09531768874206
 42
1.0
 10
303.296603224403
 20
22.071496731734
 42
1.0
 10
303.2916556214044
 20
21.04785181591346
 42
1.0
 10
303.2897768237453
 20
20.65853557522151
 42
1.0
 10
303.1321361678242
 20
20.3494649042487
 42
1.0
 10
302.6973344203136
 20
20.2539775500868
 42
1.0
 97
        0
 75
     0
 76
     1
 98
        1
 10
0.0
 20
0.0
  0
HATCH
  5
7B
330
1F
100
AcDbEntity
  8
0
  6
Continuous
 62
     7
100
AcDbHatch
 10
0.0
 20
0.0
 30
0.0
210
0.0
220
0.0
230
1.0
  2
SOLID
 70
     1
 71
     0
 91
        1
 92
        0
 93
        4
 72
     1
 10
308.65963267846
 20
27.88697759989075
 11
307.1608133901539
 21
27.32540717062984
 72
     4
 94
        3
 73
     1
 74
     0
 95
       20
 96
       16
 40
5.0
 40
5.0
 40
5.0
 40
5.0
 40
6.0
 40
6.0
 40
6.0
 40
7.0
 40
7.0
 40
7.0
 40
8.0
 40
8.0
 40
8.0
 40
9.0
 40
9.0
 40
9.0
 40
10.0
 40
10.0
 40
10.0
 40
10.0
 10
307.1608133901539
 20
27.32540717062984
 42
1.0
 10
307.6774858212348
 20
27.28280885460759
 42
1.0
 10
307.7501131893193
 20
27.20350460556406
 42
1.0
 10
307.7547502218385
 20
26.63215658734291
 42
1.0
 10
307.7552944889174
 20
26.56503146731187
 42
1.0
 10
307.7550361926765
 20
26.49789904426262
 42
1.0
 10
307.7550361926765
 20
26.43077008053731
 42
1.0
 10
307.7550484924979
 20
24.69380511724257
 42
1.0
 10
307.7587445887104
 20
22.95682170421714
 42
1.0
 10
307.7500732149022
 20
21.21990094340409
 42
1.0
 10
307.7490584796685
 20
21.01681475508336
 42
1.0
 10
307.7285516030971
 20
20.78446498637255
 42
1.0
 10
307.6283941606454
 20
20.61954360515536
 42
1.0
 10
307.5293898264143
 20
20.45652254628292
 42
1.0
 10
307.3179589782804
 20
20.36177625633667
 42
1.0
 10
307.178408284104
 20
20.25443648715803
 42
1.0
 72
     1
 10
307.178408284104
 20
20.25443648715803
 11
309.3620693061908
 21
20.25443648715802
 72
     4
 94
        3
 73
     1
 74
     0
 95
       14
 96
       10
 40
1.0
 40
1.0
 40
1.0
 40
1.0
 40
2.0
 40
2.0
 40
2.0
 40
3.0
 40
3.0
 40
3.0
 40
4.0
 40
4.0
 40
4.0
 40
4.0
 10
309.3620693061908
 20
20.25443648715802
 42
1.0
 10
308.807415027844
 20
20.43200746554105
 42
1.0
 10
308.6597679764911
 20
20.6374237012035
 42
1.0
 10
308.6597187772069
 20
21.15880542625192
 42
1.0
 10
308.6595035303402
 20
23.32371921490944
 42
1.0
 10
308.65963267846
 20
25.48863300356693
 42
1.0
 10
308.65963267846
 20
27.65354698440997
 42
1.0
 10
308.65963267846
 20
27.74275854708867
 42
1.0
 10
308.65963267846
 20
27.83196991758182
 42
1.0
 10
308.65963267846
 20
27.88697759989075
 42
1.0
 97
        0
 75
     0
 76
     1
 98
        1
 10
0.0
 20
0.0
  0
HATCH
  5
7C
330
1F
100
AcDbEntity
  8
0
  6
Continuous
 62
     7
100
AcDbHatch
 10
0.0
 20
0.0
 30
0.0
210
0.0
220
0.0
230
1.0
  2
SOLID
 70
     1
 71
     0
 91
        1
 92
        0
 93
        4
 72
     1
 10
313.1781318226163
 20
27.87703492426926
 11
311.6691528821608
 21
27.32445797038016
 72
     4
 94
        3
 73
     1
 74
     0
 95
       17
 96
       13
 40
6.0
 40
6.0
 40
6.0
 40
6.0
 40
7.0
 40
7.0
 40
7.0
 40
8.0
 40
8.0
 40
8.0
 40
9.0
 40
9.0
 40
9.0
 40
10.0
 40
10.0
 40
10.0
 40
10.0
 10
311.6691528821608
 20
27.32445797038016
 42
1.0
 10
312.2096131670664
 20
27.27631108979181
 42
1.0
 10
312.2683694120104
 20
27.21300429544448
 42
1.0
 10
312.2823973578678
 20
26.60716642601487
 42
1.0
 10
312.2845313768121
 20
26.51487279724974
 42
1.0
 10
312.2871512386867
 20
26.42255802816857
 42
1.0
 10
312.2871819882395
 20
26.33025248395311
 42
1.0
 10
312.2877662297369
 20
24.60974045310045
 42
1.0
 10
312.2890700107628
 20
22.88922803787955
 42
1.0
 10
312.2876555313485
 20
21.16871754450475
 42
1.0
 10
312.2872188877024
 20
20.63608302071405
 42
1.0
 10
312.1185268426077
 20
20.41647125413319
 42
1.0
 10
311.6156486607861
 20
20.25320881127337
 42
1.0
 72
     1
 10
311.6156486607861
 20
20.25320881127337
 11
313.8867245107604
 21
20.25320881127337
 72
     4
 94
        3
 73
     1
 74
     0
 95
       17
 96
       13
 40
1.0
 40
1.0
 40
1.0
 40
1.0
 40
2.0
 40
2.0
 40
2.0
 40
3.0
 40
3.0
 40
3.0
 40
4.0
 40
4.0
 40
4.0
 40
5.0
 40
5.0
 40
5.0
 40
5.0
 10
313.8867245107604
 20
20.25320881127337
 42
1.0
 10
313.3266152617988
 20
20.4348325806782
 42
1.0
 10
313.1888880160859
 20
20.62648762285203
 42
1.0
 10
313.1786115156352
 20
21.17082388885262
 42
1.0
 10
313.1771847363981
 20
21.24633325874564
 42
1.0
 10
313.1781441224363
 20
21.32188875296783
 42
1.0
 10
313.1781441224363
 20
21.39742349124222
 42
1.0
 10
313.1781256727049
 20
23.48721689184593
 42
1.0
 10
313.1781318226163
 20
25.57700952371036
 42
1.0
 10
313.1781318226163
 20
27.66680273212925
 42
1.0
 10
313.1781318226163
 20
27.75161518695077
 42
1.0
 10
313.1781318226163
 20
27.83642744958889
 42
1.0
 10
313.1781318226163
 20
27.87703492426926
 42
1.0
 97
        0
 75
     0
 76
     1
 98
        1
 10
0.0
 20
0.0
  0
HATCH
  5
7D
330
1F
100
AcDbEntity
  8
0
  6
Continuous
 62
     7
100
AcDbHatch
 10
0.0
 20
0.0
 30
0.0
210
0.0
220
0.0
230
1.0
  2
SOLID
 70
     1
 71
     0
 91
        1
 92
        0
 93
       12
 72
     1
 10
296.2715297073844
 20
27.50458020069891
 11
293.841527870193
 21
27.50458020069891
 72
     4
 94
        3
 73
     1
 74
     0
 95
       17
 96
       13
 40
21.0
 40
21.0
 40
21.0
 40
21.0
 40
22.0
 40
22.0
 40
22.0
 40
23.0
 40
23.0
 40
23.0
 40
24.0
 40
24.0
 40
24.0
 40
25.0
 40
25.0
 40
25.0
 40
25.0
 10
293.841527870193
 20
27.50458020069891
 42
1.0
 10
294.4654639653083
 20
27.35271373418588
 42
1.0
 10
294.541848928711
 20
26.88863860486635
 42
1.0
 10
294.5396718603926
 20
26.35648992400541
 42
1.0
 10
294.5326947869268
 20
24.65236702027423
 42
1.0
 10
294.54232862173
 20
22.9481603240125
 42
1.0
 10
294.5304592944584
 20
21.24409084762873
 42
1.0
 10
294.52894334152
 20
21.02641399663968
 42
1.0
 10
294.4888489999954
 20
20.77588586122133
 42
1.0
 10
294.3739502220706
 20
20.60171040217499
 42
1.0
 10
294.2655211499942
 20
20.43733713173098
 42
1.0
 10
294.0348564567621
 20
20.35359533789035
 42
1.0
 10
293.8906841048422
 20
20.25643828302682
 42
1.0
 72
     1
 10
293.8906841048422
 20
20.25643828302682
 11
296.2880237673525
 21
20.25643828302682
 72
     4
 94
        3
 73
     1
 74
     0
 95
       14
 96
       10
 40
17.0
 40
17.0
 40
17.0
 40
17.0
 40
18.0
 40
18.0
 40
18.0
 40
19.0
 40
19.0
 40
19.0
 40
20.0
 40
20.0
 40
20.0
 40
20.0
 10
296.2880237673525
 20
20.25643828302682
 42
1.0
 10
295.7413366980624
 20
20.4024294709773
 42
1.0
 10
295.5628078711177
 20
20.63015527572819
 42
1.0
 10
295.5619960829322
 20
21.2138824872384
 42
1.0
 10
295.560827599936
 20
22.05336910178782
 42
1.0
 10
295.561359567195
 20
22.89285956003151
 42
1.0
 10
295.5621928800676
 20
23.73234771205876
 42
1.0
 10
295.5622759038603
 20
23.81306182808445
 42
1.0
 10
295.5696219719554
 20
23.89376787235267
 42
1.0
 10
295.5733857171835
 20
23.97022240661697
 42
1.0
 72
     1
 10
295.5733857171835
 20
23.97022240661697
 11
298.4851131190222
 21
23.97022240661697
 72
     4
 94
        3
 73
     1
 74
     0
 95
       11
 96
        7
 40
14.0
 40
14.0
 40
14.0
 40
14.0
 40
15.0
 40
15.0
 40
15.0
 40
16.0
 40
16.0
 40
16.0
 40
16.0
 10
298.4851131190222
 20
23.97022240661697
 42
1.0
 10
298.4851131190222
 20
23.04419117651474
 42
1.0
 10
298.4852207424561
 20
22.13796342697173
 42
1.0
 10
298.485073144605
 20
21.23173567742801
 42
1.0
 10
298.4849747460367
 20
20.62384393007452
 42
1.0
 10
298.3307257657572
 20
20.41986831094703
 42
1.0
 10
297.7632396991476
 20
20.25412130424438
 42
1.0
 72
     1
 10
297.7632396991476
 20
20.25412130424438
 11
300.2193725060648
 21
20.25412130424438
 72
     4
 94
        3
 73
     1
 74
     0
 95
       17
 96
       13
 40
9.0
 40
9.0
 40
9.0
 40
9.0
 40
10.0
 40
10.0
 40
10.0
 40
11.0
 40
11.0
 40
11.0
 40
12.0
 40
12.0
 40
12.0
 40
13.0
 40
13.0
 40
13.0
 40
13.0
 10
300.2193725060648
 20
20.25412130424438
 42
1.0
 10
299.739442715284
 20
20.41422423058344
 42
1.0
 10
299.5427163031618
 20
20.62720562490344
 42
1.0
 10
299.542119761843
 20
21.03839632851544
 42
1.0
 10
299.5393769017586
 20
22.92724217217554
 42
1.0
 10
299.5395583241182
 20
24.8160968563317
 42
1.0
 10
299.5421628112159
 20
26.70494346873036
 42
1.0
 10
299.5426363543262
 20
27.0468754177367
 42
1.0
 10
299.7248336028849
 20
27.28837413924314
 42
1.0
 10
300.049118383702
 20
27.40930924651266
 42
1.0
 10
300.1052670665942
 20
27.43024796211264
 42
1.0
 10
300.1600043450263
 20
27.45496618208605
 42
1.0
 10
300.2549312885929
 20
27.49433829349534
 42
1.0
 72
     1
 10
300.2549312885929
 20
27.49433829349534
 11
297.7186989723292
 21
27.49433829349534
 72
     4
 94
        3
 73
     1
 74
     0
 95
       14
 96
       10
 40
5.0
 40
5.0
 40
5.0
 40
5.0
 40
6.0
 40
6.0
 40
6.0
 40
7.0
 40
7.0
 40
7.0
 40
8.0
 40
8.0
 40
8.0
 40
8.0
 10
297.7186989723292
 20
27.49433829349534
 42
1.0
 10
298.3648823686909
 20
27.26685790861022
 42
1.0
 10
298.4850762195593
 20
27.0944786077999
 42
1.0
 10
298.4851069691121
 20
26.45733654080182
 42
1.0
 10
298.4851377186649
 20
25.7773505457302
 42
1.0
 10
298.4851131190222
 20
25.09736416629037
 42
1.0
 10
298.4851131190222
 20
24.41737817121947
 42
1.0
 10
298.4851131190222
 20
24.32893553953832
 42
1.0
 10
298.4851131190222
 20
24.24049329222682
 42
1.0
 10
298.4851131190222
 20
24.16049564077468
 42
1.0
 72
     1
 10
298.4851131190222
 20
24.16049564077468
 11
295.5632814142282
 21
24.16049564077468
 72
     4
 94
        3
 73
     1
 74
     0
 95
       14
 96
       10
 40
1.0
 40
1.0
 40
1.0
 40
1.0
 40
2.0
 40
2.0
 40
2.0
 40
3.0
 40
3.0
 40
3.0
 40
4.0
 40
4.0
 40
4.0
 40
4.0
 10
295.5632814142282
 20
24.16049564077468
 42
1.0
 10
295.5632814142282
 20
25.01272602299438
 42
1.0
 10
295.5627432970579
 20
25.84365465270932
 42
1.0
 10
295.5644406723573
 20
26.67457866999212
 42
1.0
 10
295.5645605956114
 20
26.73240397223375
 42
1.0
 10
295.5792681065788
 20
26.79059327230427
 42
1.0
 10
295.5906023916358
 20
26.8479388815276
 42
1.0
 10
295.6648994604227
 20
27.22384581892186
 42
1.0
 10
295.9411319155254
 20
27.38780204855992
 42
1.0
 10
296.2715297073844
 20
27.50458020069891
 42
1.0
 97
        0
 75
     0
 76
     1
 98
        1
 10
0.0
 20
0.0
  0
SPLINE
  5
7E
330
1F
100
AcDbEntity
  8
0
  6
Continuous
 62
   179
370
     0
100
AcDbSpline
210
0.0
220
0.0
230
1.0
 70
     8
 71
     3
 72
    14
 73
    10
 74
     0
 42
0.000000001
 43
0.00000001
 40
24.0
 40
24.0
 40
24.0
 40
24.0
 40
25.0
 40
25.0
 40
25.0
 40
26.0
 40
26.0
 40
26.0
 40
27.0
 40
27.0
 40
27.0
 40
27.0
 10
287.7314564875268
 20
22.4264857094768
 30
0.0
 10
288.0996055050067
 20
21.95463920731319
 30
0.0
 10
288.4270667146001
 20
21.47381844824843
 30
0.0
 10
288.8166481701822
 20
21.05011190802389
 30
0.0
 10
289.3841588364346
 20
20.43289382139212
 30
0.0
 10
289.9836367374808
 20
20.49110656799653
 30
0.0
 10
290.4735170834558
 20
21.16713932372221
 30
0.0
 10
290.5884281612034
 20
21.32571784099438
 30
0.0
 10
290.6825002672103
 20
21.49939669476813
 30
0.0
 10
290.8103661314317
 20
21.70506046432864
 30
0.0
  0
SPLINE
  5
7F
330
1F
100
AcDbEntity
  8
0
  6
Continuous
 62
   179
370
     0
100
AcDbSpline
210
0.0
220
0.0
230
1.0
 70
     8
 71
     3
 72
    11
 73
     7
 74
     0
 42
0.000000001
 43
0.00000001
 40
22.0
 40
22.0
 40
22.0
 40
22.0
 40
23.0
 40
23.0
 40
23.0
 40
24.0
 40
24.0
 40
24.0
 40
24.0
 10
290.7742138825406
 20
25.39867403457779
 30
0.0
 10
289.9536528488242
 20
25.26443186627322
 30
0.0
 10
289.4290162836425
 20
24.71923384406366
 30
0.0
 10
288.9612633156569
 20
24.10441845059237
 30
0.0
 10
288.5466855488353
 20
23.55949371503118
 30
0.0
 10
288.1508588591387
 20
23.00030157147278
 30
0.0
 10
287.7314564875268
 20
22.4264857094768
 30
0.0
  0
SPLINE
  5
80
330
1F
100
AcDbEntity
  8
0
  6
Continuous
 62
   179
370
     0
100
AcDbSpline
210
0.0
220
0.0
230
1.0
 70
     8
 71
     3
 72
    11
 73
     7
 74
     0
 42
0.000000001
 43
0.00000001
 40
20.0
 40
20.0
 40
20.0
 40
20.0
 40
21.0
 40
21.0
 40
21.0
 40
22.0
 40
22.0
 40
22.0
 40
22.0
 10
287.7715077796773
 20
25.39867403457779
 30
0.0
 10
288.2706160663608
 20
25.39867403457779
 30
0.0
 10
288.76972127809
 20
25.39867441894744
 30
0.0
 10
289.2688295647749
 20
25.39867441894744
 30
0.0
 10
289.7706253623487
 20
25.39867441894744
 30
0.0
 10
290.2724180849667
 20
25.39867403457779
 30
0.0
 10
290.7742138825406
 20
25.39867403457779
 30
0.0
  0
SPLINE
  5
81
330
1F
100
AcDbEntity
  8
0
  6
Continuous
 62
   179
370
     0
100
AcDbSpline
210
0.0
220
0.0
230
1.0
 70
     8
 71
     3
 72
    17
 73
    13
 74
     0
 42
0.000000001
 43
0.00000001
 40
16.0
 40
16.0
 40
16.0
 40
16.0
 40
17.0
 40
17.0
 40
17.0
 40
18.0
 40
18.0
 40
18.0
 40
19.0
 40
19.0
 40
19.0
 40
20.0
 40
20.0
 40
20.0
 40
20.0
 10
287.7233847299918
 20
22.54303496963325
 30
0.0
 10
288.0735790837579
 20
23.12311989664797
 30
0.0
 10
288.4211781752921
 20
23.692108847638
 30
0.0
 10
288.7595985254019
 20
24.26650702928458
 30
0.0
 10
288.8131334963293
 20
24.35736772890119
 30
0.0
 10
288.8373887433532
 20
24.47070865762303
 30
0.0
 10
288.8543009972361
 20
24.57697987985169
 30
0.0
 10
288.9174636530569
 20
24.97387165717582
 30
0.0
 10
288.7601181928394
 20
25.20759054971102
 30
0.0
 10
288.3670435880915
 20
25.28904726743022
 30
0.0
 10
288.1718392788191
 20
25.32949945687163
 30
0.0
 10
287.9710693005408
 20
25.34310267453518
 30
0.0
 10
287.7715077796773
 20
25.39867403457779
 30
0.0
  0
SPLINE
  5
82
330
1F
100
AcDbEntity
  8
0
  6
Continuous
 62
   179
370
     0
100
AcDbSpline
210
0.0
220
0.0
230
1.0
 70
     8
 71
     3
 72
     8
 73
     4
 74
     0
 42
0.000000001
 43
0.00000001
 40
15.0
 40
15.0
 40
15.0
 40
15.0
 40
16.0
 40
16.0
 40
16.0
 40
16.0
 10
285.8065406500283
 20
24.86455968857225
 30
0.0
 10
286.4380688096612
 20
24.09970377545334
 30
0.0
 10
287.0596648638312
 20
23.34687900912474
 30
0.0
 10
287.7233847299918
 20
22.54303496963325
 30
0.0
  0
SPLINE
  5
83
330
1F
100
AcDbEntity
  8
0
  6
Continuous
 62
   179
370
     0
100
AcDbSpline
210
0.0
220
0.0
230
1.0
 70
     8
 71
     3
 72
    26
 73
    22
 74
     0
 42
0.000000001
 43
0.00000001
 40
8.0
 40
8.0
 40
8.0
 40
8.0
 40
9.0
 40
9.0
 40
9.0
 40
10.0
 40
10.0
 40
10.0
 40
11.0
 40
11.0
 40
11.0
 40
12.0
 40
12.0
 40
12.0
 40
13.0
 40
13.0
 40
13.0
 40
14.0
 40
14.0
 40
14.0
 40
15.0
 40
15.0
 40
15.0
 40
15.0
 10
284.7027239634148
 20
24.46818604120849
 30
0.0
 10
284.5641388051866
 20
24.6300390014551
 30
0.0
 10
284.4323277733789
 20
24.77744812814591
 30
0.0
 10
284.3077767109179
 20
24.93075271279267
 30
0.0
 10
284.0198409761273
 20
25.28515591156022
 30
0.0
 10
283.7707819005811
 20
25.65802498535045
 30
0.0
 10
283.7149530130354
 20
26.1296866058298
 30
0.0
 10
283.6309452355653
 20
26.8393466878164
 30
0.0
 10
283.9109291360762
 20
27.37506654483262
 30
0.0
 10
284.558084218296
 20
27.68711127408746
 30
0.0
 10
285.1912113546599
 20
27.99239110178883
 30
0.0
 10
285.840402057257
 20
27.99583274545401
 30
0.0
 10
286.4793408590448
 20
27.71426216803416
 30
0.0
 10
287.361321048954
 20
27.32558686332681
 30
0.0
 10
287.5614237619422
 20
26.30921056516709
 30
0.0
 10
286.8815726805328
 20
25.62247811827483
 30
0.0
 10
286.6551698752792
 20
25.39378370261948
 30
0.0
 10
286.361711520857
 20
25.23088333574105
 30
0.0
 10
286.0959738880259
 20
25.04203380586477
 30
0.0
 10
286.0025259979348
 20
24.975621306713
 30
0.0
 10
285.9002991106001
 20
24.9215528310502
 30
0.0
 10
285.8065406500283
 20
24.86455968857225
 30
0.0
  0
SPLINE
  5
84
330
1F
100
AcDbEntity
  8
0
  6
Continuous
 62
   179
370
     0
100
AcDbSpline
210
0.0
220
0.0
230
1.0
 70
     8
 71
     3
 72
    20
 73
    16
 74
     0
 42
0.000000001
 43
0.00000001
 40
3.0
 40
3.0
 40
3.0
 40
3.0
 40
4.0
 40
4.0
 40
4.0
 40
5.0
 40
5.0
 40
5.0
 40
6.0
 40
6.0
 40
6.0
 40
7.0
 40
7.0
 40
7.0
 40
8.0
 40
8.0
 40
8.0
 40
8.0
 10
287.0539854214827
 20
21.61211917311517
 30
0.0
 10
286.8995550188436
 20
21.43851181205056
 30
0.0
 10
286.7443651022574
 20
21.26447318851251
 30
0.0
 10
286.5896302790503
 20
21.09003174583673
 30
0.0
 10
285.9488126796034
 20
20.36759637788916
 30
0.0
 10
285.1515567317372
 20
20.05360962220845
 30
0.0
 10
284.198169930981
 20
20.23446388406056
 30
0.0
 10
282.6109241545095
 20
20.5355588898502
 30
0.0
 10
282.3522343191156
 20
22.37884389028816
 30
0.0
 10
283.1417229300147
 20
23.34576433784628
 30
0.0
 10
283.460866385652
 20
23.73663343094009
 30
0.0
 10
283.8607304915963
 20
24.02105948868024
 30
0.0
 10
284.3005597909425
 20
24.25632085564481
 30
0.0
 10
284.4255536469583
 20
24.32317807019961
 30
0.0
 10
284.5513685160267
 20
24.38851087568819
 30
0.0
 10
284.7027239634148
 20
24.46818604120849
 30
0.0
  0
SPLINE
  5
85
330
1F
100
AcDbEntity
  8
0
  6
Continuous
 62
   179
370
     0
100
AcDbSpline
210
0.0
220
0.0
230
1.0
 70
     8
 71
     3
 72
    14
 73
    10
 74
     0
 42
0.000000001
 43
0.00000001
 40
0.0
 40
0.0
 40
0.0
 40
0.0
 40
1.0
 40
1.0
 40
1.0
 40
2.0
 40
2.0
 40
2.0
 40
3.0
 40
3.0
 40
3.0
 40
3.0
 10
290.8103661314317
 20
21.70506046432864
 30
0.0
 10
290.7160910783766
 20
21.04182259740494
 30
0.0
 10
289.9739444785289
 20
20.32342848939635
 30
0.0
 10
289.3271645408483
 20
20.20870037148624
 30
0.0
 10
288.7048673968812
 20
20.09831485913089
 30
0.0
 10
288.1784811821614
 20
20.26780485511384
 30
0.0
 10
287.7601488949774
 20
20.73592220529573
 30
0.0
 10
287.5152010346028
 20
21.01001756649998
 30
0.0
 10
287.2972697310664
 20
21.3082559388604
 30
0.0
 10
287.0539854214827
 20
21.61211917311517
 30
0.0
  0
SPLINE
  5
86
330
1F
100
AcDbEntity
  8
0
  6
Continuous
 62
   179
370
     0
100
AcDbSpline
210
0.0
220
0.0
230
1.0
 70
     8
 71
     3
 72
    14
 73
    10
 74
     0
 42
0.000000001
 43
0.00000001
 40
1.0
 40
1.0
 40
1.0
 40
1.0
 40
2.0
 40
2.0
 40
2.0
 40
3.0
 40
3.0
 40
3.0
 40
4.0
 40
4.0
 40
4.0
 40
4.0
 10
284.845288113738
 20
24.3712657578988
 30
0.0
 10
284.1054815548355
 20
23.90423117633508
 30
0.0
 10
283.6988925217564
 20
23.08417174469389
 30
0.0
 10
283.7780264951535
 20
22.28619625730053
 30
0.0
 10
283.8665083325146
 20
21.39392726712143
 30
0.0
 10
284.4974276510072
 20
20.83427541775252
 30
0.0
 10
285.3603677179978
 20
20.87638462370451
 30
0.0
 10
286.0339581905155
 20
20.90925282038733
 30
0.0
 10
286.5509442670314
 20
21.22618922689351
 30
0.0
 10
287.0009947176327
 20
21.77781006188367
 30
0.0
  0
SPLINE
  5
87
330
1F
100
AcDbEntity
  8
0
  6
Continuous
 62
   179
370
     0
100
AcDbSpline
210
0.0
220
0.0
230
1.0
 70
     8
 71
     3
 72
     8
 73
     4
 74
     0
 42
0.000000001
 43
0.00000001
 40
0.0
 40
0.0
 40
0.0
 40
0.0
 40
1.0
 40
1.0
 40
1.0
 40
1.0
 10
287.0009947176327
 20
21.77781006188367
 30
0.0
 10
286.2819902310068
 20
22.64282111123716
 30
0.0
 10
285.5612360948443
 20
23.50993158628786
 30
0.0
 10
284.845288113738
 20
24.3712657578988
 30
0.0
  0
SPLINE
  5
88
330
1F
100
AcDbEntity
  8
0
  6
Continuous
 62
   179
370
     0
100
AcDbSpline
210
0.0
220
0.0
230
1.0
 70
     8
 71
     3
 72
    11
 73
     7
 74
     0
 42
0.000000001
 43
0.00000001
 40
3.0
 40
3.0
 40
3.0
 40
3.0
 40
4.0
 40
4.0
 40
4.0
 40
5.0
 40
5.0
 40
5.0
 40
5.0
 10
284.688382372121
 20
27.15085253116304
 30
0.0
 10
284.5630810205802
 20
26.788679112661
 30
0.0
 10
284.5571094574822
 20
26.41068293535724
 30
0.0
 10
284.7721626029031
 20
26.08712768767229
 30
0.0
 10
285.0380140090768
 20
25.68714980838475
 30
0.0
 10
285.3510444536752
 20
25.31853032275095
 30
0.0
 10
285.6520579731507
 20
24.9254318870995
 30
0.0
  0
SPLINE
  5
89
330
1F
100
AcDbEntity
  8
0
  6
Continuous
 62
   179
370
     0
100
AcDbSpline
210
0.0
220
0.0
230
1.0
 70
     8
 71
     3
 72
    14
 73
    10
 74
     0
 42
0.000000001
 43
0.00000001
 40
0.0
 40
0.0
 40
0.0
 40
0.0
 40
1.0
 40
1.0
 40
1.0
 40
2.0
 40
2.0
 40
2.0
 40
3.0
 40
3.0
 40
3.0
 40
3.0
 10
285.6520579731507
 20
24.9254318870995
 30
0.0
 10
286.3259713159692
 20
25.4295804098103
 30
0.0
 10
286.5713650448558
 20
26.2298440482801
 30
0.0
 10
286.3549927436335
 20
27.06650131962916
 30
0.0
 10
286.2400293916459
 20
27.5110460628537
 30
0.0
 10
285.9916529561654
 20
27.74682017860581
 30
0.0
 10
285.6158934244382
 20
27.76810636414938
 30
0.0
 10
285.1818973152029
 20
27.79269159230804
 30
0.0
 10
284.8337724063213
 20
27.5710895609412
 30
0.0
 10
284.688382372121
 20
27.15085253116304
 30
0.0
  0
SPLINE
  5
8A
330
1F
100
AcDbEntity
  8
0
  6
Continuous
 62
   179
370
     0
100
AcDbSpline
210
0.0
220
0.0
230
1.0
 70
     8
 71
     3
 72
    17
 73
    13
 74
     0
 42
0.000000001
 43
0.00000001
 40
21.0
 40
21.0
 40
21.0
 40
21.0
 40
22.0
 40
22.0
 40
22.0
 40
23.0
 40
23.0
 40
23.0
 40
24.0
 40
24.0
 40
24.0
 40
25.0
 40
25.0
 40
25.0
 40
25.0
 10
293.8906841048422
 20
20.25643828302682
 30
0.0
 10
294.0348564567621
 20
20.35359533789035
 30
0.0
 10
294.2655211499942
 20
20.43733713173098
 30
0.0
 10
294.3739502220706
 20
20.60171040217499
 30
0.0
 10
294.4888489999954
 20
20.77588586122133
 30
0.0
 10
294.52894334152
 20
21.02641399663968
 30
0.0
 10
294.5304592944584
 20
21.24409084762873
 30
0.0
 10
294.54232862173
 20
22.9481603240125
 30
0.0
 10
294.5326947869268
 20
24.65236702027423
 30
0.0
 10
294.5396718603926
 20
26.35648992400541
 30
0.0
 10
294.541848928711
 20
26.88863860486635
 30
0.0
 10
294.4654639653083
 20
27.35271373418588
 30
0.0
 10
293.841527870193
 20
27.50458020069891
 30
0.0
  0
SPLINE
  5
8B
330
1F
100
AcDbEntity
  8
0
  6
Continuous
 62
   179
370
     0
100
AcDbSpline
210
0.0
220
0.0
230
1.0
 70
    24
 71
     3
 72
     8
 73
     4
 74
     0
 42
0.000000001
 43
0.00000001
 40
20.0
 40
20.0
 40
20.0
 40
20.0
 40
21.0
 40
21.0
 40
21.0
 40
21.0
 10
296.2880237673525
 20
20.25643828302682
 30
0.0
 10
295.4693261565182
 20
20.25643828302682
 30
0.0
 10
294.6506254707311
 20
20.25643828302682
 30
0.0
 10
293.8906841048422
 20
20.25643828302682
 30
0.0
  0
SPLINE
  5
8C
330
1F
100
AcDbEntity
  8
0
  6
Continuous
 62
   179
370
     0
100
AcDbSpline
210
0.0
220
0.0
230
1.0
 70
     8
 71
     3
 72
    14
 73
    10
 74
     0
 42
0.000000001
 43
0.00000001
 40
17.0
 40
17.0
 40
17.0
 40
17.0
 40
18.0
 40
18.0
 40
18.0
 40
19.0
 40
19.0
 40
19.0
 40
20.0
 40
20.0
 40
20.0
 40
20.0
 10
295.5733857171835
 20
23.97022240661697
 30
0.0
 10
295.5696219719554
 20
23.89376787235267
 30
0.0
 10
295.5622759038603
 20
23.81306182808445
 30
0.0
 10
295.5621928800676
 20
23.73234771205876
 30
0.0
 10
295.561359567195
 20
22.89285956003151
 30
0.0
 10
295.560827599936
 20
22.05336910178782
 30
0.0
 10
295.5619960829322
 20
21.2138824872384
 30
0.0
 10
295.5628078711177
 20
20.63015527572819
 30
0.0
 10
295.7413366980624
 20
20.4024294709773
 30
0.0
 10
296.2880237673525
 20
20.25643828302682
 30
0.0
  0
SPLINE
  5
8D
330
1F
100
AcDbEntity
  8
0
  6
Continuous
 62
   179
370
     0
100
AcDbSpline
210
0.0
220
0.0
230
1.0
 70
    24
 71
     3
 72
     8
 73
     4
 74
     0
 42
0.000000001
 43
0.00000001
 40
16.0
 40
16.0
 40
16.0
 40
16.0
 40
17.0
 40
17.0
 40
17.0
 40
17.0
 10
298.4851131190222
 20
23.97022240661697
 30
0.0
 10
297.5154382802974
 20
23.97022240661697
 30
0.0
 10
296.5557754958724
 20
23.97022240661697
 30
0.0
 10
295.5733857171835
 20
23.97022240661697
 30
0.0
  0
SPLINE
  5
8E
330
1F
100
AcDbEntity
  8
0
  6
Continuous
 62
   179
370
     0
100
AcDbSpline
210
0.0
220
0.0
230
1.0
 70
     8
 71
     3
 72
    11
 73
     7
 74
     0
 42
0.000000001
 43
0.00000001
 40
14.0
 40
14.0
 40
14.0
 40
14.0
 40
15.0
 40
15.0
 40
15.0
 40
16.0
 40
16.0
 40
16.0
 40
16.0
 10
297.7632396991476
 20
20.25412130424438
 30
0.0
 10
298.3307257657572
 20
20.41986831094703
 30
0.0
 10
298.4849747460367
 20
20.62384393007452
 30
0.0
 10
298.485073144605
 20
21.23173567742801
 30
0.0
 10
298.4852207424561
 20
22.13796342697173
 30
0.0
 10
298.4851131190222
 20
23.04419117651474
 30
0.0
 10
298.4851131190222
 20
23.97022240661697
 30
0.0
  0
SPLINE
  5
8F
330
1F
100
AcDbEntity
  8
0
  6
Continuous
 62
   179
370
     0
100
AcDbSpline
210
0.0
220
0.0
230
1.0
 70
    24
 71
     3
 72
     8
 73
     4
 74
     0
 42
0.000000001
 43
0.00000001
 40
13.0
 40
13.0
 40
13.0
 40
13.0
 40
14.0
 40
14.0
 40
14.0
 40
14.0
 10
300.2193725060648
 20
20.25412130424438
 30
0.0
 10
299.4006625954106
 20
20.25412130424438
 30
0.0
 10
298.5819526847563
 20
20.25412130424438
 30
0.0
 10
297.7632396991476
 20
20.25412130424438
 30
0.0
  0
SPLINE
  5
90
330
1F
100
AcDbEntity
  8
0
  6
Continuous
 62
   179
370
     0
100
AcDbSpline
210
0.0
220
0.0
230
1.0
 70
     8
 71
     3
 72
    17
 73
    13
 74
     0
 42
0.000000001
 43
0.00000001
 40
9.0
 40
9.0
 40
9.0
 40
9.0
 40
10.0
 40
10.0
 40
10.0
 40
11.0
 40
11.0
 40
11.0
 40
12.0
 40
12.0
 40
12.0
 40
13.0
 40
13.0
 40
13.0
 40
13.0
 10
300.2549312885929
 20
27.49433829349534
 30
0.0
 10
300.1600043450263
 20
27.45496618208605
 30
0.0
 10
300.1052670665942
 20
27.43024796211264
 30
0.0
 10
300.049118383702
 20
27.40930924651266
 30
0.0
 10
299.7248336028849
 20
27.28837413924314
 30
0.0
 10
299.5426363543262
 20
27.0468754177367
 30
0.0
 10
299.5421628112159
 20
26.70494346873036
 30
0.0
 10
299.5395583241182
 20
24.8160968563317
 30
0.0
 10
299.5393769017586
 20
22.92724217217554
 30
0.0
 10
299.542119761843
 20
21.03839632851544
 30
0.0
 10
299.5427163031618
 20
20.62720562490344
 30
0.0
 10
299.739442715284
 20
20.41422423058344
 30
0.0
 10
300.2193725060648
 20
20.25412130424438
 30
0.0
  0
SPLINE
  5
91
330
1F
100
AcDbEntity
  8
0
  6
Continuous
 62
   179
370
     0
100
AcDbSpline
210
0.0
220
0.0
230
1.0
 70
    24
 71
     3
 72
     8
 73
     4
 74
     0
 42
0.000000001
 43
0.00000001
 40
8.0
 40
8.0
 40
8.0
 40
8.0
 40
9.0
 40
9.0
 40
9.0
 40
9.0
 10
297.7186989723292
 20
27.49433829349534
 30
0.0
 10
298.5854396840106
 20
27.49433829349534
 30
0.0
 10
299.3949493285535
 20
27.49433829349534
 30
0.0
 10
300.2549312885929
 20
27.49433829349534
 30
0.0
  0
SPLINE
  5
92
330
1F
100
AcDbEntity
  8
0
  6
Continuous
 62
   179
370
     0
100
AcDbSpline
210
0.0
220
0.0
230
1.0
 70
     8
 71
     3
 72
    14
 73
    10
 74
     0
 42
0.000000001
 43
0.00000001
 40
5.0
 40
5.0
 40
5.0
 40
5.0
 40
6.0
 40
6.0
 40
6.0
 40
7.0
 40
7.0
 40
7.0
 40
8.0
 40
8.0
 40
8.0
 40
8.0
 10
298.4851131190222
 20
24.16049564077468
 30
0.0
 10
298.4851131190222
 20
24.24049329222682
 30
0.0
 10
298.4851131190222
 20
24.32893553953832
 30
0.0
 10
298.4851131190222
 20
24.41737817121947
 30
0.0
 10
298.4851131190222
 20
25.09736416629037
 30
0.0
 10
298.4851377186649
 20
25.7773505457302
 30
0.0
 10
298.4851069691121
 20
26.45733654080182
 30
0.0
 10
298.4850762195593
 20
27.0944786077999
 30
0.0
 10
298.3648823686909
 20
27.26685790861022
 30
0.0
 10
297.7186989723292
 20
27.49433829349534
 30
0.0
  0
SPLINE
  5
93
330
1F
100
AcDbEntity
  8
0
  6
Continuous
 62
   179
370
     0
100
AcDbSpline
210
0.0
220
0.0
230
1.0
 70
    24
 71
     3
 72
     8
 73
     4
 74
     0
 42
0.000000001
 43
0.00000001
 40
4.0
 40
4.0
 40
4.0
 40
4.0
 40
5.0
 40
5.0
 40
5.0
 40
5.0
 10
295.5632814142282
 20
24.16049564077468
 30
0.0
 10
296.5292663066504
 20
24.16049564077468
 30
0.0
 10
297.4889290910767
 20
24.16049564077468
 30
0.0
 10
298.4851131190222
 20
24.16049564077468
 30
0.0
  0
SPLINE
  5
94
330
1F
100
AcDbEntity
  8
0
  6
Continuous
 62
   179
370
     0
100
AcDbSpline
210
0.0
220
0.0
230
1.0
 70
     8
 71
     3
 72
    14
 73
    10
 74
     0
 42
0.000000001
 43
0.00000001
 40
1.0
 40
1.0
 40
1.0
 40
1.0
 40
2.0
 40
2.0
 40
2.0
 40
3.0
 40
3.0
 40
3.0
 40
4.0
 40
4.0
 40
4.0
 40
4.0
 10
296.2715297073844
 20
27.50458020069891
 30
0.0
 10
295.9411319155254
 20
27.38780204855992
 30
0.0
 10
295.6648994604227
 20
27.22384581892186
 30
0.0
 10
295.5906023916358
 20
26.8479388815276
 30
0.0
 10
295.5792681065788
 20
26.79059327230427
 30
0.0
 10
295.5645605956114
 20
26.73240397223375
 30
0.0
 10
295.5644406723573
 20
26.67457866999212
 30
0.0
 10
295.5627432970579
 20
25.84365465270932
 30
0.0
 10
295.5632814142282
 20
25.01272602299438
 30
0.0
 10
295.5632814142282
 20
24.16049564077468
 30
0.0
  0
SPLINE
  5
95
330
1F
100
AcDbEntity
  8
0
  6
Continuous
 62
   179
370
     0
100
AcDbSpline
210
0.0
220
0.0
230
1.0
 70
    24
 71
     3
 72
     8
 73
     4
 74
     0
 42
0.000000001
 43
0.00000001
 40
0.0
 40
0.0
 40
0.0
 40
0.0
 40
1.0
 40
1.0
 40
1.0
 40
1.0
 10
293.841527870193
 20
27.50458020069891
 30
0.0
 10
294.6515264326192
 20
27.50458020069891
 30
0.0
 10
295.4615280700011
 20
27.50458020069891
 30
0.0
 10
296.2715297073844
 20
27.50458020069891
 30
0.0
  0
SPLINE
  5
96
330
1F
100
AcDbEntity
  8
0
  6
Continuous
 62
   179
370
     0
100
AcDbSpline
210
0.0
220
0.0
230
1.0
 70
     8
 71
     3
 72
    14
 73
    10
 74
     0
 42
0.000000001
 43
0.00000001
 40
17.0
 40
17.0
 40
17.0
 40
17.0
 40
18.0
 40
18.0
 40
18.0
 40
19.0
 40
19.0
 40
19.0
 40
20.0
 40
20.0
 40
20.0
 40
20.0
 10
257.7053577757453
 20
20.25910042553502
 30
0.0
 10
258.2139995287706
 20
20.39587059142628
 30
0.0
 10
258.4104423723632
 20
20.62446660851326
 30
0.0
 10
258.4124688639662
 20
21.16843695483816
 30
0.0
 10
258.4191609275175
 20
22.96470127704905
 30
0.0
 10
258.4149081683119
 20
24.76100595804667
 30
0.0
 10
258.4151320634913
 20
26.55729487989966
 30
0.0
 10
258.4151924094879
 20
27.04153921726714
 30
0.0
 10
258.2057453879524
 20
27.36893835120056
 30
0.0
 10
257.7192638284546
 20
27.51463645747964
 30
0.0
  0
SPLINE
  5
97
330
1F
100
AcDbEntity
  8
0
  6
Continuous
 62
   179
370
     0
100
AcDbSpline
210
0.0
220
0.0
230
1.0
 70
    24
 71
     3
 72
     8
 73
     4
 74
     0
 42
0.000000001
 43
0.00000001
 40
16.0
 40
16.0
 40
16.0
 40
16.0
 40
17.0
 40
17.0
 40
17.0
 40
17.0
 10
260.1134120717832
 20
20.25910042553502
 30
0.0
 10
259.3107272904223
 20
20.25910042553502
 30
0.0
 10
258.5080426051526
 20
20.25910042553502
 30
0.0
 10
257.7053577757453
 20
20.25910042553502
 30
0.0
  0
SPLINE
  5
98
330
1F
100
AcDbEntity
  8
0
  6
Continuous
 62
   179
370
     0
100
AcDbSpline
210
0.0
220
0.0
230
1.0
 70
     8
 71
     3
 72
    14
 73
    10
 74
     0
 42
0.000000001
 43
0.00000001
 40
13.0
 40
13.0
 40
13.0
 40
13.0
 40
14.0
 40
14.0
 40
14.0
 40
15.0
 40
15.0
 40
15.0
 40
16.0
 40
16.0
 40
16.0
 40
16.0
 10
259.4607286043899
 20
23.57138302951071
 30
0.0
 10
259.4539911852495
 20
23.51939476107442
 30
0.0
 10
259.4406539512153
 20
23.46398560492077
 30
0.0
 10
259.4405559370167
 20
23.40855338660287
 30
0.0
 10
259.4392191002215
 20
22.65310606781492
 30
0.0
 10
259.4366701545022
 20
21.89763799307775
 30
0.0
 10
259.4408326829897
 20
21.14221143023692
 30
0.0
 10
259.4435911100346
 20
20.64162793377141
 30
0.0
 10
259.6377614656041
 20
20.40079128856704
 30
0.0
 10
260.1134120717832
 20
20.25910042553502
 30
0.0
  0
SPLINE
  5
99
330
1F
100
AcDbEntity
  8
0
  6
Continuous
 62
   179
370
     0
100
AcDbSpline
210
0.0
220
0.0
230
1.0
 70
     8
 71
     3
 72
    20
 73
    16
 74
     0
 42
0.000000001
 43
0.00000001
 40
8.0
 40
8.0
 40
8.0
 40
8.0
 40
9.0
 40
9.0
 40
9.0
 40
10.0
 40
10.0
 40
10.0
 40
11.0
 40
11.0
 40
11.0
 40
12.0
 40
12.0
 40
12.0
 40
13.0
 40
13.0
 40
13.0
 40
13.0
 10
263.9554858268652
 20
20.24609336482204
 30
0.0
 10
263.8909540472192
 20
20.24131411562171
 30
0.0
 10
263.8264337986554
 20
20.23257048036439
 30
0.0
 10
263.7618904879274
 20
20.2323936704376
 30
0.0
 10
263.3170171088603
 20
20.2311736819415
 30
0.0
 10
262.8718696744063
 20
20.24067529366942
 30
0.0
 10
262.427398730108
 20
20.22724465786873
 30
0.0
 10
262.2549406335689
 20
20.22203337745712
 30
0.0
 10
262.1765046750147
 20
20.28890135435546
 30
0.0
 10
262.1067370153144
 20
20.43629933433309
 30
0.0
 10
261.7451764738302
 20
21.200166649339
 30
0.0
 10
261.378026816807
 20
21.9614848264415
 30
0.0
 10
261.0037355762117
 20
22.71920223094413
 30
0.0
 10
260.6054131759577
 20
23.52556773374194
 30
0.0
 10
260.3725694925604
 20
23.65083910446931
 30
0.0
 10
259.4607286043899
 20
23.57138302951071
 30
0.0
  0
SPLINE
  5
9A
330
1F
100
AcDbEntity
  8
0
  6
Continuous
 62
   179
370
     0
100
AcDbSpline
210
0.0
220
0.0
230
1.0
 70
     8
 71
     3
 72
    14
 73
    10
 74
     0
 42
0.000000001
 43
0.00000001
 40
5.0
 40
5.0
 40
5.0
 40
5.0
 40
6.0
 40
6.0
 40
6.0
 40
7.0
 40
7.0
 40
7.0
 40
8.0
 40
8.0
 40
8.0
 40
8.0
 10
261.0219043336847
 20
23.63056361828031
 30
0.0
 10
261.7521543160346
 20
23.35408286053947
 30
0.0
 10
262.033208300972
 20
22.73079019980925
 30
0.0
 10
262.3739921385617
 20
22.16106556577572
 30
0.0
 10
262.6276890153665
 20
21.7369354504649
 30
0.0
 10
262.8739775562312
 20
21.30835818112304
 30
0.0
 10
263.1292772534607
 20
20.88520667032095
 30
0.0
 10
263.3178377375433
 20
20.57267359973515
 30
0.0
 10
263.5606000734738
 20
20.32757122285868
 30
0.0
 10
263.9554858268652
 20
20.24609336482204
 30
0.0
  0
SPLINE
  5
9B
330
1F
100
AcDbEntity
  8
0
  6
Continuous
 62
   179
370
     0
100
AcDbSpline
210
0.0
220
0.0
230
1.0
 70
     8
 71
     3
 72
    20
 73
    16
 74
     0
 42
0.000000001
 43
0.00000001
 40
0.0
 40
0.0
 40
0.0
 40
0.0
 40
1.0
 40
1.0
 40
1.0
 40
2.0
 40
2.0
 40
2.0
 40
3.0
 40
3.0
 40
3.0
 40
4.0
 40
4.0
 40
4.0
 40
5.0
 40
5.0
 40
5.0
 40
5.0
 10
257.7192638284546
 20
27.51463645747964
 30
0.0
 10
258.1174764912431
 20
27.51463645747964
 30
0.0
 10
258.5159962651877
 20
27.52468175973202
 30
0.0
 10
258.913837050576
 20
27.51251762112626
 30
0.0
 10
259.7094699986221
 20
27.48819126576296
 30
0.0
 10
260.5093946232761
 20
27.49481913962259
 30
0.0
 10
261.2989762515715
 20
27.40941936834727
 30
0.0
 10
262.3071445332423
 20
27.30037799580671
 30
0.0
 10
262.8488620904764
 20
26.74717259793779
 30
0.0
 10
262.9131259646454
 20
25.88395655371281
 30
0.0
 10
262.9966382899503
 20
24.76217905347502
 30
0.0
 10
262.5617362220245
 20
24.08644572151765
 30
0.0
 10
261.5515161764629
 20
23.77337299628437
 30
0.0
 10
261.3945785321864
 20
23.72473719781129
 30
0.0
 10
261.2341319795987
 20
23.68742184709604
 30
0.0
 10
261.0219043336847
 20
23.63056361828031
 30
0.0
  0
SPLINE
  5
9C
330
1F
100
AcDbEntity
  8
0
  6
Continuous
 62
   179
370
     0
100
AcDbSpline
210
0.0
220
0.0
230
1.0
 70
     8
 71
     3
 72
    20
 73
    16
 74
     0
 42
0.000000001
 43
0.00000001
 40
1.0
 40
1.0
 40
1.0
 40
1.0
 40
2.0
 40
2.0
 40
2.0
 40
3.0
 40
3.0
 40
3.0
 40
4.0
 40
4.0
 40
4.0
 40
5.0
 40
5.0
 40
5.0
 40
6.0
 40
6.0
 40
6.0
 40
6.0
 10
259.4558811296203
 20
23.74052094311722
 30
0.0
 10
259.8313410453958
 20
23.74052094311722
 30
0.0
 10
260.1942113256325
 20
23.70804326575078
 30
0.0
 10
260.5489927438957
 20
23.74778168120397
 30
0.0
 10
261.1506181168165
 20
23.81517009427841
 30
0.0
 10
261.608259863196
 20
24.13857044109259
 30
0.0
 10
261.7413862071132
 20
24.73962656292206
 30
0.0
 10
261.8389787525148
 20
25.18024881635489
 30
0.0
 10
261.8719876284001
 20
25.65810454981779
 30
0.0
 10
261.8164781518313
 20
26.10478869315943
 30
0.0
 10
261.7108519014664
 20
26.95476897687368
 30
0.0
 10
261.3230227860075
 20
27.28690123567825
 30
0.0
 10
260.4792308497364
 20
27.35420547185249
 30
0.0
 10
260.1467440101549
 20
27.38072599997261
 30
0.0
 10
259.8103733099057
 20
27.35855230546976
 30
0.0
 10
259.4558811296203
 20
27.35855230546976
 30
0.0
  0
SPLINE
  5
9D
330
1F
100
AcDbEntity
  8
0
  6
Continuous
 62
   179
370
     0
100
AcDbSpline
210
0.0
220
0.0
230
1.0
 70
    24
 71
     3
 72
     8
 73
     4
 74
     0
 42
0.000000001
 43
0.00000001
 40
0.0
 40
0.0
 40
0.0
 40
0.0
 40
1.0
 40
1.0
 40
1.0
 40
1.0
 10
259.4558811296203
 20
27.35855230546976
 30
0.0
 10
259.4558811296203
 20
26.13864548795524
 30
0.0
 10
259.4558811296203
 20
24.94385548148867
 30
0.0
 10
259.4558811296203
 20
23.74052094311722
 30
0.0
  0
SPLINE
  5
9E
330
1F
100
AcDbEntity
  8
0
  6
Continuous
 62
   179
370
     0
100
AcDbSpline
210
0.0
220
0.0
230
1.0
 70
     8
 71
     3
 72
    14
 73
    10
 74
     0
 42
0.000000001
 43
0.00000001
 40
3.0
 40
3.0
 40
3.0
 40
3.0
 40
4.0
 40
4.0
 40
4.0
 40
5.0
 40
5.0
 40
5.0
 40
6.0
 40
6.0
 40
6.0
 40
6.0
 10
267.2336118279071
 20
20.23490821509466
 30
0.0
 10
266.3034040398354
 20
20.48709452013179
 30
0.0
 10
265.5792320909092
 20
21.34541139190241
 30
0.0
 10
265.4837047623288
 20
22.29272284982232
 30
0.0
 10
265.4259332718035
 20
22.86561853145873
 30
0.0
 10
265.4879189885011
 20
23.41465794151554
 30
0.0
 10
265.7739382574312
 20
23.92202056120339
 30
0.0
 10
266.225828300013
 20
24.723612195973
 30
0.0
 10
266.9062728477855
 20
25.1505801106106
 30
0.0
 10
267.7758432870376
 20
25.16748813643033
 30
0.0
  0
SPLINE
  5
9F
330
1F
100
AcDbEntity
  8
0
  6
Continuous
 62
   179
370
     0
100
AcDbSpline
210
0.0
220
0.0
230
1.0
 70
     8
 71
     3
 72
    14
 73
    10
 74
     0
 42
0.000000001
 43
0.00000001
 40
0.0
 40
0.0
 40
0.0
 40
0.0
 40
1.0
 40
1.0
 40
1.0
 40
2.0
 40
2.0
 40
2.0
 40
3.0
 40
3.0
 40
3.0
 40
3.0
 10
267.7758432870376
 20
25.16748813643033
 30
0.0
 10
268.6216197225536
 20
25.16033694362372
 30
0.0
 10
269.2464106552308
 20
24.83848445240961
 30
0.0
 10
269.7103360726668
 20
24.21398909980579
 30
0.0
 10
270.372934348899
 20
23.32205720159637
 30
0.0
 10
270.3723808569537
 20
22.03321892002499
 30
0.0
 10
269.7215189161771
 20
21.13111084177937
 30
0.0
 10
269.1482911393735
 20
20.33660467264827
 30
0.0
 10
268.1650050112285
 20
19.98240211471103
 30
0.0
 10
267.2336118279071
 20
20.23490821509466
 30
0.0
  0
SPLINE
  5
A0
330
1F
100
AcDbEntity
  8
0
  6
Continuous
 62
   179
370
     0
100
AcDbSpline
210
0.0
220
0.0
230
1.0
 70
     8
 71
     3
 72
    17
 73
    13
 74
     0
 42
0.000000001
 43
0.00000001
 40
4.0
 40
4.0
 40
4.0
 40
4.0
 40
5.0
 40
5.0
 40
5.0
 40
6.0
 40
6.0
 40
6.0
 40
7.0
 40
7.0
 40
7.0
 40
8.0
 40
8.0
 40
8.0
 40
8.0
 10
266.4699528411193
 20
22.82140374989816
 30
0.0
 10
266.4269741915698
 20
22.16270989809668
 30
0.0
 10
266.5287029361534
 20
21.51524885782822
 30
0.0
 10
266.8746830637486
 20
20.93428603108956
 30
0.0
 10
267.1048165584612
 20
20.54785025472892
 30
0.0
 10
267.4153070900211
 20
20.27237193240103
 30
0.0
 10
267.9076604687568
 20
20.30531315927085
 30
0.0
 10
268.3388937306983
 20
20.33416469565678
 30
0.0
 10
268.6078393105943
 20
20.5966013640246
 30
0.0
 10
268.810867074766
 20
20.94311038392242
 30
0.0
 10
269.1208448575376
 20
21.47214721006825
 30
0.0
 10
269.202432645224
 20
22.05765558940843
 30
0.0
 10
269.218762963826
 20
22.68351122534059
 30
0.0
  0
SPLINE
  5
A1
330
1F
100
AcDbEntity
  8
0
  6
Continuous
 62
   179
370
     0
100
AcDbSpline
210
0.0
220
0.0
230
1.0
 70
     8
 71
     3
 72
    17
 73
    13
 74
     0
 42
0.000000001
 43
0.00000001
 40
0.0
 40
0.0
 40
0.0
 40
0.0
 40
1.0
 40
1.0
 40
1.0
 40
2.0
 40
2.0
 40
2.0
 40
3.0
 40
3.0
 40
3.0
 40
4.0
 40
4.0
 40
4.0
 40
4.0
 10
269.218762963826
 20
22.68351122534059
 30
0.0
 10
269.195680043492
 20
23.34551372899321
 30
0.0
 10
269.0963628325642
 20
24.01168817818241
 30
0.0
 10
268.6683621173312
 20
24.58056604641373
 30
0.0
 10
268.2143234497673
 20
25.18405330473933
 30
0.0
 10
267.4640605055332
 20
25.19142205062979
 30
0.0
 10
267.0072628343699
 20
24.59213287496141
 30
0.0
 10
266.882078331128
 20
24.42789874624283
 30
0.0
 10
266.7597204805012
 20
24.2414496033099
 30
0.0
 10
266.7072125446274
 20
24.04607386528146
 30
0.0
 10
266.5993976948625
 20
23.64490674705059
 30
0.0
 10
266.4968487059656
 20
23.23360918874381
 30
0.0
 10
266.4699528411193
 20
22.82140374989816
 30
0.0
  0
SPLINE
  5
A2
330
1F
100
AcDbEntity
  8
0
  6
Continuous
 62
   179
370
     0
100
AcDbSpline
210
0.0
220
0.0
230
1.0
 70
     8
 71
     3
 72
    17
 73
    13
 74
     0
 42
0.000000001
 43
0.00000001
 40
6.0
 40
6.0
 40
6.0
 40
6.0
 40
7.0
 40
7.0
 40
7.0
 40
8.0
 40
8.0
 40
8.0
 40
9.0
 40
9.0
 40
9.0
 40
10.0
 40
10.0
 40
10.0
 40
10.0
 10
311.6156486607861
 20
20.25320881127337
 30
0.0
 10
312.1185268426077
 20
20.41647125413319
 30
0.0
 10
312.2872188877024
 20
20.63608302071405
 30
0.0
 10
312.2876555313485
 20
21.16871754450475
 30
0.0
 10
312.2890700107628
 20
22.88922803787955
 30
0.0
 10
312.2877662297369
 20
24.60974045310045
 30
0.0
 10
312.2871819882395
 20
26.33025248395311
 30
0.0
 10
312.2871512386867
 20
26.42255802816857
 30
0.0
 10
312.2845313768121
 20
26.51487279724974
 30
0.0
 10
312.2823973578678
 20
26.60716642601487
 30
0.0
 10
312.2683694120104
 20
27.21300429544448
 30
0.0
 10
312.2096131670664
 20
27.27631108979181
 30
0.0
 10
311.6691528821608
 20
27.32445797038016
 30
0.0
  0
SPLINE
  5
A3
330
1F
100
AcDbEntity
  8
0
  6
Continuous
 62
   179
370
     0
100
AcDbSpline
210
0.0
220
0.0
230
1.0
 70
    24
 71
     3
 72
     8
 73
     4
 74
     0
 42
0.000000001
 43
0.00000001
 40
5.0
 40
5.0
 40
5.0
 40
5.0
 40
6.0
 40
6.0
 40
6.0
 40
6.0
 10
313.8867245107604
 20
20.25320881127337
 30
0.0
 10
313.0865658051385
 20
20.25320881127337
 30
0.0
 10
312.3511103079174
 20
20.25320881127337
 30
0.0
 10
311.6156486607861
 20
20.25320881127337
 30
0.0
  0
SPLINE
  5
A4
330
1F
100
AcDbEntity
  8
0
  6
Continuous
 62
   179
370
     0
100
AcDbSpline
210
0.0
220
0.0
230
1.0
 70
     8
 71
     3
 72
    17
 73
    13
 74
     0
 42
0.000000001
 43
0.00000001
 40
1.0
 40
1.0
 40
1.0
 40
1.0
 40
2.0
 40
2.0
 40
2.0
 40
3.0
 40
3.0
 40
3.0
 40
4.0
 40
4.0
 40
4.0
 40
5.0
 40
5.0
 40
5.0
 40
5.0
 10
313.1781318226163
 20
27.87703492426926
 30
0.0
 10
313.1781318226163
 20
27.83642744958889
 30
0.0
 10
313.1781318226163
 20
27.75161518695077
 30
0.0
 10
313.1781318226163
 20
27.66680273212925
 30
0.0
 10
313.1781318226163
 20
25.57700952371036
 30
0.0
 10
313.1781256727049
 20
23.48721689184593
 30
0.0
 10
313.1781441224363
 20
21.39742349124222
 30
0.0
 10
313.1781441224363
 20
21.32188875296783
 30
0.0
 10
313.1771847363981
 20
21.24633325874564
 30
0.0
 10
313.1786115156352
 20
21.17082388885262
 30
0.0
 10
313.1888880160859
 20
20.62648762285203
 30
0.0
 10
313.3266152617988
 20
20.4348325806782
 30
0.0
 10
313.8867245107604
 20
20.25320881127337
 30
0.0
  0
SPLINE
  5
A5
330
1F
100
AcDbEntity
  8
0
  6
Continuous
 62
   179
370
     0
100
AcDbSpline
210
0.0
220
0.0
230
1.0
 70
     8
 71
     3
 72
     8
 73
     4
 74
     0
 42
0.000000001
 43
0.00000001
 40
0.0
 40
0.0
 40
0.0
 40
0.0
 40
1.0
 40
1.0
 40
1.0
 40
1.0
 10
311.6691528821608
 20
27.32445797038016
 30
0.0
 10
312.1410908642435
 20
27.49727756634619
 30
0.0
 10
312.6458878181427
 20
27.68213176842718
 30
0.0
 10
313.1781318226163
 20
27.87703492426926
 30
0.0
  0
SPLINE
  5
A6
330
1F
100
AcDbEntity
  8
0
  6
Continuous
 62
   179
370
     0
100
AcDbSpline
210
0.0
220
0.0
230
1.0
 70
     8
 71
     3
 72
    14
 73
    10
 74
     0
 42
0.000000001
 43
0.00000001
 40
6.0
 40
6.0
 40
6.0
 40
6.0
 40
7.0
 40
7.0
 40
7.0
 40
8.0
 40
8.0
 40
8.0
 40
9.0
 40
9.0
 40
9.0
 40
9.0
 10
278.4819664915176
 20
27.88441039662488
 30
0.0
 10
278.4819664915176
 20
27.83987735719566
 30
0.0
 10
278.4819649540404
 20
27.75219577693941
 30
0.0
 10
278.4819649540404
 20
27.66451419668386
 30
0.0
 10
278.4819664915176
 20
25.48269219002111
 30
0.0
 10
278.4816605334703
 20
23.30086999117493
 30
0.0
 10
278.4822124879378
 20
21.11904779232805
 30
0.0
 10
278.4823339486704
 20
20.63637283524633
 30
0.0
 10
278.6550987719953
 20
20.40793364087759
 30
0.0
 10
279.1055120673172
 20
20.2549177176549
 30
0.0
  0
SPLINE
  5
A7
330
1F
100
AcDbEntity
  8
0
  6
Continuous
 62
   179
370
     0
100
AcDbSpline
210
0.0
220
0.0
230
1.0
 70
     8
 71
     3
 72
     8
 73
     4
 74
     0
 42
0.000000001
 43
0.00000001
 40
5.0
 40
5.0
 40
5.0
 40
5.0
 40
6.0
 40
6.0
 40
6.0
 40
6.0
 10
276.9846800684063
 20
27.3296354262854
 30
0.0
 10
277.4478728777531
 20
27.5012575193644
 30
0.0
 10
277.9568994326009
 20
27.68986239811422
 30
0.0
 10
278.4819664915176
 20
27.88441039662488
 30
0.0
  0
SPLINE
  5
A8
330
1F
100
AcDbEntity
  8
0
  6
Continuous
 62
   179
370
     0
100
AcDbSpline
210
0.0
220
0.0
230
1.0
 70
     8
 71
     3
 72
    17
 73
    13
 74
     0
 42
0.000000001
 43
0.00000001
 40
1.0
 40
1.0
 40
1.0
 40
1.0
 40
2.0
 40
2.0
 40
2.0
 40
3.0
 40
3.0
 40
3.0
 40
4.0
 40
4.0
 40
4.0
 40
5.0
 40
5.0
 40
5.0
 40
5.0
 10
276.9460186560295
 20
20.2549177176549
 30
0.0
 10
277.4179566381115
 20
20.4199152040148
 30
0.0
 10
277.5770686601204
 20
20.6342380475635
 30
0.0
 10
277.5771993457187
 20
21.13377529050539
 30
0.0
 10
277.5776652014392
 20
22.92958298186009
 30
0.0
 10
277.5773700057348
 20
24.72538990447762
 30
0.0
 10
277.577359243392
 20
26.52119721146337
 30
0.0
 10
277.577359243392
 20
26.53798031722657
 30
0.0
 10
277.5773838430334
 20
26.55476419172763
 30
0.0
 10
277.5772915943764
 20
26.57154691311976
 30
0.0
 10
277.5738092075535
 20
27.20775573119973
 30
0.0
 10
277.5366914227135
 20
27.25167954511983
 30
0.0
 10
276.9846800684063
 20
27.3296354262854
 30
0.0
  0
SPLINE
  5
A9
330
1F
100
AcDbEntity
  8
0
  6
Continuous
 62
   179
370
     0
100
AcDbSpline
210
0.0
220
0.0
230
1.0
 70
    24
 71
     3
 72
     8
 73
     4
 74
     0
 42
0.000000001
 43
0.00000001
 40
0.0
 40
0.0
 40
0.0
 40
0.0
 40
1.0
 40
1.0
 40
1.0
 40
1.0
 10
279.1055120673172
 20
20.2549177176549
 30
0.0
 10
278.3856819552066
 20
20.2549177176549
 30
0.0
 10
277.6658503056181
 20
20.2549177176549
 30
0.0
 10
276.9460186560295
 20
20.2549177176549
 30
0.0
  0
SPLINE
  5
AA
330
1F
100
AcDbEntity
  8
0
  6
Continuous
 62
   179
370
     0
100
AcDbSpline
210
0.0
220
0.0
230
1.0
 70
     8
 71
     3
 72
    20
 73
    16
 74
     0
 42
0.000000001
 43
0.00000001
 40
5.0
 40
5.0
 40
5.0
 40
5.0
 40
6.0
 40
6.0
 40
6.0
 40
7.0
 40
7.0
 40
7.0
 40
8.0
 40
8.0
 40
8.0
 40
9.0
 40
9.0
 40
9.0
 40
10.0
 40
10.0
 40
10.0
 40
10.0
 10
307.178408284104
 20
20.25443648715803
 30
0.0
 10
307.3179589782804
 20
20.36177625633667
 30
0.0
 10
307.5293898264143
 20
20.45652254628292
 30
0.0
 10
307.6283941606454
 20
20.61954360515536
 30
0.0
 10
307.7285516030971
 20
20.78446498637255
 30
0.0
 10
307.7490584796685
 20
21.01681475508336
 30
0.0
 10
307.7500732149022
 20
21.21990094340409
 30
0.0
 10
307.7587445887104
 20
22.95682170421714
 30
0.0
 10
307.7550484924979
 20
24.69380511724257
 30
0.0
 10
307.7550361926765
 20
26.43077008053731
 30
0.0
 10
307.7550361926765
 20
26.49789904426262
 30
0.0
 10
307.7552944889174
 20
26.56503146731187
 30
0.0
 10
307.7547502218385
 20
26.63215658734291
 30
0.0
 10
307.7501131893193
 20
27.20350460556406
 30
0.0
 10
307.6774858212348
 20
27.28280885460759
 30
0.0
 10
307.1608133901539
 20
27.32540717062984
 30
0.0
  0
SPLINE
  5
AB
330
1F
100
AcDbEntity
  8
0
  6
Continuous
 62
   179
370
     0
100
AcDbSpline
210
0.0
220
0.0
230
1.0
 70
    24
 71
     3
 72
     8
 73
     4
 74
     0
 42
0.000000001
 43
0.00000001
 40
4.0
 40
4.0
 40
4.0
 40
4.0
 40
5.0
 40
5.0
 40
5.0
 40
5.0
 10
309.3620693061908
 20
20.25443648715802
 30
0.0
 10
308.5715044609524
 20
20.25443648715802
 30
0.0
 10
307.8517004859624
 20
20.25443648715802
 30
0.0
 10
307.178408284104
 20
20.25443648715803
 30
0.0
  0
SPLINE
  5
AC
330
1F
100
AcDbEntity
  8
0
  6
Continuous
 62
   179
370
     0
100
AcDbSpline
210
0.0
220
0.0
230
1.0
 70
     8
 71
     3
 72
    14
 73
    10
 74
     0
 42
0.000000001
 43
0.00000001
 40
1.0
 40
1.0
 40
1.0
 40
1.0
 40
2.0
 40
2.0
 40
2.0
 40
3.0
 40
3.0
 40
3.0
 40
4.0
 40
4.0
 40
4.0
 40
4.0
 10
308.65963267846
 20
27.88697759989075
 30
0.0
 10
308.65963267846
 20
27.83196991758182
 30
0.0
 10
308.65963267846
 20
27.74275854708867
 30
0.0
 10
308.65963267846
 20
27.65354698440997
 30
0.0
 10
308.65963267846
 20
25.48863300356693
 30
0.0
 10
308.6595035303402
 20
23.32371921490944
 30
0.0
 10
308.6597187772069
 20
21.15880542625192
 30
0.0
 10
308.6597679764911
 20
20.6374237012035
 30
0.0
 10
308.807415027844
 20
20.43200746554105
 30
0.0
 10
309.3620693061908
 20
20.25443648715802
 30
0.0
  0
SPLINE
  5
AD
330
1F
100
AcDbEntity
  8
0
  6
Continuous
 62
   179
370
     0
100
AcDbSpline
210
0.0
220
0.0
230
1.0
 70
     8
 71
     3
 72
     8
 73
     4
 74
     0
 42
0.000000001
 43
0.00000001
 40
0.0
 40
0.0
 40
0.0
 40
0.0
 40
1.0
 40
1.0
 40
1.0
 40
1.0
 10
307.1608133901539
 20
27.32540717062984
 30
0.0
 10
307.6336123597077
 20
27.50255342081908
 30
0.0
 10
308.1420254609839
 20
27.69304267058278
 30
0.0
 10
308.65963267846
 20
27.88697759989075
 30
0.0
  0
SPLINE
  5
AE
330
1F
100
AcDbEntity
  8
0
  6
Continuous
 62
   179
370
     0
100
AcDbSpline
210
0.0
220
0.0
230
1.0
 70
     8
 71
     3
 72
    14
 73
    10
 74
     0
 42
0.000000001
 43
0.00000001
 40
6.0
 40
6.0
 40
6.0
 40
6.0
 40
7.0
 40
7.0
 40
7.0
 40
8.0
 40
8.0
 40
8.0
 40
9.0
 40
9.0
 40
9.0
 40
9.0
 10
272.426404840594
 20
20.2590796695872
 30
0.0
 10
273.0059923935969
 20
20.37668517687364
 30
0.0
 10
273.0805785081768
 20
20.81042375860576
 30
0.0
 10
273.0783845276048
 20
21.29462927466367
 30
0.0
 10
273.0702866329497
 20
23.08209538116094
 30
0.0
 10
273.0685846452182
 20
24.86961337752774
 30
0.0
 10
273.0527409382852
 20
26.65700799131587
 30
0.0
 10
273.0476395875227
 20
27.23250104921648
 30
0.0
 10
272.9826104338649
 20
27.28380667758701
 30
0.0
 10
272.4594267850394
 20
27.32510813123116
 30
0.0
  0
SPLINE
  5
AF
330
1F
100
AcDbEntity
  8
0
  6
Continuous
 62
   179
370
     0
100
AcDbSpline
210
0.0
220
0.0
230
1.0
 70
    24
 71
     3
 72
     8
 73
     4
 74
     0
 42
0.000000001
 43
0.00000001
 40
5.0
 40
5.0
 40
5.0
 40
5.0
 40
6.0
 40
6.0
 40
6.0
 40
6.0
 10
274.6224502449564
 20
20.2590796695872
 30
0.0
 10
273.8904356226618
 20
20.2590796695872
 30
0.0
 10
273.1584194628893
 20
20.2590796695872
 30
0.0
 10
272.426404840594
 20
20.2590796695872
 30
0.0
  0
SPLINE
  5
B0
330
1F
100
AcDbEntity
  8
0
  6
Continuous
 62
   179
370
     0
100
AcDbSpline
210
0.0
220
0.0
230
1.0
 70
     8
 71
     3
 72
    17
 73
    13
 74
     0
 42
0.000000001
 43
0.00000001
 40
1.0
 40
1.0
 40
1.0
 40
1.0
 40
2.0
 40
2.0
 40
2.0
 40
3.0
 40
3.0
 40
3.0
 40
4.0
 40
4.0
 40
4.0
 40
5.0
 40
5.0
 40
5.0
 40
5.0
 10
273.9540333846496
 20
27.87257450949275
 30
0.0
 10
273.9540333846496
 20
27.8074859707617
 30
0.0
 10
273.9540333846496
 20
27.71082379150879
 30
0.0
 10
273.9540333846496
 20
27.61416161225588
 30
0.0
 10
273.9540349221275
 20
25.51596282147274
 30
0.0
 10
273.9539872603212
 20
23.41776441505853
 30
0.0
 10
273.9542086570993
 20
21.31956562427539
 30
0.0
 10
273.954217881965
 20
21.22727776105204
 30
0.0
 10
273.9506540088286
 20
21.13443409966764
 30
0.0
 10
273.9590578615309
 20
21.04279505200226
 30
0.0
 10
274.0006220316647
 20
20.58964274029083
 30
0.0
 10
274.1836818051716
 20
20.38260600321025
 30
0.0
 10
274.6224502449564
 20
20.2590796695872
 30
0.0
  0
SPLINE
  5
B1
330
1F
100
AcDbEntity
  8
0
  6
Continuous
 62
   179
370
     0
100
AcDbSpline
210
0.0
220
0.0
230
1.0
 70
     8
 71
     3
 72
     8
 73
     4
 74
     0
 42
0.000000001
 43
0.00000001
 40
0.0
 40
0.0
 40
0.0
 40
0.0
 40
1.0
 40
1.0
 40
1.0
 40
1.0
 10
272.4594267850394
 20
27.32510813123116
 30
0.0
 10
272.932774634105
 20
27.4984925580398
 30
0.0
 10
273.4351023989377
 20
27.68249307566929
 30
0.0
 10
273.9540333846496
 20
27.87257450949275
 30
0.0
  0
SPLINE
  5
B2
330
1F
100
AcDbEntity
  8
0
  6
Continuous
 62
   179
370
     0
100
AcDbSpline
210
0.0
220
0.0
230
1.0
 70
     8
 71
     3
 72
    17
 73
    13
 74
     0
 42
0.000000001
 43
0.00000001
 40
6.0
 40
6.0
 40
6.0
 40
6.0
 40
7.0
 40
7.0
 40
7.0
 40
8.0
 40
8.0
 40
8.0
 40
9.0
 40
9.0
 40
9.0
 40
10.0
 40
10.0
 40
10.0
 40
10.0
 10
304.1706223551654
 20
25.06377258638473
 30
0.0
 10
304.1727133247369
 20
25.01792115989102
 30
0.0
 10
304.1800409430993
 20
24.93136078519359
 30
0.0
 10
304.1800932173391
 20
24.84479541369365
 30
0.0
 10
304.1808527312862
 20
23.65282014439031
 30
0.0
 10
304.1797703470369
 20
22.46084295323946
 30
0.0
 10
304.1818797663412
 20
21.26887114326077
 30
0.0
 10
304.1821011631179
 20
21.14380579453512
 30
0.0
 10
304.1922454404932
 20
21.01764883669525
 30
0.0
 10
304.2107535961514
 20
20.89393877449616
 30
0.0
 10
304.2621822227331
 20
20.55023795748124
 30
0.0
 10
304.4578262506061
 20
20.33981031349822
 30
0.0
 10
304.8038079156778
 20
20.2539775500868
 30
0.0
  0
SPLINE
  5
B3
330
1F
100
AcDbEntity
  8
0
  6
Continuous
 62
   179
370
     0
100
AcDbSpline
210
0.0
220
0.0
230
1.0
 70
     8
 71
     3
 72
     8
 73
     4
 74
     0
 42
0.000000001
 43
0.00000001
 40
5.0
 40
5.0
 40
5.0
 40
5.0
 40
6.0
 40
6.0
 40
6.0
 40
6.0
 10
302.7125031745686
 20
24.50968064047994
 30
0.0
 10
303.1898069535648
 20
24.69105879783349
 30
0.0
 10
303.6729961969132
 20
24.874672832025
 30
0.0
 10
304.1706223551654
 20
25.06377258638473
 30
0.0
  0
SPLINE
  5
B4
330
1F
100
AcDbEntity
  8
0
  6
Continuous
 62
   179
370
     0
100
AcDbSpline
210
0.0
220
0.0
230
1.0
 70
     8
 71
     3
 72
    17
 73
    13
 74
     0
 42
0.000000001
 43
0.00000001
 40
1.0
 40
1.0
 40
1.0
 40
1.0
 40
2.0
 40
2.0
 40
2.0
 40
3.0
 40
3.0
 40
3.0
 40
4.0
 40
4.0
 40
4.0
 40
5.0
 40
5.0
 40
5.0
 40
5.0
 10
302.6973344203136
 20
20.2539775500868
 30
0.0
 10
303.1321361678242
 20
20.3494649042487
 30
0.0
 10
303.2897768237453
 20
20.65853557522151
 30
0.0
 10
303.2916556214044
 20
21.04785181591346
 30
0.0
 10
303.296603224403
 20
22.071496731734
 30
0.0
 10
303.2829750227277
 20
23.09531768874206
 30
0.0
 10
303.2668591822546
 20
24.11891186780057
 30
0.0
 10
303.2632153602819
 20
24.35030186610297
 30
0.0
 10
303.1332831261333
 20
24.4918735746181
 30
0.0
 10
302.8846514693661
 20
24.49557889569631
 30
0.0
 10
302.8224697242704
 20
24.49650561033552
 30
0.0
 10
302.7604109773859
 20
24.50557288463289
 30
0.0
 10
302.7125031745686
 20
24.50968064047994
 30
0.0
  0
SPLINE
  5
B5
330
1F
100
AcDbEntity
  8
0
  6
Continuous
 62
   179
370
     0
100
AcDbSpline
210
0.0
220
0.0
230
1.0
 70
    24
 71
     3
 72
     8
 73
     4
 74
     0
 42
0.000000001
 43
0.00000001
 40
0.0
 40
0.0
 40
0.0
 40
0.0
 40
1.0
 40
1.0
 40
1.0
 40
1.0
 10
304.8038079156778
 20
20.2539775500868
 30
0.0
 10
304.1016511088749
 20
20.2539775500868
 30
0.0
 10
303.3994912271164
 20
20.2539775500868
 30
0.0
 10
302.6973344203136
 20
20.2539775500868
 30
0.0
  0
SPLINE
  5
B6
330
1F
100
AcDbEntity
  8
0
  6
Continuous
 62
   179
370
     0
100
AcDbSpline
210
0.0
220
0.0
230
1.0
 70
     8
 71
     3
 72
    11
 73
     7
 74
     0
 42
0.000000001
 43
0.00000001
 40
2.0
 40
2.0
 40
2.0
 40
2.0
 40
3.0
 40
3.0
 40
3.0
 40
4.0
 40
4.0
 40
4.0
 40
4.0
 10
303.0570519104932
 20
26.35430478392947
 30
0.0
 10
303.0511172468595
 20
26.75330175249256
 30
0.0
 10
303.3266947364936
 20
27.05519259513757
 30
0.0
 10
303.6924299141011
 20
27.05034857969325
 30
0.0
 10
304.0507636744179
 20
27.04560238626284
 30
0.0
 10
304.3255386007336
 20
26.75299425696746
 30
0.0
 10
304.327448147944
 20
26.37412133304796
 30
0.0
  0
SPLINE
  5
B7
330
1F
100
AcDbEntity
  8
0
  6
Continuous
 62
   179
370
     0
100
AcDbSpline
210
0.0
220
0.0
230
1.0
 70
     8
 71
     3
 72
    11
 73
     7
 74
     0
 42
0.000000001
 43
0.00000001
 40
0.0
 40
0.0
 40
0.0
 40
0.0
 40
1.0
 40
1.0
 40
1.0
 40
2.0
 40
2.0
 40
2.0
 40
2.0
 10
304.327448147944
 20
26.37412133304796
 30
0.0
 10
304.3293945946187
 20
25.98752450590587
 30
0.0
 10
304.0680572227529
 20
25.70828897263022
 30
0.0
 10
303.6993639381942
 20
25.70301926806731
 30
0.0
 10
303.3259905717408
 20
25.69768229885988
 30
0.0
 10
303.0628482011429
 20
25.96449808787493
 30
0.0
 10
303.0570519104932
 20
26.35430478392947
 30
0.0
  0
MTEXT
  5
B9
330
1F
100
AcDbEntity
  8
0
  6
Continuous
 62
     7
370
     0
100
AcDbMText
 10
257.9690483454
 20
40.3166048975
 30
0.0
 40
3.7041666667
 41
0.0
 71
     1
 72
     1
  1
BOUNTL17 - Bounce Table Lamp
  7
SLDTEXTSTYLE0
 73
     1
 44
1.0
  0
MTEXT
  5
BA
330
1F
100
AcDbEntity
  8
0
  6
Continuous
 62
     7
370
     0
100
AcDbMText
 10
258.6105142387
 20
44.3546043689
 30
0.0
 40
1.5875
 41
0.0
 71
     1
 72
     1
  1
\LDESCRIPTION
  7
SLDTEXTSTYLE0
 73
     1
 44
1.0
  0
INSERT
  5
C1
330
1F
100
AcDbEntity
  8
0
  6
Continuous
 62
     7
370
     0
100
AcDbBlockReference
  2
SW_NOTE_0
 10
317.1049495712
 20
24.1495665419
 30
0.0
  0
MTEXT
  5
C2
330
1F
100
AcDbEntity
  8
0
  6
Continuous
 62
     7
370
     0
100
AcDbMText
 10
273.8792930731
 20
32.371143085
 30
0.0
 40
1.5875
 41
0.0
 71
     2
 72
     1
  1
\LSCALE
  7
SLDTEXTSTYLE0
 73
     1
 44
1.0
  0
MTEXT
  5
C3
330
1F
100
AcDbEntity
  8
0
  6
Continuous
 62
     7
370
     0
100
AcDbMText
 10
278.3960862508
 20
33.4394651033
 30
0.0
 40
2.6458333333
 41
0.0
 71
     1
 72
     1
  1
1:4
  7
SLDTEXTSTYLE0
 73
     1
 44
1.0
  0
MTEXT
  5
C4
330
1F
100
AcDbEntity
  8
0
  6
Continuous
 62
     7
370
     0
100
AcDbMText
 10
261.5657280329
 20
32.371143085
 30
0.0
 40
1.5875
 41
0.0
 71
     2
 72
     1
  1
\LSIZE
  7
SLDTEXTSTYLE0
 73
     1
 44
1.0
  0
MTEXT
  5
C5
330
1F
100
AcDbEntity
  8
0
  6
Continuous
 62
     7
370
     0
100
AcDbMText
 10
264.7495209372
 20
33.4394651033
 30
0.0
 40
2.6458333333
 41
0.0
 71
     1
 72
     1
  1
B
  7
SLDTEXTSTYLE0
 73
     1
 44
1.0
  0
INSERT
  5
CC
330
1F
100
AcDbEntity
  8
0
  6
Continuous
 62
     7
370
     0
100
AcDbBlockReference
  2
SW_NOTE_1
 10
258.0900415808
 20
15.6806800849
 30
0.0
  0
LINE
  5
CD
330
1F
100
AcDbEntity
  8
0
  6
Continuous
 62
     7
370
    15
100
AcDbLine
 10
36.4478294838
 20
124.8744206797
 30
0.0
 11
36.7335816014
 21
124.3794860613
 31
0.0
  0
LINE
  5
CE
330
1F
100
AcDbEntity
  8
0
  6
Continuous
 62
     7
370
    15
100
AcDbLine
 10
157.5764183986
 20
124.3794860613
 30
0.0
 11
157.8621705163
 21
124.8744206797
 31
0.0
  0
ARC
  5
CF
330
1F
100
AcDbEntity
  8
0
  6
Continuous
 62
     7
370
    15
100
AcDbCircle
 10
97.155
 20
77.5478886673
 30
0.0
 40
31.25000000000003
100
AcDbArc
 50
300.5307023387
 51
0.0
  0
ARC
  5
D0
330
1F
100
AcDbEntity
  8
0
  6
Continuous
 62
     7
370
    15
100
AcDbCircle
 10
97.155
 20
77.5478886673
 30
0.0
 40
31.25000000000001
100
AcDbArc
 50
180.0
 51
239.4692976613
  0
LINE
  5
D1
330
1F
100
AcDbEntity
  8
0
  6
Continuous
 62
     7
370
    15
100
AcDbLine
 10
128.405
 20
77.5478894185
 30
0.0
 11
128.405
 21
83.8978888761
 31
0.0
  0
LINE
  5
D2
330
1F
100
AcDbEntity
  8
0
  6
Continuous
 62
     7
370
    15
100
AcDbLine
 10
65.905
 20
83.8978888761
 30
0.0
 11
65.905
 21
77.5478894185
 31
0.0
  0
SPLINE
  5
D3
330
1F
100
AcDbEntity
  8
0
  6
Continuous
 62
     7
370
    15
100
AcDbSpline
210
0.0
220
0.0
230
1.0
 70
     8
 71
     3
 72
    16
 73
    12
 74
     0
 42
0.000000001
 43
0.00000001
 40
0.0
 40
0.0
 40
0.0
 40
0.0
 40
0.1721173594146899
 40
0.2377068365034885
 40
0.345292538253576
 40
0.4534140732725117
 40
0.5686926931122989
 40
0.6896170382902465
 40
0.8193269142110206
 40
0.9532011487396851
 40
1.0
 40
1.0
 40
1.0
 40
1.0
 10
97.15500000002729
 20
53.66060997509987
 30
0.0
 10
97.26591177532674
 20
53.6661837514808
 30
0.0
 10
97.41908916154205
 20
53.67388154997942
 30
0.0
 10
97.63032992367673
 20
53.7231426016214
 30
0.0
 10
97.79456881990595
 20
53.77814123317786
 30
0.0
 10
97.9716873256413
 20
53.86659061849663
 30
0.0
 10
98.13541877529101
 20
53.98398620306207
 30
0.0
 10
98.28204191124337
 20
54.13916856029019
 30
0.0
 10
98.3946716750246
 20
54.33408552409568
 30
0.0
 10
98.4408270160604
 20
54.50740165264578
 30
0.0
 10
98.44401732753715
 20
54.60616638137689
 30
0.0
 10
98.44484369805949
 20
54.63174891808659
 30
0.0
  0
SPLINE
  5
D4
330
1F
100
AcDbEntity
  8
0
  6
Continuous
 62
     7
370
    15
100
AcDbSpline
210
0.0
220
0.0
230
1.0
 70
     8
 71
     3
 72
    15
 73
    11
 74
     0
 42
0.000000001
 43
0.00000001
 40
0.0
 40
0.0
 40
0.0
 40
0.0
 40
0.1257790435592057
 40
0.2640710589328253
 40
0.4078071892076368
 40
0.5340905620119631
 40
0.6557534246739641
 40
0.7502784433918427
 40
0.8446500493633752
 40
1.0
 40
1.0
 40
1.0
 40
1.0
 10
95.86515630199509
 20
54.63174891808659
 30
0.0
 10
95.87092277900646
 20
54.56219570958348
 30
0.0
 10
95.88302940382738
 20
54.41616987807881
 30
0.0
 10
95.98518769861722
 20
54.19788688027498
 30
0.0
 10
96.13765973463899
 20
54.01452498803045
 30
0.0
 10
96.32018772562458
 20
53.87625614700844
 30
0.0
 10
96.50263145615772
 20
53.78346460367494
 30
0.0
 10
96.68303883345419
 20
53.72170210964877
 30
0.0
 10
96.89424823629095
 20
53.67273072694676
 30
0.0
 10
97.05499846227318
 20
53.66525843387175
 30
0.0
 10
97.15500000002729
 20
53.66060997509987
 30
0.0
  0
LWPOLYLINE
  5
D5
330
1F
100
AcDbEntity
  8
0
  6
Continuous
 62
     7
370
    15
100
AcDbPolyline
 90
       45
 70
   128
 43
0.0
 10
96.2342499739
 20
159.3921261203
 10
94.0917657323
 20
158.1551658284
 10
91.9528570126
 20
156.9202618968
 10
89.8202093418
 20
155.6889789473
 10
87.6965000394
 20
154.4628517997
 10
85.584395482
 20
153.2434301745
 10
83.4865476105
 20
152.0322339904
 10
81.4055902052
 20
150.8307980668
 10
79.344135626
 20
149.6406125199
 10
77.3047720182
 20
148.4631898176
 10
75.290060519
 20
147.2999902737
 10
73.3025306005
 20
146.152489103
 10
71.3446763444
 20
145.0221242678
 10
69.4189564425
 20
143.9103113782
 10
67.5277904707
 20
142.8184436929
 10
65.6735477138
 20
141.7478995692
 10
63.8585639286
 20
140.7000126612
 10
62.0851096797
 20
139.676109172
 10
60.355416416
 20
138.6774706017
 10
58.6716559816
 20
137.7053560984
 10
57.0359406162
 20
136.760972656
 10
55.4503229547
 20
135.845519818
 10
53.9167960274
 20
134.9601375234
 10
52.4372858095
 20
134.1059359085
 10
51.0136474955
 20
133.2840027582
 10
49.6476692248
 20
132.4953513514
 10
48.3410646308
 20
131.740980066
 10
47.0954765666
 20
131.0218425762
 10
45.9124659288
 20
130.3388329517
 10
44.7935228336
 20
129.6928080093
 10
43.7400479901
 20
129.0845873129
 10
42.7533638764
 20
128.514923371
 10
41.8347110141
 20
127.9845388901
 10
40.9852442432
 20
127.4940969717
 10
40.2060289967
 20
127.0442160141
 10
39.4980413008
 20
126.6354622614
 10
38.8621677745
 20
126.268342353
 10
38.2992168057
 20
125.9433182251
 10
37.8098850239
 20
125.66080711
 10
37.3947908271
 20
125.4211517345
 10
37.054455756
 20
125.2246575724
 10
36.789308219
 20
125.0715704929
 10
36.5996760416
 20
124.9620916616
 10
36.4858050931
 20
124.8963477384
 10
36.4478294838
 20
124.8744206797
  0
LINE
  5
D6
330
1F
100
AcDbEntity
  8
0
  6
Continuous
 62
     7
370
    15
100
AcDbLine
 10
96.5199999961
 20
158.8971915018
 30
0.0
 11
96.2342499739
 21
159.3921261203
 31
0.0
  0
LWPOLYLINE
  5
D7
330
1F
100
AcDbEntity
  8
0
  6
Continuous
 62
     7
370
    15
100
AcDbPolyline
 90
       45
 70
   128
 43
0.0
 10
96.5199999961
 20
158.8971915018
 10
94.3775157544
 20
157.6602312099
 10
92.238606802
 20
156.4253272783
 10
90.1059591311
 20
155.1940443289
 10
87.9822502944
 20
153.9679246318
 10
85.870145737
 20
152.7484955561
 10
83.7722978655
 20
151.5373068225
 10
81.6913404602
 20
150.3358634483
 10
79.629885881
 20
149.1456779014
 10
77.5905222732
 20
147.9682551991
 10
75.575810774
 20
146.8050631058
 10
73.5882808554
 20
145.6575619351
 10
71.6304265994
 20
144.5271896493
 10
69.7047066975
 20
143.4153767597
 10
67.8135407257
 20
142.3235090744
 10
65.9592998314
 20
141.2529649507
 10
64.144312321
 20
140.2050854933
 10
62.3708617974
 20
139.1811820042
 10
60.6411685336
 20
138.1825434338
 10
58.9574080992
 20
137.2104214799
 10
57.3216890085
 20
136.2660380375
 10
55.7360750723
 20
135.3505851995
 10
54.2025481451
 20
134.4652029049
 10
52.7230342019
 20
133.61100129
 10
51.2993958879
 20
132.7890681397
 10
49.9334176171
 20
132.000416733
 10
48.6268130231
 20
131.2460528981
 10
47.3812249589
 20
130.5269079577
 10
46.1982180465
 20
129.8438983333
 10
45.079271226
 20
129.1978733909
 10
44.0257963825
 20
128.5896526944
 10
43.039115994
 20
128.0199887525
 10
42.1204631317
 20
127.4896042716
 10
41.2709963608
 20
126.9991623532
 10
40.4917773891
 20
126.5492813956
 10
39.7837896931
 20
126.1405276429
 10
39.1479198921
 20
125.7734077346
 10
38.5849651981
 20
125.4483836066
 10
38.0956334162
 20
125.1658724915
 10
37.6805429447
 20
124.9262171161
 10
37.3402078736
 20
124.729722954
 10
37.0750566113
 20
124.576643325
 10
36.8854281593
 20
124.4671570432
 10
36.7715534854
 20
124.40141312
 10
36.7335816014
 20
124.3794860613
  0
LINE
  5
D8
330
1F
100
AcDbEntity
  8
0
  6
Continuous
 62
     7
370
    15
100
AcDbLine
 10
97.790000004
 20
158.8971915018
 30
0.0
 11
98.0757500262
 21
159.3921261203
 31
0.0
  0
SPLINE
  5
D9
330
1F
100
AcDbEntity
  8
0
  6
Continuous
 62
     7
370
    15
100
AcDbSpline
210
0.0
220
0.0
230
1.0
 70
     8
 71
     3
 72
    14
 73
    10
 74
     0
 42
0.000000001
 43
0.00000001
 40
0.0
 40
0.0
 40
0.0
 40
0.0
 40
0.2499999999999999
 40
0.2499999999999999
 40
0.4999999999999998
 40
0.4999999999999998
 40
0.7499999999999998
 40
0.7499999999999998
 40
1.0
 40
1.0
 40
1.0
 40
1.0
 10
98.07574999999996
 20
159.3921268427153
 30
0.0
 10
97.93657868628173
 20
159.472477438154
 30
0.0
 10
97.78684070214011
 20
159.5345009419879
 30
0.0
 10
97.47638984097237
 20
159.6176859995273
 30
0.0
 10
97.31570119087733
 20
159.6388410616462
 30
0.0
 10
96.99429880912258
 20
159.6388410616462
 30
0.0
 10
96.83361015902753
 20
159.6176859995273
 30
0.0
 10
96.52315929785979
 20
159.5345009419879
 30
0.0
 10
96.37342131371818
 20
159.472477438154
 30
0.0
 10
96.23424999999995
 20
159.3921268427153
 30
0.0
  0
SPLINE
  5
DA
330
1F
100
AcDbEntity
  8
0
  6
Continuous
 62
     7
370
    15
100
AcDbSpline
210
0.0
220
0.0
230
1.0
 70
     8
 71
     3
 72
    10
 73
     6
 74
     0
 42
0.000000001
 43
0.00000001
 40
0.0
 40
0.0
 40
0.0
 40
0.0
 40
0.5
 40
0.5
 40
1.0
 40
1.0
 40
1.0
 40
1.0
 10
97.78999999999996
 20
158.8971933244525
 30
0.0
 10
97.59803956728516
 20
159.0080217319541
 30
0.0
 10
97.37665681500324
 20
159.0673410616463
 30
0.0
 10
96.93334318499667
 20
159.0673410616462
 30
0.0
 10
96.71196043271473
 20
159.0080217319541
 30
0.0
 10
96.51999999999995
 20
158.8971933244525
 30
0.0
  0
LWPOLYLINE
  5
DB
330
1F
100
AcDbEntity
  8
0
  6
Continuous
 62
     7
370
    15
100
AcDbPolyline
 90
       46
 70
   128
 43
0.0
 10
157.8621705163
 20
124.8744206797
 10
157.8621705163
 20
124.8744206797
 10
157.824194907
 20
124.8963477384
 10
157.7103239584
 20
124.9620916616
 10
157.5206917811
 20
125.0715704929
 10
157.2555442441
 20
125.2246575724
 10
156.915209173
 20
125.4211517345
 10
156.5001149762
 20
125.66080711
 10
156.0107831943
 20
125.9433182251
 10
155.4478322256
 20
126.268342353
 10
154.8119586993
 20
126.6354622614
 10
154.1039710033
 20
127.0442160141
 10
153.3247557569
 20
127.4940969717
 10
152.475288986
 20
127.9845388901
 10
151.5566361237
 20
128.514923371
 10
150.5699520099
 20
129.0845873129
 10
149.5164771664
 20
129.6928080093
 10
148.3975340712
 20
130.3388329517
 10
147.2145234335
 20
131.0218425762
 10
145.9689353693
 20
131.740980066
 10
144.6623307753
 20
132.4953513514
 10
143.2963525045
 20
133.2840027582
 10
141.8727141905
 20
134.1059359085
 10
140.3932039726
 20
134.9601375234
 10
138.8596770454
 20
135.845519818
 10
137.2740593839
 20
136.760972656
 10
135.6383440185
 20
137.7053560984
 10
133.9545835841
 20
138.6774706017
 10
132.2248903203
 20
139.676109172
 10
130.4514360714
 20
140.7000126612
 10
128.6364522863
 20
141.7478995692
 10
126.7822095293
 20
142.8184436929
 10
124.8910435576
 20
143.9103113782
 10
122.9653236556
 20
145.0221242678
 10
121.0074693996
 20
146.152489103
 10
119.019939481
 20
147.2999902737
 10
117.0052279818
 20
148.4631898176
 10
114.9658643741
 20
149.6406125199
 10
112.9044097948
 20
150.8307980668
 10
110.8234523896
 20
152.0322339904
 10
108.7256045181
 20
153.2434301745
 10
106.6134999606
 20
154.4628517997
 10
104.4897906582
 20
155.6889789473
 10
102.3571429874
 20
156.9202618968
 10
100.2182342678
 20
158.1551658284
 10
98.0757500262
 20
159.3921261203
  0
LWPOLYLINE
  5
DC
330
1F
100
AcDbEntity
  8
0
  6
Continuous
 62
     7
370
    15
100
AcDbPolyline
 90
       46
 70
   128
 43
0.0
 10
157.5764183986
 20
124.3794860613
 10
157.5764183986
 20
124.3794860613
 10
157.5384465146
 20
124.40141312
 10
157.4245718408
 20
124.4671570432
 10
157.2349433887
 20
124.576643325
 10
156.9697921264
 20
124.729722954
 10
156.6294570554
 20
124.9262171161
 10
156.2143665839
 20
125.1658724915
 10
155.725034802
 20
125.4483836066
 10
155.162080108
 20
125.7734077346
 10
154.5262103069
 20
126.1405276429
 10
153.818222611
 20
126.5492813956
 10
153.0390036392
 20
126.9991623532
 10
152.1895368684
 20
127.4896042716
 10
151.2708840061
 20
128.0199887525
 10
150.2842036176
 20
128.5896526944
 10
149.2307287741
 20
129.1978733909
 10
148.1117819536
 20
129.8438983333
 10
146.9287750411
 20
130.5269079577
 10
145.6831869769
 20
131.2460528981
 10
144.3765823829
 20
132.000416733
 10
143.0106041122
 20
132.7890681397
 10
141.5869657982
 20
133.61100129
 10
140.107451855
 20
134.4652029049
 10
138.5739249277
 20
135.3505851995
 10
136.9883109916
 20
136.2660380375
 10
135.3525919009
 20
137.2104214799
 10
133.6688314665
 20
138.1825434338
 10
131.9391382027
 20
139.1811820042
 10
130.1656876791
 20
140.2050854933
 10
128.3507001686
 20
141.2529649507
 10
126.4964592743
 20
142.3235090744
 10
124.6052933026
 20
143.4153767597
 10
122.6795734006
 20
144.5271896493
 10
120.7217191446
 20
145.6575619351
 10
118.7341892261
 20
146.8050631058
 10
116.7194777268
 20
147.9682551991
 10
114.6801141191
 20
149.1456779014
 10
112.6186595398
 20
150.3358634483
 10
110.5377021346
 20
151.5373068225
 10
108.4398542631
 20
152.7484955561
 10
106.3277497056
 20
153.9679246318
 10
104.2040408689
 20
155.1940443289
 10
102.0713931981
 20
156.4253272783
 10
99.9324842456
 20
157.6602312099
 10
97.790000004
 20
158.8971915018
  0
LINE
  5
DD
330
1F
100
AcDbEntity
  8
0
  6
Continuous
 62
     7
370
    15
100
AcDbLine
 10
97.155
 20
50.6304802668
 30
0.0
 11
113.0300005067
 21
50.6304802668
 31
0.0
  0
LINE
  5
DE
330
1F
100
AcDbEntity
  8
0
  6
Continuous
 62
     7
370
    15
100
AcDbLine
 10
81.2799994934
 20
50.6304802668
 30
0.0
 11
97.155
 21
50.6304802668
 31
0.0
  0
LINE
  5
DF
330
1F
100
AcDbEntity
  8
0
  6
Continuous
 62
     7
370
    15
100
AcDbLine
 10
95.9052087606
 20
54.830565333
 30
0.0
 11
95.869088928
 21
54.5995298136
 31
0.0
  0
LINE
  5
E0
330
1F
100
AcDbEntity
  8
0
  6
Continuous
 62
     7
370
    15
100
AcDbLine
 10
98.4410720745
 20
54.559360474
 30
0.0
 11
98.4047912394
 21
54.830565333
 31
0.0
  0
LWPOLYLINE
  5
E1
330
1F
100
AcDbEntity
  8
0
  6
Continuous
 62
     7
370
    15
100
AcDbPolyline
 90
       49
 70
   128
 43
0.0
 10
128.405
 20
83.8978888761
 10
128.4008071858
 20
83.9081110727
 10
128.3672739852
 20
83.9898774695
 10
128.3002448368
 20
84.1533245813
 10
128.1997905213
 20
84.398269869
 10
128.066019072
 20
84.7244600129
 10
127.8990739125
 20
85.1315373849
 10
127.6991357196
 20
85.6190698516
 10
127.466414972
 20
86.1865321469
 10
127.2011668521
 20
86.8333170485
 10
126.9036726195
 20
87.5587279271
 10
126.5742507863
 20
88.3619861972
 10
126.2132589805
 20
89.2422313165
 10
125.821080907
 20
90.1985170614
 10
125.3981375236
 20
91.2298227023
 10
124.9448851782
 20
92.3350343775
 10
124.4618081588
 20
93.5129674446
 10
123.9494261432
 20
94.7623590302
 10
123.4082886118
 20
96.0818717551
 10
122.8389748472
 20
97.4700825583
 10
122.2420995224
 20
98.9255050492
 10
121.6182996619
 20
100.4465783309
 10
120.968245818
 20
102.0316707265
 10
120.2926364827
 20
103.6790797781
 10
119.5921943623
 20
105.3870322477
 10
118.867673828
 20
107.153702743
 10
118.1198516029
 20
108.9771950912
 10
117.3495304871
 20
110.8555460643
 10
116.5575356323
 20
112.7867477309
 10
115.7447182673
 20
114.768721379
 10
114.9119519729
 20
116.7993398678
 10
114.0601270932
 20
118.8764276277
 10
113.1901600498
 20
120.9977494847
 10
112.3029849592
 20
123.1610404622
 10
111.3995527017
 20
125.3639685284
 10
110.4808337155
 20
127.6041718494
 10
109.5478133399
 20
129.8792513382
 10
108.6014936778
 20
132.1867632043
 10
107.6428889397
 20
134.5242189538
 10
106.673028237
 20
136.8891300928
 10
105.6929537195
 20
139.2789410722
 10
104.7037159193
 20
141.6910963427
 10
103.7063770096
 20
144.1230105531
 10
102.7020070802
 20
146.5720685493
 10
101.6916846025
 20
149.0356402766
 10
100.6764929376
 20
151.5110807788
 10
99.6575221985
 20
153.9957376491
 10
98.6358656415
 20
156.4869435799
 10
97.6126198699
 20
158.9820312631
  0
LWPOLYLINE
  5
E2
330
1F
100
AcDbEntity
  8
0
  6
Continuous
 62
     7
370
    15
100
AcDbPolyline
 90
       49
 70
   128
 43
0.0
 10
96.6973801302
 20
158.9820312631
 10
95.6741343585
 20
156.4869435799
 10
94.6524778015
 20
153.9957376491
 10
93.6335070624
 20
151.5110807788
 10
92.6183153975
 20
149.0356402766
 10
91.6079929199
 20
146.5720685493
 10
90.6036229904
 20
144.1230105531
 10
89.6062840808
 20
141.6910963427
 10
88.6170462805
 20
139.2789410722
 10
87.6369717631
 20
136.8891300928
 10
86.6671110603
 20
134.5242189538
 10
85.7085063222
 20
132.1867632043
 10
84.7621866602
 20
129.8792513382
 10
83.8291662845
 20
127.6041718494
 10
82.9104472983
 20
125.3639685284
 10
82.0070150408
 20
123.1610404622
 10
81.1198399502
 20
120.9977494847
 10
80.2498729068
 20
118.8764276277
 10
79.3980480272
 20
116.7993398678
 10
78.5652817327
 20
114.768721379
 10
77.7524643678
 20
112.7867477309
 10
76.960469513
 20
110.8555460643
 10
76.1901483971
 20
108.9771950912
 10
75.442326172
 20
107.153702743
 10
74.7178056377
 20
105.3870322477
 10
74.0173635173
 20
103.6790797781
 10
73.341754182
 20
102.0316707265
 10
72.6917003382
 20
100.4465783309
 10
72.0679004777
 20
98.9255050492
 10
71.4710251528
 20
97.4700825583
 10
70.9017113883
 20
96.0818717551
 10
70.3605738569
 20
94.7623590302
 10
69.8481918413
 20
93.5129674446
 10
69.3651148218
 20
92.3350343775
 10
68.9118624765
 20
91.2298227023
 10
68.488919093
 20
90.1985170614
 10
68.0967410195
 20
89.2422313165
 10
67.7357492137
 20
88.3619861972
 10
67.4063273806
 20
87.5587279271
 10
67.1088331479
 20
86.8333170485
 10
66.8435850281
 20
86.1865321469
 10
66.6108642805
 20
85.6190698516
 10
66.4109260875
 20
85.1315373849
 10
66.2439809281
 20
84.7244600129
 10
66.1102094788
 20
84.398269869
 10
66.0097551632
 20
84.1533245813
 10
65.9427260149
 20
83.9898774695
 10
65.9091928143
 20
83.9081110727
 10
65.905
 20
83.8978888761
  0
LWPOLYLINE
  5
E3
330
1F
100
AcDbEntity
  8
0
  6
Continuous
 62
     7
370
    15
100
AcDbPolyline
 90
       22
 70
   128
 43
0.0
 10
96.1628151459
 20
54.320009641
 10
96.2075639151
 20
54.1377644815
 10
96.3364965615
 20
53.9718384218
 10
96.5381568281
 20
53.8369742982
 10
96.7946263305
 20
53.7451559041
 10
97.0831166165
 20
53.7045413923
 10
97.3779940583
 20
53.7187396377
 10
97.6530575177
 20
53.7864889313
 10
97.8838663183
 20
53.9017696694
 10
98.0499122275
 20
54.0543387007
 10
98.1364412333
 20
54.2306392282
 10
98.1357648603
 20
54.4150064062
 10
98.047943237
 20
54.5910585035
 10
97.8807796824
 20
54.7431523275
 10
97.6491273947
 20
54.857773922
 10
97.3735697668
 20
54.9247383434
 10
97.0785912474
 20
54.9380958375
 10
96.7904019677
 20
54.8966589678
 10
96.5346088384
 20
54.804110184
 10
96.3339401975
 20
54.6686725985
 10
96.206226303
 20
54.5023805291
 10
96.1628151459
 20
54.320009641
  0
LWPOLYLINE
  5
E4
330
1F
100
AcDbEntity
  8
0
  6
Continuous
 62
     7
370
    15
100
AcDbPolyline
 90
       11
 70
   128
 43
0.0
 10
98.4047912394
 20
54.830565333
 10
98.2781479002
 20
55.0271083895
 10
98.0735691015
 20
55.1962170113
 10
97.8052505276
 20
55.3261574652
 10
97.4918109756
 20
55.4079126861
 10
97.155
 20
55.4358095225
 10
96.8181890245
 20
55.4079126861
 10
96.5047494725
 20
55.3261574652
 10
96.2364308985
 20
55.1962170113
 10
96.0318520998
 20
55.0271083895
 10
95.9052087606
 20
54.830565333
  0
LWPOLYLINE
  5
E5
330
1F
100
AcDbEntity
  8
0
  6
Continuous
 62
     7
370
    15
100
AcDbPolyline
 90
       17
 70
   128
 43
0.0
 10
96.5596890643
 20
54.3205756523
 10
96.6055253854
 20
54.1786248624
 10
96.7350142642
 20
54.0584139355
 10
96.9284421486
 20
53.9782440584
 10
97.1563614172
 20
53.9503202137
 10
97.3840734265
 20
53.9788936559
 10
97.5769110706
 20
54.0596141774
 10
97.70551659
 20
54.1801929768
 10
97.7503109358
 20
54.3222729877
 10
97.7044746147
 20
54.4642235447
 10
97.5749857358
 20
54.5844344717
 10
97.3815578514
 20
54.6646045815
 10
97.1536385829
 20
54.6925284263
 10
96.9259265736
 20
54.663954984
 10
96.7330889294
 20
54.5832344625
 10
96.60448341
 20
54.4626554303
 10
96.5596890643
 20
54.3205756523
  0
SPLINE
  5
E6
330
1F
100
AcDbEntity
  8
0
  6
Continuous
 62
     7
370
    15
100
AcDbSpline
210
0.0
220
0.0
230
1.0
 70
     8
 71
     3
 72
    11
 73
     7
 74
     0
 42
0.000000001
 43
0.00000001
 40
0.0
 40
0.0
 40
0.0
 40
0.0
 40
0.3298908702754007
 40
0.6597608909903759
 40
0.990163255566981
 40
1.0
 40
1.0
 40
1.0
 40
1.0
 10
97.05386318510799
 20
54.19802198337049
 30
0.0
 10
96.98870255441658
 20
54.21007228570107
 30
0.0
 10
96.85838541127598
 20
54.23417212876641
 30
0.0
 10
96.7063294284073
 20
54.32450345281023
 30
0.0
 10
96.61817248498542
 20
54.4003570721451
 30
0.0
 10
96.60345403849922
 20
54.44587461615728
 30
0.0
 10
96.60302850953238
 20
54.44719058612019
 30
0.0
  0
SPLINE
  5
E7
330
1F
100
AcDbEntity
  8
0
  6
Continuous
 62
     7
370
    15
100
AcDbSpline
210
0.0
220
0.0
230
1.0
 70
     8
 71
     3
 72
    12
 73
     8
 74
     0
 42
0.000000001
 43
0.00000001
 40
0.0
 40
0.0
 40
0.0
 40
0.0
 40
0.1087469895451067
 40
0.3554334032707044
 40
0.601576337685789
 40
0.8470870698162595
 40
1.0
 40
1.0
 40
1.0
 40
1.0
 10
97.70223967335122
 20
54.45277572760016
 30
0.0
 10
97.69336251279663
 20
54.43357578745833
 30
0.0
 10
97.6643480140919
 20
54.37082186575667
 30
0.0
 10
97.55003110327995
 20
54.28564740931359
 30
0.0
 10
97.37869381728002
 20
54.21349484576687
 30
0.0
 10
97.20294139945398
 20
54.18700238127641
 30
0.0
 10
97.09520993806372
 20
54.19496570220107
 30
0.0
 10
97.05386316328011
 20
54.19802198337049
 30
0.0
  0
LINE
  5
E8
330
1F
100
AcDbEntity
  8
0
  6
Continuous
 62
     8
370
    15
100
AcDbLine
 10
97.155
 20
77.5478894185
 30
0.0
 11
128.405
 21
77.5478894185
 31
0.0
  0
LINE
  5
E9
330
1F
100
AcDbEntity
  8
0
  6
Continuous
 62
     8
370
    15
100
AcDbLine
 10
65.905
 20
77.5478894185
 30
0.0
 11
97.155
 21
77.5478894185
 31
0.0
  0
SPLINE
  5
EA
330
1F
100
AcDbEntity
  8
0
  6
Continuous
 62
     7
370
    15
100
AcDbSpline
210
0.0
220
0.0
230
1.0
 70
    24
 71
     3
 72
    14
 73
    10
 74
     0
 42
0.000000001
 43
0.00000001
 40
0.0
 40
0.0
 40
0.0
 40
0.0
 40
0.2499999999999999
 40
0.2499999999999999
 40
0.4999999999999998
 40
0.4999999999999998
 40
0.7499999999999998
 40
0.7499999999999998
 40
1.0
 40
1.0
 40
1.0
 40
1.0
 10
98.07574999999996
 20
179.0725909187267
 30
0.0
 10
97.93657868628173
 20
179.0725909187267
 30
0.0
 10
97.78684070214011
 20
179.0725909187267
 30
0.0
 10
97.47638984097237
 20
179.0725909187267
 30
0.0
 10
97.31570119087733
 20
179.0725909187266
 30
0.0
 10
96.99429880912258
 20
179.0725909187266
 30
0.0
 10
96.83361015902753
 20
179.0725909187266
 30
0.0
 10
96.52315929785979
 20
179.0725909187267
 30
0.0
 10
96.37342131371818
 20
179.0725909187267
 30
0.0
 10
96.23424999999995
 20
179.0725909187267
 30
0.0
  0
LINE
  5
EB
330
1F
100
AcDbEntity
  8
0
  6
Continuous
 62
     7
370
    15
100
AcDbLine
 10
96.2342499739
 20
255.2674076688
 30
0.0
 11
96.2342499739
 21
179.0725923312
 31
0.0
  0
SPLINE
  5
EC
330
1F
100
AcDbEntity
  8
0
  6
Continuous
 62
     7
370
    15
100
AcDbSpline
210
0.0
220
0.0
230
1.0
 70
    24
 71
     3
 72
    14
 73
    10
 74
     0
 42
0.000000001
 43
0.00000001
 40
0.0
 40
0.0
 40
0.0
 40
0.0
 40
0.25
 40
0.25
 40
0.5
 40
0.5
 40
0.75
 40
0.75
 40
1.0
 40
1.0
 40
1.0
 40
1.0
 10
96.2342499999999
 20
255.2674090812737
 30
0.0
 10
96.37342131371814
 20
255.2674090812737
 30
0.0
 10
96.52315929785975
 20
255.2674090812737
 30
0.0
 10
96.83361015902749
 20
255.2674090812737
 30
0.0
 10
96.99429880912254
 20
255.2674090812737
 30
0.0
 10
97.3157011908773
 20
255.2674090812737
 30
0.0
 10
97.47638984097235
 20
255.2674090812737
 30
0.0
 10
97.7868407021401
 20
255.2674090812737
 30
0.0
 10
97.9365786862817
 20
255.2674090812737
 30
0.0
 10
98.07574999999993
 20
255.2674090812737
 30
0.0
  0
LINE
  5
ED
330
1F
100
AcDbEntity
  8
0
  6
Continuous
 62
     7
370
    15
100
AcDbLine
 10
98.0757500262
 20
255.2674076688
 30
0.0
 11
98.0757500262
 21
179.0725923312
 31
0.0
  0
ELLIPSE
  5
EE
330
1F
100
AcDbEntity
  8
0
  6
Continuous
 62
     7
370
    15
100
AcDbEllipse
 10
96.9397045902
 20
217.17
 30
0.0
 11
60.49187445434295
 21
0.0
 31
0.0
210
0.0
220
0.0
230
1.0
 40
0.6298366573
 41
1.582458563881485
 42
4.700726743298111
  0
ELLIPSE
  5
EF
330
1F
100
AcDbEntity
  8
0
  6
Continuous
 62
     7
370
    15
100
AcDbEllipse
 10
97.3702954098
 20
217.17
 30
0.0
 11
60.49187445434303
 21
0.0
 31
0.0
210
0.0
220
0.0
230
1.0
 40
0.6298366573
 41
4.724051217471286
 42
7.842319396887895
  0
ARC
  5
F0
330
1F
100
AcDbEntity
  8
0
  6
Continuous
 62
     7
370
    15
100
AcDbCircle
 10
248.285
 20
77.5478886673
 30
0.0
 40
31.25000000000004
100
AcDbArc
 50
300.5307023387
 51
0.0
  0
ARC
  5
F1
330
1F
100
AcDbEntity
  8
0
  6
Continuous
 62
     7
370
    15
100
AcDbCircle
 10
248.285
 20
77.5478886673
 30
0.0
 40
31.25000000000001
100
AcDbArc
 50
229.5743383685
 51
239.4692976613
  0
ARC
  5
F2
330
1F
100
AcDbEntity
  8
0
  6
Continuous
 62
     7
370
    15
100
AcDbCircle
 10
248.285
 20
77.5478886673
 30
0.0
 40
31.25
100
AcDbArc
 50
180.0
 51
225.4591594578
  0
LINE
  5
F3
330
1F
100
AcDbEntity
  8
0
  6
Continuous
 62
     7
370
    15
100
AcDbLine
 10
279.535
 20
77.5478894185
 30
0.0
 11
279.535
 21
139.3252017271
 31
0.0
  0
LINE
  5
F4
330
1F
100
AcDbEntity
  8
0
  6
Continuous
 62
     7
370
    15
100
AcDbLine
 10
217.035
 20
139.3252017271
 30
0.0
 11
217.035
 21
77.5478894185
 31
0.0
  0
SPLINE
  5
F5
330
1F
100
AcDbEntity
  8
0
  6
Continuous
 62
     7
370
    15
100
AcDbSpline
210
0.0
220
0.0
230
1.0
 70
     8
 71
     3
 72
    12
 73
     8
 74
     0
 42
0.000000001
 43
0.00000001
 40
0.0
 40
0.0
 40
0.0
 40
0.0
 40
0.2047184593949238
 40
0.4306303880353128
 40
0.6783141897797705
 40
0.9838425379925856
 40
1.0
 40
1.0
 40
1.0
 40
1.0
 10
227.6402830815315
 20
53.70291600154371
 30
0.0
 10
227.6654755357446
 20
53.6887127944343
 30
0.0
 10
227.7184684918532
 20
53.65883599384217
 30
0.0
 10
227.8165814776841
 20
53.65857454497829
 30
0.0
 10
227.9208752042992
 20
53.68491347084837
 30
0.0
 10
227.9976964088207
 20
53.715179940628
 30
0.0
 10
228.0306122958319
 20
53.74563330882057
 30
0.0
 10
228.0322655773163
 20
53.74716290423304
 30
0.0
  0
SPLINE
  5
F6
330
1F
100
AcDbEntity
  8
0
  6
Continuous
 62
     7
370
    15
100
AcDbSpline
210
0.0
220
0.0
230
1.0
 70
     8
 71
     3
 72
    12
 73
     8
 74
     0
 42
0.000000001
 43
0.00000001
 40
0.0
 40
0.0
 40
0.0
 40
0.0
 40
0.299352688364653
 40
0.5968369957856018
 40
0.7418958709402608
 40
0.8754927860993191
 40
1.0
 40
1.0
 40
1.0
 40
1.0
 10
226.1033195739984
 20
55.43580952250988
 30
0.0
 10
226.075168879786
 20
55.38965651965963
 30
0.0
 10
226.0190431912049
 20
55.2976385734768
 30
0.0
 10
226.0021043904532
 20
55.16135687387924
 30
0.0
 10
226.0153254423815
 20
55.0591260896454
 30
0.0
 10
226.0402427078681
 20
54.98938875836312
 30
0.0
 10
226.0729046948345
 20
54.95602621150324
 30
0.0
 10
226.088660556674
 20
54.93993240559131
 30
0.0
  0
LINE
  5
F7
330
1F
100
AcDbEntity
  8
0
  6
Continuous
 62
     7
370
    15
100
AcDbLine
 10
286.3824076688
 20
159.6388446462
 30
0.0
 11
210.1875923312
 21
159.6388446462
 31
0.0
  0
LINE
  5
F8
330
1F
100
AcDbEntity
  8
0
  6
Continuous
 62
     7
370
    15
100
AcDbLine
 10
226.3595152384
 20
55.2796732929
 30
0.0
 11
226.336064536
 21
55.2502570037
 31
0.0
  0
ELLIPSE
  5
F9
330
1F
100
AcDbEntity
  8
0
  6
Continuous
 62
     7
370
    15
100
AcDbEllipse
 10
248.285
 20
159.7994212403
 30
0.0
 11
38.10000000000002
 21
0.0
 31
0.0
210
0.0
220
0.0
230
1.0
 40
0.9166666667
 41
3.153254890676396
 42
6.271523070093013
  0
LINE
  5
FA
330
1F
100
AcDbEntity
  8
0
  6
Continuous
 62
     7
370
    15
100
AcDbLine
 10
286.3824076688
 20
159.3921261203
 30
0.0
 11
286.3824076688
 21
158.8971915018
 31
0.0
  0
ELLIPSE
  5
FB
330
1F
100
AcDbEntity
  8
0
  6
Continuous
 62
     7
370
    15
100
AcDbEllipse
 10
248.285
 20
159.304487722
 30
0.0
 11
38.10000000000002
 21
0.0
 31
0.0
210
0.0
220
0.0
230
1.0
 40
0.9166666667
 41
3.153254890676396
 42
6.271523070093013
  0
LINE
  5
FC
330
1F
100
AcDbEntity
  8
0
  6
Continuous
 62
     7
370
    15
100
AcDbLine
 10
210.1875923312
 20
158.8971915018
 30
0.0
 11
210.1875923312
 21
159.3921261203
 31
0.0
  0
LINE
  5
FD
330
1F
100
AcDbEntity
  8
0
  6
Continuous
 62
     7
370
    15
100
AcDbLine
 10
286.3824076688
 20
159.3921261203
 30
0.0
 11
210.1875923312
 21
159.3921261203
 31
0.0
  0
LINE
  5
FE
330
1F
100
AcDbEntity
  8
0
  6
Continuous
 62
     7
370
    15
100
AcDbLine
 10
232.4099994934
 20
50.6304802668
 30
0.0
 11
264.1600005066
 21
50.6304802668
 31
0.0
  0
SPLINE
  5
FF
330
1F
100
AcDbEntity
  8
0
  6
Continuous
 62
     7
370
    15
100
AcDbSpline
210
0.0
220
0.0
230
1.0
 70
     8
 71
     3
 72
    13
 73
     9
 74
     0
 42
0.000000001
 43
0.00000001
 40
0.0
 40
0.0
 40
0.0
 40
0.0
 40
0.0819665607064217
 40
0.2690838883451411
 40
0.4559356152333756
 40
0.6419878027608187
 40
0.8270177315705902
 40
1.0
 40
1.0
 40
1.0
 40
1.0
 10
228.0208941286802
 20
53.75961329007179
 30
0.0
 10
228.0239471145501
 20
53.75678900967461
 30
0.0
 10
228.0339696078918
 20
53.74751732199489
 30
0.0
 10
227.9367292278807
 20
53.83746768342456
 30
0.0
 10
227.7438018251452
 20
54.01590862095701
 30
0.0
 10
227.4716379844388
 20
54.26757553795636
 30
0.0
 10
227.1636685832528
 20
54.55227020396033
 30
0.0
 10
226.9606081770723
 20
54.73990502329173
 30
0.0
 10
226.8624946212768
 20
54.83056533300907
 30
0.0
  0
ELLIPSE
  5
100
330
1F
100
AcDbEntity
  8
0
  6
Continuous
 62
     7
370
    15
100
AcDbEllipse
 10
248.285
 20
160.0978886673
 30
0.0
 11
0.0
 21
76.20000000000002
 31
0.0
210
0.0
220
0.0
230
1.0
 40
0.4101049869
 41
1.870369794002018
 42
4.412815513177581
  0
ELLIPSE
  5
101
330
1F
100
AcDbEntity
  8
0
  6
Continuous
 62
     7
370
    15
100
AcDbEllipse
 10
248.285
 20
160.0978886673
 30
0.0
 11
0.0
 21
76.20000000000002
 31
0.0
210
0.0
220
0.0
230
1.0
 40
0.4048966535
 41
1.877278988230445
 42
4.405906318949144
  0
LWPOLYLINE
  5
102
330
1F
100
AcDbEntity
  8
0
  6
Continuous
 62
     7
370
    15
100
AcDbPolyline
 90
       12
 70
   128
 43
0.0
 10
227.6402830815
 20
53.7029160015
 10
227.6204347348
 20
53.7187396377
 10
227.5354552752
 20
53.7864889313
 10
227.3908562696
 20
53.9017696694
 10
227.1994843817
 20
54.0543387007
 10
226.9783455616
 20
54.2306392282
 10
226.7470888531
 20
54.4150064062
 10
226.5262629575
 20
54.5910585035
 10
226.335487116
 20
54.7431523275
 10
226.1917132622
 20
54.857773922
 10
226.1077191418
 20
54.9247383434
 10
226.0886605567
 20
54.9399324056
  0
LWPOLYLINE
  5
103
330
1F
100
AcDbEntity
  8
0
  6
Continuous
 62
     7
370
    15
100
AcDbPolyline
 90
        6
 70
   128
 43
0.0
 10
226.8624946213
 20
54.830565333
 10
226.6159660852
 20
55.0271083895
 10
226.4038480556
 20
55.1962170113
 10
226.2408591545
 20
55.3261574652
 10
226.1383130884
 20
55.4079126861
 10
226.103319574
 20
55.4358095225
  0
SPLINE
  5
104
330
1F
100
AcDbEntity
  8
0
  6
Continuous
 62
     7
370
    15
100
AcDbSpline
210
0.0
220
0.0
230
1.0
 70
    24
 71
     3
 72
     9
 73
     5
 74
     0
 42
0.000000001
 43
0.00000001
 40
0.0
 40
0.0
 40
0.0
 40
0.0
 40
0.5000005506552898
 40
1.0
 40
1.0
 40
1.0
 40
1.0
 10
210.187592331171
 20
159.3921261202696
 30
0.0
 10
210.187592331171
 20
159.4635511107695
 30
0.0
 10
210.187592331171
 20
159.6064009344473
 30
0.0
 10
210.187592331171
 20
159.6280300835267
 30
0.0
 10
210.187592331171
 20
159.6388446461561
 30
0.0
  0
SPLINE
  5
105
330
1F
100
AcDbEntity
  8
0
  6
Continuous
 62
     7
370
    15
100
AcDbSpline
210
0.0
220
0.0
230
1.0
 70
    24
 71
     3
 72
     9
 73
     5
 74
     0
 42
0.000000001
 43
0.00000001
 40
0.0
 40
0.0
 40
0.0
 40
0.0
 40
0.4999994493447273
 40
0.9999999999999999
 40
0.9999999999999999
 40
0.9999999999999999
 40
0.9999999999999999
 10
286.3824076688289
 20
159.6388446461561
 30
0.0
 10
286.3824076688289
 20
159.6280300835267
 30
0.0
 10
286.3824076688289
 20
159.6064009344473
 30
0.0
 10
286.3824076688289
 20
159.4635511107695
 30
0.0
 10
286.3824076688289
 20
159.3921261202696
 30
0.0
  0
LINE
  5
106
330
1F
100
AcDbEntity
  8
0
  6
Continuous
 62
     8
370
    15
100
AcDbLine
 10
217.035
 20
77.5478894185
 30
0.0
 11
279.535
 21
77.5478894185
 31
0.0
  0
ENDSEC
  0
SECTION
  2
OBJECTS
  0
DICTIONARY
  5
C
330
0
100
AcDbDictionary
281
     1
  3
ACAD_GROUP
350
D
  3
ACAD_LAYOUT
350
1A
  3
ACAD_MLINESTYLE
350
17
  3
ACAD_PLOTSETTINGS
350
19
  3
ACAD_PLOTSTYLENAME
350
E
  3
ACAD_SCALELIST
350
47
  0
DICTIONARY
  5
D
102
{ACAD_REACTORS
330
C
102
}
330
C
100
AcDbDictionary
281
     1
  0
DICTIONARY
  5
1A
102
{ACAD_REACTORS
330
C
102
}
330
C
100
AcDbDictionary
281
     1
  3
Layout1
350
1E
  3
Layout2
350
26
  3
Model
350
22
  0
DICTIONARY
  5
17
102
{ACAD_REACTORS
330
C
102
}
330
C
100
AcDbDictionary
281
     1
  3
Standard
350
18
  0
DICTIONARY
  5
19
102
{ACAD_REACTORS
330
C
102
}
330
C
100
AcDbDictionary
281
     1
  0
ACDBDICTIONARYWDFLT
  5
E
102
{ACAD_REACTORS
330
C
102
}
330
C
100
AcDbDictionary
281
     1
  3
Normal
350
F
100
AcDbDictionaryWithDefault
340
F
  0
DICTIONARY
  5
47
102
{ACAD_REACTORS
330
C
102
}
330
C
100
AcDbDictionary
281
     1
  3
A0
350
48
  3
A1
350
49
  3
A2
350
4A
  3
A3
350
4B
  3
A4
350
4C
  3
A5
350
4D
  3
A6
350
4E
  3
A7
350
4F
  3
A8
350
50
  3
A9
350
51
  3
B0
350
52
  3
B1
350
53
  3
B2
350
54
  3
B3
350
55
  3
B4
350
56
  3
B5
350
57
  3
B6
350
58
  3
B7
350
59
  3
B8
350
5A
  3
B9
350
5B
  3
C0
350
5C
  3
C1
350
5D
  3
C2
350
5E
  3
C3
350
5F
  3
C4
350
60
  3
C5
350
61
  3
C6
350
62
  3
C7
350
63
  3
C8
350
64
  3
C9
350
65
  3
D0
350
66
  3
D1
350
67
  3
D2
350
68
  0
LAYOUT
  5
1E
102
{ACAD_REACTORS
330
1A
102
}
330
1A
100
AcDbPlotSettings
  1

  2
none_device
  4

  6

 40
0.0
 41
0.0
 42
0.0
 43
0.0
 44
0.0
 45
0.0
 46
0.0
 47
0.0
 48
0.0
 49
0.0
140
0.0
141
0.0
142
1.0
143
1.0
 70
   688
 72
     1
 73
     0
 74
     5
  7

 75
    16
147
1.0
148
0.0
149
0.0
100
AcDbLayout
  1
Layout1
 70
     1
 71
     1
 10
0.0
 20
0.0
 11
420.0
 21
297.0
 12
0.0
 22
0.0
 32
0.0
 14
1.0000000000E+20
 24
1.0000000000E+20
 34
1.0000000000E+20
 15
-1.0000000000E+20
 25
-1.0000000000E+20
 35
-1.0000000000E+20
146
0.0
 13
0.0
 23
0.0
 33
0.0
 16
1.0
 26
0.0
 36
0.0
 17
0.0
 27
1.0
 37
0.0
 76
     0
330
1B
  0
LAYOUT
  5
26
102
{ACAD_REACTORS
330
1A
102
}
330
1A
100
AcDbPlotSettings
  1

  2
none_device
  4

  6

 40
0.0
 41
0.0
 42
0.0
 43
0.0
 44
0.0
 45
0.0
 46
0.0
 47
0.0
 48
0.0
 49
0.0
140
0.0
141
0.0
142
1.0
143
1.0
 70
   688
 72
     1
 73
     0
 74
     5
  7

 75
    16
147
1.0
148
0.0
149
0.0
100
AcDbLayout
  1
Layout2
 70
     1
 71
     2
 10
0.0
 20
0.0
 11
0.0
 21
0.0
 12
0.0
 22
0.0
 32
0.0
 14
0.0
 24
0.0
 34
0.0
 15
0.0
 25
0.0
 35
0.0
146
0.0
 13
0.0
 23
0.0
 33
0.0
 16
1.0
 26
0.0
 36
0.0
 17
0.0
 27
1.0
 37
0.0
 76
     0
330
23
  0
LAYOUT
  5
22
102
{ACAD_REACTORS
330
1A
102
}
330
1A
100
AcDbPlotSettings
  1

  2
none_device
  4
Letter_(8.50_x_11.00_Inches)
  6

 40
6.35
 41
6.35
 42
6.35000508
 43
6.35000508
 44
215.9
 45
279.4
 46
0.0
 47
0.0
 48
0.0
 49
0.0
140
0.0
141
0.0
142
1.0
143
1.0
 70
  1712
 72
     1
 73
     0
 74
     0
  7

 75
     0
147
1.0
148
0.0
149
0.0
100
AcDbLayout
  1
Model
 70
     1
 71
     0
 10
0.0
 20
0.0
 11
431.8
 21
279.4
 12
0.0
 22
0.0
 32
0.0
 14
0.0
 24
0.0
 34
0.0
 15
431.8
 25
279.4
 35
0.0
146
0.0
 13
0.0
 23
0.0
 33
0.0
 16
1.0
 26
0.0
 36
0.0
 17
0.0
 27
1.0
 37
0.0
 76
     0
330
1F
331
29
  0
MLINESTYLE
  5
18
102
{ACAD_REACTORS
330
17
102
}
330
17
100
AcDbMlineStyle
  2
Standard
 70
     0
  3

 62
   256
 51
90.0
 52
90.0
 71
     2
 49
0.5
 62
   256
  6
BYLAYER
 49
-0.5
 62
   256
  6
BYLAYER
  0
ACDBPLACEHOLDER
  5
F
102
{ACAD_REACTORS
330
E
102
}
330
E
  0
SCALE
  5
48
102
{ACAD_REACTORS
330
47
102
}
330
47
100
AcDbScale
 70
     0
300
1:1
140
1.0
141
1.0
290
     1
  0
SCALE
  5
49
102
{ACAD_REACTORS
330
47
102
}
330
47
100
AcDbScale
 70
     0
300
1:2
140
1.0
141
2.0
290
     0
  0
SCALE
  5
4A
102
{ACAD_REACTORS
330
47
102
}
330
47
100
AcDbScale
 70
     0
300
1:4
140
1.0
141
4.0
290
     0
  0
SCALE
  5
4B
102
{ACAD_REACTORS
330
47
102
}
330
47
100
AcDbScale
 70
     0
300
1:5
140
1.0
141
5.0
290
     0
  0
SCALE
  5
4C
102
{ACAD_REACTORS
330
47
102
}
330
47
100
AcDbScale
 70
     0
300
1:8
140
1.0
141
8.0
290
     0
  0
SCALE
  5
4D
102
{ACAD_REACTORS
330
47
102
}
330
47
100
AcDbScale
 70
     0
300
1:10
140
1.0
141
10.0
290
     0
  0
SCALE
  5
4E
102
{ACAD_REACTORS
330
47
102
}
330
47
100
AcDbScale
 70
     0
300
1:16
140
1.0
141
16.0
290
     0
  0
SCALE
  5
4F
102
{ACAD_REACTORS
330
47
102
}
330
47
100
AcDbScale
 70
     0
300
1:20
140
1.0
141
20.0
290
     0
  0
SCALE
  5
50
102
{ACAD_REACTORS
330
47
102
}
330
47
100
AcDbScale
 70
     0
300
1:30
140
1.0
141
30.0
290
     0
  0
SCALE
  5
51
102
{ACAD_REACTORS
330
47
102
}
330
47
100
AcDbScale
 70
     0
300
1:40
140
1.0
141
40.0
290
     0
  0
SCALE
  5
52
102
{ACAD_REACTORS
330
47
102
}
330
47
100
AcDbScale
 70
     0
300
1:50
140
1.0
141
50.0
290
     0
  0
SCALE
  5
53
102
{ACAD_REACTORS
330
47
102
}
330
47
100
AcDbScale
 70
     0
300
1:100
140
1.0
141
100.0
290
     0
  0
SCALE
  5
54
102
{ACAD_REACTORS
330
47
102
}
330
47
100
AcDbScale
 70
     0
300
2:1
140
2.0
141
1.0
290
     0
  0
SCALE
  5
55
102
{ACAD_REACTORS
330
47
102
}
330
47
100
AcDbScale
 70
     0
300
4:1
140
4.0
141
1.0
290
     0
  0
SCALE
  5
56
102
{ACAD_REACTORS
330
47
102
}
330
47
100
AcDbScale
 70
     0
300
8:1
140
8.0
141
1.0
290
     0
  0
SCALE
  5
57
102
{ACAD_REACTORS
330
47
102
}
330
47
100
AcDbScale
 70
     0
300
10:1
140
10.0
141
1.0
290
     0
  0
SCALE
  5
58
102
{ACAD_REACTORS
330
47
102
}
330
47
100
AcDbScale
 70
     0
300
100:1
140
100.0
141
1.0
290
     0
  0
SCALE
  5
59
102
{ACAD_REACTORS
330
47
102
}
330
47
100
AcDbScale
 70
     0
300
1/128" = 1'-0"
140
0.0078125
141
12.0
290
     0
  0
SCALE
  5
5A
102
{ACAD_REACTORS
330
47
102
}
330
47
100
AcDbScale
 70
     0
300
1/64" = 1'-0"
140
0.015625
141
12.0
290
     0
  0
SCALE
  5
5B
102
{ACAD_REACTORS
330
47
102
}
330
47
100
AcDbScale
 70
     0
300
1/32" = 1'-0"
140
0.03125
141
12.0
290
     0
  0
SCALE
  5
5C
102
{ACAD_REACTORS
330
47
102
}
330
47
100
AcDbScale
 70
     0
300
1/16" = 1'-0"
140
0.0625
141
12.0
290
     0
  0
SCALE
  5
5D
102
{ACAD_REACTORS
330
47
102
}
330
47
100
AcDbScale
 70
     0
300
3/32" = 1'-0"
140
0.09375
141
12.0
290
     0
  0
SCALE
  5
5E
102
{ACAD_REACTORS
330
47
102
}
330
47
100
AcDbScale
 70
     0
300
1/8" = 1'-0"
140
0.125
141
12.0
290
     0
  0
SCALE
  5
5F
102
{ACAD_REACTORS
330
47
102
}
330
47
100
AcDbScale
 70
     0
300
3/16" = 1'-0"
140
0.1875
141
12.0
290
     0
  0
SCALE
  5
60
102
{ACAD_REACTORS
330
47
102
}
330
47
100
AcDbScale
 70
     0
300
1/4" = 1'-0"
140
0.25
141
12.0
290
     0
  0
SCALE
  5
61
102
{ACAD_REACTORS
330
47
102
}
330
47
100
AcDbScale
 70
     0
300
3/8" = 1'-0"
140
0.375
141
12.0
290
     0
  0
SCALE
  5
62
102
{ACAD_REACTORS
330
47
102
}
330
47
100
AcDbScale
 70
     0
300
1/2" = 1'-0"
140
0.5
141
12.0
290
     0
  0
SCALE
  5
63
102
{ACAD_REACTORS
330
47
102
}
330
47
100
AcDbScale
 70
     0
300
3/4" = 1'-0"
140
0.75
141
12.0
290
     0
  0
SCALE
  5
64
102
{ACAD_REACTORS
330
47
102
}
330
47
100
AcDbScale
 70
     0
300
1" = 1'-0"
140
1.0
141
12.0
290
     0
  0
SCALE
  5
65
102
{ACAD_REACTORS
330
47
102
}
330
47
100
AcDbScale
 70
     0
300
1-1/2" = 1'-0"
140
1.5
141
12.0
290
     0
  0
SCALE
  5
66
102
{ACAD_REACTORS
330
47
102
}
330
47
100
AcDbScale
 70
     0
300
3" = 1'-0"
140
3.0
141
12.0
290
     0
  0
SCALE
  5
67
102
{ACAD_REACTORS
330
47
102
}
330
47
100
AcDbScale
 70
     0
300
6" = 1'-0"
140
6.0
141
12.0
290
     0
  0
SCALE
  5
68
102
{ACAD_REACTORS
330
47
102
}
330
47
100
AcDbScale
 70
     0
300
1'-0" = 1'-0"
140
12.0
141
12.0
290
     0
  0
ENDSEC
  0
EOF
