  0
SECTION
  2
HEADER
  9
$ACADVER
  1
AC1015
  9
$ACADMAINTVER
 70
     6
  9
$DWGCODEPAGE
  3
ANSI_1252
  9
$INSBASE
 10
0.0
 20
0.0
 30
0.0
  9
$EXTMIN
 10
0.0
 20
0.0
 30
0.0
  9
$EXTMAX
 10
431.8
 20
279.4
 30
0.0
  9
$LIMMIN
 10
0.0
 20
0.0
  9
$LIMMAX
 10
431.8
 20
279.4
  9
$ORTHOMODE
 70
     0
  9
$REGENMODE
 70
     1
  9
$FILLMODE
 70
     1
  9
$QTEXTMODE
 70
     0
  9
$MIRRTEXT
 70
     1
  9
$LTSCALE
 40
1.0
  9
$ATTMODE
 70
     1
  9
$TEXTSIZE
 40
3.175
  9
$TRACEWID
 40
1.0
  9
$TEXTSTYLE
  7
Standard
  9
$CLAYER
  8
0
  9
$CELTYPE
  6
ByLayer
  9
$CECOLOR
 62
   256
  9
$CELTSCALE
 40
1.0
  9
$DISPSILH
 70
     0
  9
$DIMSCALE
 40
1.0
  9
$DIMASZ
 40
3.302
  9
$DIMEXO
 40
1.27
  9
$DIMDLI
 40
3.75
  9
$DIMRND
 40
0.0
  9
$DIMDLE
 40
0.0
  9
$DIMEXE
 40
3.175
  9
$DIMTP
 40
0.0
  9
$DIMTM
 40
0.0
  9
$DIMTXT
 40
3.175
  9
$DIMCEN
 40
2.5
  9
$DIMTSZ
 40
0.0
  9
$DIMTOL
 70
     0
  9
$DIMLIM
 70
     0
  9
$DIMTIH
 70
     1
  9
$DIMTOH
 70
     1
  9
$DIMSE1
 70
     0
  9
$DIMSE2
 70
     0
  9
$DIMTAD
 70
     0
  9
$DIMZIN
 70
     0
  9
$DIMBLK
  1

  9
$DIMASO
 70
     1
  9
$DIMSHO
 70
     1
  9
$DIMPOST
  1

  9
$DIMAPOST
  1

  9
$DIMALT
 70
     0
  9
$DIMALTD
 70
     3
  9
$DIMALTF
 40
0.0393700787
  9
$DIMLFAC
 40
10.0
  9
$DIMTOFL
 70
     1
  9
$DIMTVP
 40
0.0
  9
$DIMTIX
 70
     0
  9
$DIMSOXD
 70
     0
  9
$DIMSAH
 70
     0
  9
$DIMBLK1
  1

  9
$DIMBLK2
  1

  9
$DIMSTYLE
  2
ISO-25
  9
$DIMCLRD
 70
     0
  9
$DIMCLRE
 70
     0
  9
$DIMCLRT
 70
     0
  9
$DIMTFAC
 40
1.0
  9
$DIMGAP
 40
1.524
  9
$DIMJUST
 70
     0
  9
$DIMSD1
 70
     0
  9
$DIMSD2
 70
     0
  9
$DIMTOLJ
 70
     0
  9
$DIMTZIN
 70
     0
  9
$DIMALTZ
 70
     0
  9
$DIMALTTZ
 70
     0
  9
$DIMUPT
 70
     0
  9
$DIMDEC
 70
     0
  9
$DIMTDEC
 70
     0
  9
$DIMALTU
 70
     2
  9
$DIMALTTD
 70
     3
  9
$DIMTXSTY
  7
Standard
  9
$DIMAUNIT
 70
     0
  9
$DIMADEC
 70
     0
  9
$DIMALTRND
 40
0.0
  9
$DIMAZIN
 70
     0
  9
$DIMDSEP
 70
    44
  9
$DIMATFIT
 70
     3
  9
$DIMFRAC
 70
     0
  9
$DIMLDRBLK
  1

  9
$DIMLUNIT
 70
     2
  9
$DIMLWD
 70
    -2
  9
$DIMLWE
 70
    -2
  9
$DIMTMOVE
 70
     0
  9
$LUNITS
 70
     2
  9
$LUPREC
 70
     2
  9
$SKETCHINC
 40
1.0
  9
$FILLETRAD
 40
10.0
  9
$AUNITS
 70
     0
  9
$AUPREC
 70
     2
  9
$MENU
  1
.
  9
$ELEVATION
 40
0.0
  9
$PELEVATION
 40
0.0
  9
$THICKNESS
 40
0.0
  9
$LIMCHECK
 70
     0
  9
$CHAMFERA
 40
0.0
  9
$CHAMFERB
 40
0.0
  9
$CHAMFERC
 40
0.0
  9
$CHAMFERD
 40
0.0
  9
$SKPOLY
 70
     0
  9
$TDCREATE
 40
2458681.601270498
  9
$TDUCREATE
 40
2458681.767937164
  9
$TDUPDATE
 40
2458681.601271829
  9
$TDUUPDATE
 40
2458681.767938495
  9
$TDINDWG
 40
0.0000000116
  9
$TDUSRTIMER
 40
0.0000000116
  9
$USRTIMER
 70
     1
  9
$ANGBASE
 50
0.0
  9
$ANGDIR
 70
     0
  9
$PDMODE
 70
     0
  9
$PDSIZE
 40
-1.0
  9
$PLINEWID
 40
0.0
  9
$SPLFRAME
 70
     0
  9
$SPLINETYPE
 70
     6
  9
$SPLINESEGS
 70
     8
  9
$HANDSEED
  5
159
  9
$SURFTAB1
 70
     6
  9
$SURFTAB2
 70
     6
  9
$SURFTYPE
 70
     6
  9
$SURFU
 70
     6
  9
$SURFV
 70
     6
  9
$UCSBASE
  2

  9
$UCSNAME
  2

  9
$UCSORG
 10
0.0
 20
0.0
 30
0.0
  9
$UCSXDIR
 10
1.0
 20
0.0
 30
0.0
  9
$UCSYDIR
 10
0.0
 20
1.0
 30
0.0
  9
$UCSORTHOREF
  2

  9
$UCSORTHOVIEW
 70
     0
  9
$UCSORGTOP
 10
0.0
 20
0.0
 30
0.0
  9
$UCSORGBOTTOM
 10
0.0
 20
0.0
 30
0.0
  9
$UCSORGLEFT
 10
0.0
 20
0.0
 30
0.0
  9
$UCSORGRIGHT
 10
0.0
 20
0.0
 30
0.0
  9
$UCSORGFRONT
 10
0.0
 20
0.0
 30
0.0
  9
$UCSORGBACK
 10
0.0
 20
0.0
 30
0.0
  9
$PUCSBASE
  2

  9
$PUCSNAME
  2

  9
$PUCSORG
 10
0.0
 20
0.0
 30
0.0
  9
$PUCSXDIR
 10
1.0
 20
0.0
 30
0.0
  9
$PUCSYDIR
 10
0.0
 20
1.0
 30
0.0
  9
$PUCSORTHOREF
  2

  9
$PUCSORTHOVIEW
 70
     0
  9
$PUCSORGTOP
 10
0.0
 20
0.0
 30
0.0
  9
$PUCSORGBOTTOM
 10
0.0
 20
0.0
 30
0.0
  9
$PUCSORGLEFT
 10
0.0
 20
0.0
 30
0.0
  9
$PUCSORGRIGHT
 10
0.0
 20
0.0
 30
0.0
  9
$PUCSORGFRONT
 10
0.0
 20
0.0
 30
0.0
  9
$PUCSORGBACK
 10
0.0
 20
0.0
 30
0.0
  9
$USERI1
 70
     0
  9
$USERI2
 70
     0
  9
$USERI3
 70
     0
  9
$USERI4
 70
     0
  9
$USERI5
 70
     0
  9
$USERR1
 40
0.0
  9
$USERR2
 40
0.0
  9
$USERR3
 40
0.0
  9
$USERR4
 40
0.0
  9
$USERR5
 40
0.0
  9
$WORLDVIEW
 70
     1
  9
$SHADEDGE
 70
     3
  9
$SHADEDIF
 70
    70
  9
$TILEMODE
 70
     1
  9
$MAXACTVP
 70
    64
  9
$PINSBASE
 10
0.0
 20
0.0
 30
0.0
  9
$PLIMCHECK
 70
     0
  9
$PEXTMIN
 10
1.0000000000E+20
 20
1.0000000000E+20
 30
1.0000000000E+20
  9
$PEXTMAX
 10
-1.0000000000E+20
 20
-1.0000000000E+20
 30
-1.0000000000E+20
  9
$PLIMMIN
 10
0.0
 20
0.0
  9
$PLIMMAX
 10
420.0
 20
297.0
  9
$UNITMODE
 70
     0
  9
$VISRETAIN
 70
     1
  9
$PLINEGEN
 70
     0
  9
$PSLTSCALE
 70
     1
  9
$TREEDEPTH
 70
  3020
  9
$CMLSTYLE
  2
Standard
  9
$CMLJUST
 70
     0
  9
$CMLSCALE
 40
20.0
  9
$PROXYGRAPHICS
 70
     1
  9
$MEASUREMENT
 70
     1
  9
$CELWEIGHT
370
    -1
  9
$ENDCAPS
280
     0
  9
$JOINSTYLE
280
     0
  9
$LWDISPLAY
290
     1
  9
$INSUNITS
 70
     4
  9
$HYPERLINKBASE
  1

  9
$STYLESHEET
  1

  9
$XEDIT
290
     1
  9
$CEPSNTYPE
380
     0
  9
$PSTYLEMODE
290
     1
  9
$FINGERPRINTGUID
  2
{FEE6369B-9A31-4E12-8274-F37E045BCD26}
  9
$VERSIONGUID
  2
{FAEB1C32-E019-11D5-929B-00C0DF256EC4}
  9
$EXTNAMES
290
     1
  9
$PSVPSCALE
 40
0.0
  9
$OLESTARTUP
290
     0
  0
ENDSEC
  0
SECTION
  2
CLASSES
  0
CLASS
  1
ACDBDICTIONARYWDFLT
  2
AcDbDictionaryWithDefault
  3
ObjectDBX Classes
 90
        0
280
     0
281
     0
  0
CLASS
  1
VISUALSTYLE
  2
AcDbVisualStyle
  3
ObjectDBX Classes
 90
     4095
280
     0
281
     0
  0
CLASS
  1
MATERIAL
  2
AcDbMaterial
  3
ObjectDBX Classes
 90
     1153
280
     0
281
     0
  0
CLASS
  1
SCALE
  2
AcDbScale
  3
ObjectDBX Classes
 90
     1153
280
     0
281
     0
  0
CLASS
  1
TABLESTYLE
  2
AcDbTableStyle
  3
ObjectDBX Classes
 90
     4095
280
     0
281
     0
  0
CLASS
  1
MLEADERSTYLE
  2
AcDbMLeaderStyle
  3
ACDB_MLEADERSTYLE_CLASS
 90
     4095
280
     0
281
     0
  0
CLASS
  1
SUN
  2
AcDbSun
  3
SCENEOE
 90
     1153
280
     0
281
     0
  0
CLASS
  1
ACDBPLACEHOLDER
  2
AcDbPlaceHolder
  3
ObjectDBX Classes
 90
        0
280
     0
281
     0
  0
CLASS
  1
LAYOUT
  2
AcDbLayout
  3
ObjectDBX Classes
 90
        0
280
     0
281
     0
  0
ENDSEC
  0
SECTION
  2
TABLES
  0
TABLE
  2
VPORT
  5
8
330
0
100
AcDbSymbolTable
 70
     1
  0
VPORT
  5
29
330
8
100
AcDbSymbolTableRecord
100
AcDbViewportTableRecord
  2
*Active
 70
     0
 10
0.0
 20
0.0
 11
1.0
 21
1.0
 12
215.9
 22
139.7
 13
0.0
 23
0.0
 14
10.0
 24
10.0
 15
10.0
 25
10.0
 16
0.0
 26
0.0
 36
1.0
 17
0.0
 27
0.0
 37
0.0
 40
279.4
 41
1.5454545455
 42
50.0
 43
0.0
 44
0.0
 50
0.0
 51
0.0
 71
     0
 72
  2000
 73
     1
 74
     3
 75
     0
 76
     0
 77
     0
 78
     0
281
     0
 65
     1
110
0.0
120
0.0
130
0.0
111
1.0
121
0.0
131
0.0
112
0.0
122
1.0
132
0.0
 79
     0
146
0.0
  0
ENDTAB
  0
TABLE
  2
LTYPE
  5
5
330
0
100
AcDbSymbolTable
 70
     6
  0
LTYPE
  5
14
330
5
100
AcDbSymbolTableRecord
100
AcDbLinetypeTableRecord
  2
ByBlock
 70
     0
  3

 72
    65
 73
     0
 40
0.0
  0
LTYPE
  5
15
330
5
100
AcDbSymbolTableRecord
100
AcDbLinetypeTableRecord
  2
ByLayer
 70
     0
  3

 72
    65
 73
     0
 40
0.0
  0
LTYPE
  5
16
330
5
100
AcDbSymbolTableRecord
100
AcDbLinetypeTableRecord
  2
Continuous
 70
     0
  3
Solid line
 72
    65
 73
     0
 40
0.0
  0
LTYPE
  5
6E
330
5
100
AcDbSymbolTableRecord
100
AcDbLinetypeTableRecord
  2
HIDDEN
 70
     0
  3
Hidden __ __ __ __ __ __ __ __ __ __ __ __ __ __
 72
    65
 73
     2
 40
1.905
 49
1.27
 74
     0
 49
-0.635
 74
     0
  0
LTYPE
  5
6F
330
5
100
AcDbSymbolTableRecord
100
AcDbLinetypeTableRecord
  2
PHANTOM
 70
     0
  3
Phantom ______  __  __  ______  __  __  ______
 72
    65
 73
     6
 40
12.7
 49
6.35
 74
     0
 49
-1.27
 74
     0
 49
1.27
 74
     0
 49
-1.27
 74
     0
 49
1.27
 74
     0
 49
-1.27
 74
     0
  0
LTYPE
  5
70
330
5
100
AcDbSymbolTableRecord
100
AcDbLinetypeTableRecord
  2
CENTER
 70
     0
  3
Center ____ _ ____ _ ____ _ ____ _ ____ _ ____
 72
    65
 73
     4
 40
10.16
 49
6.35
 74
     0
 49
-1.27
 74
     0
 49
1.27
 74
     0
 49
-1.27
 74
     0
  0
LTYPE
  5
71
330
5
100
AcDbSymbolTableRecord
100
AcDbLinetypeTableRecord
  2
CENTERX2
 70
     0
  3
Center (2x) ________  __  ________  __  _____
 72
    65
 73
     4
 40
20.32
 49
12.7
 74
     0
 49
-2.54
 74
     0
 49
2.54
 74
     0
 49
-2.54
 74
     0
  0
LTYPE
  5
72
330
5
100
AcDbSymbolTableRecord
100
AcDbLinetypeTableRecord
  2
DOT2
 70
     0
  3
Dot (.5x) ........................................
 72
    65
 73
     2
 40
0.635
 49
0.0
 74
     0
 49
-0.635
 74
     0
  0
ENDTAB
  0
TABLE
  2
LAYER
  5
2
330
0
100
AcDbSymbolTable
 70
     2
  0
LAYER
  5
10
330
2
100
AcDbSymbolTableRecord
100
AcDbLayerTableRecord
  2
0
 70
     0
 62
     7
  6
Continuous
370
    -3
390
F
  0
LAYER
  5
73
330
2
100
AcDbSymbolTableRecord
100
AcDbLayerTableRecord
  2
FORMAT
 70
     0
 62
     7
  6
Continuous
370
    -3
390
F
  0
ENDTAB
  0
TABLE
  2
STYLE
  5
3
330
0
100
AcDbSymbolTable
 70
     2
  0
STYLE
  5
11
330
3
100
AcDbSymbolTableRecord
100
AcDbTextStyleTableRecord
  2
Standard
 70
     0
 40
0.0
 41
1.0
 50
0.0
 71
     0
 42
3.175
  3
txt
  4

  0
STYLE
  5
B8
330
3
100
AcDbSymbolTableRecord
100
AcDbTextStyleTableRecord
  2
SLDTEXTSTYLE0
 70
     0
 40
0.0
 41
0.7
 50
0.0
 71
     0
 42
3.175
  3
TXT
  4

  0
ENDTAB
  0
TABLE
  2
VIEW
  5
6
330
0
100
AcDbSymbolTable
 70
     0
  0
ENDTAB
  0
TABLE
  2
UCS
  5
7
330
0
100
AcDbSymbolTable
 70
     0
  0
ENDTAB
  0
TABLE
  2
APPID
  5
9
330
0
100
AcDbSymbolTable
 70
     1
  0
APPID
  5
12
330
9
100
AcDbSymbolTableRecord
100
AcDbRegAppTableRecord
  2
ACAD
 70
     0
  0
ENDTAB
  0
TABLE
  2
DIMSTYLE
  5
A
330
0
100
AcDbSymbolTable
 70
     1
100
AcDbDimStyleTable
  0
DIMSTYLE
105
27
330
A
100
AcDbSymbolTableRecord
100
AcDbDimStyleTableRecord
  2
ISO-25
 70
     0
 41
2.5
 42
0.625
 43
3.75
 44
1.25
 73
     0
 74
     0
 77
     1
 78
     8
140
2.5
141
2.5
143
0.0393700787
147
0.625
171
     3
172
     1
178
     0
271
     2
272
     2
274
     3
278
    44
283
     0
284
     8
340
11
  0
ENDTAB
  0
TABLE
  2
BLOCK_RECORD
  5
1
330
0
100
AcDbSymbolTable
 70
     3
  0
BLOCK_RECORD
  5
1F
330
1
100
AcDbSymbolTableRecord
100
AcDbBlockTableRecord
  2
*Model_Space
340
22
  0
BLOCK_RECORD
  5
1B
330
1
100
AcDbSymbolTableRecord
100
AcDbBlockTableRecord
  2
*Paper_Space
340
1E
  0
BLOCK_RECORD
  5
23
330
1
100
AcDbSymbolTableRecord
100
AcDbBlockTableRecord
  2
*Paper_Space0
340
26
  0
BLOCK_RECORD
  5
BB
330
1
100
AcDbSymbolTableRecord
100
AcDbBlockTableRecord
  2
SW_NOTE_0
340
0
102
{BLKREFS
331
C1
102
}
  0
BLOCK_RECORD
  5
C6
330
1
100
AcDbSymbolTableRecord
100
AcDbBlockTableRecord
  2
SW_NOTE_1
340
0
102
{BLKREFS
331
CC
102
}
  0
ENDTAB
  0
ENDSEC
  0
SECTION
  2
BLOCKS
  0
BLOCK
  5
20
330
1F
100
AcDbEntity
  8
0
100
AcDbBlockBegin
  2
*Model_Space
 70
     0
 10
0.0
 20
0.0
 30
0.0
  3
*Model_Space
  1

  0
ENDBLK
  5
21
330
1F
100
AcDbEntity
  8
0
100
AcDbBlockEnd
  0
BLOCK
  5
1C
330
1B
100
AcDbEntity
 67
     1
  8
0
100
AcDbBlockBegin
  2
*Paper_Space
 70
     0
 10
0.0
 20
0.0
 30
0.0
  3
*Paper_Space
  1

  0
ENDBLK
  5
1D
330
1B
100
AcDbEntity
 67
     1
  8
0
100
AcDbBlockEnd
  0
BLOCK
  5
24
330
23
100
AcDbEntity
  8
0
100
AcDbBlockBegin
  2
*Paper_Space0
 70
     0
 10
0.0
 20
0.0
 30
0.0
  3
*Paper_Space0
  1

  0
ENDBLK
  5
25
330
23
100
AcDbEntity
  8
0
100
AcDbBlockEnd
  0
BLOCK
  5
BC
330
BB
100
AcDbEntity
  8
0
100
AcDbBlockBegin
  2
SW_NOTE_0
 70
     0
 10
0.0
 20
0.0
 30
0.0
  3
SW_NOTE_0
  1

  0
MTEXT
  5
BE
330
BB
100
AcDbEntity
  8
0
  6
Continuous
 62
     0
370
     0
100
AcDbMText
 10
0.0
 20
2.0463950369
 30
0.0
 40
1.5875
 41
0.0
 71
     1
 72
     1
  1
87 34th Street, Unit 11, Brooklyn, NY 11232
  7
SLDTEXTSTYLE0
 73
     1
 44
1.0
  0
MTEXT
  5
BF
330
BB
100
AcDbEntity
  8
0
  6
Continuous
 62
     0
370
     0
100
AcDbMText
 10
0.0
 20
-0.0702716042
 30
0.0
 40
1.5875
 41
0.0
 71
     1
 72
     1
  1
T +1 718-387-6132
  7
SLDTEXTSTYLE0
 73
     1
 44
1.0
  0
MTEXT
  5
C0
330
BB
100
AcDbEntity
  8
0
  6
Continuous
 62
     0
370
     0
100
AcDbMText
 10
0.0
 20
-2.1869382453
 30
0.0
 40
1.5875
 41
0.0
 71
     1
 72
     1
  1
www.rollandhill.com
  7
SLDTEXTSTYLE0
 73
     1
 44
1.0
  0
ENDBLK
  5
BD
330
BB
100
AcDbEntity
  8
0
100
AcDbBlockEnd
  0
BLOCK
  5
C7
330
C6
100
AcDbEntity
  8
0
100
AcDbBlockBegin
  2
SW_NOTE_1
 70
     0
 10
0.0
 20
0.0
 30
0.0
  3
SW_NOTE_1
  1

  0
MTEXT
  5
C9
330
C6
100
AcDbEntity
  8
0
  6
Continuous
 62
     0
370
     0
100
AcDbMText
 10
0.0
 20
2.0463950369
 30
0.0
 40
1.5875
 41
0.0
 71
     1
 72
     1
  1
\LPROPRIETARY AND CONFIDENTIAL
  7
SLDTEXTSTYLE0
 73
     1
 44
1.0
  0
MTEXT
  5
CA
330
C6
100
AcDbEntity
  8
0
  6
Continuous
 62
     0
370
     0
100
AcDbMText
 10
37.3117625713
 20
2.0463950369
 30
0.0
 40
1.5875
 41
0.0
 71
     1
 72
     1
  1
THE INFORMATION CONTAINED IN THIS DRAWING IS THE SOLE PROPERTY OF ROLL & HILL LLC. ANY REPRODUCTION IN
  7
SLDTEXTSTYLE0
 73
     1
 44
1.0
  0
MTEXT
  5
CB
330
C6
100
AcDbEntity
  8
0
  6
Continuous
 62
     0
370
     0
100
AcDbMText
 10
0.0
 20
-0.0702716042
 30
0.0
 40
1.5875
 41
0.0
 71
     1
 72
     1
  1
PART OR AS A WHOLE WITHOUT THE WRITTEN PERMISSION OF ROLL & HILL LLC. IS PROHIBITED.
  7
SLDTEXTSTYLE0
 73
     1
 44
1.0
  0
ENDBLK
  5
C8
330
C6
100
AcDbEntity
  8
0
100
AcDbBlockEnd
  0
ENDSEC
  0
SECTION
  2
ENTITIES
  0
HATCH
  5
74
330
1F
100
AcDbEntity
  8
0
  6
Continuous
 62
     7
100
AcDbHatch
 10
0.0
 20
0.0
 30
0.0
210
0.0
220
0.0
230
1.0
  2
SOLID
 70
     1
 71
     0
 91
        2
 92
        0
 93
        6
 72
     4
 94
        3
 73
     1
 74
     0
 95
       20
 96
       16
 40
0.0
 40
0.0
 40
0.0
 40
0.0
 40
1.0
 40
1.0
 40
1.0
 40
2.0
 40
2.0
 40
2.0
 40
3.0
 40
3.0
 40
3.0
 40
4.0
 40
4.0
 40
4.0
 40
5.0
 40
5.0
 40
5.0
 40
5.0
 10
261.0219043336847
 20
23.63056361828031
 42
1.0
 10
261.2341319795987
 20
23.68742184709604
 42
1.0
 10
261.3945785321864
 20
23.72473719781129
 42
1.0
 10
261.5515161764629
 20
23.77337299628437
 42
1.0
 10
262.5617362220245
 20
24.08644572151765
 42
1.0
 10
262.9966382899503
 20
24.76217905347502
 42
1.0
 10
262.9131259646454
 20
25.88395655371281
 42
1.0
 10
262.8488620904764
 20
26.74717259793779
 42
1.0
 10
262.3071445332423
 20
27.30037799580671
 42
1.0
 10
261.2989762515715
 20
27.40941936834727
 42
1.0
 10
260.5093946232761
 20
27.49481913962259
 42
1.0
 10
259.7094699986221
 20
27.48819126576296
 42
1.0
 10
258.913837050576
 20
27.51251762112626
 42
1.0
 10
258.5159962651877
 20
27.52468175973202
 42
1.0
 10
258.1174764912431
 20
27.51463645747964
 42
1.0
 10
257.7192638284546
 20
27.51463645747964
 42
1.0
 72
     4
 94
        3
 73
     1
 74
     0
 95
       14
 96
       10
 40
17.0
 40
17.0
 40
17.0
 40
17.0
 40
18.0
 40
18.0
 40
18.0
 40
19.0
 40
19.0
 40
19.0
 40
20.0
 40
20.0
 40
20.0
 40
20.0
 10
257.7192638284546
 20
27.51463645747964
 42
1.0
 10
258.2057453879524
 20
27.36893835120056
 42
1.0
 10
258.4151924094879
 20
27.04153921726714
 42
1.0
 10
258.4151320634913
 20
26.55729487989966
 42
1.0
 10
258.4149081683119
 20
24.76100595804667
 42
1.0
 10
258.4191609275175
 20
22.96470127704905
 42
1.0
 10
258.4124688639662
 20
21.16843695483816
 42
1.0
 10
258.4104423723632
 20
20.62446660851326
 42
1.0
 10
258.2139995287706
 20
20.39587059142628
 42
1.0
 10
257.7053577757453
 20
20.25910042553502
 42
1.0
 72
     1
 10
257.7053577757453
 20
20.25910042553502
 11
260.1134120717832
 21
20.25910042553502
 72
     4
 94
        3
 73
     1
 74
     0
 95
       14
 96
       10
 40
13.0
 40
13.0
 40
13.0
 40
13.0
 40
14.0
 40
14.0
 40
14.0
 40
15.0
 40
15.0
 40
15.0
 40
16.0
 40
16.0
 40
16.0
 40
16.0
 10
260.1134120717832
 20
20.25910042553502
 42
1.0
 10
259.6377614656041
 20
20.40079128856704
 42
1.0
 10
259.4435911100346
 20
20.64162793377141
 42
1.0
 10
259.4408326829897
 20
21.14221143023692
 42
1.0
 10
259.4366701545022
 20
21.89763799307775
 42
1.0
 10
259.4392191002215
 20
22.65310606781492
 42
1.0
 10
259.4405559370167
 20
23.40855338660287
 42
1.0
 10
259.4406539512153
 20
23.46398560492077
 42
1.0
 10
259.4539911852495
 20
23.51939476107442
 42
1.0
 10
259.4607286043899
 20
23.57138302951071
 42
1.0
 72
     4
 94
        3
 73
     1
 74
     0
 95
       20
 96
       16
 40
8.0
 40
8.0
 40
8.0
 40
8.0
 40
9.0
 40
9.0
 40
9.0
 40
10.0
 40
10.0
 40
10.0
 40
11.0
 40
11.0
 40
11.0
 40
12.0
 40
12.0
 40
12.0
 40
13.0
 40
13.0
 40
13.0
 40
13.0
 10
259.4607286043899
 20
23.57138302951071
 42
1.0
 10
260.3725694925604
 20
23.65083910446931
 42
1.0
 10
260.6054131759577
 20
23.52556773374194
 42
1.0
 10
261.0037355762117
 20
22.71920223094413
 42
1.0
 10
261.378026816807
 20
21.9614848264415
 42
1.0
 10
261.7451764738302
 20
21.200166649339
 42
1.0
 10
262.1067370153144
 20
20.43629933433309
 42
1.0
 10
262.1765046750147
 20
20.28890135435546
 42
1.0
 10
262.2549406335689
 20
20.22203337745712
 42
1.0
 10
262.427398730108
 20
20.22724465786873
 42
1.0
 10
262.8718696744063
 20
20.24067529366942
 42
1.0
 10
263.3170171088603
 20
20.2311736819415
 42
1.0
 10
263.7618904879274
 20
20.2323936704376
 42
1.0
 10
263.8264337986554
 20
20.23257048036439
 42
1.0
 10
263.8909540472192
 20
20.24131411562171
 42
1.0
 10
263.9554858268652
 20
20.24609336482204
 42
1.0
 72
     4
 94
        3
 73
     1
 74
     0
 95
       14
 96
       10
 40
5.0
 40
5.0
 40
5.0
 40
5.0
 40
6.0
 40
6.0
 40
6.0
 40
7.0
 40
7.0
 40
7.0
 40
8.0
 40
8.0
 40
8.0
 40
8.0
 10
263.9554858268652
 20
20.24609336482204
 42
1.0
 10
263.5606000734738
 20
20.32757122285868
 42
1.0
 10
263.3178377375433
 20
20.57267359973515
 42
1.0
 10
263.1292772534607
 20
20.88520667032095
 42
1.0
 10
262.8739775562312
 20
21.30835818112304
 42
1.0
 10
262.6276890153665
 20
21.7369354504649
 42
1.0
 10
262.3739921385617
 20
22.16106556577572
 42
1.0
 10
262.033208300972
 20
22.73079019980925
 42
1.0
 10
261.7521543160346
 20
23.35408286053947
 42
1.0
 10
261.0219043336847
 20
23.63056361828031
 42
1.0
 97
        0
 92
        0
 93
        2
 72
     1
 10
259.4558811296203
 20
23.74052094311722
 11
259.4558811296203
 21
27.35855230546976
 72
     4
 94
        3
 73
     1
 74
     0
 95
       20
 96
       16
 40
1.0
 40
1.0
 40
1.0
 40
1.0
 40
2.0
 40
2.0
 40
2.0
 40
3.0
 40
3.0
 40
3.0
 40
4.0
 40
4.0
 40
4.0
 40
5.0
 40
5.0
 40
5.0
 40
6.0
 40
6.0
 40
6.0
 40
6.0
 10
259.4558811296203
 20
27.35855230546976
 42
1.0
 10
259.8103733099057
 20
27.35855230546976
 42
1.0
 10
260.1467440101549
 20
27.38072599997261
 42
1.0
 10
260.4792308497364
 20
27.35420547185249
 42
1.0
 10
261.3230227860075
 20
27.28690123567825
 42
1.0
 10
261.7108519014664
 20
26.95476897687368
 42
1.0
 10
261.8164781518313
 20
26.10478869315943
 42
1.0
 10
261.8719876284001
 20
25.65810454981779
 42
1.0
 10
261.8389787525148
 20
25.18024881635489
 42
1.0
 10
261.7413862071132
 20
24.73962656292206
 42
1.0
 10
261.608259863196
 20
24.13857044109259
 42
1.0
 10
261.1506181168165
 20
23.81517009427841
 42
1.0
 10
260.5489927438957
 20
23.74778168120397
 42
1.0
 10
260.1942113256325
 20
23.70804326575078
 42
1.0
 10
259.8313410453958
 20
23.74052094311722
 42
1.0
 10
259.4558811296203
 20
23.74052094311722
 42
1.0
 97
        0
 75
     0
 76
     1
 98
        1
 10
0.0
 20
0.0
  0
HATCH
  5
75
330
1F
100
AcDbEntity
  8
0
  6
Continuous
 62
     7
100
AcDbHatch
 10
0.0
 20
0.0
 30
0.0
210
0.0
220
0.0
230
1.0
  2
SOLID
 70
     1
 71
     0
 91
        2
 92
        0
 93
        2
 72
     4
 94
        3
 73
     1
 74
     0
 95
       14
 96
       10
 40
0.0
 40
0.0
 40
0.0
 40
0.0
 40
1.0
 40
1.0
 40
1.0
 40
2.0
 40
2.0
 40
2.0
 40
3.0
 40
3.0
 40
3.0
 40
3.0
 10
267.2336118279071
 20
20.23490821509466
 42
1.0
 10
268.1650050112285
 20
19.98240211471103
 42
1.0
 10
269.1482911393735
 20
20.33660467264827
 42
1.0
 10
269.7215189161771
 20
21.13111084177937
 42
1.0
 10
270.3723808569537
 20
22.03321892002499
 42
1.0
 10
270.372934348899
 20
23.32205720159637
 42
1.0
 10
269.7103360726668
 20
24.21398909980579
 42
1.0
 10
269.2464106552308
 20
24.83848445240961
 42
1.0
 10
268.6216197225536
 20
25.16033694362372
 42
1.0
 10
267.7758432870376
 20
25.16748813643033
 42
1.0
 72
     4
 94
        3
 73
     1
 74
     0
 95
       14
 96
       10
 40
3.0
 40
3.0
 40
3.0
 40
3.0
 40
4.0
 40
4.0
 40
4.0
 40
5.0
 40
5.0
 40
5.0
 40
6.0
 40
6.0
 40
6.0
 40
6.0
 10
267.7758432870376
 20
25.16748813643033
 42
1.0
 10
266.9062728477855
 20
25.1505801106106
 42
1.0
 10
266.225828300013
 20
24.723612195973
 42
1.0
 10
265.7739382574312
 20
23.92202056120339
 42
1.0
 10
265.4879189885011
 20
23.41465794151554
 42
1.0
 10
265.4259332718035
 20
22.86561853145873
 42
1.0
 10
265.4837047623288
 20
22.29272284982232
 42
1.0
 10
265.5792320909092
 20
21.34541139190241
 42
1.0
 10
266.3034040398354
 20
20.48709452013179
 42
1.0
 10
267.2336118279071
 20
20.23490821509466
 42
1.0
 97
        0
 92
        0
 93
        2
 72
     4
 94
        3
 73
     1
 74
     0
 95
       17
 96
       13
 40
0.0
 40
0.0
 40
0.0
 40
0.0
 40
1.0
 40
1.0
 40
1.0
 40
2.0
 40
2.0
 40
2.0
 40
3.0
 40
3.0
 40
3.0
 40
4.0
 40
4.0
 40
4.0
 40
4.0
 10
266.4699528411193
 20
22.82140374989816
 42
1.0
 10
266.4968487059656
 20
23.23360918874381
 42
1.0
 10
266.5993976948625
 20
23.64490674705059
 42
1.0
 10
266.7072125446274
 20
24.04607386528146
 42
1.0
 10
266.7597204805012
 20
24.2414496033099
 42
1.0
 10
266.882078331128
 20
24.42789874624283
 42
1.0
 10
267.0072628343699
 20
24.59213287496141
 42
1.0
 10
267.4640605055332
 20
25.19142205062979
 42
1.0
 10
268.2143234497673
 20
25.18405330473933
 42
1.0
 10
268.6683621173312
 20
24.58056604641373
 42
1.0
 10
269.0963628325642
 20
24.01168817818241
 42
1.0
 10
269.195680043492
 20
23.34551372899321
 42
1.0
 10
269.218762963826
 20
22.68351122534059
 42
1.0
 72
     4
 94
        3
 73
     1
 74
     0
 95
       17
 96
       13
 40
4.0
 40
4.0
 40
4.0
 40
4.0
 40
5.0
 40
5.0
 40
5.0
 40
6.0
 40
6.0
 40
6.0
 40
7.0
 40
7.0
 40
7.0
 40
8.0
 40
8.0
 40
8.0
 40
8.0
 10
269.218762963826
 20
22.68351122534059
 42
1.0
 10
269.202432645224
 20
22.05765558940843
 42
1.0
 10
269.1208448575376
 20
21.47214721006825
 42
1.0
 10
268.810867074766
 20
20.94311038392242
 42
1.0
 10
268.6078393105943
 20
20.5966013640246
 42
1.0
 10
268.3388937306983
 20
20.33416469565678
 42
1.0
 10
267.9076604687568
 20
20.30531315927085
 42
1.0
 10
267.4153070900211
 20
20.27237193240103
 42
1.0
 10
267.1048165584612
 20
20.54785025472892
 42
1.0
 10
266.8746830637486
 20
20.93428603108956
 42
1.0
 10
266.5287029361534
 20
21.51524885782822
 42
1.0
 10
266.4269741915698
 20
22.16270989809668
 42
1.0
 10
266.4699528411193
 20
22.82140374989816
 42
1.0
 97
        0
 75
     0
 76
     1
 98
        1
 10
0.0
 20
0.0
  0
HATCH
  5
76
330
1F
100
AcDbEntity
  8
0
  6
Continuous
 62
     7
100
AcDbHatch
 10
0.0
 20
0.0
 30
0.0
210
0.0
220
0.0
230
1.0
  2
SOLID
 70
     1
 71
     0
 91
        1
 92
        0
 93
        4
 72
     1
 10
273.9540333846496
 20
27.87257450949275
 11
272.4594267850394
 21
27.32510813123116
 72
     4
 94
        3
 73
     1
 74
     0
 95
       14
 96
       10
 40
6.0
 40
6.0
 40
6.0
 40
6.0
 40
7.0
 40
7.0
 40
7.0
 40
8.0
 40
8.0
 40
8.0
 40
9.0
 40
9.0
 40
9.0
 40
9.0
 10
272.4594267850394
 20
27.32510813123116
 42
1.0
 10
272.9826104338649
 20
27.28380667758701
 42
1.0
 10
273.0476395875227
 20
27.23250104921648
 42
1.0
 10
273.0527409382852
 20
26.65700799131587
 42
1.0
 10
273.0685846452182
 20
24.86961337752774
 42
1.0
 10
273.0702866329497
 20
23.08209538116094
 42
1.0
 10
273.0783845276048
 20
21.29462927466367
 42
1.0
 10
273.0805785081768
 20
20.81042375860576
 42
1.0
 10
273.0059923935969
 20
20.37668517687364
 42
1.0
 10
272.426404840594
 20
20.2590796695872
 42
1.0
 72
     1
 10
272.426404840594
 20
20.2590796695872
 11
274.6224502449564
 21
20.2590796695872
 72
     4
 94
        3
 73
     1
 74
     0
 95
       17
 96
       13
 40
1.0
 40
1.0
 40
1.0
 40
1.0
 40
2.0
 40
2.0
 40
2.0
 40
3.0
 40
3.0
 40
3.0
 40
4.0
 40
4.0
 40
4.0
 40
5.0
 40
5.0
 40
5.0
 40
5.0
 10
274.6224502449564
 20
20.2590796695872
 42
1.0
 10
274.1836818051716
 20
20.38260600321025
 42
1.0
 10
274.0006220316647
 20
20.58964274029083
 42
1.0
 10
273.9590578615309
 20
21.04279505200226
 42
1.0
 10
273.9506540088286
 20
21.13443409966764
 42
1.0
 10
273.954217881965
 20
21.22727776105204
 42
1.0
 10
273.9542086570993
 20
21.31956562427539
 42
1.0
 10
273.9539872603212
 20
23.41776441505853
 42
1.0
 10
273.9540349221275
 20
25.51596282147274
 42
1.0
 10
273.9540333846496
 20
27.61416161225588
 42
1.0
 10
273.9540333846496
 20
27.71082379150879
 42
1.0
 10
273.9540333846496
 20
27.8074859707617
 42
1.0
 10
273.9540333846496
 20
27.87257450949275
 42
1.0
 97
        0
 75
     0
 76
     1
 98
        1
 10
0.0
 20
0.0
  0
HATCH
  5
77
330
1F
100
AcDbEntity
  8
0
  6
Continuous
 62
     7
100
AcDbHatch
 10
0.0
 20
0.0
 30
0.0
210
0.0
220
0.0
230
1.0
  2
SOLID
 70
     1
 71
     0
 91
        1
 92
        0
 93
        4
 72
     1
 10
276.9460186560295
 20
20.2549177176549
 11
279.1055120673172
 21
20.2549177176549
 72
     4
 94
        3
 73
     1
 74
     0
 95
       14
 96
       10
 40
6.0
 40
6.0
 40
6.0
 40
6.0
 40
7.0
 40
7.0
 40
7.0
 40
8.0
 40
8.0
 40
8.0
 40
9.0
 40
9.0
 40
9.0
 40
9.0
 10
279.1055120673172
 20
20.2549177176549
 42
1.0
 10
278.6550987719953
 20
20.40793364087759
 42
1.0
 10
278.4823339486704
 20
20.63637283524633
 42
1.0
 10
278.4822124879378
 20
21.11904779232805
 42
1.0
 10
278.4816605334703
 20
23.30086999117493
 42
1.0
 10
278.4819664915176
 20
25.48269219002111
 42
1.0
 10
278.4819649540404
 20
27.66451419668386
 42
1.0
 10
278.4819649540404
 20
27.75219577693941
 42
1.0
 10
278.4819664915176
 20
27.83987735719566
 42
1.0
 10
278.4819664915176
 20
27.88441039662488
 42
1.0
 72
     1
 10
278.4819664915176
 20
27.88441039662488
 11
276.9846800684063
 21
27.3296354262854
 72
     4
 94
        3
 73
     1
 74
     0
 95
       17
 96
       13
 40
1.0
 40
1.0
 40
1.0
 40
1.0
 40
2.0
 40
2.0
 40
2.0
 40
3.0
 40
3.0
 40
3.0
 40
4.0
 40
4.0
 40
4.0
 40
5.0
 40
5.0
 40
5.0
 40
5.0
 10
276.9846800684063
 20
27.3296354262854
 42
1.0
 10
277.5366914227135
 20
27.25167954511983
 42
1.0
 10
277.5738092075535
 20
27.20775573119973
 42
1.0
 10
277.5772915943764
 20
26.57154691311976
 42
1.0
 10
277.5773838430334
 20
26.55476419172763
 42
1.0
 10
277.577359243392
 20
26.53798031722657
 42
1.0
 10
277.577359243392
 20
26.52119721146337
 42
1.0
 10
277.5773700057348
 20
24.72538990447762
 42
1.0
 10
277.5776652014392
 20
22.92958298186009
 42
1.0
 10
277.5771993457187
 20
21.13377529050539
 42
1.0
 10
277.5770686601204
 20
20.6342380475635
 42
1.0
 10
277.4179566381115
 20
20.4199152040148
 42
1.0
 10
276.9460186560295
 20
20.2549177176549
 42
1.0
 97
        0
 75
     0
 76
     1
 98
        1
 10
0.0
 20
0.0
  0
HATCH
  5
78
330
1F
100
AcDbEntity
  8
0
  6
Continuous
 62
     7
100
AcDbHatch
 10
0.0
 20
0.0
 30
0.0
210
0.0
220
0.0
230
1.0
  2
SOLID
 70
     1
 71
     0
 91
        3
 92
        0
 93
        9
 72
     4
 94
        3
 73
     1
 74
     0
 95
       14
 96
       10
 40
0.0
 40
0.0
 40
0.0
 40
0.0
 40
1.0
 40
1.0
 40
1.0
 40
2.0
 40
2.0
 40
2.0
 40
3.0
 40
3.0
 40
3.0
 40
3.0
 10
287.0539854214827
 20
21.61211917311517
 42
1.0
 10
287.2972697310664
 20
21.3082559388604
 42
1.0
 10
287.5152010346028
 20
21.01001756649998
 42
1.0
 10
287.7601488949774
 20
20.73592220529573
 42
1.0
 10
288.1784811821614
 20
20.26780485511384
 42
1.0
 10
288.7048673968812
 20
20.09831485913089
 42
1.0
 10
289.3271645408483
 20
20.20870037148624
 42
1.0
 10
289.9739444785289
 20
20.32342848939635
 42
1.0
 10
290.7160910783766
 20
21.04182259740494
 42
1.0
 10
290.8103661314317
 20
21.70506046432864
 42
1.0
 72
     4
 94
        3
 73
     1
 74
     0
 95
       14
 96
       10
 40
24.0
 40
24.0
 40
24.0
 40
24.0
 40
25.0
 40
25.0
 40
25.0
 40
26.0
 40
26.0
 40
26.0
 40
27.0
 40
27.0
 40
27.0
 40
27.0
 10
290.8103661314317
 20
21.70506046432864
 42
1.0
 10
290.6825002672103
 20
21.49939669476813
 42
1.0
 10
290.5884281612034
 20
21.32571784099438
 42
1.0
 10
290.4735170834558
 20
21.16713932372221
 42
1.0
 10
289.9836367374808
 20
20.49110656799653
 42
1.0
 10
289.3841588364346
 20
20.43289382139212
 42
1.0
 10
288.8166481701822
 20
21.05011190802389
 42
1.0
 10
288.4270667146001
 20
21.47381844824843
 42
1.0
 10
288.0996055050067
 20
21.95463920731319
 42
1.0
 10
287.7314564875268
 20
22.4264857094768
 42
1.0
 72
     4
 94
        3
 73
     1
 74
     0
 95
       11
 96
        7
 40
22.0
 40
22.0
 40
22.0
 40
22.0
 40
23.0
 40
23.0
 40
23.0
 40
24.0
 40
24.0
 40
24.0
 40
24.0
 10
287.7314564875268
 20
22.4264857094768
 42
1.0
 10
288.1508588591387
 20
23.00030157147278
 42
1.0
 10
288.5466855488353
 20
23.55949371503118
 42
1.0
 10
288.9612633156569
 20
24.10441845059237
 42
1.0
 10
289.4290162836425
 20
24.71923384406366
 42
1.0
 10
289.9536528488242
 20
25.26443186627322
 42
1.0
 10
290.7742138825406
 20
25.39867403457779
 42
1.0
 72
     1
 10
290.7742138825406
 20
25.39867403457779
 11
287.7715077796773
 21
25.39867403457779
 72
     4
 94
        3
 73
     1
 74
     0
 95
       17
 96
       13
 40
16.0
 40
16.0
 40
16.0
 40
16.0
 40
17.0
 40
17.0
 40
17.0
 40
18.0
 40
18.0
 40
18.0
 40
19.0
 40
19.0
 40
19.0
 40
20.0
 40
20.0
 40
20.0
 40
20.0
 10
287.7715077796773
 20
25.39867403457779
 42
1.0
 10
287.9710693005408
 20
25.34310267453518
 42
1.0
 10
288.1718392788191
 20
25.32949945687163
 42
1.0
 10
288.3670435880915
 20
25.28904726743022
 42
1.0
 10
288.7601181928394
 20
25.20759054971102
 42
1.0
 10
288.9174636530569
 20
24.97387165717582
 42
1.0
 10
288.8543009972361
 20
24.57697987985169
 42
1.0
 10
288.8373887433532
 20
24.47070865762303
 42
1.0
 10
288.8131334963293
 20
24.35736772890119
 42
1.0
 10
288.7595985254019
 20
24.26650702928458
 42
1.0
 10
288.4211781752921
 20
23.692108847638
 42
1.0
 10
288.0735790837579
 20
23.12311989664797
 42
1.0
 10
287.7233847299918
 20
22.54303496963325
 42
1.0
 72
     1
 10
287.7233847299918
 20
22.54303496963325
 11
285.8065406500284
 21
24.86455968857224
 72
     4
 94
        3
 73
     1
 74
     0
 95
       20
 96
       16
 40
10.0
 40
10.0
 40
10.0
 40
10.0
 40
11.0
 40
11.0
 40
11.0
 40
12.0
 40
12.0
 40
12.0
 40
13.0
 40
13.0
 40
13.0
 40
14.0
 40
14.0
 40
14.0
 40
15.0
 40
15.0
 40
15.0
 40
15.0
 10
285.8065406500283
 20
24.86455968857225
 42
1.0
 10
285.9002991106001
 20
24.9215528310502
 42
1.0
 10
286.0025259979348
 20
24.975621306713
 42
1.0
 10
286.0959738880259
 20
25.04203380586477
 42
1.0
 10
286.361711520857
 20
25.23088333574105
 42
1.0
 10
286.6551698752792
 20
25.39378370261948
 42
1.0
 10
286.8815726805328
 20
25.62247811827483
 42
1.0
 10
287.5614237619422
 20
26.30921056516709
 42
1.0
 10
287.361321048954
 20
27.32558686332681
 42
1.0
 10
286.4793408590448
 20
27.71426216803416
 42
1.0
 10
285.840402057257
 20
27.99583274545401
 42
1.0
 10
285.1912113546599
 20
27.99239110178883
 42
1.0
 10
284.558084218296
 20
27.68711127408746
 42
1.0
 10
283.9109291360762
 20
27.37506654483262
 42
1.0
 10
283.6309452355653
 20
26.8393466878164
 42
1.0
 10
283.7149530130354
 20
26.1296866058298
 42
1.0
 72
     4
 94
        3
 73
     1
 74
     0
 95
       11
 96
        7
 40
8.0
 40
8.0
 40
8.0
 40
8.0
 40
9.0
 40
9.0
 40
9.0
 40
10.0
 40
10.0
 40
10.0
 40
10.0
 10
283.7149530130354
 20
26.1296866058298
 42
1.0
 10
283.7707819005811
 20
25.65802498535045
 42
1.0
 10
284.0198409761273
 20
25.28515591156022
 42
1.0
 10
284.3077767109179
 20
24.93075271279267
 42
1.0
 10
284.4323277733789
 20
24.77744812814591
 42
1.0
 10
284.5641388051866
 20
24.6300390014551
 42
1.0
 10
284.7027239634148
 20
24.46818604120849
 42
1.0
 72
     4
 94
        3
 73
     1
 74
     0
 95
       20
 96
       16
 40
3.0
 40
3.0
 40
3.0
 40
3.0
 40
4.0
 40
4.0
 40
4.0
 40
5.0
 40
5.0
 40
5.0
 40
6.0
 40
6.0
 40
6.0
 40
7.0
 40
7.0
 40
7.0
 40
8.0
 40
8.0
 40
8.0
 40
8.0
 10
284.7027239634148
 20
24.46818604120849
 42
1.0
 10
284.5513685160267
 20
24.38851087568819
 42
1.0
 10
284.4255536469583
 20
24.32317807019961
 42
1.0
 10
284.3005597909425
 20
24.25632085564481
 42
1.0
 10
283.8607304915963
 20
24.02105948868024
 42
1.0
 10
283.460866385652
 20
23.73663343094009
 42
1.0
 10
283.1417229300147
 20
23.34576433784628
 42
1.0
 10
282.3522343191156
 20
22.37884389028816
 42
1.0
 10
282.6109241545095
 20
20.5355588898502
 42
1.0
 10
284.198169930981
 20
20.23446388406056
 42
1.0
 10
285.1515567317372
 20
20.05360962220845
 42
1.0
 10
285.9488126796034
 20
20.36759637788916
 42
1.0
 10
286.5896302790503
 20
21.09003174583673
 42
1.0
 10
286.7443651022574
 20
21.26447318851251
 42
1.0
 10
286.8995550188436
 20
21.43851181205056
 42
1.0
 10
287.0539854214827
 20
21.61211917311517
 42
1.0
 97
        0
 92
        0
 93
        2
 72
     4
 94
        3
 73
     1
 74
     0
 95
       14
 96
       10
 40
0.0
 40
0.0
 40
0.0
 40
0.0
 40
1.0
 40
1.0
 40
1.0
 40
2.0
 40
2.0
 40
2.0
 40
3.0
 40
3.0
 40
3.0
 40
3.0
 10
284.688382372121
 20
27.15085253116304
 42
1.0
 10
284.8337724063213
 20
27.5710895609412
 42
1.0
 10
285.1818973152029
 20
27.79269159230804
 42
1.0
 10
285.6158934244382
 20
27.76810636414938
 42
1.0
 10
285.9916529561654
 20
27.74682017860581
 42
1.0
 10
286.2400293916459
 20
27.5110460628537
 42
1.0
 10
286.3549927436335
 20
27.06650131962916
 42
1.0
 10
286.5713650448558
 20
26.2298440482801
 42
1.0
 10
286.3259713159692
 20
25.4295804098103
 42
1.0
 10
285.6520579731507
 20
24.9254318870995
 42
1.0
 72
     4
 94
        3
 73
     1
 74
     0
 95
       11
 96
        7
 40
3.0
 40
3.0
 40
3.0
 40
3.0
 40
4.0
 40
4.0
 40
4.0
 40
5.0
 40
5.0
 40
5.0
 40
5.0
 10
285.6520579731507
 20
24.9254318870995
 42
1.0
 10
285.3510444536752
 20
25.31853032275095
 42
1.0
 10
285.0380140090768
 20
25.68714980838475
 42
1.0
 10
284.7721626029031
 20
26.08712768767229
 42
1.0
 10
284.5571094574822
 20
26.41068293535724
 42
1.0
 10
284.5630810205802
 20
26.788679112661
 42
1.0
 10
284.688382372121
 20
27.15085253116304
 42
1.0
 97
        0
 92
        0
 93
        2
 72
     1
 10
284.845288113738
 20
24.3712657578988
 11
287.0009947176327
 21
21.77781006188367
 72
     4
 94
        3
 73
     1
 74
     0
 95
       14
 96
       10
 40
1.0
 40
1.0
 40
1.0
 40
1.0
 40
2.0
 40
2.0
 40
2.0
 40
3.0
 40
3.0
 40
3.0
 40
4.0
 40
4.0
 40
4.0
 40
4.0
 10
287.0009947176327
 20
21.77781006188367
 42
1.0
 10
286.5509442670314
 20
21.22618922689351
 42
1.0
 10
286.0339581905155
 20
20.90925282038733
 42
1.0
 10
285.3603677179978
 20
20.87638462370451
 42
1.0
 10
284.4974276510072
 20
20.83427541775252
 42
1.0
 10
283.8665083325146
 20
21.39392726712143
 42
1.0
 10
283.7780264951535
 20
22.28619625730053
 42
1.0
 10
283.6988925217564
 20
23.08417174469389
 42
1.0
 10
284.1054815548355
 20
23.90423117633508
 42
1.0
 10
284.845288113738
 20
24.3712657578988
 42
1.0
 97
        0
 75
     0
 76
     1
 98
        1
 10
0.0
 20
0.0
  0
HATCH
  5
79
330
1F
100
AcDbEntity
  8
0
  6
Continuous
 62
     7
100
AcDbHatch
 10
0.0
 20
0.0
 30
0.0
210
0.0
220
0.0
230
1.0
  2
SOLID
 70
     1
 71
     0
 91
        1
 92
        0
 93
        2
 72
     4
 94
        3
 73
     1
 74
     0
 95
       11
 96
        7
 40
0.0
 40
0.0
 40
0.0
 40
0.0
 40
1.0
 40
1.0
 40
1.0
 40
2.0
 40
2.0
 40
2.0
 40
2.0
 10
303.0570519104932
 20
26.35430478392947
 42
1.0
 10
303.0628482011429
 20
25.96449808787493
 42
1.0
 10
303.3259905717408
 20
25.69768229885988
 42
1.0
 10
303.6993639381942
 20
25.70301926806731
 42
1.0
 10
304.0680572227529
 20
25.70828897263022
 42
1.0
 10
304.3293945946187
 20
25.98752450590587
 42
1.0
 10
304.327448147944
 20
26.37412133304796
 42
1.0
 72
     4
 94
        3
 73
     1
 74
     0
 95
       11
 96
        7
 40
2.0
 40
2.0
 40
2.0
 40
2.0
 40
3.0
 40
3.0
 40
3.0
 40
4.0
 40
4.0
 40
4.0
 40
4.0
 10
304.327448147944
 20
26.37412133304796
 42
1.0
 10
304.3255386007336
 20
26.75299425696746
 42
1.0
 10
304.0507636744179
 20
27.04560238626284
 42
1.0
 10
303.6924299141011
 20
27.05034857969325
 42
1.0
 10
303.3266947364936
 20
27.05519259513757
 42
1.0
 10
303.0511172468595
 20
26.75330175249256
 42
1.0
 10
303.0570519104932
 20
26.35430478392947
 42
1.0
 97
        0
 75
     0
 76
     1
 98
        1
 10
0.0
 20
0.0
  0
HATCH
  5
7A
330
1F
100
AcDbEntity
  8
0
  6
Continuous
 62
     7
100
AcDbHatch
 10
0.0
 20
0.0
 30
0.0
210
0.0
220
0.0
230
1.0
  2
SOLID
 70
     1
 71
     0
 91
        1
 92
        0
 93
        4
 72
     1
 10
302.6973344203136
 20
20.2539775500868
 11
304.8038079156778
 21
20.2539775500868
 72
     4
 94
        3
 73
     1
 74
     0
 95
       17
 96
       13
 40
6.0
 40
6.0
 40
6.0
 40
6.0
 40
7.0
 40
7.0
 40
7.0
 40
8.0
 40
8.0
 40
8.0
 40
9.0
 40
9.0
 40
9.0
 40
10.0
 40
10.0
 40
10.0
 40
10.0
 10
304.8038079156778
 20
20.2539775500868
 42
1.0
 10
304.4578262506061
 20
20.33981031349822
 42
1.0
 10
304.2621822227331
 20
20.55023795748124
 42
1.0
 10
304.2107535961514
 20
20.89393877449616
 42
1.0
 10
304.1922454404932
 20
21.01764883669525
 42
1.0
 10
304.1821011631179
 20
21.14380579453512
 42
1.0
 10
304.1818797663412
 20
21.26887114326077
 42
1.0
 10
304.1797703470369
 20
22.46084295323946
 42
1.0
 10
304.1808527312862
 20
23.65282014439031
 42
1.0
 10
304.1800932173391
 20
24.84479541369365
 42
1.0
 10
304.1800409430993
 20
24.93136078519359
 42
1.0
 10
304.1727133247369
 20
25.01792115989102
 42
1.0
 10
304.1706223551654
 20
25.06377258638473
 42
1.0
 72
     1
 10
304.1706223551654
 20
25.06377258638473
 11
302.7125031745686
 21
24.50968064047992
 72
     4
 94
        3
 73
     1
 74
     0
 95
       17
 96
       13
 40
1.0
 40
1.0
 40
1.0
 40
1.0
 40
2.0
 40
2.0
 40
2.0
 40
3.0
 40
3.0
 40
3.0
 40
4.0
 40
4.0
 40
4.0
 40
5.0
 40
5.0
 40
5.0
 40
5.0
 10
302.7125031745686
 20
24.50968064047994
 42
1.0
 10
302.7604109773859
 20
24.50557288463289
 42
1.0
 10
302.8224697242704
 20
24.49650561033552
 42
1.0
 10
302.8846514693661
 20
24.49557889569631
 42
1.0
 10
303.1332831261333
 20
24.4918735746181
 42
1.0
 10
303.2632153602819
 20
24.35030186610297
 42
1.0
 10
303.2668591822546
 20
24.11891186780057
 42
1.0
 10
303.2829750227277
 20
23.09531768874206
 42
1.0
 10
303.296603224403
 20
22.071496731734
 42
1.0
 10
303.2916556214044
 20
21.04785181591346
 42
1.0
 10
303.2897768237453
 20
20.65853557522151
 42
1.0
 10
303.1321361678242
 20
20.3494649042487
 42
1.0
 10
302.6973344203136
 20
20.2539775500868
 42
1.0
 97
        0
 75
     0
 76
     1
 98
        1
 10
0.0
 20
0.0
  0
HATCH
  5
7B
330
1F
100
AcDbEntity
  8
0
  6
Continuous
 62
     7
100
AcDbHatch
 10
0.0
 20
0.0
 30
0.0
210
0.0
220
0.0
230
1.0
  2
SOLID
 70
     1
 71
     0
 91
        1
 92
        0
 93
        4
 72
     1
 10
308.65963267846
 20
27.88697759989075
 11
307.1608133901539
 21
27.32540717062984
 72
     4
 94
        3
 73
     1
 74
     0
 95
       20
 96
       16
 40
5.0
 40
5.0
 40
5.0
 40
5.0
 40
6.0
 40
6.0
 40
6.0
 40
7.0
 40
7.0
 40
7.0
 40
8.0
 40
8.0
 40
8.0
 40
9.0
 40
9.0
 40
9.0
 40
10.0
 40
10.0
 40
10.0
 40
10.0
 10
307.1608133901539
 20
27.32540717062984
 42
1.0
 10
307.6774858212348
 20
27.28280885460759
 42
1.0
 10
307.7501131893193
 20
27.20350460556406
 42
1.0
 10
307.7547502218385
 20
26.63215658734291
 42
1.0
 10
307.7552944889174
 20
26.56503146731187
 42
1.0
 10
307.7550361926765
 20
26.49789904426262
 42
1.0
 10
307.7550361926765
 20
26.43077008053731
 42
1.0
 10
307.7550484924979
 20
24.69380511724257
 42
1.0
 10
307.7587445887104
 20
22.95682170421714
 42
1.0
 10
307.7500732149022
 20
21.21990094340409
 42
1.0
 10
307.7490584796685
 20
21.01681475508336
 42
1.0
 10
307.7285516030971
 20
20.78446498637255
 42
1.0
 10
307.6283941606454
 20
20.61954360515536
 42
1.0
 10
307.5293898264143
 20
20.45652254628292
 42
1.0
 10
307.3179589782804
 20
20.36177625633667
 42
1.0
 10
307.178408284104
 20
20.25443648715803
 42
1.0
 72
     1
 10
307.178408284104
 20
20.25443648715803
 11
309.3620693061908
 21
20.25443648715802
 72
     4
 94
        3
 73
     1
 74
     0
 95
       14
 96
       10
 40
1.0
 40
1.0
 40
1.0
 40
1.0
 40
2.0
 40
2.0
 40
2.0
 40
3.0
 40
3.0
 40
3.0
 40
4.0
 40
4.0
 40
4.0
 40
4.0
 10
309.3620693061908
 20
20.25443648715802
 42
1.0
 10
308.807415027844
 20
20.43200746554105
 42
1.0
 10
308.6597679764911
 20
20.6374237012035
 42
1.0
 10
308.6597187772069
 20
21.15880542625192
 42
1.0
 10
308.6595035303402
 20
23.32371921490944
 42
1.0
 10
308.65963267846
 20
25.48863300356693
 42
1.0
 10
308.65963267846
 20
27.65354698440997
 42
1.0
 10
308.65963267846
 20
27.74275854708867
 42
1.0
 10
308.65963267846
 20
27.83196991758182
 42
1.0
 10
308.65963267846
 20
27.88697759989075
 42
1.0
 97
        0
 75
     0
 76
     1
 98
        1
 10
0.0
 20
0.0
  0
HATCH
  5
7C
330
1F
100
AcDbEntity
  8
0
  6
Continuous
 62
     7
100
AcDbHatch
 10
0.0
 20
0.0
 30
0.0
210
0.0
220
0.0
230
1.0
  2
SOLID
 70
     1
 71
     0
 91
        1
 92
        0
 93
        4
 72
     1
 10
313.1781318226163
 20
27.87703492426926
 11
311.6691528821608
 21
27.32445797038016
 72
     4
 94
        3
 73
     1
 74
     0
 95
       17
 96
       13
 40
6.0
 40
6.0
 40
6.0
 40
6.0
 40
7.0
 40
7.0
 40
7.0
 40
8.0
 40
8.0
 40
8.0
 40
9.0
 40
9.0
 40
9.0
 40
10.0
 40
10.0
 40
10.0
 40
10.0
 10
311.6691528821608
 20
27.32445797038016
 42
1.0
 10
312.2096131670664
 20
27.27631108979181
 42
1.0
 10
312.2683694120104
 20
27.21300429544448
 42
1.0
 10
312.2823973578678
 20
26.60716642601487
 42
1.0
 10
312.2845313768121
 20
26.51487279724974
 42
1.0
 10
312.2871512386867
 20
26.42255802816857
 42
1.0
 10
312.2871819882395
 20
26.33025248395311
 42
1.0
 10
312.2877662297369
 20
24.60974045310045
 42
1.0
 10
312.2890700107628
 20
22.88922803787955
 42
1.0
 10
312.2876555313485
 20
21.16871754450475
 42
1.0
 10
312.2872188877024
 20
20.63608302071405
 42
1.0
 10
312.1185268426077
 20
20.41647125413319
 42
1.0
 10
311.6156486607861
 20
20.25320881127337
 42
1.0
 72
     1
 10
311.6156486607861
 20
20.25320881127337
 11
313.8867245107604
 21
20.25320881127337
 72
     4
 94
        3
 73
     1
 74
     0
 95
       17
 96
       13
 40
1.0
 40
1.0
 40
1.0
 40
1.0
 40
2.0
 40
2.0
 40
2.0
 40
3.0
 40
3.0
 40
3.0
 40
4.0
 40
4.0
 40
4.0
 40
5.0
 40
5.0
 40
5.0
 40
5.0
 10
313.8867245107604
 20
20.25320881127337
 42
1.0
 10
313.3266152617988
 20
20.4348325806782
 42
1.0
 10
313.1888880160859
 20
20.62648762285203
 42
1.0
 10
313.1786115156352
 20
21.17082388885262
 42
1.0
 10
313.1771847363981
 20
21.24633325874564
 42
1.0
 10
313.1781441224363
 20
21.32188875296783
 42
1.0
 10
313.1781441224363
 20
21.39742349124222
 42
1.0
 10
313.1781256727049
 20
23.48721689184593
 42
1.0
 10
313.1781318226163
 20
25.57700952371036
 42
1.0
 10
313.1781318226163
 20
27.66680273212925
 42
1.0
 10
313.1781318226163
 20
27.75161518695077
 42
1.0
 10
313.1781318226163
 20
27.83642744958889
 42
1.0
 10
313.1781318226163
 20
27.87703492426926
 42
1.0
 97
        0
 75
     0
 76
     1
 98
        1
 10
0.0
 20
0.0
  0
HATCH
  5
7D
330
1F
100
AcDbEntity
  8
0
  6
Continuous
 62
     7
100
AcDbHatch
 10
0.0
 20
0.0
 30
0.0
210
0.0
220
0.0
230
1.0
  2
SOLID
 70
     1
 71
     0
 91
        1
 92
        0
 93
       12
 72
     1
 10
296.2715297073844
 20
27.50458020069891
 11
293.841527870193
 21
27.50458020069891
 72
     4
 94
        3
 73
     1
 74
     0
 95
       17
 96
       13
 40
21.0
 40
21.0
 40
21.0
 40
21.0
 40
22.0
 40
22.0
 40
22.0
 40
23.0
 40
23.0
 40
23.0
 40
24.0
 40
24.0
 40
24.0
 40
25.0
 40
25.0
 40
25.0
 40
25.0
 10
293.841527870193
 20
27.50458020069891
 42
1.0
 10
294.4654639653083
 20
27.35271373418588
 42
1.0
 10
294.541848928711
 20
26.88863860486635
 42
1.0
 10
294.5396718603926
 20
26.35648992400541
 42
1.0
 10
294.5326947869268
 20
24.65236702027423
 42
1.0
 10
294.54232862173
 20
22.9481603240125
 42
1.0
 10
294.5304592944584
 20
21.24409084762873
 42
1.0
 10
294.52894334152
 20
21.02641399663968
 42
1.0
 10
294.4888489999954
 20
20.77588586122133
 42
1.0
 10
294.3739502220706
 20
20.60171040217499
 42
1.0
 10
294.2655211499942
 20
20.43733713173098
 42
1.0
 10
294.0348564567621
 20
20.35359533789035
 42
1.0
 10
293.8906841048422
 20
20.25643828302682
 42
1.0
 72
     1
 10
293.8906841048422
 20
20.25643828302682
 11
296.2880237673525
 21
20.25643828302682
 72
     4
 94
        3
 73
     1
 74
     0
 95
       14
 96
       10
 40
17.0
 40
17.0
 40
17.0
 40
17.0
 40
18.0
 40
18.0
 40
18.0
 40
19.0
 40
19.0
 40
19.0
 40
20.0
 40
20.0
 40
20.0
 40
20.0
 10
296.2880237673525
 20
20.25643828302682
 42
1.0
 10
295.7413366980624
 20
20.4024294709773
 42
1.0
 10
295.5628078711177
 20
20.63015527572819
 42
1.0
 10
295.5619960829322
 20
21.2138824872384
 42
1.0
 10
295.560827599936
 20
22.05336910178782
 42
1.0
 10
295.561359567195
 20
22.89285956003151
 42
1.0
 10
295.5621928800676
 20
23.73234771205876
 42
1.0
 10
295.5622759038603
 20
23.81306182808445
 42
1.0
 10
295.5696219719554
 20
23.89376787235267
 42
1.0
 10
295.5733857171835
 20
23.97022240661697
 42
1.0
 72
     1
 10
295.5733857171835
 20
23.97022240661697
 11
298.4851131190222
 21
23.97022240661697
 72
     4
 94
        3
 73
     1
 74
     0
 95
       11
 96
        7
 40
14.0
 40
14.0
 40
14.0
 40
14.0
 40
15.0
 40
15.0
 40
15.0
 40
16.0
 40
16.0
 40
16.0
 40
16.0
 10
298.4851131190222
 20
23.97022240661697
 42
1.0
 10
298.4851131190222
 20
23.04419117651474
 42
1.0
 10
298.4852207424561
 20
22.13796342697173
 42
1.0
 10
298.485073144605
 20
21.23173567742801
 42
1.0
 10
298.4849747460367
 20
20.62384393007452
 42
1.0
 10
298.3307257657572
 20
20.41986831094703
 42
1.0
 10
297.7632396991476
 20
20.25412130424438
 42
1.0
 72
     1
 10
297.7632396991476
 20
20.25412130424438
 11
300.2193725060648
 21
20.25412130424438
 72
     4
 94
        3
 73
     1
 74
     0
 95
       17
 96
       13
 40
9.0
 40
9.0
 40
9.0
 40
9.0
 40
10.0
 40
10.0
 40
10.0
 40
11.0
 40
11.0
 40
11.0
 40
12.0
 40
12.0
 40
12.0
 40
13.0
 40
13.0
 40
13.0
 40
13.0
 10
300.2193725060648
 20
20.25412130424438
 42
1.0
 10
299.739442715284
 20
20.41422423058344
 42
1.0
 10
299.5427163031618
 20
20.62720562490344
 42
1.0
 10
299.542119761843
 20
21.03839632851544
 42
1.0
 10
299.5393769017586
 20
22.92724217217554
 42
1.0
 10
299.5395583241182
 20
24.8160968563317
 42
1.0
 10
299.5421628112159
 20
26.70494346873036
 42
1.0
 10
299.5426363543262
 20
27.0468754177367
 42
1.0
 10
299.7248336028849
 20
27.28837413924314
 42
1.0
 10
300.049118383702
 20
27.40930924651266
 42
1.0
 10
300.1052670665942
 20
27.43024796211264
 42
1.0
 10
300.1600043450263
 20
27.45496618208605
 42
1.0
 10
300.2549312885929
 20
27.49433829349534
 42
1.0
 72
     1
 10
300.2549312885929
 20
27.49433829349534
 11
297.7186989723292
 21
27.49433829349534
 72
     4
 94
        3
 73
     1
 74
     0
 95
       14
 96
       10
 40
5.0
 40
5.0
 40
5.0
 40
5.0
 40
6.0
 40
6.0
 40
6.0
 40
7.0
 40
7.0
 40
7.0
 40
8.0
 40
8.0
 40
8.0
 40
8.0
 10
297.7186989723292
 20
27.49433829349534
 42
1.0
 10
298.3648823686909
 20
27.26685790861022
 42
1.0
 10
298.4850762195593
 20
27.0944786077999
 42
1.0
 10
298.4851069691121
 20
26.45733654080182
 42
1.0
 10
298.4851377186649
 20
25.7773505457302
 42
1.0
 10
298.4851131190222
 20
25.09736416629037
 42
1.0
 10
298.4851131190222
 20
24.41737817121947
 42
1.0
 10
298.4851131190222
 20
24.32893553953832
 42
1.0
 10
298.4851131190222
 20
24.24049329222682
 42
1.0
 10
298.4851131190222
 20
24.16049564077468
 42
1.0
 72
     1
 10
298.4851131190222
 20
24.16049564077468
 11
295.5632814142282
 21
24.16049564077468
 72
     4
 94
        3
 73
     1
 74
     0
 95
       14
 96
       10
 40
1.0
 40
1.0
 40
1.0
 40
1.0
 40
2.0
 40
2.0
 40
2.0
 40
3.0
 40
3.0
 40
3.0
 40
4.0
 40
4.0
 40
4.0
 40
4.0
 10
295.5632814142282
 20
24.16049564077468
 42
1.0
 10
295.5632814142282
 20
25.01272602299438
 42
1.0
 10
295.5627432970579
 20
25.84365465270932
 42
1.0
 10
295.5644406723573
 20
26.67457866999212
 42
1.0
 10
295.5645605956114
 20
26.73240397223375
 42
1.0
 10
295.5792681065788
 20
26.79059327230427
 42
1.0
 10
295.5906023916358
 20
26.8479388815276
 42
1.0
 10
295.6648994604227
 20
27.22384581892186
 42
1.0
 10
295.9411319155254
 20
27.38780204855992
 42
1.0
 10
296.2715297073844
 20
27.50458020069891
 42
1.0
 97
        0
 75
     0
 76
     1
 98
        1
 10
0.0
 20
0.0
  0
SPLINE
  5
7E
330
1F
100
AcDbEntity
  8
0
  6
Continuous
 62
   179
370
     0
100
AcDbSpline
210
0.0
220
0.0
230
1.0
 70
     8
 71
     3
 72
    14
 73
    10
 74
     0
 42
0.000000001
 43
0.00000001
 40
24.0
 40
24.0
 40
24.0
 40
24.0
 40
25.0
 40
25.0
 40
25.0
 40
26.0
 40
26.0
 40
26.0
 40
27.0
 40
27.0
 40
27.0
 40
27.0
 10
287.7314564875268
 20
22.42648570947681
 30
0.0
 10
288.0996055050067
 20
21.95463920731319
 30
0.0
 10
288.4270667146001
 20
21.47381844824843
 30
0.0
 10
288.8166481701822
 20
21.05011190802389
 30
0.0
 10
289.3841588364346
 20
20.43289382139212
 30
0.0
 10
289.9836367374808
 20
20.49110656799654
 30
0.0
 10
290.4735170834558
 20
21.16713932372222
 30
0.0
 10
290.5884281612034
 20
21.32571784099438
 30
0.0
 10
290.6825002672103
 20
21.49939669476814
 30
0.0
 10
290.8103661314317
 20
21.70506046432864
 30
0.0
  0
SPLINE
  5
7F
330
1F
100
AcDbEntity
  8
0
  6
Continuous
 62
   179
370
     0
100
AcDbSpline
210
0.0
220
0.0
230
1.0
 70
     8
 71
     3
 72
    11
 73
     7
 74
     0
 42
0.000000001
 43
0.00000001
 40
22.0
 40
22.0
 40
22.0
 40
22.0
 40
23.0
 40
23.0
 40
23.0
 40
24.0
 40
24.0
 40
24.0
 40
24.0
 10
290.7742138825406
 20
25.39867403457779
 30
0.0
 10
289.9536528488242
 20
25.26443186627322
 30
0.0
 10
289.4290162836425
 20
24.71923384406366
 30
0.0
 10
288.9612633156569
 20
24.10441845059237
 30
0.0
 10
288.5466855488353
 20
23.55949371503119
 30
0.0
 10
288.1508588591388
 20
23.00030157147279
 30
0.0
 10
287.7314564875268
 20
22.42648570947681
 30
0.0
  0
SPLINE
  5
80
330
1F
100
AcDbEntity
  8
0
  6
Continuous
 62
   179
370
     0
100
AcDbSpline
210
0.0
220
0.0
230
1.0
 70
     8
 71
     3
 72
    11
 73
     7
 74
     0
 42
0.000000001
 43
0.00000001
 40
20.0
 40
20.0
 40
20.0
 40
20.0
 40
21.0
 40
21.0
 40
21.0
 40
22.0
 40
22.0
 40
22.0
 40
22.0
 10
287.7715077796773
 20
25.39867403457779
 30
0.0
 10
288.2706160663608
 20
25.39867403457779
 30
0.0
 10
288.76972127809
 20
25.39867441894744
 30
0.0
 10
289.2688295647749
 20
25.39867441894744
 30
0.0
 10
289.7706253623487
 20
25.39867441894744
 30
0.0
 10
290.2724180849667
 20
25.39867403457779
 30
0.0
 10
290.7742138825406
 20
25.39867403457779
 30
0.0
  0
SPLINE
  5
81
330
1F
100
AcDbEntity
  8
0
  6
Continuous
 62
   179
370
     0
100
AcDbSpline
210
0.0
220
0.0
230
1.0
 70
     8
 71
     3
 72
    17
 73
    13
 74
     0
 42
0.000000001
 43
0.00000001
 40
16.0
 40
16.0
 40
16.0
 40
16.0
 40
17.0
 40
17.0
 40
17.0
 40
18.0
 40
18.0
 40
18.0
 40
19.0
 40
19.0
 40
19.0
 40
20.0
 40
20.0
 40
20.0
 40
20.0
 10
287.7233847299918
 20
22.54303496963325
 30
0.0
 10
288.0735790837579
 20
23.12311989664797
 30
0.0
 10
288.4211781752921
 20
23.692108847638
 30
0.0
 10
288.7595985254019
 20
24.26650702928458
 30
0.0
 10
288.8131334963293
 20
24.3573677289012
 30
0.0
 10
288.8373887433532
 20
24.47070865762303
 30
0.0
 10
288.8543009972361
 20
24.57697987985169
 30
0.0
 10
288.9174636530569
 20
24.97387165717582
 30
0.0
 10
288.7601181928394
 20
25.20759054971102
 30
0.0
 10
288.3670435880915
 20
25.28904726743022
 30
0.0
 10
288.1718392788191
 20
25.32949945687163
 30
0.0
 10
287.9710693005408
 20
25.34310267453518
 30
0.0
 10
287.7715077796773
 20
25.39867403457779
 30
0.0
  0
SPLINE
  5
82
330
1F
100
AcDbEntity
  8
0
  6
Continuous
 62
   179
370
     0
100
AcDbSpline
210
0.0
220
0.0
230
1.0
 70
     8
 71
     3
 72
     8
 73
     4
 74
     0
 42
0.000000001
 43
0.00000001
 40
15.0
 40
15.0
 40
15.0
 40
15.0
 40
16.0
 40
16.0
 40
16.0
 40
16.0
 10
285.8065406500283
 20
24.86455968857225
 30
0.0
 10
286.4380688096612
 20
24.09970377545334
 30
0.0
 10
287.0596648638312
 20
23.34687900912474
 30
0.0
 10
287.7233847299918
 20
22.54303496963325
 30
0.0
  0
SPLINE
  5
83
330
1F
100
AcDbEntity
  8
0
  6
Continuous
 62
   179
370
     0
100
AcDbSpline
210
0.0
220
0.0
230
1.0
 70
     8
 71
     3
 72
    26
 73
    22
 74
     0
 42
0.000000001
 43
0.00000001
 40
8.0
 40
8.0
 40
8.0
 40
8.0
 40
9.0
 40
9.0
 40
9.0
 40
10.0
 40
10.0
 40
10.0
 40
11.0
 40
11.0
 40
11.0
 40
12.0
 40
12.0
 40
12.0
 40
13.0
 40
13.0
 40
13.0
 40
14.0
 40
14.0
 40
14.0
 40
15.0
 40
15.0
 40
15.0
 40
15.0
 10
284.7027239634148
 20
24.4681860412085
 30
0.0
 10
284.5641388051866
 20
24.63003900145511
 30
0.0
 10
284.4323277733789
 20
24.77744812814592
 30
0.0
 10
284.3077767109179
 20
24.93075271279267
 30
0.0
 10
284.0198409761273
 20
25.28515591156022
 30
0.0
 10
283.7707819005811
 20
25.65802498535045
 30
0.0
 10
283.7149530130354
 20
26.1296866058298
 30
0.0
 10
283.6309452355654
 20
26.8393466878164
 30
0.0
 10
283.9109291360762
 20
27.37506654483262
 30
0.0
 10
284.558084218296
 20
27.68711127408746
 30
0.0
 10
285.1912113546599
 20
27.99239110178883
 30
0.0
 10
285.840402057257
 20
27.99583274545402
 30
0.0
 10
286.4793408590448
 20
27.71426216803416
 30
0.0
 10
287.361321048954
 20
27.32558686332681
 30
0.0
 10
287.5614237619422
 20
26.30921056516709
 30
0.0
 10
286.8815726805328
 20
25.62247811827483
 30
0.0
 10
286.6551698752792
 20
25.39378370261948
 30
0.0
 10
286.361711520857
 20
25.23088333574105
 30
0.0
 10
286.0959738880259
 20
25.04203380586477
 30
0.0
 10
286.0025259979348
 20
24.97562130671301
 30
0.0
 10
285.9002991106001
 20
24.9215528310502
 30
0.0
 10
285.8065406500283
 20
24.86455968857225
 30
0.0
  0
SPLINE
  5
84
330
1F
100
AcDbEntity
  8
0
  6
Continuous
 62
   179
370
     0
100
AcDbSpline
210
0.0
220
0.0
230
1.0
 70
     8
 71
     3
 72
    20
 73
    16
 74
     0
 42
0.000000001
 43
0.00000001
 40
3.0
 40
3.0
 40
3.0
 40
3.0
 40
4.0
 40
4.0
 40
4.0
 40
5.0
 40
5.0
 40
5.0
 40
6.0
 40
6.0
 40
6.0
 40
7.0
 40
7.0
 40
7.0
 40
8.0
 40
8.0
 40
8.0
 40
8.0
 10
287.0539854214827
 20
21.61211917311518
 30
0.0
 10
286.8995550188436
 20
21.43851181205056
 30
0.0
 10
286.7443651022574
 20
21.26447318851252
 30
0.0
 10
286.5896302790503
 20
21.09003174583674
 30
0.0
 10
285.9488126796034
 20
20.36759637788917
 30
0.0
 10
285.1515567317372
 20
20.05360962220845
 30
0.0
 10
284.198169930981
 20
20.23446388406056
 30
0.0
 10
282.6109241545095
 20
20.5355588898502
 30
0.0
 10
282.3522343191156
 20
22.37884389028816
 30
0.0
 10
283.1417229300147
 20
23.34576433784628
 30
0.0
 10
283.460866385652
 20
23.7366334309401
 30
0.0
 10
283.8607304915963
 20
24.02105948868025
 30
0.0
 10
284.3005597909425
 20
24.25632085564482
 30
0.0
 10
284.4255536469583
 20
24.32317807019961
 30
0.0
 10
284.5513685160267
 20
24.38851087568819
 30
0.0
 10
284.7027239634148
 20
24.4681860412085
 30
0.0
  0
SPLINE
  5
85
330
1F
100
AcDbEntity
  8
0
  6
Continuous
 62
   179
370
     0
100
AcDbSpline
210
0.0
220
0.0
230
1.0
 70
     8
 71
     3
 72
    14
 73
    10
 74
     0
 42
0.000000001
 43
0.00000001
 40
0.0
 40
0.0
 40
0.0
 40
0.0
 40
1.0
 40
1.0
 40
1.0
 40
2.0
 40
2.0
 40
2.0
 40
3.0
 40
3.0
 40
3.0
 40
3.0
 10
290.8103661314317
 20
21.70506046432864
 30
0.0
 10
290.7160910783766
 20
21.04182259740494
 30
0.0
 10
289.9739444785289
 20
20.32342848939635
 30
0.0
 10
289.3271645408483
 20
20.20870037148624
 30
0.0
 10
288.7048673968812
 20
20.0983148591309
 30
0.0
 10
288.1784811821614
 20
20.26780485511384
 30
0.0
 10
287.7601488949774
 20
20.73592220529573
 30
0.0
 10
287.5152010346028
 20
21.01001756649998
 30
0.0
 10
287.2972697310665
 20
21.30825593886041
 30
0.0
 10
287.0539854214827
 20
21.61211917311518
 30
0.0
  0
SPLINE
  5
86
330
1F
100
AcDbEntity
  8
0
  6
Continuous
 62
   179
370
     0
100
AcDbSpline
210
0.0
220
0.0
230
1.0
 70
     8
 71
     3
 72
    14
 73
    10
 74
     0
 42
0.000000001
 43
0.00000001
 40
1.0
 40
1.0
 40
1.0
 40
1.0
 40
2.0
 40
2.0
 40
2.0
 40
3.0
 40
3.0
 40
3.0
 40
4.0
 40
4.0
 40
4.0
 40
4.0
 10
284.845288113738
 20
24.3712657578988
 30
0.0
 10
284.1054815548355
 20
23.90423117633508
 30
0.0
 10
283.6988925217564
 20
23.08417174469389
 30
0.0
 10
283.7780264951535
 20
22.28619625730053
 30
0.0
 10
283.8665083325146
 20
21.39392726712143
 30
0.0
 10
284.4974276510072
 20
20.83427541775253
 30
0.0
 10
285.3603677179978
 20
20.87638462370452
 30
0.0
 10
286.0339581905155
 20
20.90925282038733
 30
0.0
 10
286.5509442670314
 20
21.22618922689351
 30
0.0
 10
287.0009947176327
 20
21.77781006188367
 30
0.0
  0
SPLINE
  5
87
330
1F
100
AcDbEntity
  8
0
  6
Continuous
 62
   179
370
     0
100
AcDbSpline
210
0.0
220
0.0
230
1.0
 70
     8
 71
     3
 72
     8
 73
     4
 74
     0
 42
0.000000001
 43
0.00000001
 40
0.0
 40
0.0
 40
0.0
 40
0.0
 40
1.0
 40
1.0
 40
1.0
 40
1.0
 10
287.0009947176327
 20
21.77781006188367
 30
0.0
 10
286.2819902310068
 20
22.64282111123716
 30
0.0
 10
285.5612360948443
 20
23.50993158628786
 30
0.0
 10
284.845288113738
 20
24.3712657578988
 30
0.0
  0
SPLINE
  5
88
330
1F
100
AcDbEntity
  8
0
  6
Continuous
 62
   179
370
     0
100
AcDbSpline
210
0.0
220
0.0
230
1.0
 70
     8
 71
     3
 72
    11
 73
     7
 74
     0
 42
0.000000001
 43
0.00000001
 40
3.0
 40
3.0
 40
3.0
 40
3.0
 40
4.0
 40
4.0
 40
4.0
 40
5.0
 40
5.0
 40
5.0
 40
5.0
 10
284.6883823721211
 20
27.15085253116305
 30
0.0
 10
284.5630810205802
 20
26.788679112661
 30
0.0
 10
284.5571094574822
 20
26.41068293535724
 30
0.0
 10
284.7721626029031
 20
26.08712768767229
 30
0.0
 10
285.0380140090768
 20
25.68714980838475
 30
0.0
 10
285.3510444536753
 20
25.31853032275096
 30
0.0
 10
285.6520579731507
 20
24.9254318870995
 30
0.0
  0
SPLINE
  5
89
330
1F
100
AcDbEntity
  8
0
  6
Continuous
 62
   179
370
     0
100
AcDbSpline
210
0.0
220
0.0
230
1.0
 70
     8
 71
     3
 72
    14
 73
    10
 74
     0
 42
0.000000001
 43
0.00000001
 40
0.0
 40
0.0
 40
0.0
 40
0.0
 40
1.0
 40
1.0
 40
1.0
 40
2.0
 40
2.0
 40
2.0
 40
3.0
 40
3.0
 40
3.0
 40
3.0
 10
285.6520579731507
 20
24.9254318870995
 30
0.0
 10
286.3259713159692
 20
25.4295804098103
 30
0.0
 10
286.5713650448558
 20
26.2298440482801
 30
0.0
 10
286.3549927436335
 20
27.06650131962916
 30
0.0
 10
286.2400293916459
 20
27.5110460628537
 30
0.0
 10
285.9916529561654
 20
27.74682017860582
 30
0.0
 10
285.6158934244382
 20
27.76810636414938
 30
0.0
 10
285.1818973152029
 20
27.79269159230804
 30
0.0
 10
284.8337724063213
 20
27.5710895609412
 30
0.0
 10
284.6883823721211
 20
27.15085253116305
 30
0.0
  0
SPLINE
  5
8A
330
1F
100
AcDbEntity
  8
0
  6
Continuous
 62
   179
370
     0
100
AcDbSpline
210
0.0
220
0.0
230
1.0
 70
     8
 71
     3
 72
    17
 73
    13
 74
     0
 42
0.000000001
 43
0.00000001
 40
21.0
 40
21.0
 40
21.0
 40
21.0
 40
22.0
 40
22.0
 40
22.0
 40
23.0
 40
23.0
 40
23.0
 40
24.0
 40
24.0
 40
24.0
 40
25.0
 40
25.0
 40
25.0
 40
25.0
 10
293.8906841048423
 20
20.25643828302682
 30
0.0
 10
294.0348564567621
 20
20.35359533789035
 30
0.0
 10
294.2655211499942
 20
20.43733713173099
 30
0.0
 10
294.3739502220706
 20
20.601710402175
 30
0.0
 10
294.4888489999955
 20
20.77588586122134
 30
0.0
 10
294.5289433415201
 20
21.02641399663968
 30
0.0
 10
294.5304592944584
 20
21.24409084762874
 30
0.0
 10
294.5423286217301
 20
22.94816032401251
 30
0.0
 10
294.5326947869268
 20
24.65236702027423
 30
0.0
 10
294.5396718603926
 20
26.35648992400541
 30
0.0
 10
294.541848928711
 20
26.88863860486636
 30
0.0
 10
294.4654639653083
 20
27.35271373418588
 30
0.0
 10
293.841527870193
 20
27.50458020069892
 30
0.0
  0
SPLINE
  5
8B
330
1F
100
AcDbEntity
  8
0
  6
Continuous
 62
   179
370
     0
100
AcDbSpline
210
0.0
220
0.0
230
1.0
 70
    24
 71
     3
 72
     8
 73
     4
 74
     0
 42
0.000000001
 43
0.00000001
 40
20.0
 40
20.0
 40
20.0
 40
20.0
 40
21.0
 40
21.0
 40
21.0
 40
21.0
 10
296.2880237673526
 20
20.25643828302682
 30
0.0
 10
295.4693261565182
 20
20.25643828302682
 30
0.0
 10
294.6506254707311
 20
20.25643828302682
 30
0.0
 10
293.8906841048423
 20
20.25643828302682
 30
0.0
  0
SPLINE
  5
8C
330
1F
100
AcDbEntity
  8
0
  6
Continuous
 62
   179
370
     0
100
AcDbSpline
210
0.0
220
0.0
230
1.0
 70
     8
 71
     3
 72
    14
 73
    10
 74
     0
 42
0.000000001
 43
0.00000001
 40
17.0
 40
17.0
 40
17.0
 40
17.0
 40
18.0
 40
18.0
 40
18.0
 40
19.0
 40
19.0
 40
19.0
 40
20.0
 40
20.0
 40
20.0
 40
20.0
 10
295.5733857171836
 20
23.97022240661698
 30
0.0
 10
295.5696219719554
 20
23.89376787235267
 30
0.0
 10
295.5622759038603
 20
23.81306182808446
 30
0.0
 10
295.5621928800676
 20
23.73234771205876
 30
0.0
 10
295.561359567195
 20
22.89285956003151
 30
0.0
 10
295.560827599936
 20
22.05336910178782
 30
0.0
 10
295.5619960829322
 20
21.2138824872384
 30
0.0
 10
295.5628078711177
 20
20.63015527572819
 30
0.0
 10
295.7413366980624
 20
20.4024294709773
 30
0.0
 10
296.2880237673526
 20
20.25643828302682
 30
0.0
  0
SPLINE
  5
8D
330
1F
100
AcDbEntity
  8
0
  6
Continuous
 62
   179
370
     0
100
AcDbSpline
210
0.0
220
0.0
230
1.0
 70
    24
 71
     3
 72
     8
 73
     4
 74
     0
 42
0.000000001
 43
0.00000001
 40
16.0
 40
16.0
 40
16.0
 40
16.0
 40
17.0
 40
17.0
 40
17.0
 40
17.0
 10
298.4851131190222
 20
23.97022240661698
 30
0.0
 10
297.5154382802974
 20
23.97022240661698
 30
0.0
 10
296.5557754958725
 20
23.97022240661698
 30
0.0
 10
295.5733857171836
 20
23.97022240661698
 30
0.0
  0
SPLINE
  5
8E
330
1F
100
AcDbEntity
  8
0
  6
Continuous
 62
   179
370
     0
100
AcDbSpline
210
0.0
220
0.0
230
1.0
 70
     8
 71
     3
 72
    11
 73
     7
 74
     0
 42
0.000000001
 43
0.00000001
 40
14.0
 40
14.0
 40
14.0
 40
14.0
 40
15.0
 40
15.0
 40
15.0
 40
16.0
 40
16.0
 40
16.0
 40
16.0
 10
297.7632396991476
 20
20.25412130424438
 30
0.0
 10
298.3307257657572
 20
20.41986831094704
 30
0.0
 10
298.4849747460367
 20
20.62384393007452
 30
0.0
 10
298.485073144605
 20
21.23173567742802
 30
0.0
 10
298.4852207424561
 20
22.13796342697173
 30
0.0
 10
298.4851131190222
 20
23.04419117651474
 30
0.0
 10
298.4851131190222
 20
23.97022240661698
 30
0.0
  0
SPLINE
  5
8F
330
1F
100
AcDbEntity
  8
0
  6
Continuous
 62
   179
370
     0
100
AcDbSpline
210
0.0
220
0.0
230
1.0
 70
    24
 71
     3
 72
     8
 73
     4
 74
     0
 42
0.000000001
 43
0.00000001
 40
13.0
 40
13.0
 40
13.0
 40
13.0
 40
14.0
 40
14.0
 40
14.0
 40
14.0
 10
300.2193725060649
 20
20.25412130424438
 30
0.0
 10
299.4006625954106
 20
20.25412130424438
 30
0.0
 10
298.5819526847563
 20
20.25412130424438
 30
0.0
 10
297.7632396991476
 20
20.25412130424438
 30
0.0
  0
SPLINE
  5
90
330
1F
100
AcDbEntity
  8
0
  6
Continuous
 62
   179
370
     0
100
AcDbSpline
210
0.0
220
0.0
230
1.0
 70
     8
 71
     3
 72
    17
 73
    13
 74
     0
 42
0.000000001
 43
0.00000001
 40
9.0
 40
9.0
 40
9.0
 40
9.0
 40
10.0
 40
10.0
 40
10.0
 40
11.0
 40
11.0
 40
11.0
 40
12.0
 40
12.0
 40
12.0
 40
13.0
 40
13.0
 40
13.0
 40
13.0
 10
300.254931288593
 20
27.49433829349534
 30
0.0
 10
300.1600043450263
 20
27.45496618208605
 30
0.0
 10
300.1052670665943
 20
27.43024796211265
 30
0.0
 10
300.049118383702
 20
27.40930924651266
 30
0.0
 10
299.7248336028849
 20
27.28837413924314
 30
0.0
 10
299.5426363543262
 20
27.0468754177367
 30
0.0
 10
299.5421628112159
 20
26.70494346873036
 30
0.0
 10
299.5395583241182
 20
24.8160968563317
 30
0.0
 10
299.5393769017586
 20
22.92724217217554
 30
0.0
 10
299.542119761843
 20
21.03839632851544
 30
0.0
 10
299.5427163031618
 20
20.62720562490344
 30
0.0
 10
299.739442715284
 20
20.41422423058345
 30
0.0
 10
300.2193725060649
 20
20.25412130424438
 30
0.0
  0
SPLINE
  5
91
330
1F
100
AcDbEntity
  8
0
  6
Continuous
 62
   179
370
     0
100
AcDbSpline
210
0.0
220
0.0
230
1.0
 70
    24
 71
     3
 72
     8
 73
     4
 74
     0
 42
0.000000001
 43
0.00000001
 40
8.0
 40
8.0
 40
8.0
 40
8.0
 40
9.0
 40
9.0
 40
9.0
 40
9.0
 10
297.7186989723292
 20
27.49433829349534
 30
0.0
 10
298.5854396840106
 20
27.49433829349534
 30
0.0
 10
299.3949493285535
 20
27.49433829349534
 30
0.0
 10
300.254931288593
 20
27.49433829349534
 30
0.0
  0
SPLINE
  5
92
330
1F
100
AcDbEntity
  8
0
  6
Continuous
 62
   179
370
     0
100
AcDbSpline
210
0.0
220
0.0
230
1.0
 70
     8
 71
     3
 72
    14
 73
    10
 74
     0
 42
0.000000001
 43
0.00000001
 40
5.0
 40
5.0
 40
5.0
 40
5.0
 40
6.0
 40
6.0
 40
6.0
 40
7.0
 40
7.0
 40
7.0
 40
8.0
 40
8.0
 40
8.0
 40
8.0
 10
298.4851131190222
 20
24.16049564077469
 30
0.0
 10
298.4851131190222
 20
24.24049329222683
 30
0.0
 10
298.4851131190222
 20
24.32893553953833
 30
0.0
 10
298.4851131190222
 20
24.41737817121947
 30
0.0
 10
298.4851131190222
 20
25.09736416629037
 30
0.0
 10
298.4851377186649
 20
25.7773505457302
 30
0.0
 10
298.4851069691121
 20
26.45733654080182
 30
0.0
 10
298.4850762195594
 20
27.0944786077999
 30
0.0
 10
298.3648823686909
 20
27.26685790861022
 30
0.0
 10
297.7186989723292
 20
27.49433829349534
 30
0.0
  0
SPLINE
  5
93
330
1F
100
AcDbEntity
  8
0
  6
Continuous
 62
   179
370
     0
100
AcDbSpline
210
0.0
220
0.0
230
1.0
 70
    24
 71
     3
 72
     8
 73
     4
 74
     0
 42
0.000000001
 43
0.00000001
 40
4.0
 40
4.0
 40
4.0
 40
4.0
 40
5.0
 40
5.0
 40
5.0
 40
5.0
 10
295.5632814142282
 20
24.16049564077469
 30
0.0
 10
296.5292663066504
 20
24.16049564077469
 30
0.0
 10
297.4889290910767
 20
24.16049564077469
 30
0.0
 10
298.4851131190222
 20
24.16049564077469
 30
0.0
  0
SPLINE
  5
94
330
1F
100
AcDbEntity
  8
0
  6
Continuous
 62
   179
370
     0
100
AcDbSpline
210
0.0
220
0.0
230
1.0
 70
     8
 71
     3
 72
    14
 73
    10
 74
     0
 42
0.000000001
 43
0.00000001
 40
1.0
 40
1.0
 40
1.0
 40
1.0
 40
2.0
 40
2.0
 40
2.0
 40
3.0
 40
3.0
 40
3.0
 40
4.0
 40
4.0
 40
4.0
 40
4.0
 10
296.2715297073845
 20
27.50458020069892
 30
0.0
 10
295.9411319155254
 20
27.38780204855992
 30
0.0
 10
295.6648994604227
 20
27.22384581892186
 30
0.0
 10
295.5906023916359
 20
26.8479388815276
 30
0.0
 10
295.5792681065788
 20
26.79059327230428
 30
0.0
 10
295.5645605956114
 20
26.73240397223375
 30
0.0
 10
295.5644406723574
 20
26.67457866999212
 30
0.0
 10
295.562743297058
 20
25.84365465270932
 30
0.0
 10
295.5632814142282
 20
25.01272602299438
 30
0.0
 10
295.5632814142282
 20
24.16049564077469
 30
0.0
  0
SPLINE
  5
95
330
1F
100
AcDbEntity
  8
0
  6
Continuous
 62
   179
370
     0
100
AcDbSpline
210
0.0
220
0.0
230
1.0
 70
    24
 71
     3
 72
     8
 73
     4
 74
     0
 42
0.000000001
 43
0.00000001
 40
0.0
 40
0.0
 40
0.0
 40
0.0
 40
1.0
 40
1.0
 40
1.0
 40
1.0
 10
293.841527870193
 20
27.50458020069892
 30
0.0
 10
294.6515264326192
 20
27.50458020069892
 30
0.0
 10
295.4615280700011
 20
27.50458020069892
 30
0.0
 10
296.2715297073845
 20
27.50458020069892
 30
0.0
  0
SPLINE
  5
96
330
1F
100
AcDbEntity
  8
0
  6
Continuous
 62
   179
370
     0
100
AcDbSpline
210
0.0
220
0.0
230
1.0
 70
     8
 71
     3
 72
    14
 73
    10
 74
     0
 42
0.000000001
 43
0.00000001
 40
17.0
 40
17.0
 40
17.0
 40
17.0
 40
18.0
 40
18.0
 40
18.0
 40
19.0
 40
19.0
 40
19.0
 40
20.0
 40
20.0
 40
20.0
 40
20.0
 10
257.7053577757453
 20
20.25910042553502
 30
0.0
 10
258.2139995287706
 20
20.39587059142628
 30
0.0
 10
258.4104423723632
 20
20.62446660851326
 30
0.0
 10
258.4124688639662
 20
21.16843695483816
 30
0.0
 10
258.4191609275175
 20
22.96470127704906
 30
0.0
 10
258.4149081683119
 20
24.76100595804667
 30
0.0
 10
258.4151320634913
 20
26.55729487989966
 30
0.0
 10
258.4151924094879
 20
27.04153921726714
 30
0.0
 10
258.2057453879524
 20
27.36893835120057
 30
0.0
 10
257.7192638284546
 20
27.51463645747964
 30
0.0
  0
SPLINE
  5
97
330
1F
100
AcDbEntity
  8
0
  6
Continuous
 62
   179
370
     0
100
AcDbSpline
210
0.0
220
0.0
230
1.0
 70
    24
 71
     3
 72
     8
 73
     4
 74
     0
 42
0.000000001
 43
0.00000001
 40
16.0
 40
16.0
 40
16.0
 40
16.0
 40
17.0
 40
17.0
 40
17.0
 40
17.0
 10
260.1134120717832
 20
20.25910042553502
 30
0.0
 10
259.3107272904223
 20
20.25910042553502
 30
0.0
 10
258.5080426051526
 20
20.25910042553502
 30
0.0
 10
257.7053577757453
 20
20.25910042553502
 30
0.0
  0
SPLINE
  5
98
330
1F
100
AcDbEntity
  8
0
  6
Continuous
 62
   179
370
     0
100
AcDbSpline
210
0.0
220
0.0
230
1.0
 70
     8
 71
     3
 72
    14
 73
    10
 74
     0
 42
0.000000001
 43
0.00000001
 40
13.0
 40
13.0
 40
13.0
 40
13.0
 40
14.0
 40
14.0
 40
14.0
 40
15.0
 40
15.0
 40
15.0
 40
16.0
 40
16.0
 40
16.0
 40
16.0
 10
259.4607286043899
 20
23.57138302951071
 30
0.0
 10
259.4539911852495
 20
23.51939476107442
 30
0.0
 10
259.4406539512153
 20
23.46398560492077
 30
0.0
 10
259.4405559370167
 20
23.40855338660287
 30
0.0
 10
259.4392191002215
 20
22.65310606781493
 30
0.0
 10
259.4366701545022
 20
21.89763799307776
 30
0.0
 10
259.4408326829897
 20
21.14221143023692
 30
0.0
 10
259.4435911100346
 20
20.64162793377142
 30
0.0
 10
259.6377614656041
 20
20.40079128856705
 30
0.0
 10
260.1134120717832
 20
20.25910042553502
 30
0.0
  0
SPLINE
  5
99
330
1F
100
AcDbEntity
  8
0
  6
Continuous
 62
   179
370
     0
100
AcDbSpline
210
0.0
220
0.0
230
1.0
 70
     8
 71
     3
 72
    20
 73
    16
 74
     0
 42
0.000000001
 43
0.00000001
 40
8.0
 40
8.0
 40
8.0
 40
8.0
 40
9.0
 40
9.0
 40
9.0
 40
10.0
 40
10.0
 40
10.0
 40
11.0
 40
11.0
 40
11.0
 40
12.0
 40
12.0
 40
12.0
 40
13.0
 40
13.0
 40
13.0
 40
13.0
 10
263.9554858268652
 20
20.24609336482204
 30
0.0
 10
263.8909540472192
 20
20.24131411562172
 30
0.0
 10
263.8264337986555
 20
20.23257048036439
 30
0.0
 10
263.7618904879275
 20
20.2323936704376
 30
0.0
 10
263.3170171088603
 20
20.2311736819415
 30
0.0
 10
262.8718696744063
 20
20.24067529366942
 30
0.0
 10
262.427398730108
 20
20.22724465786874
 30
0.0
 10
262.2549406335689
 20
20.22203337745712
 30
0.0
 10
262.1765046750147
 20
20.28890135435546
 30
0.0
 10
262.1067370153144
 20
20.43629933433309
 30
0.0
 10
261.7451764738302
 20
21.20016664933901
 30
0.0
 10
261.3780268168071
 20
21.9614848264415
 30
0.0
 10
261.0037355762117
 20
22.71920223094413
 30
0.0
 10
260.6054131759577
 20
23.52556773374194
 30
0.0
 10
260.3725694925604
 20
23.65083910446932
 30
0.0
 10
259.4607286043899
 20
23.57138302951071
 30
0.0
  0
SPLINE
  5
9A
330
1F
100
AcDbEntity
  8
0
  6
Continuous
 62
   179
370
     0
100
AcDbSpline
210
0.0
220
0.0
230
1.0
 70
     8
 71
     3
 72
    14
 73
    10
 74
     0
 42
0.000000001
 43
0.00000001
 40
5.0
 40
5.0
 40
5.0
 40
5.0
 40
6.0
 40
6.0
 40
6.0
 40
7.0
 40
7.0
 40
7.0
 40
8.0
 40
8.0
 40
8.0
 40
8.0
 10
261.0219043336847
 20
23.63056361828031
 30
0.0
 10
261.7521543160346
 20
23.35408286053947
 30
0.0
 10
262.033208300972
 20
22.73079019980925
 30
0.0
 10
262.3739921385617
 20
22.16106556577573
 30
0.0
 10
262.6276890153665
 20
21.7369354504649
 30
0.0
 10
262.8739775562312
 20
21.30835818112305
 30
0.0
 10
263.1292772534608
 20
20.88520667032095
 30
0.0
 10
263.3178377375433
 20
20.57267359973515
 30
0.0
 10
263.5606000734738
 20
20.32757122285868
 30
0.0
 10
263.9554858268652
 20
20.24609336482204
 30
0.0
  0
SPLINE
  5
9B
330
1F
100
AcDbEntity
  8
0
  6
Continuous
 62
   179
370
     0
100
AcDbSpline
210
0.0
220
0.0
230
1.0
 70
     8
 71
     3
 72
    20
 73
    16
 74
     0
 42
0.000000001
 43
0.00000001
 40
0.0
 40
0.0
 40
0.0
 40
0.0
 40
1.0
 40
1.0
 40
1.0
 40
2.0
 40
2.0
 40
2.0
 40
3.0
 40
3.0
 40
3.0
 40
4.0
 40
4.0
 40
4.0
 40
5.0
 40
5.0
 40
5.0
 40
5.0
 10
257.7192638284546
 20
27.51463645747964
 30
0.0
 10
258.1174764912431
 20
27.51463645747964
 30
0.0
 10
258.5159962651877
 20
27.52468175973202
 30
0.0
 10
258.913837050576
 20
27.51251762112626
 30
0.0
 10
259.7094699986222
 20
27.48819126576296
 30
0.0
 10
260.5093946232761
 20
27.49481913962259
 30
0.0
 10
261.2989762515716
 20
27.40941936834727
 30
0.0
 10
262.3071445332423
 20
27.30037799580672
 30
0.0
 10
262.8488620904764
 20
26.74717259793779
 30
0.0
 10
262.9131259646454
 20
25.88395655371281
 30
0.0
 10
262.9966382899504
 20
24.76217905347503
 30
0.0
 10
262.5617362220245
 20
24.08644572151765
 30
0.0
 10
261.5515161764629
 20
23.77337299628438
 30
0.0
 10
261.3945785321864
 20
23.72473719781129
 30
0.0
 10
261.2341319795987
 20
23.68742184709605
 30
0.0
 10
261.0219043336847
 20
23.63056361828031
 30
0.0
  0
SPLINE
  5
9C
330
1F
100
AcDbEntity
  8
0
  6
Continuous
 62
   179
370
     0
100
AcDbSpline
210
0.0
220
0.0
230
1.0
 70
     8
 71
     3
 72
    20
 73
    16
 74
     0
 42
0.000000001
 43
0.00000001
 40
1.0
 40
1.0
 40
1.0
 40
1.0
 40
2.0
 40
2.0
 40
2.0
 40
3.0
 40
3.0
 40
3.0
 40
4.0
 40
4.0
 40
4.0
 40
5.0
 40
5.0
 40
5.0
 40
6.0
 40
6.0
 40
6.0
 40
6.0
 10
259.4558811296203
 20
23.74052094311723
 30
0.0
 10
259.8313410453958
 20
23.74052094311723
 30
0.0
 10
260.1942113256325
 20
23.70804326575078
 30
0.0
 10
260.5489927438957
 20
23.74778168120398
 30
0.0
 10
261.1506181168165
 20
23.81517009427841
 30
0.0
 10
261.6082598631961
 20
24.13857044109259
 30
0.0
 10
261.7413862071132
 20
24.73962656292206
 30
0.0
 10
261.8389787525148
 20
25.18024881635489
 30
0.0
 10
261.8719876284001
 20
25.65810454981779
 30
0.0
 10
261.8164781518313
 20
26.10478869315943
 30
0.0
 10
261.7108519014664
 20
26.95476897687368
 30
0.0
 10
261.3230227860075
 20
27.28690123567825
 30
0.0
 10
260.4792308497364
 20
27.35420547185249
 30
0.0
 10
260.146744010155
 20
27.38072599997261
 30
0.0
 10
259.8103733099057
 20
27.35855230546976
 30
0.0
 10
259.4558811296203
 20
27.35855230546976
 30
0.0
  0
SPLINE
  5
9D
330
1F
100
AcDbEntity
  8
0
  6
Continuous
 62
   179
370
     0
100
AcDbSpline
210
0.0
220
0.0
230
1.0
 70
    24
 71
     3
 72
     8
 73
     4
 74
     0
 42
0.000000001
 43
0.00000001
 40
0.0
 40
0.0
 40
0.0
 40
0.0
 40
1.0
 40
1.0
 40
1.0
 40
1.0
 10
259.4558811296203
 20
27.35855230546976
 30
0.0
 10
259.4558811296203
 20
26.13864548795524
 30
0.0
 10
259.4558811296203
 20
24.94385548148867
 30
0.0
 10
259.4558811296203
 20
23.74052094311723
 30
0.0
  0
SPLINE
  5
9E
330
1F
100
AcDbEntity
  8
0
  6
Continuous
 62
   179
370
     0
100
AcDbSpline
210
0.0
220
0.0
230
1.0
 70
     8
 71
     3
 72
    14
 73
    10
 74
     0
 42
0.000000001
 43
0.00000001
 40
3.0
 40
3.0
 40
3.0
 40
3.0
 40
4.0
 40
4.0
 40
4.0
 40
5.0
 40
5.0
 40
5.0
 40
6.0
 40
6.0
 40
6.0
 40
6.0
 10
267.2336118279071
 20
20.23490821509466
 30
0.0
 10
266.3034040398355
 20
20.48709452013179
 30
0.0
 10
265.5792320909092
 20
21.34541139190241
 30
0.0
 10
265.4837047623288
 20
22.29272284982233
 30
0.0
 10
265.4259332718035
 20
22.86561853145873
 30
0.0
 10
265.4879189885011
 20
23.41465794151554
 30
0.0
 10
265.7739382574312
 20
23.92202056120339
 30
0.0
 10
266.225828300013
 20
24.72361219597301
 30
0.0
 10
266.9062728477855
 20
25.1505801106106
 30
0.0
 10
267.7758432870376
 20
25.16748813643033
 30
0.0
  0
SPLINE
  5
9F
330
1F
100
AcDbEntity
  8
0
  6
Continuous
 62
   179
370
     0
100
AcDbSpline
210
0.0
220
0.0
230
1.0
 70
     8
 71
     3
 72
    14
 73
    10
 74
     0
 42
0.000000001
 43
0.00000001
 40
0.0
 40
0.0
 40
0.0
 40
0.0
 40
1.0
 40
1.0
 40
1.0
 40
2.0
 40
2.0
 40
2.0
 40
3.0
 40
3.0
 40
3.0
 40
3.0
 10
267.7758432870376
 20
25.16748813643033
 30
0.0
 10
268.6216197225536
 20
25.16033694362373
 30
0.0
 10
269.2464106552308
 20
24.83848445240962
 30
0.0
 10
269.7103360726668
 20
24.21398909980579
 30
0.0
 10
270.372934348899
 20
23.32205720159637
 30
0.0
 10
270.3723808569537
 20
22.03321892002499
 30
0.0
 10
269.7215189161772
 20
21.13111084177938
 30
0.0
 10
269.1482911393735
 20
20.33660467264828
 30
0.0
 10
268.1650050112285
 20
19.98240211471103
 30
0.0
 10
267.2336118279071
 20
20.23490821509466
 30
0.0
  0
SPLINE
  5
A0
330
1F
100
AcDbEntity
  8
0
  6
Continuous
 62
   179
370
     0
100
AcDbSpline
210
0.0
220
0.0
230
1.0
 70
     8
 71
     3
 72
    17
 73
    13
 74
     0
 42
0.000000001
 43
0.00000001
 40
4.0
 40
4.0
 40
4.0
 40
4.0
 40
5.0
 40
5.0
 40
5.0
 40
6.0
 40
6.0
 40
6.0
 40
7.0
 40
7.0
 40
7.0
 40
8.0
 40
8.0
 40
8.0
 40
8.0
 10
266.4699528411193
 20
22.82140374989816
 30
0.0
 10
266.4269741915698
 20
22.16270989809668
 30
0.0
 10
266.5287029361534
 20
21.51524885782823
 30
0.0
 10
266.8746830637486
 20
20.93428603108956
 30
0.0
 10
267.1048165584612
 20
20.54785025472892
 30
0.0
 10
267.4153070900211
 20
20.27237193240103
 30
0.0
 10
267.9076604687568
 20
20.30531315927085
 30
0.0
 10
268.3388937306983
 20
20.33416469565678
 30
0.0
 10
268.6078393105943
 20
20.59660136402461
 30
0.0
 10
268.810867074766
 20
20.94311038392242
 30
0.0
 10
269.1208448575376
 20
21.47214721006825
 30
0.0
 10
269.202432645224
 20
22.05765558940843
 30
0.0
 10
269.218762963826
 20
22.6835112253406
 30
0.0
  0
SPLINE
  5
A1
330
1F
100
AcDbEntity
  8
0
  6
Continuous
 62
   179
370
     0
100
AcDbSpline
210
0.0
220
0.0
230
1.0
 70
     8
 71
     3
 72
    17
 73
    13
 74
     0
 42
0.000000001
 43
0.00000001
 40
0.0
 40
0.0
 40
0.0
 40
0.0
 40
1.0
 40
1.0
 40
1.0
 40
2.0
 40
2.0
 40
2.0
 40
3.0
 40
3.0
 40
3.0
 40
4.0
 40
4.0
 40
4.0
 40
4.0
 10
269.218762963826
 20
22.6835112253406
 30
0.0
 10
269.195680043492
 20
23.34551372899321
 30
0.0
 10
269.0963628325642
 20
24.01168817818242
 30
0.0
 10
268.6683621173312
 20
24.58056604641373
 30
0.0
 10
268.2143234497673
 20
25.18405330473933
 30
0.0
 10
267.4640605055332
 20
25.19142205062979
 30
0.0
 10
267.0072628343699
 20
24.59213287496141
 30
0.0
 10
266.882078331128
 20
24.42789874624284
 30
0.0
 10
266.7597204805012
 20
24.2414496033099
 30
0.0
 10
266.7072125446275
 20
24.04607386528146
 30
0.0
 10
266.5993976948625
 20
23.64490674705059
 30
0.0
 10
266.4968487059656
 20
23.23360918874381
 30
0.0
 10
266.4699528411193
 20
22.82140374989816
 30
0.0
  0
SPLINE
  5
A2
330
1F
100
AcDbEntity
  8
0
  6
Continuous
 62
   179
370
     0
100
AcDbSpline
210
0.0
220
0.0
230
1.0
 70
     8
 71
     3
 72
    17
 73
    13
 74
     0
 42
0.000000001
 43
0.00000001
 40
6.0
 40
6.0
 40
6.0
 40
6.0
 40
7.0
 40
7.0
 40
7.0
 40
8.0
 40
8.0
 40
8.0
 40
9.0
 40
9.0
 40
9.0
 40
10.0
 40
10.0
 40
10.0
 40
10.0
 10
311.6156486607862
 20
20.25320881127337
 30
0.0
 10
312.1185268426077
 20
20.41647125413319
 30
0.0
 10
312.2872188877024
 20
20.63608302071405
 30
0.0
 10
312.2876555313485
 20
21.16871754450475
 30
0.0
 10
312.2890700107628
 20
22.88922803787956
 30
0.0
 10
312.287766229737
 20
24.60974045310045
 30
0.0
 10
312.2871819882396
 20
26.33025248395311
 30
0.0
 10
312.2871512386867
 20
26.42255802816858
 30
0.0
 10
312.2845313768121
 20
26.51487279724975
 30
0.0
 10
312.2823973578678
 20
26.60716642601487
 30
0.0
 10
312.2683694120104
 20
27.21300429544448
 30
0.0
 10
312.2096131670664
 20
27.27631108979181
 30
0.0
 10
311.6691528821609
 20
27.32445797038016
 30
0.0
  0
SPLINE
  5
A3
330
1F
100
AcDbEntity
  8
0
  6
Continuous
 62
   179
370
     0
100
AcDbSpline
210
0.0
220
0.0
230
1.0
 70
    24
 71
     3
 72
     8
 73
     4
 74
     0
 42
0.000000001
 43
0.00000001
 40
5.0
 40
5.0
 40
5.0
 40
5.0
 40
6.0
 40
6.0
 40
6.0
 40
6.0
 10
313.8867245107604
 20
20.25320881127337
 30
0.0
 10
313.0865658051385
 20
20.25320881127337
 30
0.0
 10
312.3511103079175
 20
20.25320881127337
 30
0.0
 10
311.6156486607862
 20
20.25320881127337
 30
0.0
  0
SPLINE
  5
A4
330
1F
100
AcDbEntity
  8
0
  6
Continuous
 62
   179
370
     0
100
AcDbSpline
210
0.0
220
0.0
230
1.0
 70
     8
 71
     3
 72
    17
 73
    13
 74
     0
 42
0.000000001
 43
0.00000001
 40
1.0
 40
1.0
 40
1.0
 40
1.0
 40
2.0
 40
2.0
 40
2.0
 40
3.0
 40
3.0
 40
3.0
 40
4.0
 40
4.0
 40
4.0
 40
5.0
 40
5.0
 40
5.0
 40
5.0
 10
313.1781318226163
 20
27.87703492426926
 30
0.0
 10
313.1781318226163
 20
27.83642744958889
 30
0.0
 10
313.1781318226163
 20
27.75161518695077
 30
0.0
 10
313.1781318226163
 20
27.66680273212925
 30
0.0
 10
313.1781318226163
 20
25.57700952371036
 30
0.0
 10
313.1781256727049
 20
23.48721689184594
 30
0.0
 10
313.1781441224363
 20
21.39742349124223
 30
0.0
 10
313.1781441224363
 20
21.32188875296784
 30
0.0
 10
313.1771847363982
 20
21.24633325874564
 30
0.0
 10
313.1786115156352
 20
21.17082388885262
 30
0.0
 10
313.1888880160859
 20
20.62648762285203
 30
0.0
 10
313.3266152617988
 20
20.4348325806782
 30
0.0
 10
313.8867245107604
 20
20.25320881127337
 30
0.0
  0
SPLINE
  5
A5
330
1F
100
AcDbEntity
  8
0
  6
Continuous
 62
   179
370
     0
100
AcDbSpline
210
0.0
220
0.0
230
1.0
 70
     8
 71
     3
 72
     8
 73
     4
 74
     0
 42
0.000000001
 43
0.00000001
 40
0.0
 40
0.0
 40
0.0
 40
0.0
 40
1.0
 40
1.0
 40
1.0
 40
1.0
 10
311.6691528821609
 20
27.32445797038016
 30
0.0
 10
312.1410908642435
 20
27.49727756634619
 30
0.0
 10
312.6458878181427
 20
27.68213176842718
 30
0.0
 10
313.1781318226163
 20
27.87703492426926
 30
0.0
  0
SPLINE
  5
A6
330
1F
100
AcDbEntity
  8
0
  6
Continuous
 62
   179
370
     0
100
AcDbSpline
210
0.0
220
0.0
230
1.0
 70
     8
 71
     3
 72
    14
 73
    10
 74
     0
 42
0.000000001
 43
0.00000001
 40
6.0
 40
6.0
 40
6.0
 40
6.0
 40
7.0
 40
7.0
 40
7.0
 40
8.0
 40
8.0
 40
8.0
 40
9.0
 40
9.0
 40
9.0
 40
9.0
 10
278.4819664915177
 20
27.88441039662488
 30
0.0
 10
278.4819664915177
 20
27.83987735719566
 30
0.0
 10
278.4819649540404
 20
27.75219577693941
 30
0.0
 10
278.4819649540404
 20
27.66451419668386
 30
0.0
 10
278.4819664915177
 20
25.48269219002111
 30
0.0
 10
278.4816605334703
 20
23.30086999117493
 30
0.0
 10
278.4822124879378
 20
21.11904779232805
 30
0.0
 10
278.4823339486704
 20
20.63637283524633
 30
0.0
 10
278.6550987719953
 20
20.40793364087759
 30
0.0
 10
279.1055120673173
 20
20.25491771765491
 30
0.0
  0
SPLINE
  5
A7
330
1F
100
AcDbEntity
  8
0
  6
Continuous
 62
   179
370
     0
100
AcDbSpline
210
0.0
220
0.0
230
1.0
 70
     8
 71
     3
 72
     8
 73
     4
 74
     0
 42
0.000000001
 43
0.00000001
 40
5.0
 40
5.0
 40
5.0
 40
5.0
 40
6.0
 40
6.0
 40
6.0
 40
6.0
 10
276.9846800684063
 20
27.3296354262854
 30
0.0
 10
277.4478728777531
 20
27.5012575193644
 30
0.0
 10
277.9568994326009
 20
27.68986239811422
 30
0.0
 10
278.4819664915177
 20
27.88441039662488
 30
0.0
  0
SPLINE
  5
A8
330
1F
100
AcDbEntity
  8
0
  6
Continuous
 62
   179
370
     0
100
AcDbSpline
210
0.0
220
0.0
230
1.0
 70
     8
 71
     3
 72
    17
 73
    13
 74
     0
 42
0.000000001
 43
0.00000001
 40
1.0
 40
1.0
 40
1.0
 40
1.0
 40
2.0
 40
2.0
 40
2.0
 40
3.0
 40
3.0
 40
3.0
 40
4.0
 40
4.0
 40
4.0
 40
5.0
 40
5.0
 40
5.0
 40
5.0
 10
276.9460186560295
 20
20.25491771765491
 30
0.0
 10
277.4179566381115
 20
20.4199152040148
 30
0.0
 10
277.5770686601204
 20
20.6342380475635
 30
0.0
 10
277.5771993457187
 20
21.13377529050539
 30
0.0
 10
277.5776652014392
 20
22.92958298186009
 30
0.0
 10
277.5773700057348
 20
24.72538990447762
 30
0.0
 10
277.577359243392
 20
26.52119721146338
 30
0.0
 10
277.577359243392
 20
26.53798031722657
 30
0.0
 10
277.5773838430334
 20
26.55476419172763
 30
0.0
 10
277.5772915943764
 20
26.57154691311976
 30
0.0
 10
277.5738092075535
 20
27.20775573119973
 30
0.0
 10
277.5366914227135
 20
27.25167954511983
 30
0.0
 10
276.9846800684063
 20
27.3296354262854
 30
0.0
  0
SPLINE
  5
A9
330
1F
100
AcDbEntity
  8
0
  6
Continuous
 62
   179
370
     0
100
AcDbSpline
210
0.0
220
0.0
230
1.0
 70
    24
 71
     3
 72
     8
 73
     4
 74
     0
 42
0.000000001
 43
0.00000001
 40
0.0
 40
0.0
 40
0.0
 40
0.0
 40
1.0
 40
1.0
 40
1.0
 40
1.0
 10
279.1055120673173
 20
20.25491771765491
 30
0.0
 10
278.3856819552066
 20
20.25491771765491
 30
0.0
 10
277.6658503056181
 20
20.25491771765491
 30
0.0
 10
276.9460186560295
 20
20.25491771765491
 30
0.0
  0
SPLINE
  5
AA
330
1F
100
AcDbEntity
  8
0
  6
Continuous
 62
   179
370
     0
100
AcDbSpline
210
0.0
220
0.0
230
1.0
 70
     8
 71
     3
 72
    20
 73
    16
 74
     0
 42
0.000000001
 43
0.00000001
 40
5.0
 40
5.0
 40
5.0
 40
5.0
 40
6.0
 40
6.0
 40
6.0
 40
7.0
 40
7.0
 40
7.0
 40
8.0
 40
8.0
 40
8.0
 40
9.0
 40
9.0
 40
9.0
 40
10.0
 40
10.0
 40
10.0
 40
10.0
 10
307.178408284104
 20
20.25443648715803
 30
0.0
 10
307.3179589782804
 20
20.36177625633667
 30
0.0
 10
307.5293898264143
 20
20.45652254628292
 30
0.0
 10
307.6283941606455
 20
20.61954360515536
 30
0.0
 10
307.7285516030972
 20
20.78446498637256
 30
0.0
 10
307.7490584796685
 20
21.01681475508337
 30
0.0
 10
307.7500732149022
 20
21.21990094340409
 30
0.0
 10
307.7587445887104
 20
22.95682170421714
 30
0.0
 10
307.7550484924979
 20
24.69380511724258
 30
0.0
 10
307.7550361926766
 20
26.43077008053731
 30
0.0
 10
307.7550361926766
 20
26.49789904426263
 30
0.0
 10
307.7552944889175
 20
26.56503146731187
 30
0.0
 10
307.7547502218385
 20
26.63215658734291
 30
0.0
 10
307.7501131893193
 20
27.20350460556406
 30
0.0
 10
307.6774858212348
 20
27.28280885460759
 30
0.0
 10
307.160813390154
 20
27.32540717062984
 30
0.0
  0
SPLINE
  5
AB
330
1F
100
AcDbEntity
  8
0
  6
Continuous
 62
   179
370
     0
100
AcDbSpline
210
0.0
220
0.0
230
1.0
 70
    24
 71
     3
 72
     8
 73
     4
 74
     0
 42
0.000000001
 43
0.00000001
 40
4.0
 40
4.0
 40
4.0
 40
4.0
 40
5.0
 40
5.0
 40
5.0
 40
5.0
 10
309.3620693061908
 20
20.25443648715802
 30
0.0
 10
308.5715044609525
 20
20.25443648715802
 30
0.0
 10
307.8517004859625
 20
20.25443648715802
 30
0.0
 10
307.178408284104
 20
20.25443648715803
 30
0.0
  0
SPLINE
  5
AC
330
1F
100
AcDbEntity
  8
0
  6
Continuous
 62
   179
370
     0
100
AcDbSpline
210
0.0
220
0.0
230
1.0
 70
     8
 71
     3
 72
    14
 73
    10
 74
     0
 42
0.000000001
 43
0.00000001
 40
1.0
 40
1.0
 40
1.0
 40
1.0
 40
2.0
 40
2.0
 40
2.0
 40
3.0
 40
3.0
 40
3.0
 40
4.0
 40
4.0
 40
4.0
 40
4.0
 10
308.65963267846
 20
27.88697759989075
 30
0.0
 10
308.65963267846
 20
27.83196991758182
 30
0.0
 10
308.65963267846
 20
27.74275854708867
 30
0.0
 10
308.65963267846
 20
27.65354698440997
 30
0.0
 10
308.65963267846
 20
25.48863300356693
 30
0.0
 10
308.6595035303402
 20
23.32371921490945
 30
0.0
 10
308.6597187772069
 20
21.15880542625192
 30
0.0
 10
308.6597679764911
 20
20.6374237012035
 30
0.0
 10
308.807415027844
 20
20.43200746554105
 30
0.0
 10
309.3620693061909
 20
20.25443648715802
 30
0.0
  0
SPLINE
  5
AD
330
1F
100
AcDbEntity
  8
0
  6
Continuous
 62
   179
370
     0
100
AcDbSpline
210
0.0
220
0.0
230
1.0
 70
     8
 71
     3
 72
     8
 73
     4
 74
     0
 42
0.000000001
 43
0.00000001
 40
0.0
 40
0.0
 40
0.0
 40
0.0
 40
1.0
 40
1.0
 40
1.0
 40
1.0
 10
307.160813390154
 20
27.32540717062984
 30
0.0
 10
307.6336123597078
 20
27.50255342081908
 30
0.0
 10
308.1420254609839
 20
27.69304267058278
 30
0.0
 10
308.65963267846
 20
27.88697759989075
 30
0.0
  0
SPLINE
  5
AE
330
1F
100
AcDbEntity
  8
0
  6
Continuous
 62
   179
370
     0
100
AcDbSpline
210
0.0
220
0.0
230
1.0
 70
     8
 71
     3
 72
    14
 73
    10
 74
     0
 42
0.000000001
 43
0.00000001
 40
6.0
 40
6.0
 40
6.0
 40
6.0
 40
7.0
 40
7.0
 40
7.0
 40
8.0
 40
8.0
 40
8.0
 40
9.0
 40
9.0
 40
9.0
 40
9.0
 10
272.426404840594
 20
20.25907966958721
 30
0.0
 10
273.005992393597
 20
20.37668517687365
 30
0.0
 10
273.0805785081768
 20
20.81042375860577
 30
0.0
 10
273.0783845276048
 20
21.29462927466368
 30
0.0
 10
273.0702866329497
 20
23.08209538116095
 30
0.0
 10
273.0685846452182
 20
24.86961337752775
 30
0.0
 10
273.0527409382852
 20
26.65700799131587
 30
0.0
 10
273.0476395875227
 20
27.23250104921648
 30
0.0
 10
272.9826104338649
 20
27.28380667758701
 30
0.0
 10
272.4594267850394
 20
27.32510813123116
 30
0.0
  0
SPLINE
  5
AF
330
1F
100
AcDbEntity
  8
0
  6
Continuous
 62
   179
370
     0
100
AcDbSpline
210
0.0
220
0.0
230
1.0
 70
    24
 71
     3
 72
     8
 73
     4
 74
     0
 42
0.000000001
 43
0.00000001
 40
5.0
 40
5.0
 40
5.0
 40
5.0
 40
6.0
 40
6.0
 40
6.0
 40
6.0
 10
274.6224502449564
 20
20.25907966958721
 30
0.0
 10
273.8904356226618
 20
20.25907966958721
 30
0.0
 10
273.1584194628893
 20
20.25907966958721
 30
0.0
 10
272.426404840594
 20
20.25907966958721
 30
0.0
  0
SPLINE
  5
B0
330
1F
100
AcDbEntity
  8
0
  6
Continuous
 62
   179
370
     0
100
AcDbSpline
210
0.0
220
0.0
230
1.0
 70
     8
 71
     3
 72
    17
 73
    13
 74
     0
 42
0.000000001
 43
0.00000001
 40
1.0
 40
1.0
 40
1.0
 40
1.0
 40
2.0
 40
2.0
 40
2.0
 40
3.0
 40
3.0
 40
3.0
 40
4.0
 40
4.0
 40
4.0
 40
5.0
 40
5.0
 40
5.0
 40
5.0
 10
273.9540333846496
 20
27.87257450949275
 30
0.0
 10
273.9540333846496
 20
27.8074859707617
 30
0.0
 10
273.9540333846496
 20
27.71082379150879
 30
0.0
 10
273.9540333846496
 20
27.61416161225588
 30
0.0
 10
273.9540349221275
 20
25.51596282147274
 30
0.0
 10
273.9539872603212
 20
23.41776441505854
 30
0.0
 10
273.9542086570993
 20
21.31956562427539
 30
0.0
 10
273.954217881965
 20
21.22727776105204
 30
0.0
 10
273.9506540088286
 20
21.13443409966764
 30
0.0
 10
273.9590578615309
 20
21.04279505200227
 30
0.0
 10
274.0006220316647
 20
20.58964274029083
 30
0.0
 10
274.1836818051717
 20
20.38260600321025
 30
0.0
 10
274.6224502449564
 20
20.25907966958721
 30
0.0
  0
SPLINE
  5
B1
330
1F
100
AcDbEntity
  8
0
  6
Continuous
 62
   179
370
     0
100
AcDbSpline
210
0.0
220
0.0
230
1.0
 70
     8
 71
     3
 72
     8
 73
     4
 74
     0
 42
0.000000001
 43
0.00000001
 40
0.0
 40
0.0
 40
0.0
 40
0.0
 40
1.0
 40
1.0
 40
1.0
 40
1.0
 10
272.4594267850394
 20
27.32510813123116
 30
0.0
 10
272.932774634105
 20
27.49849255803981
 30
0.0
 10
273.4351023989377
 20
27.68249307566929
 30
0.0
 10
273.9540333846496
 20
27.87257450949275
 30
0.0
  0
SPLINE
  5
B2
330
1F
100
AcDbEntity
  8
0
  6
Continuous
 62
   179
370
     0
100
AcDbSpline
210
0.0
220
0.0
230
1.0
 70
     8
 71
     3
 72
    17
 73
    13
 74
     0
 42
0.000000001
 43
0.00000001
 40
6.0
 40
6.0
 40
6.0
 40
6.0
 40
7.0
 40
7.0
 40
7.0
 40
8.0
 40
8.0
 40
8.0
 40
9.0
 40
9.0
 40
9.0
 40
10.0
 40
10.0
 40
10.0
 40
10.0
 10
304.1706223551654
 20
25.06377258638473
 30
0.0
 10
304.1727133247369
 20
25.01792115989103
 30
0.0
 10
304.1800409430993
 20
24.93136078519359
 30
0.0
 10
304.1800932173391
 20
24.84479541369365
 30
0.0
 10
304.1808527312862
 20
23.65282014439031
 30
0.0
 10
304.1797703470369
 20
22.46084295323947
 30
0.0
 10
304.1818797663413
 20
21.26887114326077
 30
0.0
 10
304.1821011631179
 20
21.14380579453512
 30
0.0
 10
304.1922454404933
 20
21.01764883669525
 30
0.0
 10
304.2107535961514
 20
20.89393877449616
 30
0.0
 10
304.2621822227331
 20
20.55023795748125
 30
0.0
 10
304.4578262506062
 20
20.33981031349823
 30
0.0
 10
304.8038079156779
 20
20.2539775500868
 30
0.0
  0
SPLINE
  5
B3
330
1F
100
AcDbEntity
  8
0
  6
Continuous
 62
   179
370
     0
100
AcDbSpline
210
0.0
220
0.0
230
1.0
 70
     8
 71
     3
 72
     8
 73
     4
 74
     0
 42
0.000000001
 43
0.00000001
 40
5.0
 40
5.0
 40
5.0
 40
5.0
 40
6.0
 40
6.0
 40
6.0
 40
6.0
 10
302.7125031745686
 20
24.50968064047994
 30
0.0
 10
303.1898069535648
 20
24.6910587978335
 30
0.0
 10
303.6729961969132
 20
24.87467283202501
 30
0.0
 10
304.1706223551654
 20
25.06377258638473
 30
0.0
  0
SPLINE
  5
B4
330
1F
100
AcDbEntity
  8
0
  6
Continuous
 62
   179
370
     0
100
AcDbSpline
210
0.0
220
0.0
230
1.0
 70
     8
 71
     3
 72
    17
 73
    13
 74
     0
 42
0.000000001
 43
0.00000001
 40
1.0
 40
1.0
 40
1.0
 40
1.0
 40
2.0
 40
2.0
 40
2.0
 40
3.0
 40
3.0
 40
3.0
 40
4.0
 40
4.0
 40
4.0
 40
5.0
 40
5.0
 40
5.0
 40
5.0
 10
302.6973344203136
 20
20.2539775500868
 30
0.0
 10
303.1321361678242
 20
20.3494649042487
 30
0.0
 10
303.2897768237453
 20
20.65853557522151
 30
0.0
 10
303.2916556214045
 20
21.04785181591347
 30
0.0
 10
303.2966032244031
 20
22.071496731734
 30
0.0
 10
303.2829750227277
 20
23.09531768874207
 30
0.0
 10
303.2668591822546
 20
24.11891186780057
 30
0.0
 10
303.2632153602819
 20
24.35030186610297
 30
0.0
 10
303.1332831261333
 20
24.4918735746181
 30
0.0
 10
302.8846514693662
 20
24.49557889569631
 30
0.0
 10
302.8224697242705
 20
24.49650561033552
 30
0.0
 10
302.760410977386
 20
24.5055728846329
 30
0.0
 10
302.7125031745686
 20
24.50968064047994
 30
0.0
  0
SPLINE
  5
B5
330
1F
100
AcDbEntity
  8
0
  6
Continuous
 62
   179
370
     0
100
AcDbSpline
210
0.0
220
0.0
230
1.0
 70
    24
 71
     3
 72
     8
 73
     4
 74
     0
 42
0.000000001
 43
0.00000001
 40
0.0
 40
0.0
 40
0.0
 40
0.0
 40
1.0
 40
1.0
 40
1.0
 40
1.0
 10
304.8038079156779
 20
20.2539775500868
 30
0.0
 10
304.101651108875
 20
20.2539775500868
 30
0.0
 10
303.3994912271164
 20
20.2539775500868
 30
0.0
 10
302.6973344203136
 20
20.2539775500868
 30
0.0
  0
SPLINE
  5
B6
330
1F
100
AcDbEntity
  8
0
  6
Continuous
 62
   179
370
     0
100
AcDbSpline
210
0.0
220
0.0
230
1.0
 70
     8
 71
     3
 72
    11
 73
     7
 74
     0
 42
0.000000001
 43
0.00000001
 40
2.0
 40
2.0
 40
2.0
 40
2.0
 40
3.0
 40
3.0
 40
3.0
 40
4.0
 40
4.0
 40
4.0
 40
4.0
 10
303.0570519104932
 20
26.35430478392947
 30
0.0
 10
303.0511172468595
 20
26.75330175249256
 30
0.0
 10
303.3266947364937
 20
27.05519259513757
 30
0.0
 10
303.6924299141011
 20
27.05034857969325
 30
0.0
 10
304.0507636744179
 20
27.04560238626284
 30
0.0
 10
304.3255386007336
 20
26.75299425696746
 30
0.0
 10
304.327448147944
 20
26.37412133304796
 30
0.0
  0
SPLINE
  5
B7
330
1F
100
AcDbEntity
  8
0
  6
Continuous
 62
   179
370
     0
100
AcDbSpline
210
0.0
220
0.0
230
1.0
 70
     8
 71
     3
 72
    11
 73
     7
 74
     0
 42
0.000000001
 43
0.00000001
 40
0.0
 40
0.0
 40
0.0
 40
0.0
 40
1.0
 40
1.0
 40
1.0
 40
2.0
 40
2.0
 40
2.0
 40
2.0
 10
304.327448147944
 20
26.37412133304796
 30
0.0
 10
304.3293945946187
 20
25.98752450590587
 30
0.0
 10
304.068057222753
 20
25.70828897263022
 30
0.0
 10
303.6993639381942
 20
25.70301926806731
 30
0.0
 10
303.3259905717408
 20
25.69768229885988
 30
0.0
 10
303.0628482011429
 20
25.96449808787493
 30
0.0
 10
303.0570519104932
 20
26.35430478392947
 30
0.0
  0
MTEXT
  5
B9
330
1F
100
AcDbEntity
  8
0
  6
Continuous
 62
     7
370
     0
100
AcDbMText
 10
257.9690483454
 20
40.3166048975
 30
0.0
 40
3.7041666667
 41
0.0
 71
     1
 72
     1
  1
BOUN36-W - Bounce Large Shade - Wall Mount
  7
SLDTEXTSTYLE0
 73
     1
 44
1.0
  0
MTEXT
  5
BA
330
1F
100
AcDbEntity
  8
0
  6
Continuous
 62
     7
370
     0
100
AcDbMText
 10
258.6105142387
 20
44.3546043689
 30
0.0
 40
1.5875
 41
0.0
 71
     1
 72
     1
  1
\LDESCRIPTION
  7
SLDTEXTSTYLE0
 73
     1
 44
1.0
  0
INSERT
  5
C1
330
1F
100
AcDbEntity
  8
0
  6
Continuous
 62
     7
370
     0
100
AcDbBlockReference
  2
SW_NOTE_0
 10
317.1049495712
 20
24.1495665419
 30
0.0
  0
MTEXT
  5
C2
330
1F
100
AcDbEntity
  8
0
  6
Continuous
 62
     7
370
     0
100
AcDbMText
 10
273.8048790106
 20
32.371143085
 30
0.0
 40
1.5875
 41
0.0
 71
     2
 72
     1
  1
\LSCALE
  7
SLDTEXTSTYLE0
 73
     1
 44
1.0
  0
MTEXT
  5
C3
330
1F
100
AcDbEntity
  8
0
  6
Continuous
 62
     7
370
     0
100
AcDbMText
 10
278.3960862508
 20
33.4394651033
 30
0.0
 40
2.6458333333
 41
0.0
 71
     1
 72
     1
  1
1:10
  7
SLDTEXTSTYLE0
 73
     1
 44
1.0
  0
MTEXT
  5
C4
330
1F
100
AcDbEntity
  8
0
  6
Continuous
 62
     7
370
     0
100
AcDbMText
 10
261.4913139704
 20
32.371143085
 30
0.0
 40
1.5875
 41
0.0
 71
     2
 72
     1
  1
\LSIZE
  7
SLDTEXTSTYLE0
 73
     1
 44
1.0
  0
MTEXT
  5
C5
330
1F
100
AcDbEntity
  8
0
  6
Continuous
 62
     7
370
     0
100
AcDbMText
 10
264.7495209372
 20
33.4394651033
 30
0.0
 40
2.6458333333
 41
0.0
 71
     1
 72
     1
  1
B
  7
SLDTEXTSTYLE0
 73
     1
 44
1.0
  0
INSERT
  5
CC
330
1F
100
AcDbEntity
  8
0
  6
Continuous
 62
     7
370
     0
100
AcDbBlockReference
  2
SW_NOTE_1
 10
258.0900415808
 20
15.6806800849
 30
0.0
  0
LINE
  5
CD
330
1F
100
AcDbEntity
  8
0
  6
Continuous
 62
     7
370
    15
100
AcDbLine
 10
131.0589121583
 20
75.1980113101
 30
0.0
 11
62.1080332401
 21
135.2526729666
 31
0.0
  0
SPLINE
  5
CE
330
1F
100
AcDbEntity
  8
0
  6
Continuous
 62
     7
370
    15
100
AcDbSpline
210
0.0
220
0.0
230
1.0
 70
     8
 71
     3
 72
    44
 73
    40
 74
     0
 42
0.000000001
 43
0.00000001
 40
0.0
 40
0.0
 40
0.0
 40
0.0
 40
0.0006920759902927
 40
0.0021386872545874
 40
0.0036840504387183
 40
0.0052037347420858
 40
0.0066576354256815
 40
0.0109995426674711
 40
0.0155700470477528
 40
0.0204707289226272
 40
0.025769787073165
 40
0.0351231209644037
 40
0.0455176253905719
 40
0.056905730598483
 40
0.0684344909547752
 40
0.0797723602416481
 40
0.0909203799945399
 40
0.1018774982261685
 40
0.1310472704237421
 40
0.1595115857001578
 40
0.2094926202667206
 40
0.2591629353955264
 40
0.4365624210140205
 40
0.7376035742492358
 40
0.7707179671849279
 40
0.8038322271278658
 40
0.8368921185737073
 40
0.8692284815162503
 40
0.8785388302148165
 40
0.8877698148495079
 40
0.8970393517086462
 40
0.9075372437861614
 40
0.9195723041746183
 40
0.9331446068802747
 40
0.9473493485205847
 40
0.9629206170127589
 40
0.9798582277292347
 40
0.9981618270220856
 40
1.0
 40
1.0
 40
1.0
 40
1.0
 10
130.7057905728673
 20
74.8081001152311
 30
0.0
 10
130.7216141292204
 20
74.80275742333613
 30
0.0
 10
130.7705128611073
 20
74.78624717414205
 30
0.0
 10
130.8616386684224
 20
74.79399197683964
 30
0.0
 10
130.9641404631143
 20
74.83383983312481
 30
0.0
 10
131.0451651994669
 20
74.90914324912802
 30
0.0
 10
131.1431898301127
 20
75.05569415743462
 30
0.0
 10
131.2244505431607
 20
75.29439550535471
 30
0.0
 10
131.2954816399404
 20
75.61775467508583
 30
0.0
 10
131.3524209040603
 20
75.96808011321009
 30
0.0
 10
131.4169696863595
 20
76.43299722566448
 30
0.0
 10
131.4824804850912
 20
77.03087308991061
 30
0.0
 10
131.5516045157369
 20
77.7751722464558
 30
0.0
 10
131.6192547826606
 20
78.57206067038511
 30
0.0
 10
131.685367580991
 20
79.39178926122587
 30
0.0
 10
131.748884384517
 20
80.20594373877101
 30
0.0
 10
131.810041561798
 20
81.00651443527107
 30
0.0
 10
131.902367628797
 20
82.23406093140763
 30
0.0
 10
132.0233908641668
 20
83.8763534021515
 30
0.0
 10
132.2103357087662
 20
86.45321630197056
 30
0.0
 10
132.4299603214593
 20
89.52117994583847
 30
0.0
 10
132.9008506392463
 20
96.15595595103136
 30
0.0
 10
133.7889842377451
 20
108.8037555956844
 30
0.0
 10
134.6452021011345
 20
121.0553389421794
 30
0.0
 10
135.259713301355
 20
129.851350990931
 30
0.0
 10
135.4258196368255
 20
132.2292861758035
 30
0.0
 10
135.5906182304307
 20
134.5885881819014
 30
0.0
 10
135.7155904294859
 20
136.3777928085677
 30
0.0
 10
135.8006994255023
 20
137.5963011633708
 30
0.0
 10
135.8472210183396
 20
138.2623646454379
 30
0.0
 10
135.8957308355115
 20
138.9568697921906
 30
0.0
 10
135.9489198980855
 20
139.7185307607246
 30
0.0
 10
136.0089800573537
 20
140.5832570929937
 30
0.0
 10
136.0741983720572
 20
141.5368230981809
 30
0.0
 10
136.1431702647498
 20
142.575215996402
 30
0.0
 10
136.214445547808
 20
143.6944227640181
 30
0.0
 10
136.2882587438445
 20
144.9120796422794
 30
0.0
 10
136.3411540761289
 20
145.8007139032088
 30
0.0
 10
136.3696140504274
 20
146.2834405355574
 30
0.0
 10
136.3722113569109
 20
146.327495003028
 30
0.0
  0
SPLINE
  5
CF
330
1F
100
AcDbEntity
  8
0
  6
Continuous
 62
     7
370
    15
100
AcDbSpline
210
0.0
220
0.0
230
1.0
 70
     8
 71
     3
 72
    41
 73
    37
 74
     0
 42
0.000000001
 43
0.00000001
 40
0.0
 40
0.0
 40
0.0
 40
0.0
 40
0.0048387261682657
 40
0.0256354991234517
 40
0.0446109263611436
 40
0.0617645653648305
 40
0.0770962422515411
 40
0.0903806728494674
 40
0.1019076849089274
 40
0.1119175708053294
 40
0.1217961785492239
 40
0.1578176578595611
 40
0.1948305142256121
 40
0.3274654205574492
 40
0.5643144688809653
 40
0.6316011699110059
 40
0.6988883481068721
 40
0.7661740010944817
 40
0.8336403571178378
 40
0.85923034185542
 40
0.8851586981603417
 40
0.912063166599588
 40
0.9251583155452259
 40
0.9385151722680287
 40
0.952078118031037
 40
0.9646859463625219
 40
0.9758695872406811
 40
0.9829414871047666
 40
0.9892992573999406
 40
0.992275880828194
 40
0.9951074217076945
 40
0.9964620756250218
 40
0.9978273734033185
 40
0.9985082426306461
 40
0.9991572897068354
 40
0.9999999999999999
 40
0.9999999999999999
 40
0.9999999999999999
 40
0.9999999999999999
 10
136.3730855841627
 20
146.3342832771318
 30
0.0
 10
136.3637640848662
 20
146.2187689561854
 30
0.0
 10
136.3143789205202
 20
145.606775805428
 30
0.0
 10
136.2289183597826
 20
144.5417452726383
 30
0.0
 10
136.122848040412
 20
143.1825044166785
 30
0.0
 10
136.031364671723
 20
141.9534301259729
 30
0.0
 10
135.9528368095765
 20
140.8600636373053
 30
0.0
 10
135.885312697418
 20
139.9010019209452
 30
0.0
 10
135.8271750069736
 20
139.0690449423919
 30
0.0
 10
135.7747543250593
 20
138.3184553680267
 30
0.0
 10
135.6814507065146
 20
136.9826377953091
 30
0.0
 10
135.5430847405996
 20
135.0016567857946
 30
0.0
 10
135.1998533922674
 20
130.0877463634168
 30
0.0
 10
134.5212559259659
 20
120.3756189963899
 30
0.0
 10
133.7918218234377
 20
109.940201829882
 30
0.0
 10
133.1690120769582
 20
101.0662623603531
 30
0.0
 10
132.8296594360694
 20
96.243548307505
 30
0.0
 10
132.488528042529
 20
91.41664623269502
 30
0.0
 10
132.2154661224998
 20
87.58609336244704
 30
0.0
 10
132.0100806549437
 20
84.7437599358924
 30
0.0
 10
131.8731445572045
 20
82.8704917158668
 30
0.0
 10
131.7558574154977
 20
81.29584445006296
 30
0.0
 10
131.6583118134467
 20
80.02165636625017
 30
0.0
 10
131.5831182133603
 20
79.06623472313251
 30
0.0
 10
131.5054695417683
 20
78.12270098976269
 30
0.0
 10
131.4259410462026
 20
77.2316170467335
 30
0.0
 10
131.3490566442095
 20
76.4962504074806
 30
0.0
 10
131.2681140297327
 20
75.91241506306653
 30
0.0
 10
131.2009706529867
 20
75.5247182430797
 30
0.0
 10
131.1270482956421
 20
75.24286276487207
 30
0.0
 10
131.0655918288616
 20
75.0814409227228
 30
0.0
 10
130.9948972168161
 20
74.96835556953405
 30
0.0
 10
130.9354437001618
 20
74.91007698483631
 30
0.0
 10
130.877253663241
 20
74.88128193864831
 30
0.0
 10
130.8263227424839
 20
74.86756478644409
 30
0.0
 10
130.7904243959042
 20
74.8704733729267
 30
0.0
 10
130.7701450215289
 20
74.87211646570962
 30
0.0
  0
SPLINE
  5
D0
330
1F
100
AcDbEntity
  8
0
  6
Continuous
 62
     7
370
    15
100
AcDbSpline
210
0.0
220
0.0
230
1.0
 70
     8
 71
     3
 72
    22
 73
    18
 74
     0
 42
0.000000001
 43
0.00000001
 40
0.0
 40
0.0
 40
0.0
 40
0.0
 40
0.1771668537956877
 40
0.3323929540971855
 40
0.4520774187713676
 40
0.5461599036302741
 40
0.6442565893366883
 40
0.7306985532360192
 40
0.8158693499776484
 40
0.8836841865382266
 40
0.9050578326425646
 40
0.9268320490878228
 40
0.9392515225586011
 40
0.952741413892486
 40
0.9665012353388407
 40
0.9950075354026228
 40
1.0
 40
1.0
 40
1.0
 40
1.0
 10
64.28075556849852
 20
135.851109841185
 30
0.0
 10
64.11108109106655
 20
135.8215089000425
 30
0.0
 10
63.79274501645548
 20
135.7659728668647
 30
0.0
 10
63.36174094522598
 20
135.6798042398379
 30
0.0
 10
63.01154366260944
 20
135.6019803018698
 30
0.0
 10
62.71729504414355
 20
135.5287589206489
 30
0.0
 10
62.4565550811689
 20
135.4553579537895
 30
0.0
 10
62.20724075713719
 20
135.3733040810382
 30
0.0
 10
61.99229516100093
 20
135.2844348753916
 30
0.0
 10
61.8430814289364
 20
135.2000607178615
 30
0.0
 10
61.76408890530643
 20
135.1261535524627
 30
0.0
 10
61.73267749577123
 20
135.0810860876055
 30
0.0
 10
61.71846588146504
 20
135.0365250498497
 30
0.0
 10
61.71724104447034
 20
134.9972116757253
 30
0.0
 10
61.73523911515189
 20
134.9450845150406
 30
0.0
 10
61.76531180950919
 20
134.9090842533533
 30
0.0
 10
61.7880105975371
 20
134.8857760977405
 30
0.0
 10
61.79139349528808
 20
134.8823023833243
 30
0.0
  0
SPLINE
  5
D1
330
1F
100
AcDbEntity
  8
0
  6
Continuous
 62
     7
370
    15
100
AcDbSpline
210
0.0
220
0.0
230
1.0
 70
     8
 71
     3
 72
    13
 73
     9
 74
     0
 42
0.000000001
 43
0.00000001
 40
0.0
 40
0.0
 40
0.0
 40
0.0
 40
0.0932303175886105
 40
0.2009779656560168
 40
0.3413654814673363
 40
0.524139383648727
 40
0.749368829758705
 40
1.0
 40
1.0
 40
1.0
 40
1.0
 10
62.11017691001084
 20
135.2488706361382
 30
0.0
 10
62.17515592978616
 20
135.2748644763605
 30
0.0
 10
62.31523215759002
 20
135.3308997797101
 30
0.0
 10
62.56025509801852
 20
135.4063473755623
 30
0.0
 10
62.87239457655402
 20
135.4907953757169
 30
0.0
 10
63.27337960438303
 20
135.5837022783136
 30
0.0
 10
63.75774920523678
 20
135.6822682804364
 30
0.0
 10
64.10951167855292
 20
135.743780252153
 30
0.0
 10
64.29478156075119
 20
135.7761780109198
 30
0.0
  0
LWPOLYLINE
  5
D2
330
1F
100
AcDbEntity
  8
0
  6
Continuous
 62
     7
370
    15
100
AcDbPolyline
 90
       10
 70
   128
 43
0.0
 10
61.840860854
 20
134.944316
 10
61.8100247674
 20
134.9779627315
 10
61.7977982957
 20
134.9984588414
 10
61.7945778784
 20
135.0156475689
 10
61.7985672221
 20
135.0354669982
 10
61.8102308599
 20
135.05768572
 10
61.9046605526
 20
135.1429670264
 10
62.0986181046
 20
135.2444154875
 10
62.102507096
 20
135.2459144343
 10
62.102507096
 20
135.2459144343
  0
LINE
  5
D3
330
1F
100
AcDbEntity
  8
0
  6
Continuous
 62
     7
370
    15
100
AcDbLine
 10
64.2895190289
 20
135.8042719804
 30
0.0
 11
64.2878852144
 21
135.8038811164
 31
0.0
  0
LINE
  5
D4
330
1F
100
AcDbEntity
  8
0
  6
Continuous
 62
     7
370
    15
100
AcDbLine
 10
64.2895676848
 20
135.8042836206
 30
0.0
 11
64.2895190289
 21
135.8042719804
 31
0.0
  0
SPLINE
  5
D5
330
1F
100
AcDbEntity
  8
0
  6
Continuous
 62
     7
370
    15
100
AcDbSpline
210
0.0
220
0.0
230
1.0
 70
     8
 71
     3
 72
    31
 73
    27
 74
     0
 42
0.000000001
 43
0.00000001
 40
0.0
 40
0.0
 40
0.0
 40
0.0
 40
0.009243247109819
 40
0.0170201417420278
 40
0.0233306830323316
 40
0.028179555225595
 40
0.0324486448963276
 40
0.0367934836486458
 40
0.0473005035509177
 40
0.0578826425887316
 40
0.0956759962540124
 40
0.1631641276812997
 40
0.283678647152144
 40
0.4988831381389935
 40
0.772779734952262
 40
0.8932942486825373
 40
0.9463206364050271
 40
0.9509868052834859
 40
0.9555350863022452
 40
0.959863697878347
 40
0.9639726400038566
 40
0.9683155624873436
 40
0.9741637009238423
 40
0.9816762121547743
 40
0.9908533926999017
 40
1.0
 40
1.0
 40
1.0
 40
1.0
 10
135.1373393585413
 20
150.5349837894205
 30
0.0
 10
134.919124976613
 20
150.4892311429949
 30
0.0
 10
134.5173138309796
 20
150.4049840685648
 30
0.0
 10
133.9665200941671
 20
150.2895173212251
 30
0.0
 10
133.5194676340139
 20
150.1958069810762
 30
0.0
 10
133.1552269607802
 20
150.1194616348052
 30
0.0
 10
132.8373923163179
 20
150.0528473349328
 30
0.0
 10
132.3859769109644
 20
149.9582419622106
 30
0.0
 10
131.7855176700653
 20
149.8324142096457
 30
0.0
 10
130.3953791591032
 20
149.5411523901434
 30
0.0
 10
127.6599499383418
 20
148.9682333882153
 30
0.0
 10
122.3289329803124
 20
147.8526290659028
 30
0.0
 10
112.8085867573338
 20
145.8636971342144
 30
0.0
 10
98.41245899846973
 20
142.8669367575135
 30
0.0
 10
84.01234808901327
 20
139.8893384950341
 30
0.0
 10
73.43974080167759
 20
137.7204450327276
 30
0.0
 10
69.22816614723953
 20
136.8599226265543
 30
0.0
 10
67.75714272002318
 20
136.559782709518
 30
0.0
 10
67.43705843774075
 20
136.4944876783322
 30
0.0
 10
67.13013969741321
 20
136.4318974186475
 30
0.0
 10
66.82807776584002
 20
136.3702910521829
 30
0.0
 10
66.49007505323706
 20
136.3014523251645
 30
0.0
 10
66.07184148839573
 20
136.2155569563069
 30
0.0
 10
65.5405228964557
 20
136.1013388626003
 30
0.0
 10
64.93389240936777
 20
135.959024982509
 30
0.0
 10
64.50410355873598
 20
135.8558066679701
 30
0.0
 10
64.28956768482746
 20
135.8042836205936
 30
0.0
  0
SPLINE
  5
D6
330
1F
100
AcDbEntity
  8
0
  6
Continuous
 62
     7
370
    15
100
AcDbSpline
210
0.0
220
0.0
230
1.0
 70
     8
 71
     3
 72
    31
 73
    27
 74
     0
 42
0.000000001
 43
0.00000001
 40
0.0
 40
0.0
 40
0.0
 40
0.0
 40
0.0075688635440095
 40
0.015367618566048
 40
0.0216927952879214
 40
0.0265510488670918
 40
0.030828132479484
 40
0.0351811069693169
 40
0.045707802612249
 40
0.0563097602514144
 40
0.0941738945379604
 40
0.1617884194598357
 40
0.2825286398990289
 40
0.4981361681082132
 40
0.772545754776015
 40
0.8932859805419702
 40
0.9464116802698215
 40
0.9510865883247398
 40
0.9556433890641481
 40
0.9599801090373852
 40
0.9640967483057024
 40
0.9684477515465388
 40
0.9743058792590331
 40
0.9818295853665031
 40
0.9910188688800067
 40
1.0
 40
1.0
 40
1.0
 40
1.0
 10
64.28620007672924
 20
135.8221261168638
 30
0.0
 10
64.46636655474572
 20
135.8496189464708
 30
0.0
 10
64.8321717640016
 20
135.9054396540637
 30
0.0
 10
65.34680863679925
 20
135.992972234947
 30
0.0
 10
65.7949035301644
 20
136.0818684520807
 30
0.0
 10
66.15962112843418
 20
136.1563035542105
 30
0.0
 10
66.47783349588474
 20
136.2211316416136
 30
0.0
 10
66.9297624644524
 20
136.3132663211509
 30
0.0
 10
67.5308962074816
 20
136.4358478967438
 30
0.0
 10
68.92255607370105
 20
136.7197927696692
 30
0.0
 10
71.66080960237271
 20
137.2791378916662
 30
0.0
 10
76.99661252538081
 20
138.3717802835859
 30
0.0
 10
86.52325962994387
 20
140.3305935529773
 30
0.0
 10
100.9230498809614
 20
143.3101426405942
 30
0.0
 10
115.318837093987
 20
146.3089697273862
 30
0.0
 10
125.8831349584385
 20
148.5182812347347
 30
0.0
 10
130.0904710718171
 20
149.3994161759713
 30
0.0
 10
131.5599042141663
 20
149.707289726952
 30
0.0
 10
131.8796391449134
 20
149.7742847092287
 30
0.0
 10
132.1862178403588
 20
149.8385272167957
 30
0.0
 10
132.4879462288428
 20
149.9017572422515
 30
0.0
 10
132.8255249585989
 20
149.9725043784283
 30
0.0
 10
133.2433880352937
 20
150.0600832107336
 30
0.0
 10
133.7752599272126
 20
150.1715677894047
 30
0.0
 10
134.3807205128557
 20
150.2984900936575
 30
0.0
 10
134.8088880244461
 20
150.3882624869431
 30
0.0
 10
135.0205193295361
 20
150.4326344867745
 30
0.0
  0
LINE
  5
D7
330
1F
100
AcDbEntity
  8
0
  6
Continuous
 62
     7
370
    15
100
AcDbLine
 10
45.6010728961
 20
40.480184225
 30
0.0
 11
45.6010728961
 21
39.210184225
 31
0.0
  0
LINE
  5
D8
330
1F
100
AcDbEntity
  8
0
  6
Continuous
 62
     7
370
    15
100
AcDbLine
 10
58.3010728961
 20
39.210184225
 30
0.0
 11
58.3010728961
 21
40.480184225
 31
0.0
  0
LINE
  5
D9
330
1F
100
AcDbEntity
  8
0
  6
Continuous
 62
     7
370
    15
100
AcDbLine
 10
55.7507510272
 20
44.6160550108
 30
0.0
 11
60.9380628686
 21
49.8033668522
 31
0.0
  0
LINE
  5
DA
330
1F
100
AcDbEntity
  8
0
  6
Continuous
 62
     7
370
    15
100
AcDbLine
 10
55.549909196
 20
55.1915205248
 30
0.0
 11
48.1307543946
 21
47.7723657234
 31
0.0
  0
LINE
  5
DB
330
1F
100
AcDbEntity
  8
0
  6
Continuous
 62
     7
370
    15
100
AcDbLine
 10
48.1410728961
 20
47.7930055666
 30
0.0
 11
48.1410728961
 21
40.4795843046
 31
0.0
  0
LINE
  5
DC
330
1F
100
AcDbEntity
  8
0
  6
Continuous
 62
     7
370
    15
100
AcDbLine
 10
55.7610728961
 20
40.4795843046
 30
0.0
 11
55.7610728961
 21
44.6263768797
 31
0.0
  0
LWPOLYLINE
  5
DD
330
1F
100
AcDbEntity
  8
0
  6
Continuous
 62
     7
370
    15
100
AcDbPolyline
 90
      113
 70
   128
 43
0.0
 10
61.8534967506
 20
134.9604306297
 10
61.4496530764
 20
134.4548109944
 10
61.0730749787
 20
133.9262944157
 10
60.7240558562
 20
133.3752926698
 10
60.4028676356
 20
132.8022350519
 10
60.1097605604
 20
132.2075680411
 10
59.8449629953
 20
131.5917549527
 10
59.6086812486
 20
130.9552755774
 10
59.4010994116
 20
130.2986258072
 10
59.2223792148
 20
129.6223172494
 10
59.0726599023
 20
128.9268768277
 10
58.952058123
 20
128.2128463717
 10
58.8606678398
 20
127.480782195
 10
58.7985602564
 20
126.7312546614
 10
58.765783762
 20
125.9648477408
 10
58.7623638933
 20
125.1821585541
 10
58.7883033147
 20
124.383796908
 10
58.8435818164
 20
123.5703848199
 10
58.9281563301
 20
122.7425560332
 10
59.0419609621
 20
121.9009555236
 10
59.1849070454
 20
121.0462389968
 10
59.3568832081
 20
120.1790723771
 10
59.5577554608
 20
119.3001312891
 10
59.7873673002
 20
118.410100531
 10
60.0455398319
 20
117.5096735411
 10
60.3320719092
 20
116.5995518578
 10
60.64674029
 20
115.6804445725
 10
60.9892998106
 20
114.7530677778
 10
61.3594835771
 20
113.8181440088
 10
61.7570031728
 20
112.8764016809
 10
62.1815488834
 20
111.9285745219
 10
62.6327899379
 20
110.9754010004
 10
63.1103747666
 20
110.0176237502
 10
63.6139312749
 20
109.0559889922
 10
64.1430671333
 20
108.0912459528
 10
64.6973700827
 20
107.1241462799
 10
65.2764082562
 20
106.1554434577
 10
65.8797305152
 20
105.1858922192
 10
66.5068668007
 20
104.2162479587
 10
67.1573285
 20
103.2472661427
 10
67.8306088273
 20
102.2797017219
 10
68.5261832181
 20
101.3143085423
 10
69.2435097383
 20
100.3518387585
 10
69.9820295065
 20
99.3930422474
 10
70.7411671291
 20
98.438666024
 10
71.5203311489
 20
97.4894536593
 10
72.3189145056
 20
96.5461447011
 10
73.1362950092
 20
95.6094740977
 10
73.9718358243
 20
94.6801716254
 10
74.8248859667
 20
93.7589613198
 10
75.6947808101
 20
92.846560912
 10
76.5808426045
 20
91.9436812687
 10
77.4823810038
 20
91.0510258392
 10
78.3986936038
 20
90.1692901068
 10
79.3290664894
 20
89.2991610471
 10
80.2727747912
 20
88.4413165927
 10
81.2290832495
 20
87.5964251049
 10
82.1972467879
 20
86.7651448536
 10
83.1765110934
 20
85.9481235033
 10
84.1661132042
 20
85.1459976098
 10
85.1652821043
 20
84.359392123
 10
86.1732393238
 20
83.5889199011
 10
87.1891995458
 20
82.8351812321
 10
88.2123712181
 20
82.0987633671
 10
89.2419571699
 20
81.3802400618
 10
90.277155233
 20
80.6801711302
 10
91.3171588666
 20
79.9991020083
 10
92.361157786
 20
79.3375633286
 10
93.4083385934
 20
78.6960705074
 10
94.4578854122
 20
78.075123343
 10
95.5089805223
 20
77.475205626
 10
96.5608049973
 20
76.8967847626
 10
97.6125393425
 20
76.3403114106
 10
98.6633641334
 20
75.8062191281
 10
99.7124606544
 20
75.2949240355
 10
100.759011536
 20
74.8068244917
 10
101.8022013925
 20
74.3423007835
 10
102.8412174565
 20
73.9017148294
 10
103.8752502127
 20
73.4854098976
 10
104.9034940281
 20
73.0937103383
 10
105.9251477803
 20
72.7269213316
 10
106.9394154811
 20
72.3853286491
 10
107.9455068969
 20
72.0691984315
 10
108.9426381646
 20
71.7787769815
 10
109.930032402
 20
71.5142905712
 10
110.9069203129
 20
71.2759452669
 10
111.8725407873
 20
71.0639267672
 10
112.8261414933
 20
70.8784002596
 10
113.7669794643
 20
70.719510291
 10
114.6943216771
 20
70.5873806553
 10
115.6074456232
 20
70.4821142969
 10
116.5056398721
 20
70.4037932308
 10
117.388204625
 20
70.3524784781
 10
118.2544522604
 20
70.3282100192
 10
119.1037078698
 20
70.331006762
 10
119.9353097835
 20
70.3608665276
 10
120.748610086
 20
70.4177660515
 10
121.5429751209
 20
70.5016610026
 10
122.3177859848
 20
70.6124860166
 10
123.0724390089
 20
70.750154748
 10
123.8063462302
 20
70.9145599367
 10
124.5189358488
 20
71.1055734917
 10
125.2096526738
 20
71.3230465911
 10
125.8779585557
 20
71.5668097978
 10
126.5233328058
 20
71.8366731916
 10
127.145272602
 20
72.1324265174
 10
127.74329338
 20
72.4538393486
 10
128.3169292117
 20
72.8006612669
 10
128.8657331673
 20
73.1726220573
 10
129.3892776643
 20
73.5694319187
 10
129.8871548
 20
73.9907816897
 10
130.3589766697
 20
74.4363430894
 10
130.8043756689
 20
74.9057689732
  0
LINE
  5
DE
330
1F
100
AcDbEntity
  8
0
  6
Continuous
 62
     7
370
    15
100
AcDbLine
 10
62.0332714111
 20
135.1668362693
 30
0.0
 11
61.8534967506
 21
134.9604306297
 31
0.0
  0
LWPOLYLINE
  5
DF
330
1F
100
AcDbEntity
  8
0
  6
Continuous
 62
     7
370
    15
100
AcDbPolyline
 90
      113
 70
   128
 43
0.0
 10
62.0332714111
 20
135.1668362693
 10
61.6294277368
 20
134.661216634
 10
61.2528496392
 20
134.1327000552
 10
60.9038305166
 20
133.5816983094
 10
60.5826422961
 20
133.0086406915
 10
60.2895352209
 20
132.4139736806
 10
60.0247376557
 20
131.7981605922
 10
59.7884559091
 20
131.1616812169
 10
59.580874072
 20
130.5050314467
 10
59.4021538753
 20
129.8287228889
 10
59.2524345628
 20
129.1332824672
 10
59.1318327835
 20
128.4192520112
 10
59.0404425002
 20
127.6871878345
 10
58.9783349169
 20
126.9376603009
 10
58.9455584225
 20
126.1712533803
 10
58.9421385537
 20
125.3885641936
 10
58.9680779752
 20
124.5902025475
 10
59.0233564769
 20
123.7767904594
 10
59.1079309905
 20
122.9489616727
 10
59.2217356226
 20
122.1073611632
 10
59.3646817058
 20
121.2526446363
 10
59.5366578686
 20
120.3854780167
 10
59.7375301212
 20
119.5065369286
 10
59.9671419607
 20
118.6165061705
 10
60.2253144924
 20
117.7160791807
 10
60.5118465697
 20
116.8059574973
 10
60.8265149504
 20
115.8868502121
 10
61.1690744711
 20
114.9594734173
 10
61.5392582375
 20
114.0245496483
 10
61.9367778333
 20
113.0828073205
 10
62.3613235438
 20
112.1349801615
 10
62.8125645983
 20
111.1818066399
 10
63.2901494271
 20
110.2240293897
 10
63.7937059354
 20
109.2623946317
 10
64.3228417937
 20
108.2976515923
 10
64.8771447432
 20
107.3305519194
 10
65.4561829167
 20
106.3618490972
 10
66.0595051756
 20
105.3922978587
 10
66.6866414611
 20
104.4226535982
 10
67.3371031605
 20
103.4536717823
 10
68.0103834878
 20
102.4861073614
 10
68.7059578785
 20
101.5207141818
 10
69.4232843988
 20
100.5582443981
 10
70.161804167
 20
99.599447887
 10
70.9209417896
 20
98.6450716636
 10
71.7001058094
 20
97.6958592988
 10
72.4986891661
 20
96.7525503406
 10
73.3160696697
 20
95.8158797372
 10
74.1516104848
 20
94.8865772649
 10
75.0046606271
 20
93.9653669594
 10
75.8745554706
 20
93.0529665515
 10
76.760617265
 20
92.1500869082
 10
77.6621556643
 20
91.2574314788
 10
78.5784682643
 20
90.3756957464
 10
79.5088411499
 20
89.5055666866
 10
80.4525494516
 20
88.6477222322
 10
81.4088579099
 20
87.8028307445
 10
82.3770214483
 20
86.9715504931
 10
83.3562857538
 20
86.1545291429
 10
84.3458878647
 20
85.3524032493
 10
85.3450567648
 20
84.5657977626
 10
86.3530139843
 20
83.7953255406
 10
87.3689742063
 20
83.0415868717
 10
88.3921458785
 20
82.3051690066
 10
89.4217318303
 20
81.5866457013
 10
90.4569298934
 20
80.8865767698
 10
91.4969335271
 20
80.2055076478
 10
92.5409324464
 20
79.5439689681
 10
93.5881132539
 20
78.902476147
 10
94.6376600727
 20
78.2815289825
 10
95.6887551828
 20
77.6816112655
 10
96.7405796577
 20
77.1031904021
 10
97.7923140029
 20
76.5467170502
 10
98.8431387939
 20
76.0126247676
 10
99.8922353148
 20
75.501329675
 10
100.9387861965
 20
75.0132301312
 10
101.981976053
 20
74.548706423
 10
103.020992117
 20
74.108120469
 10
104.0550248731
 20
73.6918155371
 10
105.0832686886
 20
73.3001159779
 10
106.1049224407
 20
72.9333269712
 10
107.1191901415
 20
72.5917342886
 10
108.1252815574
 20
72.2756040711
 10
109.1224128251
 20
71.985182621
 10
110.1098070624
 20
71.7206962108
 10
111.0866949734
 20
71.4823509064
 10
112.0523154477
 20
71.2703324067
 10
113.0059161538
 20
71.0848058992
 10
113.9467541248
 20
70.9259159305
 10
114.8740963376
 20
70.7937862948
 10
115.7872202837
 20
70.6885199364
 10
116.6854145326
 20
70.6101988703
 10
117.5679792854
 20
70.5588841177
 10
118.4342269208
 20
70.5346156588
 10
119.2834825303
 20
70.5374124016
 10
120.1150844439
 20
70.5672721671
 10
120.9283847464
 20
70.6241716911
 10
121.7227497814
 20
70.7080666421
 10
122.4975606452
 20
70.8188916562
 10
123.2522136694
 20
70.9565603876
 10
123.9861208907
 20
71.1209655763
 10
124.6987105093
 20
71.3119791313
 10
125.3894273342
 20
71.5294522306
 10
126.0577332161
 20
71.7732154373
 10
126.7031074663
 20
72.0430788312
 10
127.3250472624
 20
72.338832157
 10
127.9230680405
 20
72.6602449881
 10
128.4967038721
 20
73.0070669064
 10
129.0455078278
 20
73.3790276968
 10
129.5690523248
 20
73.7758375582
 10
130.0669294604
 20
74.1971873292
 10
130.5387513302
 20
74.642748729
 10
130.9841503294
 20
75.1121746128
  0
LINE
  5
E0
330
1F
100
AcDbEntity
  8
0
  6
Continuous
 62
     7
370
    15
100
AcDbLine
 10
130.8043756689
 20
74.9057689732
 30
0.0
 11
130.9841503294
 21
75.1121746128
 31
0.0
  0
LINE
  5
E1
330
1F
100
AcDbEntity
  8
0
  6
Continuous
 62
     7
370
    15
100
AcDbLine
 10
130.9841503294
 20
75.1121746128
 30
0.0
 11
62.0332714111
 21
135.1668362693
 31
0.0
  0
CIRCLE
  5
E2
330
1F
100
AcDbEntity
  8
0
  6
Continuous
 62
     7
370
    15
100
AcDbCircle
 10
135.8034837357
 20
149.0531311915
 30
0.0
 40
1.587500000000007
  0
LINE
  5
E3
330
1F
100
AcDbEntity
  8
0
  6
Continuous
 62
     7
370
    15
100
AcDbLine
 10
130.9841503294
 20
75.1121746128
 30
0.0
 11
131.0589121583
 21
75.1980113101
 31
0.0
  0
SPLINE
  5
E4
330
1F
100
AcDbEntity
  8
0
  6
Continuous
 62
     7
370
    15
100
AcDbSpline
210
0.0
220
0.0
230
1.0
 70
     8
 71
     3
 72
     8
 73
     4
 74
     0
 42
0.000000001
 43
0.00000001
 40
0.0
 40
0.0
 40
0.0
 40
0.0
 40
1.0
 40
1.0
 40
1.0
 40
1.0
 10
62.10770987235141
 20
135.252301583488
 30
0.0
 10
62.11115175492984
 20
135.248863726078
 30
0.0
 10
62.11068031555952
 20
135.2484552714497
 30
0.0
 10
62.10663064661201
 20
135.2510625992672
 30
0.0
  0
LINE
  5
E5
330
1F
100
AcDbEntity
  8
0
  6
Continuous
 62
     7
370
    15
100
AcDbLine
 10
62.1080332401
 20
135.2526729666
 30
0.0
 11
62.1077097032
 21
135.2523015026
 31
0.0
  0
LINE
  5
E6
330
1F
100
AcDbEntity
  8
0
  6
Continuous
 62
     7
370
    15
100
AcDbLine
 10
62.1066306465
 20
135.2510625994
 30
0.0
 11
62.0332714111
 21
135.1668362693
 31
0.0
  0
SPLINE
  5
E7
330
1F
100
AcDbEntity
  8
0
  6
Continuous
 62
     7
370
    15
100
AcDbSpline
210
0.0
220
0.0
230
1.0
 70
     8
 71
     3
 72
    10
 73
     6
 74
     0
 42
0.000000001
 43
0.00000001
 40
0.0
 40
0.0
 40
0.0
 40
0.0
 40
0.6091243648707826
 40
0.9370271621229236
 40
0.9999999999999999
 40
0.9999999999999999
 40
0.9999999999999999
 40
0.9999999999999999
 10
64.28070127325988
 20
135.8514127372964
 30
0.0
 10
64.28080359065977
 20
135.85086613372
 30
0.0
 10
64.2809609873892
 20
135.8500252834315
 30
0.0
 10
64.28159707582523
 20
135.8466271888901
 30
0.0
 10
64.28195741545255
 20
135.8447021587276
 30
0.0
 10
64.28201546872293
 20
135.8443920227114
 30
0.0
  0
SPLINE
  5
E8
330
1F
100
AcDbEntity
  8
0
  6
Continuous
 62
     7
370
    15
100
AcDbSpline
210
0.0
220
0.0
230
1.0
 70
     8
 71
     3
 72
    19
 73
    15
 74
     0
 42
0.000000001
 43
0.00000001
 40
0.0
 40
0.0
 40
0.0
 40
0.0
 40
0.0768236325493089
 40
0.1569762905988939
 40
0.2400070031000387
 40
0.3253348455421411
 40
0.4122653548263877
 40
0.5000191954705253
 40
0.5877716243025995
 40
0.6746980417406508
 40
0.7600195184728844
 40
0.8430421962563315
 40
0.9231857964114962
 40
1.0
 40
1.0
 40
1.0
 40
1.0
 10
64.28771211722432
 20
135.8139585403429
 30
0.0
 10
64.28743016631394
 20
135.8154648470463
 30
0.0
 10
64.28685404661519
 20
135.8185427337717
 30
0.0
 10
64.28598622519833
 20
135.8231790661056
 30
0.0
 10
64.28511613728033
 20
135.8278272992675
 30
0.0
 10
64.28426796816106
 20
135.8323585362114
 30
0.0
 10
64.2834673058589
 20
135.8366359148731
 30
0.0
 10
64.28273902745052
 20
135.8405265854568
 30
0.0
 10
64.28210476131615
 20
135.8439149971931
 30
0.0
 10
64.28158115827138
 20
135.8467122077814
 30
0.0
 10
64.28117723497017
 20
135.8488700539315
 30
0.0
 10
64.28089857369423
 20
135.850358719643
 30
0.0
 10
64.28073129243226
 20
135.8512523690766
 30
0.0
 10
64.28071113713898
 20
135.8513600425481
 30
0.0
 10
64.28070127325988
 20
135.8514127372964
 30
0.0
  0
SPLINE
  5
E9
330
1F
100
AcDbEntity
  8
0
  6
Continuous
 62
     7
370
    15
100
AcDbSpline
210
0.0
220
0.0
230
1.0
 70
     8
 71
     3
 72
    19
 73
    15
 74
     0
 42
0.000000001
 43
0.00000001
 40
0.0
 40
0.0
 40
0.0
 40
0.0
 40
0.0768142029824081
 40
0.156957800785862
 40
0.2399804778414691
 40
0.3253019543836718
 40
0.4122283720459357
 40
0.4999808013692012
 40
0.5877346426609995
 40
0.6746651526581222
 40
0.759992994987671
 40
0.8430237075526223
 40
0.9231763630516532
 40
1.0
 40
1.0
 40
1.0
 40
1.0
 10
64.29472278541961
 20
135.7765043076413
 30
0.0
 10
64.29471292203625
 20
135.776557002493
 30
0.0
 10
64.29469276775619
 20
135.7766646761747
 30
0.0
 10
64.29452549478803
 20
135.7775583273209
 30
0.0
 10
64.29424684688273
 20
135.7790469957776
 30
0.0
 10
64.29384294199491
 20
135.7812048457048
 30
0.0
 10
64.29331936104279
 20
135.7840020607974
 30
0.0
 10
64.29268511916993
 20
135.7873904774395
 30
0.0
 10
64.29195686454337
 20
135.7912811528014
 30
0.0
 10
64.2911562258001
 20
135.7955585361321
 30
0.0
 10
64.29030806998445
 20
135.8000897757735
 30
0.0
 10
64.28943801384044
 20
135.8047380149699
 30
0.0
 10
64.2885701862398
 20
135.8093743463427
 30
0.0
 10
64.28799406761965
 20
135.8124522334057
 30
0.0
 10
64.28771211722432
 20
135.8139585403429
 30
0.0
  0
SPLINE
  5
EA
330
1F
100
AcDbEntity
  8
0
  6
Continuous
 62
     7
370
    15
100
AcDbSpline
210
0.0
220
0.0
230
1.0
 70
    24
 71
     3
 72
    14
 73
    10
 74
     0
 42
0.000000001
 43
0.00000001
 40
0.0
 40
0.0
 40
0.0
 40
0.0
 40
0.25
 40
0.25
 40
0.5
 40
0.5
 40
0.75
 40
0.75
 40
1.0
 40
1.0
 40
1.0
 40
1.0
 10
135.1451582129928
 20
150.4976947090474
 30
0.0
 10
135.1442367521589
 20
150.5020892693134
 30
0.0
 10
135.143242611173
 20
150.5068304501806
 30
0.0
 10
135.141317656896
 20
150.5160107943337
 30
0.0
 10
135.1403928111385
 20
150.5204214977177
 30
0.0
 10
135.13886608484
 20
150.5277026435691
 30
0.0
 10
135.1382693695185
 20
150.5305484524688
 30
0.0
 10
135.1375072976742
 20
150.5341828670026
 30
0.0
 10
135.1373393585416
 20
150.5349837894205
 30
0.0
 10
135.1373393585416
 20
150.5349837894205
 30
0.0
  0
SPLINE
  5
EB
330
1F
100
AcDbEntity
  8
0
  6
Continuous
 62
     7
370
    15
100
AcDbSpline
210
0.0
220
0.0
230
1.0
 70
    24
 71
     3
 72
    53
 73
    49
 74
     0
 42
0.000000001
 43
0.00000001
 40
0.0
 40
0.0
 40
0.0
 40
0.0
 40
0.0039090668641198
 40
0.00781652398422
 40
0.0117229598599636
 40
0.0156289634598457
 40
0.0195351239478965
 40
0.023442030417169
 40
0.0273502716233895
 40
0.0312604357193677
 40
0.046887927317893
 40
0.0625179284090904
 40
0.0781454200078085
 40
0.0937754210987949
 40
0.1250234882647857
 40
0.1562715554307766
 40
0.1875196225967672
 40
0.2187676897627582
 40
0.2500157569287489
 40
0.2812638240947399
 40
0.3125118912607306
 40
0.3437599584267214
 40
0.3750080255927123
 40
0.406256092758703
 40
0.4375041599246938
 40
0.4687522270906843
 40
0.5000002942566754
 40
0.5312483614226664
 40
0.562496428588657
 40
0.5937444957546475
 40
0.6249925629206387
 40
0.6562406300866296
 40
0.6874886972526202
 40
0.7187367644186109
 40
0.7499848315846018
 40
0.7812328987505927
 40
0.8124809659165835
 40
0.8437290330825742
 40
0.874977100248565
 40
0.9062251674145559
 40
0.9218525335404791
 40
0.9374826601041858
 40
0.9531100262331894
 40
0.9687401527938118
 40
0.9765564356660174
 40
0.9843686964847973
 40
0.9921816475706062
 40
1.0
 40
1.0
 40
1.0
 40
1.0
 10
45.60107289606822
 20
40.48018422495402
 30
0.0
 10
45.60116460685661
 20
40.48018422495399
 30
0.0
 10
45.60134799066714
 20
40.48018422495397
 30
0.0
 10
45.60283491023953
 20
40.48018422495402
 30
0.0
 10
45.6052091192639
 20
40.48018422495399
 30
0.0
 10
45.60855751249034
 20
40.48018422495402
 30
0.0
 10
45.61285682625138
 20
40.480184224954
 30
0.0
 10
45.6181132464387
 20
40.48018422495399
 30
0.0
 10
45.62432528820635
 20
40.48018422495402
 30
0.0
 10
45.63865017538497
 20
40.48018422495397
 30
0.0
 10
45.66726934330495
 20
40.48018422495404
 30
0.0
 10
45.72058514189792
 20
40.48018422495399
 30
0.0
 10
45.78889200807984
 20
40.48018422495402
 30
0.0
 10
45.89975609853395
 20
40.480184224954
 30
0.0
 10
46.07500921508674
 20
40.480184224954
 30
0.0
 10
46.34186878852995
 20
40.480184224954
 30
0.0
 10
46.66275283553038
 20
40.48018422495397
 30
0.0
 10
47.03456501703077
 20
40.48018422495396
 30
0.0
 10
47.45372619963545
 20
40.48018422495397
 30
0.0
 10
47.91619919762916
 20
40.48018422495396
 30
0.0
 10
48.4175302596222
 20
40.48018422495396
 30
0.0
 10
48.95289126224437
 20
40.48018422495399
 30
0.0
 10
49.51712639473901
 20
40.48018422495396
 30
0.0
 10
50.10480176209882
 20
40.48018422495399
 30
0.0
 10
50.71025772987991
 20
40.48018422495396
 30
0.0
 10
51.3276634259762
 20
40.48018422495396
 30
0.0
 10
51.9510728960682
 20
40.48018422495396
 30
0.0
 10
52.57448236616016
 20
40.48018422495394
 30
0.0
 10
53.19188806225655
 20
40.48018422495399
 30
0.0
 10
53.79734403003732
 20
40.48018422495396
 30
0.0
 10
54.38501939739839
 20
40.48018422495396
 30
0.0
 10
54.94925452988819
 20
40.48018422495394
 30
0.0
 10
55.48461553252854
 20
40.48018422495396
 30
0.0
 10
55.98594659445369
 20
40.48018422495396
 30
0.0
 10
56.44841959270079
 20
40.48018422495397
 30
0.0
 10
56.86758077435984
 20
40.48018422495393
 30
0.0
 10
57.23939295938931
 20
40.48018422495396
 30
0.0
 10
57.56027699321912
 20
40.48018422495394
 30
0.0
 10
57.82713661581581
 20
40.48018422495396
 30
0.0
 10
58.00238366871981
 20
40.48018422495394
 30
0.0
 10
58.11324972065381
 20
40.48018422495397
 30
0.0
 10
58.18155304252405
 20
40.48018422495397
 30
0.0
 10
58.23487676704656
 20
40.48018422495396
 30
0.0
 10
58.26666435962421
 20
40.48018422495397
 30
0.0
 10
58.28451845962492
 20
40.48018422495396
 30
0.0
 10
58.29401925085807
 20
40.48018422495396
 30
0.0
 10
58.29996966071725
 20
40.48018422495396
 30
0.0
 10
58.30070506624561
 20
40.48018422495397
 30
0.0
 10
58.30107289606823
 20
40.48018422495397
 30
0.0
  0
SPLINE
  5
EC
330
1F
100
AcDbEntity
  8
0
  6
Continuous
 62
     7
370
    15
100
AcDbSpline
210
0.0
220
0.0
230
1.0
 70
    24
 71
     3
 72
    38
 73
    34
 74
     0
 42
0.000000001
 43
0.00000001
 40
0.0
 40
0.0
 40
0.0
 40
0.0
 40
0.0625000000000001
 40
0.0625000000000001
 40
0.1250000000000001
 40
0.1250000000000001
 40
0.1875000000000001
 40
0.1875000000000001
 40
0.2500000000000002
 40
0.2500000000000002
 40
0.3125000000000002
 40
0.3125000000000002
 40
0.3750000000000002
 40
0.3750000000000002
 40
0.4375000000000002
 40
0.4375000000000002
 40
0.5000000000000002
 40
0.5000000000000002
 40
0.5625000000000002
 40
0.5625000000000002
 40
0.6250000000000002
 40
0.6250000000000002
 40
0.6875000000000003
 40
0.6875000000000003
 40
0.7500000000000002
 40
0.7500000000000002
 40
0.8125000000000002
 40
0.8125000000000002
 40
0.8750000000000002
 40
0.8750000000000002
 40
0.9375000000000001
 40
0.9375000000000001
 40
1.0
 40
1.0
 40
1.0
 40
1.0
 10
45.60107289606822
 20
39.21018422495398
 30
0.0
 10
45.6010728960682
 20
39.21018422495397
 30
0.0
 10
45.64200555410284
 20
39.21018422495396
 30
0.0
 10
45.80416717691395
 20
39.21018422495398
 30
0.0
 10
45.92539213192476
 20
39.21018422495397
 30
0.0
 10
46.24348359732359
 20
39.21018422495398
 30
0.0
 10
46.44034224227327
 20
39.21018422495396
 30
0.0
 10
46.90213947363222
 20
39.21018422495396
 30
0.0
 10
47.16706664119491
 20
39.21018422495396
 30
0.0
 10
47.75482302989165
 20
39.21018422495397
 30
0.0
 10
48.07763771759072
 20
39.21018422495396
 30
0.0
 10
48.76876611522505
 20
39.21018422495394
 30
0.0
 10
49.13706273564873
 20
39.21018422495394
 30
0.0
 10
49.90500346548873
 20
39.21018422495396
 30
0.0
 10
50.30462858605718
 20
39.21018422495396
 30
0.0
 10
51.11987011652104
 20
39.21018422495394
 30
0.0
 10
51.53546636796308
 20
39.21018422495393
 30
0.0
 10
52.36667942422764
 20
39.21018422495396
 30
0.0
 10
52.78227567566931
 20
39.21018422495393
 30
0.0
 10
53.5975172061318
 20
39.21018422495396
 30
0.0
 10
53.9971423266992
 20
39.21018422495393
 30
0.0
 10
54.76508305653648
 20
39.21018422495393
 30
0.0
 10
55.13337967695848
 20
39.21018422495391
 30
0.0
 10
55.82450807458887
 20
39.21018422495396
 30
0.0
 10
56.14732276228569
 20
39.21018422495396
 30
0.0
 10
56.73507915097738
 20
39.21018422495394
 30
0.0
 10
57.00000631853732
 20
39.21018422495394
 30
0.0
 10
57.46180354989036
 20
39.21018422495394
 30
0.0
 10
57.6586621948369
 20
39.21018422495396
 30
0.0
 10
57.97675366022916
 20
39.21018422495394
 30
0.0
 10
58.09797861523656
 20
39.21018422495394
 30
0.0
 10
58.26014023804072
 20
39.21018422495396
 30
0.0
 10
58.30107289607177
 20
39.21018422495397
 30
0.0
 10
58.30107289606823
 20
39.21018422495397
 30
0.0
  0
SPLINE
  5
ED
330
1F
100
AcDbEntity
  8
0
  6
Continuous
 62
     7
370
    15
100
AcDbSpline
210
0.0
220
0.0
230
1.0
 70
    24
 71
     3
 72
    22
 73
    18
 74
     0
 42
0.000000001
 43
0.00000001
 40
0.0
 40
0.0
 40
0.0
 40
0.0
 40
0.1250000000000001
 40
0.1250000000000001
 40
0.2500000000000001
 40
0.2500000000000001
 40
0.3750000000000002
 40
0.3750000000000002
 40
0.5000000000000002
 40
0.5000000000000002
 40
0.6250000000000002
 40
0.6250000000000002
 40
0.7500000000000002
 40
0.7500000000000002
 40
0.8750000000000001
 40
0.8750000000000001
 40
1.0
 40
1.0
 40
1.0
 40
1.0
 10
58.24386103227096
 20
52.49731868851534
 30
0.0
 10
58.06753411566279
 20
52.6736456051235
 30
0.0
 10
57.89121155908511
 20
52.84996816170119
 30
0.0
 10
57.54533387038876
 20
53.19584585039753
 30
0.0
 10
57.37578729077753
 20
53.36539243000875
 30
0.0
 10
57.04997763220732
 20
53.69120208857895
 30
0.0
 10
56.89372260953418
 20
53.84745711125209
 30
0.0
 10
56.6005016635528
 20
54.14067805723347
 30
0.0
 10
56.46354299071025
 20
54.27763673007599
 30
0.0
 10
56.21417907383157
 20
54.52700064695469
 30
0.0
 10
56.10177999580966
 20
54.63939972497661
 30
0.0
 10
55.90585602351442
 20
54.83532369727185
 30
0.0
 10
55.82233597384738
 20
54.91884374693887
 30
0.0
 10
55.68738119451545
 20
55.05379852627079
 30
0.0
 10
55.63594980187341
 20
55.10522991891283
 30
0.0
 10
55.56715045199103
 20
55.17402926879521
 30
0.0
 10
55.54978419595017
 20
55.19139552483608
 30
0.0
 10
55.54978419595017
 20
55.1913955248361
 30
0.0
  0
SPLINE
  5
EE
330
1F
100
AcDbEntity
  8
0
  6
Continuous
 62
     7
370
    15
100
AcDbSpline
210
0.0
220
0.0
230
1.0
 70
    24
 71
     3
 72
    22
 73
    18
 74
     0
 42
0.000000001
 43
0.00000001
 40
0.0
 40
0.0
 40
0.0
 40
0.0
 40
0.125
 40
0.125
 40
0.25
 40
0.25
 40
0.375
 40
0.375
 40
0.5
 40
0.5
 40
0.625
 40
0.625
 40
0.75
 40
0.75
 40
0.875
 40
0.875
 40
1.0
 40
1.0
 40
1.0
 40
1.0
 10
60.93793786859175
 20
49.80324185219469
 30
0.0
 10
60.93793786859175
 20
49.80324185219469
 30
0.0
 10
60.92057161255088
 20
49.82060810823552
 30
0.0
 10
60.85177226266849
 20
49.88940745811799
 30
0.0
 10
60.80034087002644
 20
49.94083885075998
 30
0.0
 10
60.66538609069451
 20
50.07579363009189
 30
0.0
 10
60.58186604102748
 20
50.15931367975892
 30
0.0
 10
60.38594206873223
 20
50.35523765205414
 30
0.0
 10
60.27354299071032
 20
50.46763673007608
 30
0.0
 10
60.02417907383163
 20
50.71700064695477
 30
0.0
 10
59.88722040098908
 20
50.85395931979728
 30
0.0
 10
59.59399945500771
 20
51.14718026577865
 30
0.0
 10
59.43774443233457
 20
51.30343528845177
 30
0.0
 10
59.11193477376436
 20
51.62924494702198
 30
0.0
 10
58.94238819415315
 20
51.7987915266332
 30
0.0
 10
58.59651050545681
 20
52.14466921532952
 30
0.0
 10
58.42018794887912
 20
52.32099177190717
 30
0.0
 10
58.24386103227097
 20
52.49731868851533
 30
0.0
  0
SPLINE
  5
EF
330
1F
100
AcDbEntity
  8
0
  6
Continuous
 62
     7
370
    15
100
AcDbSpline
210
0.0
220
0.0
230
1.0
 70
     8
 71
     3
 72
    56
 73
    52
 74
     0
 42
0.000000001
 43
0.00000001
 40
0.0
 40
0.0
 40
0.0
 40
0.0
 40
0.0093372323450107
 40
0.0186858421608281
 40
0.0280462140433027
 40
0.0374187311391281
 40
0.0468037751075013
 40
0.0562017260814332
 40
0.0656129626299351
 40
0.0750378617210943
 40
0.0844767986860485
 40
0.0939301471838731
 40
0.10339827916739
 40
0.1128815648499078
 40
0.1223803726728982
 40
0.1318950692746181
 40
0.141426019459686
 40
0.1509735861696071
 40
0.1605381304542648
 40
0.1701200114443692
 40
0.1797195863248719
 40
0.1893372103093415
 40
0.1989732366153089
 40
0.2086280164405675
 40
0.218301898940442
 40
0.2279952312060098
 40
0.2377083582432768
 40
0.2474416229533073
 40
0.3076186348810667
 40
0.369672230431794
 40
0.4336707238069731
 40
0.4996763833888746
 40
0.5590195524248456
 40
0.6220197809322097
 40
0.6887034825271325
 40
0.7590928569020732
 40
0.7691380929265389
 40
0.7800424197938071
 40
0.791805927685217
 40
0.8044286872723041
 40
0.8179107546125044
 40
0.8322521745789397
 40
0.8474529833211385
 40
0.8635132100676509
 40
0.8804328784710044
 40
0.8982120076276842
 40
0.916850612863001
 40
0.9363487063430215
 40
0.9567062975573409
 40
0.9779233937040883
 40
1.0
 40
1.0
 40
1.0
 40
1.0
 10
55.76107289606824
 20
44.62637687967099
 30
0.0
 10
55.76098735720353
 20
44.6264127784777
 30
0.0
 10
55.76081617524453
 20
44.62648461983402
 30
0.0
 10
55.75943045726357
 20
44.62706717570551
 30
0.0
 10
55.75721499781131
 20
44.62799715808688
 30
0.0
 10
55.75408605530345
 20
44.62930877499362
 30
0.0
 10
55.75006299606515
 20
44.63099284270695
 30
0.0
 10
55.74513777483588
 20
44.63305182659681
 30
0.0
 10
55.73930997780581
 20
44.63548506448841
 30
0.0
 10
55.73257741700534
 20
44.63829273393046
 30
0.0
 10
55.72493865847316
 20
44.64147478699118
 30
0.0
 10
55.71639234613343
 20
44.64503123628068
 30
0.0
 10
55.70693738602249
 20
44.64896207814566
 30
0.0
 10
55.69657289942656
 20
44.65326731329557
 30
0.0
 10
55.68529823801819
 20
44.65794694126348
 30
0.0
 10
55.67311298228203
 20
44.66300096189369
 30
0.0
 10
55.66001694436474
 20
44.66842937494403
 30
0.0
 10
55.64601016967954
 20
44.67423218018755
 30
0.0
 10
55.63109293875533
 20
44.6804093774054
 30
0.0
 10
55.61526576904663
 20
44.68696096631468
 30
0.0
 10
55.59852941633682
 20
44.6938869468662
 30
0.0
 10
55.58088487748879
 20
44.70118731812482
 30
0.0
 10
55.56233338786798
 20
44.70886208246174
 30
0.0
 10
55.54287643844429
 20
44.71691122986535
 30
0.0
 10
55.52251571896165
 20
44.72533479666571
 30
0.0
 10
55.50125333756957
 20
44.73413264571995
 30
0.0
 10
55.47909100528513
 20
44.74330528925818
 30
0.0
 10
55.41621632066737
 20
44.76933416675775
 30
0.0
 10
55.29823481750036
 20
44.81829719939309
 30
0.0
 10
55.10031649792477
 20
44.9003569737899
 30
0.0
 10
54.86558129124734
 20
44.9974823963115
 30
0.0
 10
54.60622908732719
 20
45.10471979342738
 30
0.0
 10
54.32488489010769
 20
45.22136555765348
 30
0.0
 10
54.02236036571249
 20
45.34655749303598
 30
0.0
 10
53.68297028509232
 20
45.48668650120105
 30
0.0
 10
53.42112715237022
 20
45.59462121984397
 30
0.0
 10
53.25541423969379
 20
45.6632711759796
 30
0.0
 10
53.19579706527976
 20
45.68808431678391
 30
0.0
 10
53.13116390448675
 20
45.71502804754606
 30
0.0
 10
53.06145385265059
 20
45.74411249250386
 30
0.0
 10
52.98660685867228
 20
45.77533483939683
 30
0.0
 10
52.90656949396212
 20
45.80869608780576
 30
0.0
 10
52.82129575476966
 20
45.84419607101611
 30
0.0
 10
52.73074952013092
 20
45.88183493683733
 30
0.0
 10
52.63490670211203
 20
45.92161272887882
 30
0.0
 10
52.53375763811036
 20
45.96352947298183
 30
0.0
 10
52.42730966278835
 20
46.00758531991806
 30
0.0
 10
52.31558944910194
 20
46.05377984851909
 30
0.0
 10
52.1986469065689
 20
46.10211489545735
 30
0.0
 10
52.07655341077881
 20
46.15258328899525
 30
0.0
 10
51.99344968722203
 20
46.18698712468401
 30
0.0
 10
51.95107289606825
 20
46.20453055231248
 30
0.0
  0
SPLINE
  5
F0
330
1F
100
AcDbEntity
  8
0
  6
Continuous
 62
     7
370
    15
100
AcDbSpline
210
0.0
220
0.0
230
1.0
 70
     8
 71
     3
 72
    63
 73
    59
 74
     0
 42
0.000000001
 43
0.00000001
 40
0.0
 40
0.0
 40
0.0
 40
0.0
 40
0.0101393651344111
 40
0.0201012501322143
 40
0.0298856559245784
 40
0.0394925835052403
 40
0.0489220339350062
 40
0.0581740083467079
 40
0.0672485079506142
 40
0.076145534040412
 40
0.0848650879997739
 40
0.0934071713096193
 40
0.101771785556141
 40
0.109958932439702
 40
0.1179686137847216
 40
0.125800831550677
 40
0.1334555878443753
 40
0.1409328849336991
 40
0.148232725262999
 40
0.1553551114704196
 40
0.1623000464074338
 40
0.1690675331609346
 40
0.1756575750783061
 40
0.182070175795952
 40
0.188305339271896
 40
0.1943630698231385
 40
0.2002433721686638
 40
0.2059462514791198
 40
0.2114717134344795
 40
0.2168197642912557
 40
0.2219904109612508
 40
0.226983661104269
 40
0.2317995232379152
 40
0.2364380068683609
 40
0.2408991226470915
 40
0.2882328756480318
 40
0.3339215313639631
 40
0.3779711868086459
 40
0.4203886524502505
 40
0.4611815629883969
 40
0.5003585096759487
 40
0.5663416437596412
 40
0.6303304047735463
 40
0.69238707566969
 40
0.7525799450702185
 40
0.7720195468293347
 40
0.7913808215542506
 40
0.810666539898953
 40
0.8298795052050617
 40
0.8490225527766883
 40
0.8680985490942289
 40
0.887110390966958
 40
0.9060610046245209
 40
0.9249533447476664
 40
0.9437903934388212
 40
0.9625751591333754
 40
0.9813106754528083
 40
1.0
 40
1.0
 40
1.0
 40
1.0
 10
51.95107289606822
 20
46.2045305523125
 30
0.0
 10
51.93161047682413
 20
46.2125901150975
 30
0.0
 10
51.8930263098455
 20
46.22856816553264
 30
0.0
 10
51.83566479102215
 20
46.25230030417728
 30
0.0
 10
51.77934349062614
 20
46.27559198046864
 30
0.0
 10
51.72407237846698
 20
46.29844160651214
 30
0.0
 10
51.66986097364681
 20
46.32084959684938
 30
0.0
 10
51.61671735941118
 20
46.34281584394273
 30
0.0
 10
51.5646485124504
 20
46.36434037635311
 30
0.0
 10
51.51366028874632
 20
46.38542318723584
 30
0.0
 10
51.46375749802114
 20
46.40606427901198
 30
0.0
 10
51.4149439541461
 20
46.42626365174581
 30
0.0
 10
51.36722253076444
 20
46.44602130617407
 30
0.0
 10
51.32059521444736
 20
46.46533724292488
 30
0.0
 10
51.27506315731832
 20
46.48421146272833
 30
0.0
 10
51.23062672858624
 20
46.50264396636995
 30
0.0
 10
51.18728556508247
 20
46.52063475471262
 30
0.0
 10
51.14503862073168
 20
46.5381838287019
 30
0.0
 10
51.1038842149347
 20
46.55529118937722
 30
0.0
 10
51.0638200798342
 20
46.57195683788368
 30
0.0
 10
51.02484340643977
 20
46.58818077548548
 30
0.0
 10
50.98695088959322
 20
46.60396300358291
 30
0.0
 10
50.95013877175535
 20
46.61930352372799
 30
0.0
 10
50.91440288560545
 20
46.63420233765576
 30
0.0
 10
50.87973869542662
 20
46.64865944727599
 30
0.0
 10
50.84614133732364
 20
46.6626748548242
 30
0.0
 10
50.81360565807223
 20
46.67624856246551
 30
0.0
 10
50.78212625329169
 20
46.68938057387648
 30
0.0
 10
50.751697502461
 20
46.70207088881185
 30
0.0
 10
50.72231360960252
 20
46.71431952267892
 30
0.0
 10
50.69396861826412
 20
46.72612643728229
 30
0.0
 10
50.66665651216059
 20
46.73749178682795
 30
0.0
 10
50.64037100688699
 20
46.74841504731614
 30
0.0
 10
50.61510642835901
 20
46.75889809377816
 30
0.0
 10
50.51284485151395
 20
46.80121777424988
 30
0.0
 10
50.33839565698833
 20
46.87321438517546
 30
0.0
 10
50.10021307347551
 20
46.9715036839911
 30
0.0
 10
49.87825515659218
 20
47.06316072921725
 30
0.0
 10
49.67267753975214
 20
47.14819571660518
 30
0.0
 10
49.48340269799819
 20
47.22661077122965
 30
0.0
 10
49.26834331467689
 20
47.31574323346484
 30
0.0
 10
49.03661952944658
 20
47.41156151918823
 30
0.0
 10
48.80190398988648
 20
47.5086728200592
 30
0.0
 10
48.60394986121959
 20
47.59074265896261
 30
0.0
 10
48.47726983617545
 20
47.64331625648651
 30
0.0
 10
48.40052115142228
 20
47.67508593215002
 30
0.0
 10
48.35889538303489
 20
47.69230993015948
 30
0.0
 10
48.32088319331003
 20
47.7080353414155
 30
0.0
 10
48.28649625397647
 20
47.72226367261008
 30
0.0
 10
48.25574445388177
 20
47.73499449968494
 30
0.0
 10
48.22863313958401
 20
47.74622797466765
 30
0.0
 10
48.20516460343832
 20
47.75596386774181
 30
0.0
 10
48.18533519917597
 20
47.76420289979524
 30
0.0
 10
48.16914568011911
 20
47.77094238613004
 30
0.0
 10
48.15656324077665
 20
47.77619226242552
 30
0.0
 10
48.14766281452047
 20
47.7799155761848
 30
0.0
 10
48.14210222577638
 20
47.7822496538238
 30
0.0
 10
48.14141572353148
 20
47.78253948715329
 30
0.0
 10
48.14107289606821
 20
47.782684224954
 30
0.0
  0
LINE
  5
F1
330
1F
100
AcDbEntity
  8
0
  6
Continuous
 62
     7
370
    15
100
AcDbLine
 10
137.3909837357
 20
221.5217570147
 30
0.0
 11
137.3909837357
 21
222.4869570147
 31
0.0
  0
LINE
  5
F2
330
1F
100
AcDbEntity
  8
0
  6
Continuous
 62
     7
370
    15
100
AcDbLine
 10
134.2159837357
 20
222.4869570147
 30
0.0
 11
134.2159837357
 21
222.0424570147
 31
0.0
  0
LINE
  5
F3
330
1F
100
AcDbEntity
  8
0
  6
Continuous
 62
     7
370
    15
100
AcDbLine
 10
134.2159837357
 20
221.9662570147
 30
0.0
 11
134.2159837357
 21
221.5217570147
 31
0.0
  0
LINE
  5
F4
330
1F
100
AcDbEntity
  8
0
  6
Continuous
 62
     7
370
    15
100
AcDbLine
 10
64.2811845261
 20
221.9945252769
 30
0.0
 11
64.2799483332
 21
221.994482346
 31
0.0
  0
LINE
  5
F5
330
1F
100
AcDbEntity
  8
0
  6
Continuous
 62
     7
370
    15
100
AcDbLine
 10
64.2812745018
 20
221.9945284016
 30
0.0
 11
64.2811845261
 21
221.9945252769
 31
0.0
  0
SPLINE
  5
F6
330
1F
100
AcDbEntity
  8
0
  6
Continuous
 62
     7
370
    15
100
AcDbSpline
210
0.0
220
0.0
230
1.0
 70
     8
 71
     3
 72
    31
 73
    27
 74
     0
 42
0.000000001
 43
0.00000001
 40
0.0
 40
0.0
 40
0.0
 40
0.0
 40
0.0092433436289394
 40
0.0170203173503888
 40
0.0233309202631365
 40
0.0281798372862598
 40
0.0324489725432908
 40
0.0367938577814051
 40
0.0473009896899948
 40
0.0578832405470398
 40
0.0956769935675954
 40
0.1631658381288042
 40
0.2836816310536435
 40
0.4988883960649271
 40
0.7727878869668794
 40
0.8933036740940054
 40
0.946330622110448
 40
0.9509968401392207
 40
0.9555451653344685
 40
0.9598738192245008
 40
0.9639828017802033
 40
0.9683257896044187
 40
0.9741740484061463
 40
0.9816867418426105
 40
0.9908641420031922
 40
1.0
 40
1.0
 40
1.0
 40
1.0
 10
135.1451582129925
 20
222.0424570147115
 30
0.0
 10
134.9269432282796
 20
222.0424570147115
 30
0.0
 10
134.5251310227056
 20
222.0424570147115
 30
0.0
 10
133.9743359152852
 20
222.0424570147115
 30
0.0
 10
133.5272825080838
 20
222.0424570147115
 30
0.0
 10
133.1630410427597
 20
222.0424570147115
 30
0.0
 10
132.8452056071623
 20
222.0424570147115
 30
0.0
 10
132.3937888506034
 20
222.0424570147117
 30
0.0
 10
131.793327839441
 20
222.0424570147094
 30
0.0
 10
130.4031852918696
 20
222.0424570147275
 30
0.0
 10
127.6677481747154
 20
222.0424570143805
 30
0.0
 10
122.3367158158968
 20
222.0424570177329
 30
0.0
 10
112.8163421941139
 20
222.0424569865366
 30
0.0
 10
98.4201721711666
 20
222.0424572331573
 30
0.0
 10
84.02002254322751
 20
222.0424562262845
 30
0.0
 10
73.44737987767067
 20
222.0424579378951
 30
0.0
 10
69.23579827364563
 20
222.0424561040878
 30
0.0
 10
67.76476741047476
 20
222.0424572620488
 30
0.0
 10
67.44468572373339
 20
222.0424560838371
 30
0.0
 10
67.13775452617699
 20
222.0424602477267
 30
0.0
 10
66.8357337324465
 20
222.0424453334551
 30
0.0
 10
66.4975438962047
 20
222.042510313329
 30
0.0
 10
66.07743508177494
 20
222.0418675853973
 30
0.0
 10
65.54205529692413
 20
222.0360189890755
 30
0.0
 10
64.92895435426071
 20
222.0176383949705
 30
0.0
 10
64.49684104778144
 20
222.0022200743183
 30
0.0
 10
64.28127450180706
 20
221.9945284016068
 30
0.0
  0
SPLINE
  5
F7
330
1F
100
AcDbEntity
  8
0
  6
Continuous
 62
     7
370
    15
100
AcDbSpline
210
0.0
220
0.0
230
1.0
 70
     8
 71
     3
 72
    31
 73
    27
 74
     0
 42
0.000000001
 43
0.00000001
 40
0.0
 40
0.0
 40
0.0
 40
0.0
 40
0.0075649674443387
 40
0.0153489019115735
 40
0.0216620926236308
 40
0.0265111787215124
 40
0.0307802210869508
 40
0.0351250117867999
 40
0.0456319159991813
 40
0.0562139389758008
 40
0.0940068780374552
 40
0.1614942686312773
 40
0.2820074634884522
 40
0.4972095888841422
 40
0.7711032082012558
 40
0.8916164083180856
 40
0.9446422167599197
 40
0.9493083345803226
 40
0.953856564998719
 40
0.9581851287584504
 40
0.9622940259165905
 40
0.9666368545367425
 40
0.9724839753673605
 40
0.9799935405617511
 40
0.9891655491755103
 40
1.0
 40
1.0
 40
1.0
 40
1.0
 10
64.2941487199765
 20
222.0126933298242
 30
0.0
 10
64.4729581195592
 20
222.0036894985966
 30
0.0
 10
64.83575253410966
 20
221.9854212213888
 30
0.0
 10
65.34311442103842
 20
221.9684921605682
 30
0.0
 10
65.78787723307951
 20
221.9661593895293
 30
0.0
 10
66.15188069866906
 20
221.966277061275
 30
0.0
 10
66.47024280834479
 20
221.966251975074
 30
0.0
 10
66.9221184069467
 20
221.966260615633
 30
0.0
 10
67.52327968388038
 20
221.9662557748845
 30
0.0
 10
68.91491999364493
 20
221.9662583531314
 30
0.0
 10
71.65317934588799
 20
221.9662560715734
 30
0.0
 10
76.98895762108994
 20
221.9662575901149
 30
0.0
 10
86.51558268836598
 20
221.966256660491
 30
0.0
 10
100.9153280713213
 20
221.9662571700759
 30
0.0
 10
115.3110745571329
 20
221.9662569952807
 30
0.0
 10
125.8753416348836
 20
221.9662570161518
 30
0.0
 10
130.0826655442834
 20
221.9662570146943
 30
0.0
 10
131.5520943666674
 20
221.9662570147124
 30
0.0
 10
131.8718282679698
 20
221.9662570147113
 30
0.0
 10
132.1784059349416
 20
221.9662570147116
 30
0.0
 10
132.4801335152404
 20
221.9662570147115
 30
0.0
 10
132.8177115698728
 20
221.9662570147115
 30
0.0
 10
133.2355739095666
 20
221.9662570147115
 30
0.0
 10
133.7674446889754
 20
221.9662570147115
 30
0.0
 10
134.4170563899069
 20
221.9662570147115
 30
0.0
 10
134.8893751206571
 20
221.9662570147115
 30
0.0
 10
135.1451582129925
 20
221.9662570147115
 30
0.0
  0
SPLINE
  5
F8
330
1F
100
AcDbEntity
  8
0
  6
Continuous
 62
     7
370
    15
100
AcDbSpline
210
0.0
220
0.0
230
1.0
 70
     8
 71
     3
 72
    18
 73
    14
 74
     0
 42
0.000000001
 43
0.00000001
 40
0.0
 40
0.0
 40
0.0
 40
0.0
 40
0.1880856307087402
 40
0.3541373687385316
 40
0.4835720818575622
 40
0.5842987129735766
 40
0.8001811246079741
 40
0.9110178901609387
 40
0.959448371021102
 40
0.9815165884945388
 40
0.9918335305276513
 40
0.996638858336482
 40
1.0
 40
1.0
 40
1.0
 40
1.0
 10
64.28776597226745
 20
222.0424570147115
 30
0.0
 10
64.1225770250827
 20
222.0424568793787
 30
0.0
 10
63.81155071818053
 20
222.0424566245671
 30
0.0
 10
63.38872386125319
 20
222.0424582420015
 30
0.0
 10
63.04375030438032
 20
222.0424538361432
 30
0.0
 10
62.65772082424167
 20
222.0424703101742
 30
0.0
 10
62.29138460434792
 20
222.0423654836597
 30
0.0
 10
61.98153255009851
 20
222.0425819532827
 30
0.0
 10
61.84737844970169
 20
222.0421477193539
 30
0.0
 10
61.79786755118278
 20
222.0415924592187
 30
0.0
 10
61.78135464636367
 20
222.0409732118511
 30
0.0
 10
61.77469005055088
 20
222.040824449334
 30
0.0
 10
61.77411004526094
 20
222.0402127041509
 30
0.0
 10
61.7738713276668
 20
222.0399609231053
 30
0.0
  0
SPLINE
  5
F9
330
1F
100
AcDbEntity
  8
0
  6
Continuous
 62
     7
370
    15
100
AcDbSpline
210
0.0
220
0.0
230
1.0
 70
     8
 71
     3
 72
    18
 73
    14
 74
     0
 42
0.000000001
 43
0.00000001
 40
0.0
 40
0.0
 40
0.0
 40
0.0
 40
0.007350230991518
 40
0.0167016517260805
 40
0.0379189050672242
 40
0.0750635835104189
 40
0.1133425377634381
 40
0.2122295164771466
 40
0.3072736945951079
 40
0.4257467305008172
 40
0.5831100316685754
 40
0.7794101245406196
 40
0.9999999999999999
 40
0.9999999999999999
 40
0.9999999999999999
 40
0.9999999999999999
 10
61.7870378458162
 20
221.9726253716898
 30
0.0
 10
61.78817426280573
 20
221.9714502450584
 30
0.0
 10
61.79075650012543
 20
221.9687800492844
 30
0.0
 10
61.8056382886874
 20
221.9667666330628
 30
0.0
 10
61.84436557401507
 20
221.966067070486
 30
0.0
 10
61.91646454621547
 20
221.9663193121496
 30
0.0
 10
62.0528890254701
 20
221.9662088699822
 30
0.0
 10
62.24462260333183
 20
221.9662735487307
 30
0.0
 10
62.50805320508737
 20
221.9662514939889
 30
0.0
 10
62.82520276631026
 20
221.9662592077948
 30
0.0
 10
63.23256514212019
 20
221.9662561840426
 30
0.0
 10
63.73124636800803
 20
221.9662572737681
 30
0.0
 10
64.0951983441517
 20
221.9662571043539
 30
0.0
 10
64.28777702723215
 20
221.9662570147115
 30
0.0
  0
SPLINE
  5
FA
330
1F
100
AcDbEntity
  8
0
  6
Continuous
 62
     7
370
    15
100
AcDbSpline
210
0.0
220
0.0
230
1.0
 70
     8
 71
     3
 72
    22
 73
    18
 74
     0
 42
0.000000001
 43
0.00000001
 40
0.0
 40
0.0
 40
0.0
 40
0.0
 40
0.2963678192046664
 40
0.3391617513879672
 40
0.3783834697260762
 40
0.3972922137052378
 40
0.4159504629872035
 40
0.4345129969662266
 40
0.4528605583711502
 40
0.4698151704994161
 40
0.4851762482212567
 40
0.4992239468770489
 40
0.5127192946228343
 40
0.5770538522684987
 40
0.7361701540490244
 40
0.9432454636867186
 40
0.9999999999999999
 40
0.9999999999999999
 40
0.9999999999999999
 40
0.9999999999999999
 10
61.80318794884808
 20
222.0415111953829
 30
0.0
 10
61.78079802704279
 20
222.043359263756
 30
0.0
 10
61.75517511996298
 20
222.045474183344
 30
0.0
 10
61.73109892914795
 20
222.0329540686099
 30
0.0
 10
61.72490553308259
 20
222.0262744324287
 30
0.0
 10
61.72126648321262
 20
222.0193281069026
 30
0.0
 10
61.7193433124877
 20
222.0134803059083
 30
0.0
 10
61.71837155649802
 20
222.0071904214452
 30
0.0
 10
61.71843043607999
 20
222.0009518595309
 30
0.0
 10
61.71938728076486
 20
221.9952389796966
 30
0.0
 10
61.7209138588362
 20
221.9904249658934
 30
0.0
 10
61.72270556941888
 20
221.986589509916
 30
0.0
 10
61.72637905024098
 20
221.9807350395875
 30
0.0
 10
61.73781779265607
 20
221.9718014341838
 30
0.0
 10
61.77188232024383
 20
221.9670174550836
 30
0.0
 10
61.80833854775993
 20
221.9663841683352
 30
0.0
 10
61.83031430662637
 20
221.9663841417429
 30
0.0
 10
61.83504168688201
 20
221.9663841360224
 30
0.0
  0
LINE
  5
FB
330
1F
100
AcDbEntity
  8
0
  6
Continuous
 62
     7
370
    15
100
AcDbLine
 10
66.7486814265
 20
256.7598349605
 30
0.0
 11
66.5672838391
 21
256.6032297323
 31
0.0
  0
LINE
  5
FC
330
1F
100
AcDbEntity
  8
0
  6
Continuous
 62
     7
370
    15
100
AcDbLine
 10
65.9556685746
 20
188.0234219396
 30
0.0
 11
66.1354432351
 21
187.8625367836
 31
0.0
  0
LINE
  5
FD
330
1F
100
AcDbEntity
  8
0
  6
Continuous
 62
     7
370
    15
100
AcDbLine
 10
51.9510728961
 20
218.8967999055
 30
0.0
 11
58.2438610323
 21
218.8967999055
 31
0.0
  0
LINE
  5
FE
330
1F
100
AcDbEntity
  8
0
  6
Continuous
 62
     7
370
    15
100
AcDbLine
 10
58.2438610323
 20
226.5167999055
 30
0.0
 11
51.9510728961
 21
226.5167999055
 31
0.0
  0
LINE
  5
FF
330
1F
100
AcDbEntity
  8
0
  6
Continuous
 62
     7
370
    15
100
AcDbLine
 10
58.1350969379
 20
224.8657999055
 30
0.0
 11
58.073189416
 21
224.8657999055
 31
0.0
  0
LINE
  5
100
330
1F
100
AcDbEntity
  8
0
  6
Continuous
 62
     7
370
    15
100
AcDbLine
 10
58.073189416
 20
220.5477999055
 30
0.0
 11
58.1350969379
 21
220.5477999055
 31
0.0
  0
LINE
  5
101
330
1F
100
AcDbEntity
  8
0
  6
Continuous
 62
     7
370
    15
100
AcDbLine
 10
135.145158213
 20
221.9662570147
 30
0.0
 11
135.145158213
 21
222.0424570147
 31
0.0
  0
LINE
  5
102
330
1F
100
AcDbEntity
  8
0
  6
Continuous
 62
     7
370
    15
100
AcDbLine
 10
134.2159837357
 20
221.5217570147
 30
0.0
 11
137.3909837357
 21
221.5217570147
 31
0.0
  0
LINE
  5
103
330
1F
100
AcDbEntity
  8
0
  6
Continuous
 62
     7
370
    15
100
AcDbLine
 10
137.3909837357
 20
222.4869570147
 30
0.0
 11
134.2159837357
 21
222.4869570147
 31
0.0
  0
SPLINE
  5
104
330
1F
100
AcDbEntity
  8
0
  6
Continuous
 62
     7
370
    15
100
AcDbSpline
210
0.0
220
0.0
230
1.0
 70
     8
 71
     3
 72
    22
 73
    18
 74
     0
 42
0.000000001
 43
0.00000001
 40
0.0
 40
0.0
 40
0.0
 40
0.0
 40
0.1249999999999999
 40
0.1249999999999999
 40
0.2499999999999997
 40
0.2499999999999997
 40
0.3749999999999996
 40
0.3749999999999996
 40
0.4999999999999993
 40
0.4999999999999993
 40
0.6249999999999991
 40
0.6249999999999991
 40
0.7499999999999989
 40
0.7499999999999989
 40
0.8749999999999987
 40
0.8749999999999987
 40
1.0
 40
1.0
 40
1.0
 40
1.0
 10
135.1451582129928
 20
221.9662570147115
 30
0.0
 10
135.1442367521589
 20
221.9662570147115
 30
0.0
 10
135.143242611173
 20
221.9670753546603
 30
0.0
 10
135.141317656896
 20
221.9707888062218
 30
0.0
 10
135.1403928111384
 20
221.9736965024694
 30
0.0
 10
135.1388660848401
 20
221.9811359902272
 30
0.0
 10
135.1382693695186
 20
221.9856426124676
 30
0.0
 10
135.1375072976741
 20
221.9950226000869
 30
0.0
 10
135.1373393585416
 20
221.999866886651
 30
0.0
 10
135.1373393585416
 20
222.0088471427721
 30
0.0
 10
135.1375072976742
 20
222.0136914293362
 30
0.0
 10
135.1382693695185
 20
222.0230714169554
 30
0.0
 10
135.13886608484
 20
222.0275780391958
 30
0.0
 10
135.1403928111385
 20
222.0350175269537
 30
0.0
 10
135.141317656896
 20
222.0379252232013
 30
0.0
 10
135.143242611173
 20
222.0416386747627
 30
0.0
 10
135.1442367521589
 20
222.0424570147115
 30
0.0
 10
135.1451582129928
 20
222.0424570147115
 30
0.0
  0
SPLINE
  5
105
330
1F
100
AcDbEntity
  8
0
  6
Continuous
 62
     7
370
    15
100
AcDbSpline
210
0.0
220
0.0
230
1.0
 70
     8
 71
     3
 72
    19
 73
    15
 74
     0
 42
0.000000001
 43
0.00000001
 40
0.0
 40
0.0
 40
0.0
 40
0.0
 40
0.0768142029824081
 40
0.156957800785862
 40
0.2399804778414691
 40
0.3253019543836718
 40
0.4122283720459357
 40
0.4999808013692012
 40
0.5877346426609995
 40
0.6746651526581222
 40
0.759992994987671
 40
0.8430237075526223
 40
0.9231763630516532
 40
1.0
 40
1.0
 40
1.0
 40
1.0
 10
64.29472278541961
 20
222.0043570147115
 30
0.0
 10
64.29471292203625
 20
222.0028247349671
 30
0.0
 10
64.29469276775619
 20
221.9996937611429
 30
0.0
 10
64.29452549478803
 20
221.9949774641302
 30
0.0
 10
64.29424684688273
 20
221.9902490510358
 30
0.0
 10
64.29384294199491
 20
221.9856396617595
 30
0.0
 10
64.29331936104279
 20
221.9812885202315
 30
0.0
 10
64.29268511916993
 20
221.9773307711004
 30
0.0
 10
64.29195686454337
 20
221.9738839545042
 30
0.0
 10
64.2911562258001
 20
221.971038539473
 30
0.0
 10
64.29030806998445
 20
221.9688435122059
 30
0.0
 10
64.28943801384044
 20
221.9673291957814
 30
0.0
 10
64.2885701862398
 20
221.9664201467995
 30
0.0
 10
64.28799406761965
 20
221.9663106178085
 30
0.0
 10
64.28771211722432
 20
221.9662570147115
 30
0.0
  0
SPLINE
  5
106
330
1F
100
AcDbEntity
  8
0
  6
Continuous
 62
     7
370
    15
100
AcDbSpline
210
0.0
220
0.0
230
1.0
 70
     8
 71
     3
 72
    19
 73
    15
 74
     0
 42
0.000000001
 43
0.00000001
 40
0.0
 40
0.0
 40
0.0
 40
0.0
 40
0.0768236325493089
 40
0.1569762905988939
 40
0.2400070031000387
 40
0.3253348455421411
 40
0.4122653548263877
 40
0.5000191954705253
 40
0.5877716243025995
 40
0.6746980417406508
 40
0.7600195184728844
 40
0.8430421962563315
 40
0.9231857964114962
 40
1.0
 40
1.0
 40
1.0
 40
1.0
 10
64.28771211722432
 20
221.9662570147115
 30
0.0
 10
64.28743016631394
 20
221.966310617797
 30
0.0
 10
64.28685404661519
 20
221.9664201467695
 30
0.0
 10
64.28598622519833
 20
221.9673291957589
 30
0.0
 10
64.28511613728033
 20
221.9688435121142
 30
0.0
 10
64.28426796816106
 20
221.9710385394228
 30
0.0
 10
64.2834673058589
 20
221.9738839545044
 30
0.0
 10
64.28273902745052
 20
221.9773307711685
 30
0.0
 10
64.28210476131615
 20
221.9812885203595
 30
0.0
 10
64.28158115827138
 20
221.9856396619178
 30
0.0
 10
64.28117723497017
 20
221.9902490511847
 30
0.0
 10
64.28089857369423
 20
221.9949774642586
 30
0.0
 10
64.28073129243226
 20
221.9996937612186
 30
0.0
 10
64.28071113713898
 20
222.0028247350032
 30
0.0
 10
64.28070127325988
 20
222.0043570147115
 30
0.0
  0
SPLINE
  5
107
330
1F
100
AcDbEntity
  8
0
  6
Continuous
 62
     7
370
    15
100
AcDbSpline
210
0.0
220
0.0
230
1.0
 70
     8
 71
     3
 72
    19
 73
    15
 74
     0
 42
0.000000001
 43
0.00000001
 40
0.0
 40
0.0
 40
0.0
 40
0.0
 40
0.0768142035885071
 40
0.1569578037436614
 40
0.2399804815271529
 40
0.3253019582593114
 40
0.412228375697349
 40
0.499980804529453
 40
0.5877346451735569
 40
0.6746651544579052
 40
0.759992996899965
 40
0.8430237094011531
 40
0.9231763674507305
 40
1.0
 40
1.0
 40
1.0
 40
1.0
 10
64.28070127325988
 20
222.0043570147115
 30
0.0
 10
64.28071113713892
 20
222.0058892944197
 30
0.0
 10
64.28073129243204
 20
222.0090202682044
 30
0.0
 10
64.2808985736941
 20
222.0137365651644
 30
0.0
 10
64.28117723497043
 20
222.0184649782382
 30
0.0
 10
64.28158115827168
 20
222.0230743675052
 30
0.0
 10
64.28210476131585
 20
222.0274255090634
 30
0.0
 10
64.28273902745038
 20
222.0313832582545
 30
0.0
 10
64.28346730585896
 20
222.0348300749185
 30
0.0
 10
64.28426796816093
 20
222.0376754900002
 30
0.0
 10
64.28511613728024
 20
222.0398705173087
 30
0.0
 10
64.28598622519827
 20
222.041384833664
 30
0.0
 10
64.28685404661555
 20
222.0422938826535
 30
0.0
 10
64.28743016631405
 20
222.0424034116259
 30
0.0
 10
64.28771211722432
 20
222.0424570147115
 30
0.0
  0
ARC
  5
108
330
1F
100
AcDbEntity
  8
0
  6
Continuous
 62
     7
370
    15
100
AcDbCircle
 10
129.9034433203
 20
222.0382799627
 30
0.0
 40
1.154980772082294
100
AcDbArc
 50
339.3403355427
 51
356.4277456313
  0
ARC
  5
109
330
1F
100
AcDbEntity
  8
0
  6
Continuous
 62
     7
370
    15
100
AcDbCircle
 10
129.8822206452
 20
222.0548351391
 30
0.0
 40
1.176735905588445
100
AcDbArc
 50
359.4274070153
 51
19.9459397902
  0
LINE
  5
10A
330
1F
100
AcDbEntity
  8
0
  6
Continuous
 62
     7
370
    15
100
AcDbLine
 10
130.9841503294
 20
221.6307840185
 30
0.0
 11
62.0332714111
 21
221.6307840185
 31
0.0
  0
ARC
  5
10B
330
1F
100
AcDbEntity
  8
0
  6
Continuous
 62
     7
370
    15
100
AcDbCircle
 10
60.9538650064
 20
222.0383539006
 30
0.0
 40
1.153790013563593
100
AcDbArc
 50
339.3141128684
 51
357.5854537229
  0
ARC
  5
10C
330
1F
100
AcDbEntity
  8
0
  6
Continuous
 62
     7
370
    15
100
AcDbCircle
 10
60.9261689797
 20
222.0536481089
 30
0.0
 40
1.182003478772402
100
AcDbArc
 50
358.3966878211
 51
19.9144916455
  0
LINE
  5
10D
330
1F
100
AcDbEntity
  8
0
  6
Continuous
 62
     7
370
    15
100
AcDbLine
 10
130.9883699395
 20
222.4562590175
 30
0.0
 11
62.0374910213
 21
222.4562590175
 31
0.0
  0
LINE
  5
10E
330
1F
100
AcDbEntity
  8
0
  6
Continuous
 62
     7
370
    15
100
AcDbLine
 10
62.0332714111
 20
221.6307840185
 30
0.0
 11
61.8534967506
 21
221.7916691745
 31
0.0
  0
ARC
  5
10F
330
1F
100
AcDbEntity
  8
0
  6
Continuous
 62
     7
370
    15
100
AcDbCircle
 10
61.1680744258
 20
222.0513381326
 30
0.0
 40
0.7314580102722481
100
AcDbArc
 50
359.2414300071
 51
19.8452203011
  0
ARC
  5
110
330
1F
100
AcDbEntity
  8
0
  6
Continuous
 62
     7
370
    15
100
AcDbCircle
 10
61.2027031131
 20
222.0387452827
 30
0.0
 40
0.6961170604667803
100
AcDbArc
 50
339.2105569346
 51
353.9460625163
  0
LINE
  5
111
330
1F
100
AcDbEntity
  8
0
  6
Continuous
 62
     7
370
    15
100
AcDbLine
 10
62.0374910213
 20
222.4562590175
 30
0.0
 11
61.8560934338
 21
222.2996537893
 31
0.0
  0
LWPOLYLINE
  5
112
330
1F
100
AcDbEntity
  8
0
  6
Continuous
 62
     7
370
    15
100
AcDbPolyline
 90
       39
 70
   128
 43
0.0
 10
66.5672838391
 20
256.6032297323
 10
66.2284125738
 20
256.3038078696
 10
65.6192395527
 20
255.7289490888
 10
65.0340831262
 20
255.1278083573
 10
64.4733991999
 20
254.5008540343
 10
63.9376246122
 20
253.8485745909
 10
63.4271767944
 20
253.1714782291
 10
62.9424534453
 20
252.4700924866
 10
62.4838322211
 20
251.744963825
 10
62.0516704417
 20
250.9966572047
 10
61.6463048118
 20
250.2257556443
 10
61.2680511587
 20
249.4328597666
 10
60.9172041865
 20
248.6185873305
 10
60.594037246
 20
247.7835727497
 10
60.2988021222
 20
246.9284665986
 10
60.031728838
 20
246.0539351051
 10
59.7930254747
 20
245.1606596319
 10
59.5828780103
 20
244.2493361454
 10
59.4014501743
 20
243.3206746734
 10
59.2488833202
 20
242.3753987523
 10
59.1252963156
 20
241.4142448629
 10
59.0307854492
 20
240.4379618567
 10
58.9654243561
 20
239.4473103728
 10
58.9292639602
 20
238.443062245
 10
58.9223324347
 20
237.4259999002
 10
58.9446351801
 20
236.3969157495
 10
58.99615482
 20
235.3566115701
 10
59.0768512144
 20
234.3058978809
 10
59.1866614915
 20
233.2455933112
 10
59.3255000961
 20
232.1765239627
 10
59.4932588567
 20
231.0995227658
 10
59.6898070696
 20
230.0154288308
 10
59.9149916006
 20
228.925086794
 10
60.1686370045
 20
227.8293461598
 10
60.4505456618
 20
226.7290606387
 10
60.7604979326
 20
225.6250874822
 10
61.0982523278
 20
224.5182868149
 10
61.463545697
 20
223.4095209644
 10
61.8560934338
 20
222.2996537893
  0
LWPOLYLINE
  5
113
330
1F
100
AcDbEntity
  8
0
  6
Continuous
 62
     7
370
    15
100
AcDbPolyline
 90
      113
 70
   128
 43
0.0
 10
130.9883699395
 20
222.4562590175
 10
130.5542668778
 20
223.5661261926
 10
130.0937297366
 20
224.6748920431
 10
129.6071173282
 20
225.7816927104
 10
129.0948087809
 20
226.8856658669
 10
128.5572032432
 20
227.985951388
 10
127.9947195728
 20
229.0816920222
 10
127.4077960104
 20
230.172034059
 10
126.7968898384
 20
231.256127994
 10
126.1624770244
 20
232.3331291909
 10
125.5050518504
 20
233.4021985394
 10
124.8251265277
 20
234.4625031091
 10
124.1232307979
 20
235.5132167983
 10
123.3999115201
 20
236.5535209777
 10
122.6557322449
 20
237.5826051285
 10
121.8912727753
 20
238.5996674732
 10
121.1071287148
 20
239.6039156011
 10
120.3039110037
 20
240.5945670849
 10
119.4822454428
 20
241.5708500911
 10
118.6427722059
 20
242.5320039805
 10
117.7861453413
 20
243.4772799016
 10
116.9130322617
 20
244.4059413736
 10
116.0241132246
 20
245.3172648601
 10
115.1200808023
 20
246.2105403333
 10
114.2016393421
 20
247.0850718268
 10
113.2695044176
 20
247.9401779779
 10
112.3244022712
 20
248.7751925587
 10
111.3670692485
 20
249.5894649948
 10
110.3982512242
 20
250.3823608725
 10
109.4187030211
 20
251.1532624329
 10
108.4291878222
 20
251.9015690532
 10
107.4304765759
 20
252.6266977148
 10
106.4233473956
 20
253.3280834573
 10
105.4085849528
 20
254.0051798191
 10
104.3869798668
 20
254.6574592626
 10
103.3593280875
 20
255.2844135855
 10
102.3264302765
 20
255.885554317
 10
101.2890911821
 20
256.4604130978
 10
100.2481190133
 20
257.0085420456
 10
99.2043248096
 20
257.5295141036
 10
98.1585218089
 20
258.0229233734
 10
97.1115248147
 20
258.4883854313
 10
96.0641495603
 20
258.9255376278
 10
95.017212074
 20
259.3340393701
 10
93.9715280428
 20
259.7135723873
 10
92.9279121774
 20
260.0638409787
 10
91.8871775768
 20
260.384572244
 10
90.8501350956
 20
260.6755162959
 10
89.8175927113
 20
260.9364464549
 10
88.7903548957
 20
261.1671594257
 10
87.7692219875
 20
261.3674754559
 10
86.7549895691
 20
261.5372384758
 10
85.7484478465
 20
261.6763162201
 10
84.7503810337
 20
261.7846003308
 10
83.761566742
 20
261.8620064421
 10
82.7827753736
 20
261.9084742454
 10
81.8147695219
 20
261.9239675369
 10
80.8583033769
 20
261.9084742454
 10
79.914122138
 20
261.8620064421
 10
78.9829614333
 20
261.7846003308
 10
78.065546746
 20
261.6763162201
 10
77.1625928498
 20
261.5372384758
 10
76.2748032519
 20
261.3674754559
 10
75.4028696443
 20
261.1671594257
 10
74.5474713658
 20
260.9364464549
 10
73.7092748718
 20
260.6755162959
 10
72.8889332158
 20
260.384572244
 10
72.0870855403
 20
260.0638409787
 10
71.3043565785
 20
259.7135723873
 10
70.5413561683
 20
259.3340393701
 10
69.7986787763
 20
258.9255376278
 10
69.0769030355
 20
258.4883854313
 10
68.3765912938
 20
258.0229233734
 10
67.6982891762
 20
257.5295141036
 10
67.0425251596
 20
257.0085420456
 10
66.4098101612
 20
256.4604130978
 10
65.8006371402
 20
255.885554317
 10
65.2154807137
 20
255.2844135855
 10
64.6547967873
 20
254.6574592626
 10
64.1190221996
 20
254.0051798191
 10
63.6085743819
 20
253.3280834573
 10
63.1238510327
 20
252.6266977148
 10
62.6652298086
 20
251.9015690532
 10
62.2330680292
 20
251.1532624329
 10
61.8277023993
 20
250.3823608725
 10
61.4494487462
 20
249.5894649948
 10
61.0986017739
 20
248.7751925587
 10
60.7754348335
 20
247.9401779779
 10
60.4801997097
 20
247.0850718268
 10
60.2131264255
 20
246.2105403333
 10
59.9744230622
 20
245.3172648601
 10
59.7642755977
 20
244.4059413736
 10
59.5828477617
 20
243.4772799016
 10
59.4302809077
 20
242.5320039805
 10
59.306693903
 20
241.5708500911
 10
59.2121830367
 20
240.5945670849
 10
59.1468219435
 20
239.6039156011
 10
59.1106615476
 20
238.5996674732
 10
59.1037300222
 20
237.5826051285
 10
59.1260327676
 20
236.5535209777
 10
59.1775524074
 20
235.5132167983
 10
59.2582488019
 20
234.4625031091
 10
59.368059079
 20
233.4021985394
 10
59.5068976836
 20
232.3331291909
 10
59.6746564442
 20
231.256127994
 10
59.8712046571
 20
230.172034059
 10
60.096389188
 20
229.0816920222
 10
60.3500345919
 20
227.985951388
 10
60.6319432493
 20
226.8856658669
 10
60.9418955201
 20
225.7816927104
 10
61.2796499153
 20
224.6748920431
 10
61.6449432845
 20
223.5661261926
 10
62.0374910213
 20
222.4562590175
  0
LWPOLYLINE
  5
114
330
1F
100
AcDbEntity
  8
0
  6
Continuous
 62
     7
370
    15
100
AcDbPolyline
 90
       39
 70
   128
 43
0.0
 10
61.8534967506
 20
221.7916691745
 10
61.4496530764
 20
220.6917317533
 10
61.0730749787
 20
219.5928858033
 10
60.7240558562
 20
218.4959874545
 10
60.4028676356
 20
217.4018913192
 10
60.1097605604
 20
216.3114498269
 10
59.8449629953
 20
215.2255125593
 10
59.6086812486
 20
214.144925589
 10
59.4010994116
 20
213.07053082
 10
59.2223792148
 20
212.0031653318
 10
59.0726599023
 20
210.9436607273
 10
58.952058123
 20
209.8928424851
 10
58.8606678398
 20
208.8515293157
 10
58.7985602564
 20
207.8205325242
 10
58.765783762
 20
206.8006553782
 10
58.7623638933
 20
205.7926924816
 10
58.7883033147
 20
204.7974291556
 10
58.8435818164
 20
203.8156408273
 10
58.9281563301
 20
202.8480924249
 10
59.0419609621
 20
201.895537782
 10
59.1849070454
 20
200.9587190506
 10
59.3568832081
 20
200.0383661223
 10
59.5577554608
 20
199.13519606
 10
59.7873673002
 20
198.2499125392
 10
60.0455398319
 20
197.3832052995
 10
60.3320719092
 20
196.5357496076
 10
60.64674029
 20
195.7082057309
 10
60.9892998106
 20
194.9012184232
 10
61.3594835771
 20
194.1154164222
 10
61.7570031728
 20
193.3514119599
 10
62.1815488834
 20
192.6098002854
 10
62.6327899379
 20
191.8911592011
 10
63.1103747666
 20
191.1960486129
 10
63.6139312749
 20
190.5250100934
 10
64.1430671333
 20
189.8785664602
 10
64.6973700827
 20
189.257221369
 10
65.2764082562
 20
188.6614589203
 10
65.8797305152
 20
188.091743283
 10
65.9556685746
 20
188.0234219396
  0
LWPOLYLINE
  5
115
330
1F
100
AcDbEntity
  8
0
  6
Continuous
 62
     7
370
    15
100
AcDbPolyline
 90
      113
 70
   128
 43
0.0
 10
62.0332714111
 20
221.6307840185
 10
61.6294277368
 20
220.5308465973
 10
61.2528496392
 20
219.4320006473
 10
60.9038305166
 20
218.3351022984
 10
60.5826422961
 20
217.2410061632
 10
60.2895352209
 20
216.1505646709
 10
60.0247376557
 20
215.0646274033
 10
59.7884559091
 20
213.984040433
 10
59.580874072
 20
212.909645664
 10
59.4021538753
 20
211.8422801757
 10
59.2524345628
 20
210.7827755713
 10
59.1318327835
 20
209.7319573291
 10
59.0404425002
 20
208.6906441597
 10
58.9783349169
 20
207.6596473682
 10
58.9455584225
 20
206.6397702222
 10
58.9421385537
 20
205.6318073256
 10
58.9680779752
 20
204.6365439996
 10
59.0233564769
 20
203.6547556713
 10
59.1079309905
 20
202.6872072689
 10
59.2217356226
 20
201.734652626
 10
59.3646817058
 20
200.7978338946
 10
59.5366578686
 20
199.8774809663
 10
59.7375301212
 20
198.974310904
 10
59.9671419607
 20
198.0890273832
 10
60.2253144924
 20
197.2223201435
 10
60.5118465697
 20
196.3748644516
 10
60.8265149504
 20
195.5473205749
 10
61.1690744711
 20
194.7403332672
 10
61.5392582375
 20
193.9545312662
 10
61.9367778333
 20
193.1905268039
 10
62.3613235438
 20
192.4489151294
 10
62.8125645983
 20
191.7302740451
 10
63.2901494271
 20
191.0351634569
 10
63.7937059354
 20
190.3641249374
 10
64.3228417937
 20
189.7176813042
 10
64.8771447432
 20
189.096336213
 10
65.4561829167
 20
188.5005737643
 10
66.0595051756
 20
187.930858127
 10
66.6866414611
 20
187.3876331764
 10
67.3371031605
 20
186.8713221485
 10
68.0103834878
 20
186.3823273102
 10
68.7059578785
 20
185.9210296458
 10
69.4232843988
 20
185.4877885603
 10
70.161804167
 20
185.0829415993
 10
70.9209417896
 20
184.7068041861
 10
71.7001058094
 20
184.3596693759
 10
72.4986891661
 20
184.0418076274
 10
73.3160696697
 20
183.7534665922
 10
74.1516104848
 20
183.4948709218
 10
75.0046606271
 20
183.2662220926
 10
75.8745554706
 20
183.0676982488
 10
76.760617265
 20
182.8994540638
 10
77.6621556643
 20
182.7616206196
 10
78.5784682643
 20
182.6543053046
 10
79.5088411499
 20
182.5775917299
 10
80.4525494516
 20
182.5315396645
 10
81.4088579099
 20
182.5161849883
 10
82.3770214483
 20
182.5315396645
 10
83.3562857538
 20
182.5775917299
 10
84.3458878647
 20
182.6543053046
 10
85.3450567648
 20
182.7616206196
 10
86.3530139843
 20
182.8994540638
 10
87.3689742063
 20
183.0676982488
 10
88.3921458785
 20
183.2662220926
 10
89.4217318303
 20
183.4948709218
 10
90.4569298934
 20
183.7534665922
 10
91.4969335271
 20
184.0418076274
 10
92.5409324464
 20
184.3596693759
 10
93.5881132539
 20
184.7068041861
 10
94.6376600727
 20
185.0829415993
 10
95.6887551828
 20
185.4877885603
 10
96.7405796577
 20
185.9210296458
 10
97.7923140029
 20
186.3823273102
 10
98.8431387939
 20
186.8713221485
 10
99.8922353148
 20
187.3876331764
 10
100.9387861965
 20
187.930858127
 10
101.981976053
 20
188.5005737643
 10
103.020992117
 20
189.096336213
 10
104.0550248731
 20
189.7176813042
 10
105.0832686886
 20
190.3641249374
 10
106.1049224407
 20
191.0351634569
 10
107.1191901415
 20
191.7302740451
 10
108.1252815574
 20
192.4489151294
 10
109.1224128251
 20
193.1905268039
 10
110.1098070624
 20
193.9545312662
 10
111.0866949734
 20
194.7403332672
 10
112.0523154477
 20
195.5473205749
 10
113.0059161538
 20
196.3748644516
 10
113.9467541248
 20
197.2223201435
 10
114.8740963376
 20
198.0890273832
 10
115.7872202837
 20
198.974310904
 10
116.6854145326
 20
199.8774809663
 10
117.5679792854
 20
200.7978338946
 10
118.4342269208
 20
201.734652626
 10
119.2834825303
 20
202.6872072689
 10
120.1150844439
 20
203.6547556713
 10
120.9283847464
 20
204.6365439996
 10
121.7227497814
 20
205.6318073256
 10
122.4975606452
 20
206.6397702222
 10
123.2522136694
 20
207.6596473682
 10
123.9861208907
 20
208.6906441597
 10
124.6987105093
 20
209.7319573291
 10
125.3894273342
 20
210.7827755713
 10
126.0577332161
 20
211.8422801757
 10
126.7031074663
 20
212.909645664
 10
127.3250472624
 20
213.984040433
 10
127.9230680405
 20
215.0646274033
 10
128.4967038721
 20
216.1505646709
 10
129.0455078278
 20
217.2410061632
 10
129.5690523248
 20
218.3351022984
 10
130.0669294604
 20
219.4320006473
 10
130.5387513302
 20
220.5308465973
 10
130.9841503294
 20
221.6307840185
  0
SPLINE
  5
116
330
1F
100
AcDbEntity
  8
0
  6
Continuous
 62
     7
370
    15
100
AcDbSpline
210
0.0
220
0.0
230
1.0
 70
     8
 71
     3
 72
    38
 73
    34
 74
     0
 42
0.000000001
 43
0.00000001
 40
0.0
 40
0.0
 40
0.0
 40
0.0
 40
0.0625
 40
0.0625
 40
0.125
 40
0.125
 40
0.1875
 40
0.1875
 40
0.25
 40
0.25
 40
0.3125
 40
0.3125
 40
0.375
 40
0.375
 40
0.4375
 40
0.4375
 40
0.5
 40
0.5
 40
0.5625
 40
0.5625
 40
0.625
 40
0.625
 40
0.6875
 40
0.6875
 40
0.75
 40
0.75
 40
0.8125
 40
0.8125
 40
0.875
 40
0.875
 40
0.9375
 40
0.9375
 40
1.0
 40
1.0
 40
1.0
 40
1.0
 10
58.24386103227096
 20
218.896799905467
 30
0.0
 10
58.0675341156628
 20
218.896799905467
 30
0.0
 10
57.89121155908512
 20
218.9213595002876
 30
0.0
 10
57.54533387038878
 20
219.0186564739737
 30
0.0
 10
57.37578729077755
 20
219.0913914469799
 30
0.0
 10
57.04997763220733
 20
219.2822463262181
 30
0.0
 10
56.8937226095342
 20
219.4003615131873
 30
0.0
 10
56.60050166355282
 20
219.6774398520013
 30
0.0
 10
56.46354299071028
 20
219.8363961525381
 30
0.0
 10
56.21417907383158
 20
220.1890499857544
 30
0.0
 10
56.10177999580968
 20
220.3827387983729
 30
0.0
 10
55.90585602351442
 20
220.7974158369517
 30
0.0
 10
55.82233597384739
 20
221.0183938092049
 30
0.0
 10
55.68738119451547
 20
221.4791582471071
 30
0.0
 10
55.63594980187343
 20
221.7189333194472
 30
0.0
 10
55.56715045199105
 20
222.2080782377238
 30
0.0
 10
55.54978419595017
 20
222.4574359885883
 30
0.0
 10
55.54978419595018
 20
222.9561638223457
 30
0.0
 10
55.56715045199105
 20
223.2055215732101
 30
0.0
 10
55.63594980187344
 20
223.6946664914867
 30
0.0
 10
55.68738119451548
 20
223.9344415638269
 30
0.0
 10
55.82233597384742
 20
224.395206001729
 30
0.0
 10
55.90585602351444
 20
224.6161839739823
 30
0.0
 10
56.10177999580969
 20
225.030861012561
 30
0.0
 10
56.21417907383159
 20
225.2245498251796
 30
0.0
 10
56.4635429907103
 20
225.5772036583959
 30
0.0
 10
56.60050166355283
 20
225.7361599589327
 30
0.0
 10
56.89372260953423
 20
226.0132382977467
 30
0.0
 10
57.04997763220737
 20
226.1313534847158
 30
0.0
 10
57.37578729077757
 20
226.3222083639541
 30
0.0
 10
57.5453338703888
 20
226.3949433369602
 30
0.0
 10
57.89121155908514
 20
226.4922403106464
 30
0.0
 10
58.06753411566282
 20
226.516799905467
 30
0.0
 10
58.24386103227099
 20
226.516799905467
 30
0.0
  0
SPLINE
  5
117
330
1F
100
AcDbEntity
  8
0
  6
Continuous
 62
     7
370
    15
100
AcDbSpline
210
0.0
220
0.0
230
1.0
 70
     8
 71
     3
 72
    38
 73
    34
 74
     0
 42
0.000000001
 43
0.00000001
 40
0.0
 40
0.0
 40
0.0
 40
0.0
 40
0.0625
 40
0.0625
 40
0.125
 40
0.125
 40
0.1875
 40
0.1875
 40
0.25
 40
0.25
 40
0.3125
 40
0.3125
 40
0.375
 40
0.375
 40
0.4375
 40
0.4375
 40
0.5
 40
0.5
 40
0.5625
 40
0.5625
 40
0.625
 40
0.625
 40
0.6875
 40
0.6875
 40
0.75
 40
0.75
 40
0.8125
 40
0.8125
 40
0.875
 40
0.875
 40
0.9375
 40
0.9375
 40
1.0
 40
1.0
 40
1.0
 40
1.0
 10
58.24386103227097
 20
226.516799905467
 30
0.0
 10
58.42018794887913
 20
226.516799905467
 30
0.0
 10
58.59651050545681
 20
226.4922403106464
 30
0.0
 10
58.94238819415317
 20
226.3949433369602
 30
0.0
 10
59.11193477376438
 20
226.3222083639541
 30
0.0
 10
59.43774443233459
 20
226.1313534847158
 30
0.0
 10
59.59399945500773
 20
226.0132382977467
 30
0.0
 10
59.88722040098912
 20
225.7361599589327
 30
0.0
 10
60.02417907383165
 20
225.5772036583959
 30
0.0
 10
60.27354299071035
 20
225.2245498251796
 30
0.0
 10
60.38594206873226
 20
225.0308610125611
 30
0.0
 10
60.5818660410275
 20
224.6161839739823
 30
0.0
 10
60.66538609069454
 20
224.3952060017291
 30
0.0
 10
60.80034087002647
 20
223.9344415638269
 30
0.0
 10
60.85177226266851
 20
223.6946664914868
 30
0.0
 10
60.92057161255091
 20
223.2055215732102
 30
0.0
 10
60.93793786859175
 20
222.9561638223457
 30
0.0
 10
60.93793786859175
 20
222.4574359885883
 30
0.0
 10
60.92057161255089
 20
222.2080782377239
 30
0.0
 10
60.8517722626685
 20
221.7189333194472
 30
0.0
 10
60.80034087002647
 20
221.4791582471071
 30
0.0
 10
60.66538609069454
 20
221.018393809205
 30
0.0
 10
60.58186604102751
 20
220.7974158369517
 30
0.0
 10
60.38594206873226
 20
220.382738798373
 30
0.0
 10
60.27354299071035
 20
220.1890499857545
 30
0.0
 10
60.02417907383165
 20
219.8363961525381
 30
0.0
 10
59.88722040098911
 20
219.6774398520013
 30
0.0
 10
59.59399945500773
 20
219.4003615131873
 30
0.0
 10
59.43774443233458
 20
219.2822463262181
 30
0.0
 10
59.11193477376438
 20
219.0913914469799
 30
0.0
 10
58.94238819415317
 20
219.0186564739738
 30
0.0
 10
58.59651050545681
 20
218.9213595002876
 30
0.0
 10
58.42018794887913
 20
218.896799905467
 30
0.0
 10
58.24386103227097
 20
218.896799905467
 30
0.0
  0
SPLINE
  5
118
330
1F
100
AcDbEntity
  8
0
  6
Continuous
 62
     7
370
    15
100
AcDbSpline
210
0.0
220
0.0
230
1.0
 70
     8
 71
     3
 72
    73
 73
    69
 74
     0
 42
0.000000001
 43
0.00000001
 40
0.0
 40
0.0
 40
0.0
 40
0.0
 40
0.0050739195180507
 40
0.0100590248039218
 40
0.0149553163235869
 40
0.0197627945743295
 40
0.0244814600869962
 40
0.0291113134284762
 40
0.0336523552044096
 40
0.0381045860621805
 40
0.0424680066942033
 40
0.0467426178415567
 40
0.0509284202979998
 40
0.0550254149144246
 40
0.0590336026038033
 40
0.0629529843466931
 40
0.066783561197378
 40
0.0705253342907471
 40
0.0741783048499969
 40
0.0777424741953023
 40
0.0812178437535913
 40
0.0846044150696002
 40
0.0879021898184199
 40
0.0911111698197717
 40
0.0942313570543215
 40
0.0972627536823734
 40
0.1002053620653916
 40
0.1030591847908606
 40
0.1058242247011404
 40
0.1085004849271018
 40
0.1110879689275343
 40
0.1135866805355408
 40
0.1159966240134831
 40
0.1183178041184191
 40
0.1205502261805426
 40
0.1442368821033062
 40
0.1671003019444367
 40
0.1891435367585823
 40
0.2103699946257278
 40
0.2307834960860062
 40
0.2503883403558883
 40
0.3153410665885562
 40
0.3764372230767999
 40
0.4388866208403269
 40
0.5000153542546929
 40
0.5611353777470628
 40
0.6235934633537655
 40
0.6846769536300005
 40
0.7496423431356567
 40
0.7793371572577813
 40
0.8108619325881407
 40
0.8442298862743672
 40
0.879452126852777
 40
0.8844786770640515
 40
0.889935108974758
 40
0.8958214677108645
 40
0.902137788635801
 40
0.9088840998002299
 40
0.9160604236582753
 40
0.923666778298853
 40
0.9317031783476777
 40
0.9401696356402733
 40
0.9490661597323563
 40
0.9583927582925823
 40
0.9681494374087467
 40
0.9783362018293617
 40
0.9889530551563094
 40
1.0
 40
1.0
 40
1.0
 40
1.0
 10
51.95107289606821
 20
218.896799905467
 30
0.0
 10
51.93161047682413
 20
218.8968858821764
 30
0.0
 10
51.8930263098455
 20
218.8970563306529
 30
0.0
 10
51.83566479102215
 20
218.8984168982818
 30
0.0
 10
51.77934349062614
 20
218.9005328081687
 30
0.0
 10
51.72407237846698
 20
218.9034371870157
 30
0.0
 10
51.66986097364679
 20
218.9070647870302
 30
0.0
 10
51.61671735941119
 20
218.9113769117772
 30
0.0
 10
51.56464851245039
 20
218.9163288793509
 30
0.0
 10
51.5136602887463
 20
218.9218785308202
 30
0.0
 10
51.46375749802114
 20
218.9279840413757
 30
0.0
 10
51.4149439541461
 20
218.9346045144557
 30
0.0
 10
51.36722253076443
 20
218.9416998489327
 30
0.0
 10
51.32059521444736
 20
218.9492307929001
 30
0.0
 10
51.27506315731831
 20
218.9571589465814
 30
0.0
 10
51.23062672858624
 20
218.9654467762109
 30
0.0
 10
51.18728556508248
 20
218.9740576229397
 30
0.0
 10
51.14503862073168
 20
218.9829557110247
 30
0.0
 10
51.10388421493471
 20
218.992106154311
 30
0.0
 10
51.06382007983419
 20
219.0014749613799
 30
0.0
 10
51.02484340643977
 20
219.0110290393752
 30
0.0
 10
50.98695088959322
 20
219.0207361966161
 30
0.0
 10
50.95013877175533
 20
219.0305651440744
 30
0.0
 10
50.91440288560545
 20
219.040485495799
 30
0.0
 10
50.87973869542662
 20
219.0504677683729
 30
0.0
 10
50.84614133732364
 20
219.0604833794618
 30
0.0
 10
50.81360565807222
 20
219.0705046455991
 30
0.0
 10
50.78212625329165
 20
219.0805047790331
 30
0.0
 10
50.75169750246109
 20
219.0904578845931
 30
0.0
 10
50.7223136096022
 20
219.1003389534927
 30
0.0
 10
50.6939686182652
 20
219.1101238653351
 30
0.0
 10
50.66665651215675
 20
219.1197893586423
 30
0.0
 10
50.64037100690051
 20
219.1293131107915
 30
0.0
 10
50.61510642831129
 20
219.1386734293474
 30
0.0
 10
50.51284485237587
 20
219.1773694171227
 30
0.0
 10
50.33839561607276
 20
219.251371491382
 30
0.0
 10
50.10021321068245
 20
219.3731064825766
 30
0.0
 10
49.87825467391974
 20
219.5066198435975
 30
0.0
 10
49.6726792408049
 20
219.6497999819575
 30
0.0
 10
49.48339671324079
 20
219.8006881987976
 30
0.0
 10
49.17435684249548
 20
220.0802082466147
 30
0.0
 10
48.79328645798408
 20
220.5292570995632
 30
0.0
 10
48.42133994766051
 20
221.2063281815676
 30
0.0
 10
48.19280239701165
 20
221.9385298395214
 30
0.0
 10
48.11548796494998
 20
222.7067635157703
 30
0.0
 10
48.19279598749492
 20
223.4750343049911
 30
0.0
 10
48.42130194008381
 20
224.2071844937494
 30
0.0
 10
48.79327616386131
 20
224.8843222023603
 30
0.0
 10
49.20065523113998
 20
225.3643944308919
 30
0.0
 10
49.57724676855509
 20
225.6942630259367
 30
0.0
 10
49.87978956996016
 20
225.9122048196551
 30
0.0
 10
50.21917424281782
 20
226.1083261113784
 30
0.0
 10
50.48101868163874
 20
226.2248489163246
 30
0.0
 10
50.64673154955575
 20
226.2867477835936
 30
0.0
 10
50.70634872895506
 20
226.3079389817597
 30
0.0
 10
50.77098188883316
 20
226.3296647065931
 30
0.0
 10
50.84069194141914
 20
226.3516672198485
 30
0.0
 10
50.91553893554708
 20
226.3736689450878
 30
0.0
 10
50.99557630047691
 20
226.3953710445597
 30
0.0
 10
51.0808500397591
 20
226.4164536094914
 30
0.0
 10
51.17139627441396
 20
226.4365756400271
 30
0.0
 10
51.26723909235683
 20
226.4553746014354
 30
0.0
 10
51.36838815619378
 20
226.4724687967632
 30
0.0
 10
51.47483613125977
 20
226.4874489521069
 30
0.0
 10
51.58655634459851
 20
226.4999138594986
 30
0.0
 10
51.70349888669178
 20
226.5093309669672
 30
0.0
 10
51.82559238195034
 20
226.5155950384026
 30
0.0
 10
51.90869610512188
 20
226.5163930024505
 30
0.0
 10
51.95107289606823
 20
226.5167999054671
 30
0.0
  0
SPLINE
  5
119
330
1F
100
AcDbEntity
  8
0
  6
Continuous
 62
     7
370
    15
100
AcDbSpline
210
0.0
220
0.0
230
1.0
 70
     8
 71
     3
 72
    50
 73
    46
 74
     0
 42
0.000000001
 43
0.00000001
 40
0.0
 40
0.0
 40
0.0
 40
0.0
 40
0.0052116794493317
 40
0.0104208467183378
 40
0.0156288969244477
 40
0.0208372260827501
 40
0.0260472299840991
 40
0.0312603030741207
 40
0.0468865518464668
 40
0.0625178196119325
 40
0.0781441826217332
 40
0.0937753364251939
 40
0.1250234274333676
 40
0.1562715184415419
 40
0.1875196094497157
 40
0.2187677004578895
 40
0.2500157914660636
 40
0.2812638824742369
 40
0.3125119734824111
 40
0.3437600644905853
 40
0.3750081554987588
 40
0.406256246506933
 40
0.4375043375151068
 40
0.4687524285232809
 40
0.5000005195314549
 40
0.531248610539629
 40
0.562496701547803
 40
0.5937447925559769
 40
0.6249928835641514
 40
0.6562409745723248
 40
0.6874890655804989
 40
0.718737156588673
 40
0.7499852475968473
 40
0.7812333386050205
 40
0.812481429613195
 40
0.8437295206213684
 40
0.8749776116295427
 40
0.9062257026377164
 40
0.9218519514090353
 40
0.9374832191755306
 40
0.9531094679469705
 40
0.9687407357133453
 40
0.979161237796451
 40
0.9895772681325097
 40
1.0
 40
1.0
 40
1.0
 40
1.0
 10
58.24386103227096
 20
219.214299905467
 30
0.0
 10
58.2303873998228
 20
219.2143897538079
 30
0.0
 10
58.20344662960725
 20
219.2145694071802
 30
0.0
 10
58.16305241446558
 20
219.2160237151894
 30
0.0
 10
58.12268847476038
 20
219.2183455891654
 30
0.0
 10
58.08235489272702
 20
219.2216199086855
 30
0.0
 10
58.04205139982214
 20
219.2258241431738
 30
0.0
 10
57.97497807481373
 20
219.2343837807778
 30
0.0
 10
57.88135877043121
 20
219.2507072900331
 30
0.0
 10
57.76189177977565
 20
219.280029943954
 30
0.0
 10
57.64356674239628
 20
219.3175993022994
 30
0.0
 10
57.4877774578657
 20
219.3785743169953
 30
0.0
 10
57.29727049307805
 20
219.474964861349
 30
0.0
 10
57.07784403079962
 20
219.6217376515669
 30
0.0
 10
56.86963491564848
 20
219.7982238707655
 30
0.0
 10
56.67466357373117
 20
220.0027205723731
 30
0.0
 10
56.4948035971474
 20
220.2332592223281
 30
0.0
 10
56.33178823130476
 20
220.4876193713526
 30
0.0
 10
56.18718710974814
 20
220.7633514554145
 30
0.0
 10
56.06239289897933
 20
221.0578000068658
 30
0.0
 10
55.95860741439216
 20
221.3681293297354
 30
0.0
 10
55.87683017258527
 20
221.691350781784
 30
0.0
 10
55.81784873158796
 20
222.0243515640634
 30
0.0
 10
55.78223111532556
 20
222.3639246969164
 30
0.0
 10
55.77032034080256
 20
222.706799905467
 30
0.0
 10
55.78223111532556
 20
223.0496751140176
 30
0.0
 10
55.81784873158797
 20
223.3892482468704
 30
0.0
 10
55.8768301725852
 20
223.7222490291507
 30
0.0
 10
55.95860741439241
 20
224.0454704811961
 30
0.0
 10
56.06239289897847
 20
224.3557998040775
 30
0.0
 10
56.18718710975138
 20
224.6502483554847
 30
0.0
 10
56.33178823129274
 20
224.9259804397115
 30
0.0
 10
56.49480359719231
 20
225.1803405881206
 30
0.0
 10
56.67466357356364
 20
225.4108792403725
 30
0.0
 10
56.8696349162738
 20
225.6153759334077
 30
0.0
 10
57.07784402846593
 20
225.7918621845985
 30
0.0
 10
57.29727050178755
 20
225.9386348554203
 30
0.0
 10
57.4877654717194
 20
226.0350197194686
 30
0.0
 10
57.64355447252757
 20
226.0959956654717
 30
0.0
 10
57.76186645634822
 20
226.1335642366328
 30
0.0
 10
57.88134651245105
 20
226.1628844712714
 30
0.0
 10
57.98833056785391
 20
226.1815624126885
 30
0.0
 10
58.08230834745171
 20
226.1924032960505
 30
0.0
 10
58.16303877852715
 20
226.1982222531904
 30
0.0
 10
58.21691450572992
 20
226.198940611036
 30
0.0
 10
58.24386103227098
 20
226.199299905467
 30
0.0
  0
SPLINE
  5
11A
330
1F
100
AcDbEntity
  8
0
  6
Continuous
 62
     7
370
    15
100
AcDbSpline
210
0.0
220
0.0
230
1.0
 70
     8
 71
     3
 72
    50
 73
    46
 74
     0
 42
0.000000001
 43
0.00000001
 40
0.0
 40
0.0
 40
0.0
 40
0.0
 40
0.005211679451293
 40
0.0104208467226213
 40
0.0156288969314171
 40
0.0208372260927694
 40
0.0260472299975307
 40
0.0312603030913274
 40
0.0468865518701568
 40
0.062517819646352
 40
0.0781440684260162
 40
0.0937753362013788
 40
0.1250234272267577
 40
0.1562715182521358
 40
0.1875196092775154
 40
0.2187677003028955
 40
0.2500157913282736
 40
0.2812638823536528
 40
0.3125119733790312
 40
0.3437600644044105
 40
0.375008155429789
 40
0.4062562464551681
 40
0.4375043374805469
 40
0.4687524285059259
 40
0.5000005195313048
 40
0.5312486105566838
 40
0.5624967015820628
 40
0.5937447926074415
 40
0.6249928836328208
 40
0.6562409746581994
 40
0.6874890656835787
 40
0.7187371567089577
 40
0.7499852477343363
 40
0.7812333387597155
 40
0.8124814297850943
 40
0.8437295208104733
 40
0.8749776118358528
 40
0.9062257028612316
 40
0.9218520655383529
 40
0.9374832191411084
 40
0.9531094679203963
 40
0.96874073569613
 40
0.9791612377838675
 40
0.9895772681256604
 40
1.0
 40
1.0
 40
1.0
 40
1.0
 10
58.24386103227098
 20
226.199299905467
 30
0.0
 10
58.25733466471677
 20
226.199210057126
 30
0.0
 10
58.2842754349285
 20
226.1990304037533
 30
0.0
 10
58.3246696500663
 20
226.1975760957462
 30
0.0
 10
58.36503358976875
 20
226.1952542217623
 30
0.0
 10
58.40536717180849
 20
226.1919799022717
 30
0.0
 10
58.44567066469901
 20
226.1877756676732
 30
0.0
 10
58.51274398982157
 20
226.1792160307565
 30
0.0
 10
58.60636329283532
 20
226.1628925133868
 30
0.0
 10
58.72582999825244
 20
226.1335699655842
 30
0.0
 10
58.84415501749273
 20
226.0960005093562
 30
0.0
 10
58.99994433989363
 20
226.03502569247
 30
0.0
 10
59.19045156769067
 20
225.9386349299067
 30
0.0
 10
59.40987803475334
 20
225.7918621646399
 30
0.0
 10
59.61808714862254
 20
225.6153759387556
 30
0.0
 10
59.81305849088335
 20
225.4108792389395
 30
0.0
 10
59.99291846737508
 20
225.1803405885045
 30
0.0
 10
60.15593383324237
 20
224.9259804396087
 30
0.0
 10
60.30053495479238
 20
224.6502483555123
 30
0.0
 10
60.42532916556296
 20
224.3557998040701
 30
0.0
 10
60.52911465014966
 20
224.045470481198
 30
0.0
 10
60.61089189195668
 20
223.7222490291502
 30
0.0
 10
60.66987333295396
 20
223.3892482468706
 30
0.0
 10
60.70549094921636
 20
223.0496751140176
 30
0.0
 10
60.71740172373936
 20
222.706799905467
 30
0.0
 10
60.70549094921635
 20
222.3639246969164
 30
0.0
 10
60.66987333295393
 20
222.0243515640636
 30
0.0
 10
60.61089189195675
 20
221.6913507817832
 30
0.0
 10
60.52911465014942
 20
221.3681293297385
 30
0.0
 10
60.42532916556382
 20
221.0578000068545
 30
0.0
 10
60.30053495478916
 20
220.7633514554566
 30
0.0
 10
60.15593383325439
 20
220.4876193711954
 30
0.0
 10
59.99291846733018
 20
220.2332592229148
 30
0.0
 10
59.81305849105081
 20
220.0027205701833
 30
0.0
 10
59.61808714799743
 20
219.7982238789379
 30
0.0
 10
59.40987803708624
 20
219.6217376210672
 30
0.0
 10
59.19045155898408
 20
219.4749649751755
 30
0.0
 10
58.99995632619163
 20
219.3785798930686
 30
0.0
 10
58.84416728754483
 20
219.3176041446987
 30
0.0
 10
58.7258553218425
 20
219.280035475828
 30
0.0
 10
58.60637555084993
 20
219.2507153470186
 30
0.0
 10
58.49939149690479
 20
219.2320373969918
 30
0.0
 10
58.40541371704934
 20
219.2211965151591
 30
0.0
 10
58.32468328603218
 20
219.2153775576745
 30
0.0
 10
58.27080755881876
 20
219.214659199875
 30
0.0
 10
58.24386103227094
 20
219.214299905467
 30
0.0
  0
SPLINE
  5
11B
330
1F
100
AcDbEntity
  8
0
  6
Continuous
 62
     7
370
    15
100
AcDbSpline
210
0.0
220
0.0
230
1.0
 70
     8
 71
     3
 72
    23
 73
    19
 74
     0
 42
0.000000001
 43
0.00000001
 40
0.0
 40
0.0
 40
0.0
 40
0.0
 40
0.0365641333517078
 40
0.1027692571586069
 40
0.1689743809655058
 40
0.2351795047724053
 40
0.3013846285793043
 40
0.3675897523862033
 40
0.4337948761931023
 40
0.5000000000000016
 40
0.5662051238069005
 40
0.6324102476137994
 40
0.6986153714206986
 40
0.7648204952275975
 40
0.8310256190344965
 40
0.8972307428413958
 40
0.9634358666482948
 40
0.9999999999999999
 40
0.9999999999999999
 40
0.9999999999999999
 40
0.9999999999999999
 10
58.02815700580081
 20
226.1692549492566
 30
0.0
 10
58.11726753820699
 20
226.1606614413205
 30
0.0
 10
58.3677267281542
 20
226.1365080334306
 30
0.0
 10
58.76334604343957
 20
225.950254504128
 30
0.0
 10
59.19338749363588
 20
225.6304969386415
 30
0.0
 10
59.56994078450175
 20
225.1920028999078
 30
0.0
 10
59.87906724434119
 20
224.6597134942934
 30
0.0
 10
60.10874473846639
 20
224.0519167886462
 30
0.0
 10
60.25018514226954
 20
223.3925501091342
 30
0.0
 10
60.29794254780226
 20
222.706799905467
 30
0.0
 10
60.25018514226953
 20
222.0210497017998
 30
0.0
 10
60.10874473846636
 20
221.3616830222878
 30
0.0
 10
59.87906724434114
 20
220.7538863166405
 30
0.0
 10
59.56994078450169
 20
220.2215969110262
 30
0.0
 10
59.19338749363585
 20
219.7831028722925
 30
0.0
 10
58.7633460434395
 20
219.463345306806
 30
0.0
 10
58.36772672815416
 20
219.2770917775034
 30
0.0
 10
58.11726753820694
 20
219.2529383696135
 30
0.0
 10
58.02815700580076
 20
219.2443448616774
 30
0.0
  0
SPLINE
  5
11C
330
1F
100
AcDbEntity
  8
0
  6
Continuous
 62
     7
370
    15
100
AcDbSpline
210
0.0
220
0.0
230
1.0
 70
    11
 71
     3
 72
    70
 73
    66
 74
     0
 42
0.000000001
 43
0.00000001
 40
0.0
 40
0.0
 40
0.0
 40
0.0
 40
0.0312499999999999
 40
0.0312499999999999
 40
0.0624999999999999
 40
0.0624999999999999
 40
0.09375
 40
0.09375
 40
0.125
 40
0.125
 40
0.15625
 40
0.15625
 40
0.1875
 40
0.1875
 40
0.21875
 40
0.21875
 40
0.2500000000000001
 40
0.2500000000000001
 40
0.2812500000000001
 40
0.2812500000000001
 40
0.3125000000000001
 40
0.3125000000000001
 40
0.3437500000000001
 40
0.3437500000000001
 40
0.3750000000000001
 40
0.3750000000000001
 40
0.4062500000000001
 40
0.4062500000000001
 40
0.4375000000000002
 40
0.4375000000000002
 40
0.4687500000000002
 40
0.4687500000000002
 40
0.5000000000000002
 40
0.5000000000000002
 40
0.5312500000000002
 40
0.5312500000000002
 40
0.5625000000000002
 40
0.5625000000000002
 40
0.5937500000000001
 40
0.5937500000000001
 40
0.6250000000000001
 40
0.6250000000000001
 40
0.65625
 40
0.65625
 40
0.6875
 40
0.6875
 40
0.71875
 40
0.71875
 40
0.75
 40
0.75
 40
0.7812499999999999
 40
0.7812499999999999
 40
0.8124999999999999
 40
0.8124999999999999
 40
0.8437499999999999
 40
0.8437499999999999
 40
0.8749999999999999
 40
0.8749999999999999
 40
0.90625
 40
0.90625
 40
0.9375
 40
0.9375
 40
0.96875
 40
0.96875
 40
1.0
 40
1.0
 40
1.0
 40
1.0
 10
56.32203947239491
 20
222.7067999052566
 30
0.0
 10
56.32203947238614
 20
222.8527290672239
 30
0.0
 10
56.33121260390444
 20
223.0041154638215
 30
0.0
 10
56.37133594714297
 20
223.310747345296
 30
0.0
 10
56.40232132479787
 20
223.4659616546834
 30
0.0
 10
56.48766004515273
 20
223.7708112523193
 30
0.0
 10
56.54203352311619
 20
223.9203847493678
 30
0.0
 10
56.67293602418556
 20
224.2035449697306
 30
0.0
 10
56.7494560919707
 20
224.3370581728512
 30
0.0
 10
56.92042273982568
 20
224.5788415250022
 30
0.0
 10
57.01483083111716
 20
224.6870572426803
 30
0.0
 10
57.21505534307575
 20
224.8721813350894
 30
0.0
 10
57.32081977711525
 20
224.9490770450841
 30
0.0
 10
57.53638099483111
 20
225.0697642208573
 30
0.0
 10
57.64613408553085
 20
225.1135841621985
 30
0.0
 10
57.86295556824262
 20
225.1703271384263
 30
0.0
 10
57.97000191585462
 20
225.1832999054546
 30
0.0
 10
58.17637691585463
 20
225.1832999054794
 30
0.0
 10
58.28342326346817
 20
225.1703271384768
 30
0.0
 10
58.50024474618675
 20
225.1135841623011
 30
0.0
 10
58.60999783689174
 20
225.0697642209863
 30
0.0
 10
58.82555905462212
 20
224.9490770452649
 30
0.0
 10
58.93132348867088
 20
224.8721813352956
 30
0.0
 10
59.13154800065168
 20
224.6870572429347
 30
0.0
 10
59.2259560919562
 20
224.5788415252793
 30
0.0
 10
59.39692273984024
 20
224.3370581731693
 30
0.0
 10
59.4734428076414
 20
224.2035449700672
 30
0.0
 10
59.6043453087448
 20
223.9203847497358
 30
0.0
 10
59.65871878672623
 20
223.7708112527004
 30
0.0
 10
59.74405750711769
 20
223.465961655085
 30
0.0
 10
59.77504288479128
 20
223.310747345705
 30
0.0
 10
59.81516622806665
 20
223.0041154642402
 30
0.0
 10
59.82433935960314
 20
222.8527290676448
 30
0.0
 10
59.82433935962067
 20
222.5608707437101
 30
0.0
 10
59.81516622810236
 20
222.4094843471125
 30
0.0
 10
59.77504288486386
 20
222.1028524656381
 30
0.0
 10
59.74405750720891
 20
221.9476381562507
 30
0.0
 10
59.6587187868541
 20
221.6427885586147
 30
0.0
 10
59.60434530889063
 20
221.4932150615662
 30
0.0
 10
59.47344280782127
 20
221.2100548412034
 30
0.0
 10
59.39692274003614
 20
221.0765416380829
 30
0.0
 10
59.22595609218116
 20
220.8347582859318
 30
0.0
 10
59.13154800088967
 20
220.7265425682537
 30
0.0
 10
58.93132348893109
 20
220.5414184758447
 30
0.0
 10
58.82555905489156
 20
220.4645227658499
 30
0.0
 10
58.6099978371757
 20
220.3438355900768
 30
0.0
 10
58.50024474647599
 20
220.3000156487355
 30
0.0
 10
58.28342326376421
 20
220.2432726725078
 30
0.0
 10
58.17637691615222
 20
220.2302999054794
 30
0.0
 10
57.97000191615221
 20
220.2302999054546
 30
0.0
 10
57.86295556853866
 20
220.2432726724572
 30
0.0
 10
57.64613408582007
 20
220.3000156486329
 30
0.0
 10
57.53638099511509
 20
220.3438355899478
 30
0.0
 10
57.32081977738471
 20
220.4645227656691
 30
0.0
 10
57.21505534333595
 20
220.5414184756384
 30
0.0
 10
57.01483083135512
 20
220.7265425679993
 30
0.0
 10
56.92042274005063
 20
220.8347582856547
 30
0.0
 10
56.7494560921666
 20
221.0765416377647
 30
0.0
 10
56.67293602436542
 20
221.2100548408669
 30
0.0
 10
56.54203352326202
 20
221.4932150611982
 30
0.0
 10
56.48766004528057
 20
221.6427885582336
 30
0.0
 10
56.40232132488912
 20
221.9476381558491
 30
0.0
 10
56.37133594721553
 20
222.102852465229
 30
0.0
 10
56.33121260394015
 20
222.4094843466938
 30
0.0
 10
56.32203947240367
 20
222.5608707432892
 30
0.0
 10
56.32203947239491
 20
222.7067999052566
 30
0.0
  0
SPLINE
  5
11D
330
1F
100
AcDbEntity
  8
0
  6
Continuous
 62
     7
370
    15
100
AcDbSpline
210
0.0
220
0.0
230
1.0
 70
     8
 71
     3
 72
    21
 73
    17
 74
     0
 42
0.000000001
 43
0.00000001
 40
0.0
 40
0.0
 40
0.0
 40
0.0
 40
0.0720836575732984
 40
0.1441673151465974
 40
0.2162509727198955
 40
0.2883346302931942
 40
0.3604182878664929
 40
0.4325019454397916
 40
0.5045856030130899
 40
0.5766692605863882
 40
0.6487529181596867
 40
0.7208365757329859
 40
0.792920233306284
 40
0.8650038908795827
 40
0.9370875484528813
 40
0.9999999999999999
 40
0.9999999999999999
 40
0.9999999999999999
 40
0.9999999999999999
 10
57.4538463107998
 20
220.7334501554041
 30
0.0
 10
57.36482539806237
 20
220.7981203547008
 30
0.0
 10
57.18678357258749
 20
220.9274607532942
 30
0.0
 10
56.96016237480152
 20
221.2101702062596
 30
0.0
 10
56.77460534635369
 20
221.5449496261848
 30
0.0
 10
56.63941005713207
 20
221.9258371436918
 30
0.0
 10
56.55919141352599
 20
222.3363459235379
 30
0.0
 10
56.53718774670397
 20
222.7611949937421
 30
0.0
 10
56.57420292327182
 20
223.1839285834938
 30
0.0
 10
56.66882578495189
 20
223.5883228650011
 30
0.0
 10
56.81741649340724
 20
223.958879904151
 30
0.0
 10
57.01426761615389
 20
224.2811669693957
 30
0.0
 10
57.25180650932246
 20
224.5435257675969
 30
0.0
 10
57.52093292382089
 20
224.7331583574621
 30
0.0
 10
57.79888909864152
 20
224.8478340186861
 30
0.0
 10
57.98615603404742
 20
224.8569432233777
 30
0.0
 10
58.07342834194478
 20
224.8611884005353
 30
0.0
  0
SPLINE
  5
11E
330
1F
100
AcDbEntity
  8
0
  6
Continuous
 62
     7
370
    15
100
AcDbSpline
210
0.0
220
0.0
230
1.0
 70
     8
 71
     3
 72
    10
 73
     6
 74
     0
 42
0.000000001
 43
0.00000001
 40
0.0
 40
0.0
 40
0.0
 40
0.0
 40
0.0598101896121049
 40
0.5299050948060566
 40
1.0
 40
1.0
 40
1.0
 40
1.0
 10
58.07295049006207
 20
220.5524114103987
 30
0.0
 10
58.0602969070362
 20
220.5509309342817
 30
0.0
 10
57.94818895090949
 20
220.5378142422557
 30
0.0
 10
57.73453070736523
 20
220.5880760191367
 30
0.0
 10
57.54740777632161
 20
220.6849921099816
 30
0.0
 10
57.4538463107998
 20
220.7334501554041
 30
0.0
  0
SPLINE
  5
11F
330
1F
100
AcDbEntity
  8
0
  6
Continuous
 62
     7
370
    15
100
AcDbSpline
210
0.0
220
0.0
230
1.0
 70
     8
 71
     3
 72
    41
 73
    37
 74
     0
 42
0.000000001
 43
0.00000001
 40
0.0
 40
0.0
 40
0.0
 40
0.0
 40
0.0287904051628357
 40
0.0632225206229937
 40
0.0983853349750415
 40
0.1335481493270891
 40
0.150921221815069
 40
0.1680242436317029
 40
0.2010820170311873
 40
0.2322715495979168
 40
0.263461082164647
 40
0.2965188555641293
 40
0.3309509710242877
 40
0.3661137853763347
 40
0.4012765997283822
 40
0.4186496722163626
 40
0.4357526940329967
 40
0.4688104674324795
 40
0.4999999999992092
 40
0.5311895325659391
 40
0.564247305965422
 40
0.5986794214255801
 40
0.6338422357776278
 40
0.6690050501296754
 40
0.6863781226176553
 40
0.7034811444342906
 40
0.7365389178337731
 40
0.7677284504005026
 40
0.7989179829672326
 40
0.8319757563667151
 40
0.866407871826874
 40
0.9015706861789209
 40
0.9367335005309686
 40
0.9541065730189489
 40
0.9712095948355828
 40
1.0
 40
1.0
 40
1.0
 40
1.0
 10
55.81577894980959
 20
223.3025208153959
 30
0.0
 10
55.84340143468756
 20
223.4608361229722
 30
0.0
 10
55.90405925141427
 20
223.8084898896201
 30
0.0
 10
56.09183973018357
 20
224.3034005260517
 30
0.0
 10
56.35574650539733
 20
224.7663900981007
 30
0.0
 10
56.63012555829856
 20
225.0809121733661
 30
0.0
 10
56.87066108938495
 20
225.2793668258957
 30
0.0
 10
57.1164907638229
 20
225.4376170711759
 30
0.0
 10
57.430847920471
 20
225.5654847596701
 30
0.0
 10
57.81244279514578
 20
225.6149549762895
 30
0.0
 10
58.19409999489108
 20
225.5654561219079
 30
0.0
 10
58.57521987302425
 20
225.4105036740804
 30
0.0
 10
58.941718150009
 20
225.1419841589243
 30
0.0
 10
59.26872078908823
 20
224.7663771687425
 30
0.0
 10
59.49121393758092
 20
224.3789265764986
 30
0.0
 10
59.63153068029126
 20
224.0386833927334
 30
0.0
 10
59.74343331875939
 20
223.6910454037941
 30
0.0
 10
59.83384810803493
 20
223.2464689667432
 30
0.0
 10
59.86882923331795
 20
222.7068148266684
 30
0.0
 10
59.83382815146481
 20
222.1670693719729
 30
0.0
 10
59.7242602551753
 20
221.6280846619628
 30
0.0
 10
59.53438827663803
 20
221.1097777737482
 30
0.0
 10
59.26879402855158
 20
220.6473262215703
 30
0.0
 10
58.99482508894495
 20
220.3326733904314
 30
0.0
 10
58.75423682223893
 20
220.1342355489709
 30
0.0
 10
58.50841965963894
 20
219.9759813252179
 30
0.0
 10
58.1940565252039
 20
219.8481154655056
 30
0.0
 10
57.81246389694141
 20
219.7986448344701
 30
0.0
 10
57.43080445518888
 20
219.8481432755034
 30
0.0
 10
57.04969180462757
 20
220.0030979382312
 30
0.0
 10
56.68316542826253
 20
220.2716085330171
 30
0.0
 10
56.35627051070031
 20
220.6472498073286
 30
0.0
 10
56.13344184768427
 20
221.0345935969927
 30
0.0
 10
55.99380032455505
 20
221.375051722995
 30
0.0
 10
55.886491492319
 20
221.6999344121563
 30
0.0
 10
55.84303843409988
 20
221.952583926425
 30
0.0
 10
55.81577894981081
 20
222.1110789955205
 30
0.0
  0
SPLINE
  5
120
330
1F
100
AcDbEntity
  8
0
  6
Continuous
 62
     7
370
    15
100
AcDbSpline
210
0.0
220
0.0
230
1.0
 70
     8
 71
     3
 72
    38
 73
    34
 74
     0
 42
0.000000001
 43
0.00000001
 40
0.0
 40
0.0
 40
0.0
 40
0.0
 40
0.0624999999999999
 40
0.0624999999999999
 40
0.1249999999999999
 40
0.1249999999999999
 40
0.1874999999999998
 40
0.1874999999999998
 40
0.2499999999999997
 40
0.2499999999999997
 40
0.3124999999999997
 40
0.3124999999999997
 40
0.3749999999999997
 40
0.3749999999999997
 40
0.4374999999999997
 40
0.4374999999999997
 40
0.4999999999999997
 40
0.4999999999999997
 40
0.5624999999999997
 40
0.5624999999999997
 40
0.6249999999999998
 40
0.6249999999999998
 40
0.6874999999999998
 40
0.6874999999999998
 40
0.7499999999999998
 40
0.7499999999999998
 40
0.8124999999999999
 40
0.8124999999999999
 40
0.8749999999999999
 40
0.8749999999999999
 40
0.9375
 40
0.9375
 40
1.0
 40
1.0
 40
1.0
 40
1.0
 10
57.51575383272341
 20
220.7334501554041
 30
0.0
 10
57.42442714589451
 20
220.7907765911327
 30
0.0
 10
57.33709505738159
 20
220.860821995258
 30
0.0
 10
57.17376764511608
 20
221.0236657963554
 30
0.0
 10
57.09777635995562
 20
221.1164601666936
 30
0.0
 10
56.96005148994067
 20
221.3212369014788
 30
0.0
 10
56.89832131060501
 20
221.4332142024175
 30
0.0
 10
56.79149167235831
 20
221.6720544158128
 30
0.0
 10
56.74639485502061
 20
221.7989114224744
 30
0.0
 10
56.67456585162926
 20
222.0626366190222
 30
0.0
 10
56.64783544168922
 20
222.1994982877831
 30
0.0
 10
56.61376742147132
 20
222.4779736560787
 30
0.0
 10
56.6064306535924
 20
222.6195804697613
 30
0.0
 10
56.61143283145938
 20
222.9021043575721
 30
0.0
 10
56.62377165351662
 20
223.0430144457404
 30
0.0
 10
56.66765179857832
 20
223.318729618499
 30
0.0
 10
56.69919203655975
 20
223.4535278854882
 30
0.0
 10
56.78026385944972
 20
223.7118387637282
 30
0.0
 10
56.82979343969767
 20
223.8353449877336
 30
0.0
 10
56.94494139572782
 20
224.0663248292668
 30
0.0
 10
57.0105569242499
 20
224.1737927353628
 30
0.0
 10
57.15535594204575
 20
224.3685651144141
 30
0.0
 10
57.23453585087846
 20
224.4558647712383
 30
0.0
 10
57.40342138539032
 20
224.6069446945101
 30
0.0
 10
57.49312283504181
 20
224.670721225209
 30
0.0
 10
57.67960470989049
 20
224.7723027759768
 30
0.0
 10
57.77638052395582
 20
224.8101052842418
 30
0.0
 10
57.97329234527111
 20
224.8582847404771
 30
0.0
 10
58.07342348348825
 20
224.8686604971155
 30
0.0
 10
58.27319804040644
 20
224.8615863493346
 30
0.0
 10
58.37283651928789
 20
224.8441366198376
 30
0.0
 10
58.56779658762149
 20
224.7820807235724
 30
0.0
 10
58.66311335630174
 20
224.7374760912586
 30
0.0
 10
58.75444004313064
 20
224.68014965553
 30
0.0
  0
SPLINE
  5
121
330
1F
100
AcDbEntity
  8
0
  6
Continuous
 62
     7
370
    15
100
AcDbSpline
210
0.0
220
0.0
230
1.0
 70
     8
 71
     3
 72
    38
 73
    34
 74
     0
 42
0.000000001
 43
0.00000001
 40
0.0
 40
0.0
 40
0.0
 40
0.0
 40
0.0625
 40
0.0625
 40
0.125
 40
0.125
 40
0.1875
 40
0.1875
 40
0.25
 40
0.25
 40
0.3125
 40
0.3125
 40
0.375
 40
0.375
 40
0.4375
 40
0.4375
 40
0.5
 40
0.5
 40
0.5625
 40
0.5625
 40
0.625
 40
0.625
 40
0.6875
 40
0.6875
 40
0.75
 40
0.75
 40
0.8125
 40
0.8125
 40
0.875
 40
0.875
 40
0.9375
 40
0.9375
 40
1.0
 40
1.0
 40
1.0
 40
1.0
 10
58.75444004313061
 20
224.68014965553
 30
0.0
 10
58.84576672995951
 20
224.6228232198013
 30
0.0
 10
58.93309881847244
 20
224.552777815676
 30
0.0
 10
59.09642623073796
 20
224.3899340145786
 30
0.0
 10
59.17241751589842
 20
224.2971396442404
 30
0.0
 10
59.31014238591336
 20
224.0923629094553
 30
0.0
 10
59.37187256524903
 20
223.9803856085166
 30
0.0
 10
59.47870220349573
 20
223.7415453951213
 30
0.0
 10
59.52379902083342
 20
223.6146883884596
 30
0.0
 10
59.59562802422479
 20
223.3509631919118
 30
0.0
 10
59.62235843416482
 20
223.214101523151
 30
0.0
 10
59.65642645438271
 20
222.9356261548553
 30
0.0
 10
59.66376322226166
 20
222.7940193411727
 30
0.0
 10
59.65876104439465
 20
222.511495453362
 30
0.0
 10
59.64642222233743
 20
222.3705853651936
 30
0.0
 10
59.60254207727574
 20
222.0948701924351
 30
0.0
 10
59.5710018392943
 20
221.9600719254458
 30
0.0
 10
59.48993001640434
 20
221.7017610472058
 30
0.0
 10
59.44040043615637
 20
221.5782548232004
 30
0.0
 10
59.32525248012622
 20
221.3472749816673
 30
0.0
 10
59.25963695160413
 20
221.2398070755712
 30
0.0
 10
59.1148379338083
 20
221.04503469652
 30
0.0
 10
59.03565802497558
 20
220.9577350396957
 30
0.0
 10
58.86677249046373
 20
220.8066551164239
 30
0.0
 10
58.77707104081224
 20
220.742878585725
 30
0.0
 10
58.59058916596356
 20
220.6412970349572
 30
0.0
 10
58.49381335189822
 20
220.6034945266922
 30
0.0
 10
58.29690153058293
 20
220.5553150704569
 30
0.0
 10
58.19677039236577
 20
220.5449393138185
 30
0.0
 10
57.99699583544758
 20
220.5520134615994
 30
0.0
 10
57.89735735656613
 20
220.5694631910964
 30
0.0
 10
57.70239728823255
 20
220.6315190873616
 30
0.0
 10
57.60708051955228
 20
220.6761237196754
 30
0.0
 10
57.51575383272339
 20
220.7334501554041
 30
0.0
  0
SPLINE
  5
122
330
1F
100
AcDbEntity
  8
0
  6
Continuous
 62
     7
370
    15
100
AcDbSpline
210
0.0
220
0.0
230
1.0
 70
     8
 71
     3
 72
    39
 73
    35
 74
     0
 42
0.000000001
 43
0.00000001
 40
0.0
 40
0.0
 40
0.0
 40
0.0
 40
0.0321744561835006
 40
0.0643489123670007
 40
0.096523368550501
 40
0.1286978247340015
 40
0.1608722809175017
 40
0.193046737101002
 40
0.2252211932845024
 40
0.2573956494680027
 40
0.2895701056515029
 40
0.3217445618350033
 40
0.3539190180185035
 40
0.3860934742020039
 40
0.418267930385504
 40
0.4504423865690045
 40
0.4826168427525048
 40
0.514791298936005
 40
0.5469657551195054
 40
0.5791402113030056
 40
0.6113146674865058
 40
0.6434891236700063
 40
0.6756635798535066
 40
0.7078380360370069
 40
0.7400124922205074
 40
0.7721869484040075
 40
0.8043614045875078
 40
0.8365358607710084
 40
0.8687103169545084
 40
0.9008847731380087
 40
0.9330592293215092
 40
0.9652336855050093
 40
0.9974081416885097
 40
1.0
 40
1.0
 40
1.0
 40
1.0
 10
51.95107289606825
 20
229.056799905467
 30
0.0
 10
51.67400233016898
 20
229.0463151297007
 30
0.0
 10
51.11986119837042
 20
229.0253455781681
 30
0.0
 10
50.3028717632756
 20
228.856666433005
 30
0.0
 10
49.51408350653058
 20
228.5905621042279
 30
0.0
 10
48.76699281390163
 20
228.2216947715658
 30
0.0
 10
48.07438261427234
 20
227.7590261264982
 30
0.0
 10
47.44810366018619
 20
227.2097624203399
 30
0.0
 10
46.89887175818489
 20
226.5834919881519
 30
0.0
 10
46.43608441838758
 20
225.8908795050869
 30
0.0
 10
46.06766006048706
 20
225.1437894243028
 30
0.0
 10
45.79990252739351
 20
224.3550010036144
 30
0.0
 10
45.63739322473474
 20
223.538011612448
 30
0.0
 10
45.5829127317347
 20
222.7067999029798
 30
0.0
 10
45.63739322473577
 20
221.8755882084349
 30
0.0
 10
45.79990252738931
 20
221.0585987724988
 30
0.0
 10
46.06766006050277
 20
220.2698105159663
 30
0.0
 10
46.4360844183288
 20
219.5227198233285
 30
0.0
 10
46.89887175840417
 20
218.8301096235218
 30
0.0
 10
47.44810365936765
 20
218.2038306701542
 30
0.0
 10
48.074382617327
 20
217.6545987654562
 30
0.0
 10
48.76699280250132
 20
217.1918114357273
 30
0.0
 10
49.51408354907692
 20
216.8233870402497
 30
0.0
 10
50.30287160449025
 20
216.555629647396
 30
0.0
 10
51.11986179096527
 20
216.393119821355
 30
0.0
 10
51.95107068447398
 20
216.3386412816442
 30
0.0
 10
52.78229284754802
 20
216.3931144848705
 30
0.0
 10
53.59924322532708
 20
216.5556509933337
 30
0.0
 10
54.38817724595892
 20
216.8233069929834
 30
0.0
 10
55.13472394035636
 20
217.1921102788548
 30
0.0
 10
55.82936436902482
 20
217.6534834402123
 30
0.0
 10
56.44806640518583
 20
218.2079931280019
 30
0.0
 10
56.8485799925823
 20
218.6286691410553
 30
0.0
 10
57.01372879160783
 20
218.8781973642264
 30
0.0
 10
57.02604077502063
 20
218.896799905467
 30
0.0
  0
SPLINE
  5
123
330
1F
100
AcDbEntity
  8
0
  6
Continuous
 62
     7
370
    15
100
AcDbSpline
210
0.0
220
0.0
230
1.0
 70
     8
 71
     3
 72
    15
 73
    11
 74
     0
 42
0.000000001
 43
0.00000001
 40
0.0
 40
0.0
 40
0.0
 40
0.0
 40
0.0113771282783645
 40
0.1526089670957404
 40
0.2938408059131173
 40
0.4350726447304943
 40
0.5763044835478702
 40
0.7175363223652472
 40
0.8587681611826242
 40
1.0
 40
1.0
 40
1.0
 40
1.0
 10
57.0260407750207
 20
226.516799905467
 30
0.0
 10
57.01372879160701
 20
226.535402453835
 30
0.0
 10
56.84857999256987
 20
226.7849307726107
 30
0.0
 10
56.44806640605313
 20
227.2055995621122
 30
0.0
 10
55.8293643659571
 20
227.7601415590233
 30
0.0
 10
55.13472395176017
 20
228.2213958996931
 30
0.0
 10
54.38817720341164
 20
228.5906421591938
 30
0.0
 10
53.5992433841127
 20
228.856645085014
 30
0.0
 10
52.78229225495312
 20
229.0253509151658
 30
0.0
 10
52.22814601569654
 20
229.0463169087
 30
0.0
 10
51.95107289606825
 20
229.056799905467
 30
0.0
  0
LINE
  5
124
330
1F
100
AcDbEntity
  8
0
  6
Continuous
 62
     7
370
    15
100
AcDbLine
 10
204.1517855861
 20
147.4656311915
 30
0.0
 11
205.1169855861
 21
147.4656311915
 31
0.0
  0
LINE
  5
125
330
1F
100
AcDbEntity
  8
0
  6
Continuous
 62
     7
370
    15
100
AcDbLine
 10
205.1169855861
 20
150.6406311915
 30
0.0
 11
204.1517855861
 21
150.6406311915
 31
0.0
  0
SPLINE
  5
126
330
1F
100
AcDbEntity
  8
0
  6
Continuous
 62
     7
370
    15
100
AcDbSpline
210
0.0
220
0.0
230
1.0
 70
     8
 71
     3
 72
    37
 73
    33
 74
     0
 42
0.000000001
 43
0.00000001
 40
0.0
 40
0.0
 40
0.0
 40
0.0
 40
0.0027014642047224
 40
0.0217201103433721
 40
0.0392529542853809
 40
0.0552996157706799
 40
0.069859909814725
 40
0.0827133587295215
 40
0.094133021467562
 40
0.1041189732202311
 40
0.1130399559334516
 40
0.1452614824033375
 40
0.1784219240988026
 40
0.2981968412070877
 40
0.5120819342507995
 40
0.755132906400238
 40
0.7956405252075613
 40
0.8363699846246266
 40
0.877837096179807
 40
0.9101397180671642
 40
0.9441672016015321
 40
0.955625750569729
 40
0.9661196189842668
 40
0.9755705606143162
 40
0.9819725978288687
 40
0.9877908397691442
 40
0.9931315072522846
 40
0.9944047133831592
 40
0.9956727427636141
 40
0.9974610825626813
 40
0.9986379909210451
 40
1.0
 40
1.0
 40
1.0
 40
1.0
 10
204.6345832709007
 20
146.3347044084525
 30
0.0
 10
204.6338825206217
 20
146.2701467434752
 30
0.0
 10
204.6282484006674
 20
145.7510950364913
 30
0.0
 10
204.6185477156983
 20
144.8126611369608
 30
0.0
 10
204.6073071313942
 20
143.5550106638046
 30
0.0
 10
204.600738553361
 20
142.4037829147339
 30
0.0
 10
204.5976462376974
 20
141.3644750268669
 30
0.0
 10
204.5965351306951
 20
140.4358897400718
 30
0.0
 10
204.5962871869105
 20
139.6167799575357
 30
0.0
 10
204.5962853953793
 20
138.8917963111813
 30
0.0
 10
204.5962857862598
 20
137.6697435328102
 30
0.0
 10
204.5962855098042
 20
135.8937282188131
 30
0.0
 10
204.5962856702596
 20
131.4680990446588
 30
0.0
 10
204.5962855259285
 20
122.7003117640589
 30
0.0
 10
204.596285609967
 20
108.9157804827681
 30
0.0
 10
204.5962855851856
 20
97.02601958092038
 30
0.0
 10
204.5962855862232
 20
89.2755066606559
 30
0.0
 10
204.5962855861176
 20
86.34298082026918
 30
0.0
 10
204.5962855861451
 20
83.60671600833551
 30
0.0
 10
204.5962855861393
 20
81.03094904128083
 30
0.0
 10
204.5962855861406
 20
79.17258630936496
 30
0.0
 10
204.5962855861405
 20
77.83604047310142
 30
0.0
 10
204.5962855861405
 20
77.08675312429109
 30
0.0
 10
204.5962855861405
 20
76.45910155252953
 30
0.0
 10
204.5962855861405
 20
75.94449089783484
 30
0.0
 10
204.5962855861405
 20
75.52997646301746
 30
0.0
 10
204.5962855861405
 20
75.23909370285456
 30
0.0
 10
204.5962855861405
 20
75.06488983406767
 30
0.0
 10
204.5962855861405
 20
74.97379981337033
 30
0.0
 10
204.5962855861405
 20
74.8946347262859
 30
0.0
 10
204.5962855861405
 20
74.8395291567853
 30
0.0
 10
204.5962855861405
 20
74.83357525200927
 30
0.0
 10
204.5962855861405
 20
74.83038126379955
 30
0.0
  0
SPLINE
  5
127
330
1F
100
AcDbEntity
  8
0
  6
Continuous
 62
     7
370
    15
100
AcDbSpline
210
0.0
220
0.0
230
1.0
 70
     8
 71
     3
 72
    10
 73
     6
 74
     0
 42
0.000000001
 43
0.00000001
 40
0.0
 40
0.0
 40
0.0
 40
0.0
 40
0.3452165182643851
 40
0.849251664074464
 40
1.0
 40
1.0
 40
1.0
 40
1.0
 10
204.6203715097792
 20
74.79495687631862
 30
0.0
 10
204.6244372244429
 20
74.80015402560544
 30
0.0
 10
204.6344391066271
 20
74.81293929933005
 30
0.0
 10
204.6456875030054
 20
74.8839702017845
 30
0.0
 10
204.6509197051144
 20
74.94029392360345
 30
0.0
 10
204.6521242953082
 20
74.95326112203495
 30
0.0
  0
SPLINE
  5
128
330
1F
100
AcDbEntity
  8
0
  6
Continuous
 62
     7
370
    15
100
AcDbSpline
210
0.0
220
0.0
230
1.0
 70
     8
 71
     3
 72
    40
 73
    36
 74
     0
 42
0.000000001
 43
0.00000001
 40
0.0
 40
0.0
 40
0.0
 40
0.0
 40
0.0013620408307207
 40
0.0025389766257
 40
0.0043273581153466
 40
0.006865146923335
 40
0.0094814958793871
 40
0.0122098263740755
 40
0.0215111655490259
 40
0.0322307460772101
 40
0.0443719787059607
 40
0.0577654089591474
 40
0.0711649644627367
 40
0.0843045702036493
 40
0.0971838410492275
 40
0.1201163553048363
 40
0.1424105523873337
 40
0.1644792874351781
 40
0.2227059222407492
 40
0.2807220728663495
 40
0.4879286545823503
 40
0.7601521970991584
 40
0.8000780378279408
 40
0.8399116549456642
 40
0.8786716078861744
 40
0.8870192052020177
 40
0.8953456311668248
 40
0.9045623753827118
 40
0.9150335272629667
 40
0.9267591557063596
 40
0.9397392858123388
 40
0.9566477960470036
 40
0.9752986402218138
 40
0.9956913889991197
 40
1.0
 40
1.0
 40
1.0
 40
1.0
 10
204.6724855861405
 20
74.83038126379957
 30
0.0
 10
204.6724855861405
 20
74.83357585342476
 30
0.0
 10
204.6724855861405
 20
74.83953087929781
 30
0.0
 10
204.6724855861405
 20
74.89462767400687
 30
0.0
 10
204.6724855861405
 20
74.99759431089198
 30
0.0
 10
204.6724855861405
 20
75.1500722355106
 30
0.0
 10
204.6724855861405
 20
75.33055262987828
 30
0.0
 10
204.6724855861405
 20
75.6726245771965
 30
0.0
 10
204.6724855861405
 20
76.2122245941211
 30
0.0
 10
204.6724855861405
 20
76.97761924331894
 30
0.0
 10
204.6724855861405
 20
77.84273165388393
 30
0.0
 10
204.6724855861405
 20
78.77228229905693
 30
0.0
 10
204.6724855861405
 20
79.72605365676925
 30
0.0
 10
204.6724855861405
 20
80.6677136578774
 30
0.0
 10
204.6724855861405
 20
81.8372454376039
 30
0.0
 10
204.6724855861406
 20
83.22564785558914
 30
0.0
 10
204.6724855861399
 20
84.83375449624421
 30
0.0
 10
204.6724855861439
 20
87.28538200682512
 30
0.0
 10
204.6724855861022
 20
90.59088196527071
 30
0.0
 10
204.6724855864294
 20
98.32130983331542
 30
0.0
 10
204.6724855811267
 20
111.1668711281801
 30
0.0
 10
204.6724856013587
 20
123.5802516386256
 30
0.0
 10
204.6724855790904
 20
131.9931886489628
 30
0.0
 10
204.6724856134336
 20
134.8259837138282
 30
0.0
 10
204.6724855197512
 20
136.9040187209784
 30
0.0
 10
204.6724856323783
 20
138.2289694648177
 30
0.0
 10
204.6724853982567
 20
138.8478145358001
 30
0.0
 10
204.6724861349765
 20
139.5173055718253
 30
0.0
 10
204.6723137461414
 20
140.2679161150372
 30
0.0
 10
204.6715211947244
 20
141.1083424793038
 30
0.0
 10
204.6691717405513
 20
142.1024613403155
 30
0.0
 10
204.6635737926277
 20
143.2619322050924
 30
0.0
 10
204.6524069816272
 20
144.5985980221072
 30
0.0
 10
204.6416642283725
 20
145.6344131010484
 30
0.0
 10
204.6352747405786
 20
146.2248600159263
 30
0.0
 10
204.6341602344281
 20
146.3278505434002
 30
0.0
  0
SPLINE
  5
129
330
1F
100
AcDbEntity
  8
0
  6
Continuous
 62
     7
370
    15
100
AcDbSpline
210
0.0
220
0.0
230
1.0
 70
    24
 71
     3
 72
    11
 73
     7
 74
     0
 42
0.000000001
 43
0.00000001
 40
0.0
 40
0.0
 40
0.0
 40
0.0
 40
0.1258550340295996
 40
0.4679890521341464
 40
0.9034323030661574
 40
1.0
 40
1.0
 40
1.0
 40
1.0
 10
204.5962855861402
 20
147.4656311915312
 30
0.0
 10
204.5962855861402
 20
147.0750076121152
 30
0.0
 10
204.5962855861402
 20
145.6224828078299
 30
0.0
 10
204.5962855861402
 20
142.830569761018
 30
0.0
 10
204.5962855861402
 20
140.1419150610334
 30
0.0
 10
204.5962855861402
 20
138.5209010571563
 30
0.0
 10
204.5962855861402
 20
138.2266635237373
 30
0.0
  0
SPLINE
  5
12A
330
1F
100
AcDbEntity
  8
0
  6
Continuous
 62
     7
370
    15
100
AcDbSpline
210
0.0
220
0.0
230
1.0
 70
    24
 71
     3
 72
    11
 73
     7
 74
     0
 42
0.000000001
 43
0.00000001
 40
0.0
 40
0.0
 40
0.0
 40
0.0
 40
0.1801883364956567
 40
0.5237692412335614
 40
0.9610540373473725
 40
0.9999999999999999
 40
0.9999999999999999
 40
0.9999999999999999
 40
0.9999999999999999
 10
204.6724855861402
 20
138.2644795513344
 30
0.0
 10
204.6724855861402
 20
138.8122324668073
 30
0.0
 10
204.6724855861402
 20
140.4044339072573
 30
0.0
 10
204.6724855861402
 20
143.3482510745357
 30
0.0
 10
204.6724855861402
 20
145.8722195718021
 30
0.0
 10
204.6724855861403
 20
147.3451735954246
 30
0.0
 10
204.6724855861403
 20
147.4656311915312
 30
0.0
  0
LINE
  5
12B
330
1F
100
AcDbEntity
  8
0
  6
Continuous
 62
     7
370
    15
100
AcDbLine
 10
241.1679855203
 20
77.5886427501
 30
0.0
 11
241.3245907486
 21
77.7969117294
 31
0.0
  0
LINE
  5
12C
330
1F
100
AcDbEntity
  8
0
  6
Continuous
 62
     7
370
    15
100
AcDbLine
 10
168.5020343622
 20
77.1657345578
 30
0.0
 11
168.6629195182
 21
76.9593289182
 31
0.0
  0
LINE
  5
12D
330
1F
100
AcDbEntity
  8
0
  6
Continuous
 62
     7
370
    15
100
AcDbLine
 10
209.1468284769
 20
46.2045305523
 30
0.0
 11
209.1468284769
 21
52.4973186885
 31
0.0
  0
LINE
  5
12E
330
1F
100
AcDbEntity
  8
0
  6
Continuous
 62
     7
370
    15
100
AcDbLine
 10
201.5268284769
 20
52.4973186885
 30
0.0
 11
201.5268284769
 21
46.2045305523
 31
0.0
  0
LINE
  5
12F
330
1F
100
AcDbEntity
  8
0
  6
Continuous
 62
     7
370
    15
100
AcDbLine
 10
203.1778284769
 20
52.3885545942
 30
0.0
 11
203.1778284769
 21
52.3266470722
 31
0.0
  0
LINE
  5
130
330
1F
100
AcDbEntity
  8
0
  6
Continuous
 62
     7
370
    15
100
AcDbLine
 10
207.4958284769
 20
52.3266470722
 30
0.0
 11
207.4958284769
 21
52.3885545942
 31
0.0
  0
LINE
  5
131
330
1F
100
AcDbEntity
  8
0
  6
Continuous
 62
     7
370
    15
100
AcDbLine
 10
198.9868284769
 20
40.480184225
 30
0.0
 11
198.9868284769
 21
39.210184225
 31
0.0
  0
LINE
  5
132
330
1F
100
AcDbEntity
  8
0
  6
Continuous
 62
     7
370
    15
100
AcDbLine
 10
211.6868284769
 20
39.210184225
 30
0.0
 11
211.6868284769
 21
40.480184225
 31
0.0
  0
LINE
  5
133
330
1F
100
AcDbEntity
  8
0
  6
Continuous
 62
     7
370
    15
100
AcDbLine
 10
201.5268284769
 20
46.2045305523
 30
0.0
 11
201.5268284769
 21
40.4795843046
 31
0.0
  0
LINE
  5
134
330
1F
100
AcDbEntity
  8
0
  6
Continuous
 62
     7
370
    15
100
AcDbLine
 10
209.1468284769
 20
40.4795843046
 30
0.0
 11
209.1468284769
 21
46.2045305523
 31
0.0
  0
LINE
  5
135
330
1F
100
AcDbEntity
  8
0
  6
Continuous
 62
     7
370
    15
100
AcDbLine
 10
204.5962855861
 20
147.608567674
 30
0.0
 11
204.6724855861
 21
147.6085676739
 31
0.0
  0
SPLINE
  5
136
330
1F
100
AcDbEntity
  8
0
  6
Continuous
 62
     7
370
    15
100
AcDbSpline
210
0.0
220
0.0
230
1.0
 70
     8
 71
     3
 72
    14
 73
    10
 74
     0
 42
0.000000001
 43
0.00000001
 40
0.0
 40
0.0
 40
0.0
 40
0.0
 40
0.1925413861603611
 40
0.3856013097954835
 40
0.5627660633870464
 40
0.7182287550076097
 40
0.8591964225011678
 40
0.996541165453314
 40
1.0
 40
1.0
 40
1.0
 40
1.0
 10
204.5962855861403
 20
147.6085676739733
 30
0.0
 10
204.5967913799408
 20
147.606355267593
 30
0.0
 10
204.5978043297063
 20
147.6019244965517
 30
0.0
 10
204.6058643740582
 20
147.5963301538766
 30
0.0
 10
204.617354958735
 20
147.5926070446676
 30
0.0
 10
204.6303022559609
 20
147.5910237308793
 30
0.0
 10
204.642343417438
 20
147.5914552776985
 30
0.0
 10
204.6501871988167
 20
147.5924109607831
 30
0.0
 10
204.6531247173478
 20
147.5934315424576
 30
0.0
 10
204.6531968773792
 20
147.5934566130078
 30
0.0
  0
LINE
  5
137
330
1F
100
AcDbEntity
  8
0
  6
Continuous
 62
     7
370
    15
100
AcDbLine
 10
204.1517855861
 20
147.608567674
 30
0.0
 11
204.1517855861
 21
147.4656311915
 31
0.0
  0
LINE
  5
138
330
1F
100
AcDbEntity
  8
0
  6
Continuous
 62
     7
370
    15
100
AcDbLine
 10
204.1517855861
 20
150.6406311915
 30
0.0
 11
204.1517855861
 21
147.608567674
 31
0.0
  0
LINE
  5
139
330
1F
100
AcDbEntity
  8
0
  6
Continuous
 62
     7
370
    15
100
AcDbLine
 10
205.1169855861
 20
147.608567674
 30
0.0
 11
205.1169855861
 21
150.6406311915
 31
0.0
  0
LINE
  5
13A
330
1F
100
AcDbEntity
  8
0
  6
Continuous
 62
     7
370
    15
100
AcDbLine
 10
205.1169855861
 20
147.4656311915
 30
0.0
 11
205.1169855861
 21
147.608567674
 31
0.0
  0
SPLINE
  5
13B
330
1F
100
AcDbEntity
  8
0
  6
Continuous
 62
     7
370
    15
100
AcDbSpline
210
0.0
220
0.0
230
1.0
 70
     8
 71
     3
 72
    22
 73
    18
 74
     0
 42
0.000000001
 43
0.00000001
 40
0.0
 40
0.0
 40
0.0
 40
0.0
 40
0.1249999999999986
 40
0.1249999999999986
 40
0.2499999999999988
 40
0.2499999999999988
 40
0.374999999999999
 40
0.374999999999999
 40
0.4999999999999992
 40
0.4999999999999992
 40
0.6249999999999994
 40
0.6249999999999994
 40
0.7499999999999996
 40
0.7499999999999996
 40
0.8749999999999998
 40
0.8749999999999998
 40
1.0
 40
1.0
 40
1.0
 40
1.0
 10
204.6724855861403
 20
147.6085676739352
 30
0.0
 10
204.6724855861359
 20
147.6082548218214
 30
0.0
 10
204.6716672461829
 20
147.6079172935213
 30
0.0
 10
204.6679537946157
 20
147.6072637377845
 30
0.0
 10
204.6650460983667
 20
147.60694973643
 30
0.0
 10
204.6576066106097
 20
147.6064313860762
 30
0.0
 10
204.6530999883716
 20
147.6062287907595
 30
0.0
 10
204.6437200007583
 20
147.6059700540033
 30
0.0
 10
204.6388757141977
 20
147.6059130357225
 30
0.0
 10
204.6298954580828
 20
147.6059130357225
 30
0.0
 10
204.6250511715223
 20
147.6059700540033
 30
0.0
 10
204.615671183909
 20
147.6062287907595
 30
0.0
 10
204.6111645616709
 20
147.6064313860762
 30
0.0
 10
204.6037250739139
 20
147.60694973643
 30
0.0
 10
204.6008173776649
 20
147.6072637377845
 30
0.0
 10
204.5971039260977
 20
147.6079172935213
 30
0.0
 10
204.5962855861446
 20
147.6082548218214
 30
0.0
 10
204.5962855861403
 20
147.6085676739352
 30
0.0
  0
ARC
  5
13C
330
1F
100
AcDbEntity
  8
0
  6
Continuous
 62
     7
370
    15
100
AcDbCircle
 10
204.6709169537
 20
74.1703019906
 30
0.0
 40
1.027282641564401
100
AcDbArc
 50
94.1628518442
 51
113.5289750551
  0
ARC
  5
13D
330
1F
100
AcDbEntity
  8
0
  6
Continuous
 62
     7
370
    15
100
AcDbCircle
 10
204.6834757394
 20
74.1562796381
 30
0.0
 40
1.041766805515644
100
AcDbArc
 50
67.2530292203
 51
90.5704390201
  0
LINE
  5
13E
330
1F
100
AcDbEntity
  8
0
  6
Continuous
 62
     7
370
    15
100
AcDbLine
 10
204.2608125899
 20
75.1121746128
 30
0.0
 11
204.2608125899
 21
135.1668362693
 31
0.0
  0
ARC
  5
13F
330
1F
100
AcDbEntity
  8
0
  6
Continuous
 62
     7
370
    15
100
AcDbCircle
 10
204.6709730431
 20
134.2258229888
 30
0.0
 40
1.026517214320818
100
AcDbArc
 50
92.8588914314
 51
113.5509935821
  0
ARC
  5
140
330
1F
100
AcDbEntity
  8
0
  6
Continuous
 62
     7
370
    15
100
AcDbCircle
 10
204.6825754904
 20
134.2075243731
 30
0.0
 40
1.045266171197198
100
AcDbArc
 50
67.2799412643
 51
91.7527262375
  0
LINE
  5
141
330
1F
100
AcDbEntity
  8
0
  6
Continuous
 62
     7
370
    15
100
AcDbLine
 10
205.0862875889
 20
75.1170192963
 30
0.0
 11
205.0862875889
 21
135.1716809528
 31
0.0
  0
LINE
  5
142
330
1F
100
AcDbEntity
  8
0
  6
Continuous
 62
     7
370
    15
100
AcDbLine
 10
204.9296823607
 20
74.908750317
 30
0.0
 11
205.0862875889
 21
75.1170192963
 31
0.0
  0
ARC
  5
143
330
1F
100
AcDbEntity
  8
0
  6
Continuous
 62
     7
370
    15
100
AcDbCircle
 10
204.6712725377
 20
74.335567496
 30
0.0
 40
0.622428551252547
100
AcDbArc
 50
97.000880459
 51
113.6387932512
  0
ARC
  5
144
330
1F
100
AcDbEntity
  8
0
  6
Continuous
 62
     7
370
    15
100
AcDbCircle
 10
204.6813583312
 20
74.3154092365
 30
0.0
 40
0.6432095003994746
100
AcDbArc
 50
67.2898034627
 51
90.75855628
  0
LINE
  5
145
330
1F
100
AcDbEntity
  8
0
  6
Continuous
 62
     7
370
    15
100
AcDbLine
 10
204.4216977459
 20
74.9057689732
 30
0.0
 11
204.2608125899
 21
75.1121746128
 31
0.0
  0
LWPOLYLINE
  5
146
330
1F
100
AcDbEntity
  8
0
  6
Continuous
 62
     7
370
    15
100
AcDbPolyline
 90
       43
 70
   128
 43
0.0
 10
204.9296823607
 20
74.908750317
 10
206.0395495358
 20
74.4522936981
 10
207.1483153863
 20
74.0196886938
 10
208.2551160536
 20
73.6112723543
 10
209.3590892101
 20
73.2273628837
 10
210.4593747312
 20
72.8682593925
 10
211.5551153654
 20
72.5342416646
 10
212.6454574022
 20
72.2255699389
 10
213.7295513372
 20
71.9424847069
 10
214.8065525341
 20
71.6852065251
 10
215.8756218826
 20
71.4539358436
 10
216.9359264523
 20
71.2488528492
 10
217.9866401415
 20
71.0701173258
 10
219.0269443209
 20
70.9178685291
 10
220.0560284717
 20
70.792225079
 10
221.0730908164
 20
70.6932848664
 10
222.0773389443
 20
70.6211249772
 10
223.0679904281
 20
70.5758016327
 10
224.0442734343
 20
70.5573501448
 10
225.0054273238
 20
70.5657848896
 10
225.9507032449
 20
70.6010992954
 10
226.8793647168
 20
70.663265848
 10
227.7906882033
 20
70.7522361126
 10
228.6839636765
 20
70.8679407707
 10
229.55849517
 20
71.0102896749
 10
230.4136013211
 20
71.1791719186
 10
231.2486159019
 20
71.3744559229
 10
232.0628883381
 20
71.5959895386
 10
232.8557842158
 20
71.8436001649
 10
233.6266857761
 20
72.1170948842
 10
234.3749923964
 20
72.416260612
 10
235.100121058
 20
72.7408642631
 10
235.8015068006
 20
73.0906529331
 10
236.4786031623
 20
73.4653540957
 10
237.1308826058
 20
73.8646758147
 10
237.7578369287
 20
74.2883069716
 10
238.3589776602
 20
74.735917508
 10
238.933836441
 20
75.2071586829
 10
239.4819653888
 20
75.7016633441
 10
240.0029374468
 20
76.2190462144
 10
240.4963467166
 20
76.7589041919
 10
240.9618087745
 20
77.3208166638
 10
241.1679855203
 20
77.5886427501
  0
LWPOLYLINE
  5
147
330
1F
100
AcDbEntity
  8
0
  6
Continuous
 62
     7
370
    15
100
AcDbPolyline
 90
      113
 70
   128
 43
0.0
 10
205.0862875889
 20
75.1170192963
 10
206.196154764
 20
74.6605626774
 10
207.3049206145
 20
74.2279576732
 10
208.4117212818
 20
73.8195413336
 10
209.5156944383
 20
73.435631863
 10
210.6159799594
 20
73.0765283719
 10
211.7117205936
 20
72.742510644
 10
212.8020626304
 20
72.4338389182
 10
213.8861565654
 20
72.1507536862
 10
214.9631577624
 20
71.8934755045
 10
216.0322271109
 20
71.662204823
 10
217.0925316805
 20
71.4571218286
 10
218.1432453697
 20
71.2783863051
 10
219.1835495492
 20
71.1261375085
 10
220.2126336999
 20
71.0004940583
 10
221.2296960446
 20
70.9015538457
 10
222.2339441725
 20
70.8293939566
 10
223.2245956564
 20
70.784070612
 10
224.2008786625
 20
70.7656191242
 10
225.162032552
 20
70.774053869
 10
226.1073084731
 20
70.8093682747
 10
227.035969945
 20
70.8715348274
 10
227.9472934315
 20
70.9605050919
 10
228.8405689047
 20
71.07620975
 10
229.7151003982
 20
71.2185586542
 10
230.5702065493
 20
71.387440898
 10
231.4052211301
 20
71.5827249023
 10
232.2194935663
 20
71.8042585179
 10
233.012389444
 20
72.0518691443
 10
233.7832910044
 20
72.3253638636
 10
234.5315976247
 20
72.6245295914
 10
235.2567262862
 20
72.9491332424
 10
235.9581120288
 20
73.2989219125
 10
236.6352083905
 20
73.673623075
 10
237.287487834
 20
74.072944794
 10
237.9144421569
 20
74.4965759509
 10
238.5155828884
 20
74.9441864874
 10
239.0904416692
 20
75.4154276623
 10
239.638570617
 20
75.9099323234
 10
240.159542675
 20
76.4273151937
 10
240.6529519448
 20
76.9671731712
 10
241.1184140027
 20
77.5290856432
 10
241.5555661993
 20
78.1126148139
 10
241.9640679415
 20
78.7173060457
 10
242.3436009587
 20
79.3426882131
 10
242.6938695501
 20
79.9882740701
 10
243.0146008154
 20
80.6535606296
 10
243.3055448674
 20
81.3380295552
 10
243.5664750263
 20
82.0411475654
 10
243.7971879971
 20
82.7623668489
 10
243.9975040273
 20
83.501125491
 10
244.1672670472
 20
84.2568479123
 10
244.3063447915
 20
85.0289453162
 10
244.4146289023
 20
85.8168161483
 10
244.4920350135
 20
86.6198465649
 10
244.5385028168
 20
87.4374109109
 10
244.5539961083
 20
88.2688722079
 10
244.5385028168
 20
89.11358265
 10
244.4920350135
 20
89.9708841086
 10
244.4146289023
 20
90.8401086454
 10
244.3063447915
 20
91.7205790324
 10
244.1672670472
 20
92.6116092799
 10
243.9975040273
 20
93.5125051708
 10
243.7971879971
 20
94.4225648016
 10
243.5664750263
 20
95.341079129
 10
243.3055448674
 20
96.2673325226
 10
243.0146008154
 20
97.2006033224
 10
242.6938695501
 20
98.1401644008
 10
242.3436009587
 20
99.0852837297
 10
241.9640679415
 20
100.0352249501
 10
241.5555661993
 20
100.9892479465
 10
241.1184140027
 20
101.9466094229
 10
240.6529519448
 20
102.9065634825
 10
240.159542675
 20
103.8683622084
 10
239.638570617
 20
104.8312562467
 10
239.0904416692
 20
105.7944953898
 10
238.5155828884
 20
106.7573291615
 10
237.9144421569
 20
107.7190074014
 10
237.287487834
 20
108.6787808492
 10
236.6352083905
 20
109.6359017289
 10
235.9581120288
 20
110.589624331
 10
235.2567262862
 20
111.5392055937
 10
234.5315976247
 20
112.4839056818
 10
233.7832910044
 20
113.4229885631
 10
233.012389444
 20
114.3557225818
 10
232.2194935663
 20
115.2813810289
 10
231.4052211301
 20
116.1992427076
 10
230.5702065493
 20
117.1085924962
 10
229.7151003982
 20
118.0087219043
 10
228.8405689047
 20
118.8989296257
 10
227.9472934315
 20
119.7785220841
 10
227.035969945
 20
120.6468139738
 10
226.1073084731
 20
121.5031287934
 10
225.162032552
 20
122.3467993734
 10
224.2008786625
 20
123.1771683953
 10
223.2245956564
 20
123.9935889043
 10
222.2339441725
 20
124.795424813
 10
221.2296960446
 20
125.5820513972
 10
220.2126336999
 20
126.3528557825
 10
219.1835495492
 20
127.1072374218
 10
218.1432453697
 20
127.8446085634
 10
217.0925316805
 20
128.5643947086
 10
216.0322271109
 20
129.2660350595
 10
214.9631577624
 20
129.9489829561
 10
213.8861565654
 20
130.6127063018
 10
212.8020626304
 20
131.2566879782
 10
211.7117205936
 20
131.8804262481
 10
210.6159799594
 20
132.4834351461
 10
209.5156944383
 20
133.0652448577
 10
208.4117212818
 20
133.6254020848
 10
207.3049206145
 20
134.1634703991
 10
206.196154764
 20
134.6790305824
 10
205.0862875889
 20
135.1716809528
  0
LWPOLYLINE
  5
148
330
1F
100
AcDbEntity
  8
0
  6
Continuous
 62
     7
370
    15
100
AcDbPolyline
 90
      113
 70
   128
 43
0.0
 10
204.2608125899
 20
135.1668362693
 10
203.1608751687
 20
134.661216634
 10
202.0620292187
 20
134.1327000552
 10
200.9651308699
 20
133.5816983094
 10
199.8710347347
 20
133.0086406915
 10
198.7805932423
 20
132.4139736806
 10
197.6946559748
 20
131.7981605922
 10
196.6140690044
 20
131.1616812169
 10
195.5396742354
 20
130.5050314467
 10
194.4723087472
 20
129.8287228889
 10
193.4128041428
 20
129.1332824672
 10
192.3619859005
 20
128.4192520112
 10
191.3206727311
 20
127.6871878345
 10
190.2896759397
 20
126.9376603009
 10
189.2697987936
 20
126.1712533803
 10
188.261835897
 20
125.3885641936
 10
187.2665725711
 20
124.5902025475
 10
186.2847842427
 20
123.7767904594
 10
185.3172358403
 20
122.9489616727
 10
184.3646811975
 20
122.1073611632
 10
183.427862466
 20
121.2526446363
 10
182.5075095377
 20
120.3854780167
 10
181.6043394754
 20
119.5065369286
 10
180.7190559546
 20
118.6165061705
 10
179.8523487149
 20
117.7160791807
 10
179.0048930231
 20
116.8059574973
 10
178.1773491464
 20
115.8868502121
 10
177.3703618386
 20
114.9594734173
 10
176.5845598376
 20
114.0245496483
 10
175.8205553753
 20
113.0828073205
 10
175.0789437008
 20
112.1349801615
 10
174.3603026166
 20
111.1818066399
 10
173.6651920283
 20
110.2240293897
 10
172.9941535088
 20
109.2623946317
 10
172.3477098757
 20
108.2976515923
 10
171.7263647844
 20
107.3305519194
 10
171.1306023357
 20
106.3618490972
 10
170.5608866984
 20
105.3922978587
 10
170.0176617478
 20
104.4226535982
 10
169.50135072
 20
103.4536717823
 10
169.0123558816
 20
102.4861073614
 10
168.5510582172
 20
101.5207141818
 10
168.1178171317
 20
100.5582443981
 10
167.7129701707
 20
99.599447887
 10
167.3368327575
 20
98.6450716636
 10
166.9896979473
 20
97.6958592988
 10
166.6718361988
 20
96.7525503406
 10
166.3834951636
 20
95.8158797372
 10
166.1248994933
 20
94.8865772649
 10
165.896250664
 20
93.9653669594
 10
165.6977268203
 20
93.0529665515
 10
165.5294826353
 20
92.1500869082
 10
165.391649191
 20
91.2574314788
 10
165.284333876
 20
90.3756957464
 10
165.2076203013
 20
89.5055666866
 10
165.1615682359
 20
88.6477222322
 10
165.1462135598
 20
87.8028307445
 10
165.1615682359
 20
86.9715504931
 10
165.2076203013
 20
86.1545291429
 10
165.284333876
 20
85.3524032493
 10
165.391649191
 20
84.5657977626
 10
165.5294826353
 20
83.7953255406
 10
165.6977268203
 20
83.0415868717
 10
165.896250664
 20
82.3051690066
 10
166.1248994933
 20
81.5866457013
 10
166.3834951636
 20
80.8865767698
 10
166.6718361988
 20
80.2055076478
 10
166.9896979473
 20
79.5439689681
 10
167.3368327575
 20
78.902476147
 10
167.7129701707
 20
78.2815289825
 10
168.1178171317
 20
77.6816112655
 10
168.5510582172
 20
77.1031904021
 10
169.0123558816
 20
76.5467170502
 10
169.50135072
 20
76.0126247676
 10
170.0176617478
 20
75.501329675
 10
170.5608866984
 20
75.0132301312
 10
171.1306023357
 20
74.548706423
 10
171.7263647844
 20
74.108120469
 10
172.3477098757
 20
73.6918155371
 10
172.9941535088
 20
73.3001159779
 10
173.6651920283
 20
72.9333269712
 10
174.3603026166
 20
72.5917342886
 10
175.0789437008
 20
72.2756040711
 10
175.8205553753
 20
71.985182621
 10
176.5845598376
 20
71.7206962108
 10
177.3703618386
 20
71.4823509064
 10
178.1773491464
 20
71.2703324067
 10
179.0048930231
 20
71.0848058992
 10
179.8523487149
 20
70.9259159305
 10
180.7190559546
 20
70.7937862948
 10
181.6043394754
 20
70.6885199364
 10
182.5075095377
 20
70.6101988703
 10
183.427862466
 20
70.5588841177
 10
184.3646811975
 20
70.5346156588
 10
185.3172358403
 20
70.5374124016
 10
186.2847842427
 20
70.5672721671
 10
187.2665725711
 20
70.6241716911
 10
188.261835897
 20
70.7080666421
 10
189.2697987936
 20
70.8188916562
 10
190.2896759397
 20
70.9565603876
 10
191.3206727311
 20
71.1209655763
 10
192.3619859005
 20
71.3119791313
 10
193.4128041428
 20
71.5294522306
 10
194.4723087472
 20
71.7732154373
 10
195.5396742354
 20
72.0430788312
 10
196.6140690044
 20
72.338832157
 10
197.6946559748
 20
72.6602449881
 10
198.7805932423
 20
73.0070669064
 10
199.8710347347
 20
73.3790276968
 10
200.9651308699
 20
73.7758375582
 10
202.0620292187
 20
74.1971873292
 10
203.1608751687
 20
74.642748729
 10
204.2608125899
 20
75.1121746128
  0
LWPOLYLINE
  5
149
330
1F
100
AcDbEntity
  8
0
  6
Continuous
 62
     7
370
    15
100
AcDbPolyline
 90
       43
 70
   128
 43
0.0
 10
168.6629195182
 20
76.9593289182
 10
168.7119433732
 20
76.8967847626
 10
169.1732410376
 20
76.3403114106
 10
169.662235876
 20
75.8062191281
 10
170.1785469038
 20
75.2949240355
 10
170.7217718544
 20
74.8068244917
 10
171.2914874917
 20
74.3423007835
 10
171.8872499404
 20
73.9017148294
 10
172.5085950317
 20
73.4854098976
 10
173.1550386648
 20
73.0937103383
 10
173.8260771843
 20
72.7269213316
 10
174.5211877726
 20
72.3853286491
 10
175.2398288568
 20
72.0691984315
 10
175.9814405313
 20
71.7787769815
 10
176.7454449936
 20
71.5142905712
 10
177.5312469946
 20
71.2759452669
 10
178.3382343024
 20
71.0639267672
 10
179.1657781791
 20
70.8784002596
 10
180.0132338709
 20
70.719510291
 10
180.8799411106
 20
70.5873806553
 10
181.7652246314
 20
70.4821142969
 10
182.6683946937
 20
70.4037932308
 10
183.588747622
 20
70.3524784781
 10
184.5255663535
 20
70.3282100192
 10
185.4781209963
 20
70.331006762
 10
186.4456693987
 20
70.3608665276
 10
187.4274577271
 20
70.4177660515
 10
188.422721053
 20
70.5016610026
 10
189.4306839496
 20
70.6124860166
 10
190.4505610957
 20
70.750154748
 10
191.4815578871
 20
70.9145599367
 10
192.5228710565
 20
71.1055734917
 10
193.5736892988
 20
71.3230465911
 10
194.6331939032
 20
71.5668097978
 10
195.7005593914
 20
71.8366731916
 10
196.7749541604
 20
72.1324265174
 10
197.8555411308
 20
72.4538393486
 10
198.9414783984
 20
72.8006612669
 10
200.0319198907
 20
73.1726220573
 10
201.1260160259
 20
73.5694319187
 10
202.2229143747
 20
73.9907816897
 10
203.3217603247
 20
74.4363430894
 10
204.4216977459
 20
74.9057689732
  0
SPLINE
  5
14A
330
1F
100
AcDbEntity
  8
0
  6
Continuous
 62
     7
370
    15
100
AcDbSpline
210
0.0
220
0.0
230
1.0
 70
     8
 71
     3
 72
    38
 73
    34
 74
     0
 42
0.000000001
 43
0.00000001
 40
0.0
 40
0.0
 40
0.0
 40
0.0
 40
0.0625
 40
0.0625
 40
0.125
 40
0.125
 40
0.1875
 40
0.1875
 40
0.25
 40
0.25
 40
0.3125
 40
0.3125
 40
0.375
 40
0.375
 40
0.4375
 40
0.4375
 40
0.5
 40
0.5
 40
0.5625
 40
0.5625
 40
0.625
 40
0.625
 40
0.6875
 40
0.6875
 40
0.75
 40
0.75
 40
0.8125
 40
0.8125
 40
0.875
 40
0.875
 40
0.9375
 40
0.9375
 40
1.0
 40
1.0
 40
1.0
 40
1.0
 10
201.5268284768957
 20
52.49731868851534
 30
0.0
 10
201.5268284768957
 20
52.6736456051235
 30
0.0
 10
201.5513880717164
 20
52.84996816170116
 30
0.0
 10
201.6486850454025
 20
53.19584585039753
 30
0.0
 10
201.7214200184086
 20
53.36539243000875
 30
0.0
 10
201.9122748976469
 20
53.69120208857893
 30
0.0
 10
202.0303900846161
 20
53.84745711125205
 30
0.0
 10
202.30746842343
 20
54.14067805723344
 30
0.0
 10
202.4664247239668
 20
54.27763673007599
 30
0.0
 10
202.8190785571831
 20
54.52700064695466
 30
0.0
 10
203.0127673698017
 20
54.63939972497658
 30
0.0
 10
203.4274444083804
 20
54.83532369727182
 30
0.0
 10
203.6484223806337
 20
54.91884374693884
 30
0.0
 10
204.1091868185358
 20
55.05379852627079
 30
0.0
 10
204.348961890876
 20
55.10522991891281
 30
0.0
 10
204.8381068091526
 20
55.17402926879521
 30
0.0
 10
205.087464560017
 20
55.1913955248361
 30
0.0
 10
205.5861923937744
 20
55.1913955248361
 30
0.0
 10
205.8355501446388
 20
55.17402926879525
 30
0.0
 10
206.3246950629155
 20
55.10522991891285
 30
0.0
 10
206.5644701352556
 20
55.05379852627082
 30
0.0
 10
207.0252345731578
 20
54.9188437469389
 30
0.0
 10
207.246212545411
 20
54.83532369727187
 30
0.0
 10
207.6608895839898
 20
54.63939972497661
 30
0.0
 10
207.8545783966083
 20
54.5270006469547
 30
0.0
 10
208.2072322298246
 20
54.27763673007602
 30
0.0
 10
208.3661885303614
 20
54.14067805723349
 30
0.0
 10
208.6432668691754
 20
53.84745711125215
 30
0.0
 10
208.7613820561446
 20
53.69120208857901
 30
0.0
 10
208.9522369353829
 20
53.36539243000882
 30
0.0
 10
209.024971908389
 20
53.1958458503976
 30
0.0
 10
209.1222688820751
 20
52.84996816170129
 30
0.0
 10
209.1468284768957
 20
52.6736456051236
 30
0.0
 10
209.1468284768957
 20
52.49731868851544
 30
0.0
  0
SPLINE
  5
14B
330
1F
100
AcDbEntity
  8
0
  6
Continuous
 62
     7
370
    15
100
AcDbSpline
210
0.0
220
0.0
230
1.0
 70
     8
 71
     3
 72
    38
 73
    34
 74
     0
 42
0.000000001
 43
0.00000001
 40
0.0
 40
0.0
 40
0.0
 40
0.0
 40
0.0625
 40
0.0625
 40
0.125
 40
0.125
 40
0.1875
 40
0.1875
 40
0.25
 40
0.25
 40
0.3125
 40
0.3125
 40
0.375
 40
0.375
 40
0.4375
 40
0.4375
 40
0.5
 40
0.5
 40
0.5625
 40
0.5625
 40
0.625
 40
0.625
 40
0.6875
 40
0.6875
 40
0.75
 40
0.75
 40
0.8125
 40
0.8125
 40
0.875
 40
0.875
 40
0.9375
 40
0.9375
 40
1.0
 40
1.0
 40
1.0
 40
1.0
 10
209.1468284768957
 20
52.49731868851539
 30
0.0
 10
209.1468284768957
 20
52.32099177190722
 30
0.0
 10
209.1222688820751
 20
52.14466921532955
 30
0.0
 10
209.024971908389
 20
51.79879152663325
 30
0.0
 10
208.9522369353829
 20
51.62924494702201
 30
0.0
 10
208.7613820561446
 20
51.30343528845182
 30
0.0
 10
208.6432668691754
 20
51.14718026577869
 30
0.0
 10
208.3661885303615
 20
50.8539593197973
 30
0.0
 10
208.2072322298247
 20
50.71700064695478
 30
0.0
 10
207.8545783966083
 20
50.46763673007609
 30
0.0
 10
207.6608895839898
 20
50.35523765205419
 30
0.0
 10
207.2462125454111
 20
50.15931367975892
 30
0.0
 10
207.0252345731578
 20
50.0757936300919
 30
0.0
 10
206.5644701352557
 20
49.94083885075995
 30
0.0
 10
206.3246950629155
 20
49.88940745811794
 30
0.0
 10
205.8355501446389
 20
49.82060810823555
 30
0.0
 10
205.5861923937744
 20
49.80324185219467
 30
0.0
 10
205.0874645600171
 20
49.80324185219469
 30
0.0
 10
204.8381068091526
 20
49.82060810823553
 30
0.0
 10
204.348961890876
 20
49.88940745811794
 30
0.0
 10
204.1091868185358
 20
49.94083885075995
 30
0.0
 10
203.6484223806337
 20
50.07579363009187
 30
0.0
 10
203.4274444083805
 20
50.1593136797589
 30
0.0
 10
203.0127673698017
 20
50.35523765205414
 30
0.0
 10
202.8190785571832
 20
50.46763673007607
 30
0.0
 10
202.4664247239669
 20
50.71700064695472
 30
0.0
 10
202.30746842343
 20
50.85395931979725
 30
0.0
 10
202.0303900846161
 20
51.14718026577864
 30
0.0
 10
201.9122748976469
 20
51.30343528845176
 30
0.0
 10
201.7214200184086
 20
51.62924494702195
 30
0.0
 10
201.6486850454025
 20
51.79879152663318
 30
0.0
 10
201.5513880717164
 20
52.14466921532951
 30
0.0
 10
201.5268284768957
 20
52.32099177190717
 30
0.0
 10
201.5268284768957
 20
52.49731868851533
 30
0.0
  0
SPLINE
  5
14C
330
1F
100
AcDbEntity
  8
0
  6
Continuous
 62
     7
370
    15
100
AcDbSpline
210
0.0
220
0.0
230
1.0
 70
     8
 71
     3
 72
    73
 73
    69
 74
     0
 42
0.000000001
 43
0.00000001
 40
0.0
 40
0.0
 40
0.0
 40
0.0
 40
0.0050739195292954
 40
0.0100590248257085
 40
0.0149553163552143
 40
0.0197627946150952
 40
0.0244814601361983
 40
0.0291113134854122
 40
0.0336523552683772
 40
0.0381045861324778
 40
0.0424680067701288
 40
0.046742617922407
 40
0.0509284203830733
 40
0.0550254150030193
 40
0.0590336026952168
 40
0.0629529844402232
 40
0.0667835612923233
 40
0.0705253343864047
 40
0.0741783049456647
 40
0.0777424742902783
 40
0.0812178438471735
 40
0.084604415161087
 40
0.0879021899071082
 40
0.0911111699049603
 40
0.0942313571353074
 40
0.0972627537584552
 40
0.1002053621358672
 40
0.1030591848550282
 40
0.1058242247582973
 40
0.108500484976547
 40
0.111087968968565
 40
0.1135866805674557
 40
0.1159966240355802
 40
0.1183178041299968
 40
0.1205502261808993
 40
0.1442368821396981
 40
0.1671003020024893
 40
0.1891435368239005
 40
0.2103699946838988
 40
0.2307834961226062
 40
0.2503883403564912
 40
0.3153410665870568
 40
0.3764372230776956
 40
0.4388863582482948
 40
0.500015352602037
 40
0.5611351149484732
 40
0.623593463351813
 40
0.6846769533267788
 40
0.7496423431352596
 40
0.7793371571666377
 40
0.8108619324668332
 40
0.8442298861833742
 40
0.8794521268524214
 40
0.8844786770096433
 40
0.8899351088740187
 40
0.8958214675715183
 40
0.9021377884655732
 40
0.9088840996068455
 40
0.9160604234494608
 40
0.9236667780823341
 40
0.9317031781311818
 40
0.9401696354315261
 40
0.949066159539085
 40
0.9583927581225128
 40
0.9681494372696052
 40
0.9783362017288745
 40
0.9889530551022025
 40
1.0
 40
1.0
 40
1.0
 40
1.0
 10
209.1468284768958
 20
46.20453055231248
 30
0.0
 10
209.1467425001861
 20
46.19647098950964
 30
0.0
 10
209.1465720517087
 20
46.18049293903993
 30
0.0
 10
209.1452114840741
 20
46.15676080034513
 30
0.0
 10
209.1430955741784
 20
46.1334691240069
 30
0.0
 10
209.1401911953199
 20
46.11061949791992
 30
0.0
 10
209.1365635952915
 20
46.08821150754258
 30
0.0
 10
209.1322514705289
 20
46.06624526041239
 30
0.0
 10
209.127299502938
 20
46.04472072796855
 30
0.0
 10
209.1217498514504
 20
46.02363791705576
 30
0.0
 10
209.1156443408761
 20
46.00299682525281
 30
0.0
 10
209.109023867777
 20
45.98279745249555
 30
0.0
 10
209.101928533281
 20
45.96303979804726
 30
0.0
 10
209.0943975892949
 20
45.94372386127966
 30
0.0
 10
209.0864694355957
 20
45.92484964146286
 30
0.0
 10
209.0781816059494
 20
45.90641713781118
 30
0.0
 10
209.0695707592051
 20
45.8884263494618
 30
0.0
 10
209.0606726711064
 20
45.87087727546918
 30
0.0
 10
209.0515222278081
 20
45.85376991479387
 30
0.0
 10
209.0421534207296
 20
45.83710426629079
 30
0.0
 10
209.0325993427271
 20
45.82088032869565
 30
0.0
 10
209.0228921854816
 20
45.80509810060826
 30
0.0
 10
209.0130632380217
 20
45.78975758047654
 30
0.0
 10
209.0031428862986
 20
45.77485876656555
 30
0.0
 10
208.9931606137293
 20
45.76040165696526
 30
0.0
 10
208.9831450026486
 20
45.74638624944059
 30
0.0
 10
208.9731237365232
 20
45.73281254182597
 30
0.0
 10
208.9631236031048
 20
45.7196805304451
 30
0.0
 10
208.9531704975645
 20
45.70699021554325
 30
0.0
 10
208.9432894286884
 20
45.69474158171273
 30
0.0
 10
208.9335045168738
 20
45.68293466715033
 30
0.0
 10
208.9238390235987
 20
45.67156931764528
 30
0.0
 10
208.9143152714858
 20
45.66064605721401
 30
0.0
 10
208.9049549529708
 20
45.65016301076668
 30
0.0
 10
208.8662589651724
 20
45.60784333081164
 30
0.0
 10
208.7922568908296
 20
45.53584669576156
 30
0.0
 10
208.6705218994833
 20
45.43755749951458
 30
0.0
 10
208.5370085383737
 20
45.34590009703615
 30
0.0
 10
208.3938284000306
 20
45.26086636811459
 30
0.0
 10
208.2429401832998
 20
45.18244688437532
 30
0.0
 10
207.9634201357769
 20
45.05437152508397
 30
0.0
 10
207.5143712809877
 20
44.89694546240855
 30
0.0
 10
206.8373011502014
 20
44.74247336228078
 30
0.0
 10
206.1050996155678
 20
44.64811247277231
 30
0.0
 10
205.3368670409858
 20
44.61562560335537
 30
0.0
 10
204.5685951510226
 20
44.64811403969704
 30
0.0
 10
203.8364448399589
 20
44.74245617563992
 30
0.0
 10
203.1593061791786
 20
44.89694091978917
 30
0.0
 10
202.6792339527505
 20
45.06523618336426
 30
0.0
 10
202.3493653569329
 20
45.22135741757523
 30
0.0
 10
202.1314235633807
 20
45.34655987877827
 30
0.0
 10
201.9353022713476
 20
45.4866857726646
 30
0.0
 10
201.8187794662503
 20
45.59462124365304
 30
0.0
 10
201.7568805989748
 20
45.66327117399729
 30
0.0
 10
201.7356894009735
 20
45.68808431738018
 30
0.0
 10
201.7139636762584
 20
45.71502804736816
 30
0.0
 10
201.6919611630776
 20
45.74411249255657
 30
0.0
 10
201.6699594378725
 20
45.77533483938132
 30
0.0
 10
201.6482573383985
 20
45.80869608781033
 30
0.0
 10
201.6271747734335
 20
45.84419607101478
 30
0.0
 10
201.6070527428387
 20
45.88183493683768
 30
0.0
 10
201.5882537813517
 20
45.92161272887872
 30
0.0
 10
201.5711595859329
 20
45.96352947298185
 30
0.0
 10
201.5561794304937
 20
46.00758531991808
 30
0.0
 10
201.5437145230104
 20
46.05377984851911
 30
0.0
 10
201.5342974154641
 20
46.10211489545733
 30
0.0
 10
201.5280333439718
 20
46.15258328899528
 30
0.0
 10
201.5272353799163
 20
46.18698712468402
 30
0.0
 10
201.5268284768958
 20
46.20453055231247
 30
0.0
  0
SPLINE
  5
14D
330
1F
100
AcDbEntity
  8
0
  6
Continuous
 62
     7
370
    15
100
AcDbSpline
210
0.0
220
0.0
230
1.0
 70
     8
 71
     3
 72
    50
 73
    46
 74
     0
 42
0.000000001
 43
0.00000001
 40
0.0
 40
0.0
 40
0.0
 40
0.0
 40
0.0052116794493317
 40
0.0104208467183378
 40
0.0156288969244477
 40
0.0208372260827501
 40
0.0260472299840991
 40
0.0312603030741207
 40
0.0468865518464668
 40
0.0625178196119325
 40
0.0781441826217332
 40
0.0937753364251939
 40
0.1250234274333676
 40
0.1562715184415419
 40
0.1875196094497157
 40
0.2187677004578895
 40
0.2500157914660636
 40
0.2812638824742369
 40
0.3125119734824111
 40
0.3437600644905853
 40
0.3750081554987588
 40
0.406256246506933
 40
0.4375043375151068
 40
0.4687524285232809
 40
0.5000005195314549
 40
0.531248610539629
 40
0.562496701547803
 40
0.5937447925559769
 40
0.6249928835641514
 40
0.6562409745723248
 40
0.6874890655804989
 40
0.718737156588673
 40
0.7499852475968473
 40
0.7812333386050205
 40
0.812481429613195
 40
0.8437295206213684
 40
0.8749776116295427
 40
0.9062257026377164
 40
0.9218519514090353
 40
0.9374832191755306
 40
0.9531094679469705
 40
0.9687407357133453
 40
0.979161237796451
 40
0.9895772681325097
 40
1.0
 40
1.0
 40
1.0
 40
1.0
 10
201.8443284768957
 20
52.49731868851533
 30
0.0
 10
201.8444183252366
 20
52.5107923209635
 30
0.0
 10
201.844597978609
 20
52.53773309117904
 30
0.0
 10
201.8460522866181
 20
52.57812730632072
 30
0.0
 10
201.8483741605941
 20
52.61849124602593
 30
0.0
 10
201.8516484801142
 20
52.65882482805928
 30
0.0
 10
201.8558527146025
 20
52.69912832096418
 30
0.0
 10
201.8644123522066
 20
52.76620164597256
 30
0.0
 10
201.8807358614618
 20
52.85982095035509
 30
0.0
 10
201.9100585153828
 20
52.97928794101069
 30
0.0
 10
201.9476278737282
 20
53.09761297839001
 30
0.0
 10
202.008602888424
 20
53.25340226292062
 30
0.0
 10
202.1049934327778
 20
53.44390922770827
 30
0.0
 10
202.2517662229956
 20
53.66333568998667
 30
0.0
 10
202.4282524421943
 20
53.87154480513784
 30
0.0
 10
202.6327491438018
 20
54.0665161470551
 30
0.0
 10
202.8632877937568
 20
54.24637612363892
 30
0.0
 10
203.1176479427813
 20
54.4093914894815
 30
0.0
 10
203.3933800268432
 20
54.55399261103816
 30
0.0
 10
203.6878285782945
 20
54.67878682180694
 30
0.0
 10
203.9981579011641
 20
54.78257230639411
 30
0.0
 10
204.3213793532127
 20
54.86434954820102
 30
0.0
 10
204.6543801354921
 20
54.92333098919833
 30
0.0
 10
204.9939532683452
 20
54.95894860546072
 30
0.0
 10
205.3368284768957
 20
54.97085937998375
 30
0.0
 10
205.6797036854464
 20
54.95894860546072
 30
0.0
 10
206.0192768182991
 20
54.92333098919831
 30
0.0
 10
206.3522776005794
 20
54.86434954820109
 30
0.0
 10
206.6754990526248
 20
54.78257230639392
 30
0.0
 10
206.9858283755063
 20
54.67878682180783
 30
0.0
 10
207.2802769269134
 20
54.55399261103494
 30
0.0
 10
207.5560090111403
 20
54.40939148949357
 30
0.0
 10
207.8103691595493
 20
54.246376123594
 30
0.0
 10
208.0409078118012
 20
54.06651614722269
 30
0.0
 10
208.2454045048365
 20
53.8715448045125
 30
0.0
 10
208.4218907560272
 20
53.66333569232039
 30
0.0
 10
208.568663426849
 20
53.4439092189988
 30
0.0
 10
208.6650482908973
 20
53.25341424906688
 30
0.0
 10
208.7260242369005
 20
53.09762524825882
 30
0.0
 10
208.7635928080615
 20
52.97931326443811
 30
0.0
 10
208.7929130427001
 20
52.85983320833532
 30
0.0
 10
208.8115909841173
 20
52.75284915293243
 30
0.0
 10
208.8224318674792
 20
52.65887137333465
 30
0.0
 10
208.8282508246191
 20
52.57814094225921
 30
0.0
 10
208.8289691824647
 20
52.52426521505643
 30
0.0
 10
208.8293284768958
 20
52.49731868851539
 30
0.0
  0
SPLINE
  5
14E
330
1F
100
AcDbEntity
  8
0
  6
Continuous
 62
     7
370
    15
100
AcDbSpline
210
0.0
220
0.0
230
1.0
 70
     8
 71
     3
 72
    50
 73
    46
 74
     0
 42
0.000000001
 43
0.00000001
 40
0.0
 40
0.0
 40
0.0
 40
0.0
 40
0.005211679451293
 40
0.0104208467226213
 40
0.0156288969314171
 40
0.0208372260927694
 40
0.0260472299975307
 40
0.0312603030913274
 40
0.0468865518701568
 40
0.062517819646352
 40
0.0781440684260162
 40
0.0937753362013788
 40
0.1250234272267577
 40
0.1562715182521358
 40
0.1875196092775154
 40
0.2187677003028955
 40
0.2500157913282736
 40
0.2812638823536528
 40
0.3125119733790312
 40
0.3437600644044105
 40
0.375008155429789
 40
0.4062562464551681
 40
0.4375043374805469
 40
0.4687524285059259
 40
0.5000005195313048
 40
0.5312486105566838
 40
0.5624967015820628
 40
0.5937447926074415
 40
0.6249928836328208
 40
0.6562409746581994
 40
0.6874890656835787
 40
0.7187371567089577
 40
0.7499852477343363
 40
0.7812333387597155
 40
0.8124814297850943
 40
0.8437295208104733
 40
0.8749776118358528
 40
0.9062257028612316
 40
0.9218520655383529
 40
0.9374832191411084
 40
0.9531094679203963
 40
0.96874073569613
 40
0.9791612377838675
 40
0.9895772681256604
 40
1.0
 40
1.0
 40
1.0
 40
1.0
 10
208.8293284768958
 20
52.49731868851539
 30
0.0
 10
208.8292386285547
 20
52.48384505606961
 30
0.0
 10
208.829058975182
 20
52.45690428585787
 30
0.0
 10
208.8276046671749
 20
52.41651007072007
 30
0.0
 10
208.825282793191
 20
52.37614613101757
 30
0.0
 10
208.8220084737004
 20
52.33581254897786
 30
0.0
 10
208.8178042391019
 20
52.29550905608738
 30
0.0
 10
208.8092446021852
 20
52.22843573096475
 30
0.0
 10
208.7929210848155
 20
52.13481642795107
 30
0.0
 10
208.763598537013
 20
52.01534972253391
 30
0.0
 10
208.726029080785
 20
51.89702470329365
 30
0.0
 10
208.6650542638988
 20
51.74123538089272
 30
0.0
 10
208.5686635013354
 20
51.55072815309569
 30
0.0
 10
208.4218907360686
 20
51.33130168603306
 30
0.0
 10
208.2454045101844
 20
51.12309257216386
 30
0.0
 10
208.0409078103683
 20
50.92812122990305
 30
0.0
 10
207.8103691599332
 20
50.74826125341131
 30
0.0
 10
207.5560090110374
 20
50.58524588754401
 30
0.0
 10
207.280276926941
 20
50.44064476599402
 30
0.0
 10
206.9858283754989
 20
50.31585055522343
 30
0.0
 10
206.6754990526268
 20
50.21206507063675
 30
0.0
 10
206.3522776005789
 20
50.13028782882972
 30
0.0
 10
206.0192768182993
 20
50.07130638783247
 30
0.0
 10
205.6797036854464
 20
50.03568877157005
 30
0.0
 10
205.3368284768958
 20
50.02377799704705
 30
0.0
 10
204.9939532683451
 20
50.03568877157001
 30
0.0
 10
204.6543801354924
 20
50.07130638783247
 30
0.0
 10
204.3213793532119
 20
50.13028782882964
 30
0.0
 10
203.9981579011672
 20
50.21206507063698
 30
0.0
 10
203.6878285782833
 20
50.31585055522255
 30
0.0
 10
203.3933800268854
 20
50.44064476599724
 30
0.0
 10
203.1176479426241
 20
50.585245887532
 30
0.0
 10
202.8632877943436
 20
50.74826125345618
 30
0.0
 10
202.632749141612
 20
50.92812122973555
 30
0.0
 10
202.4282524503667
 20
51.12309257278895
 30
0.0
 10
202.2517661924959
 20
51.33130168370012
 30
0.0
 10
202.1049935466042
 20
51.55072816180224
 30
0.0
 10
202.0086084644974
 20
51.74122339459473
 30
0.0
 10
201.9476327161275
 20
51.89701243324151
 30
0.0
 10
201.9100640472568
 20
52.01532439894381
 30
0.0
 10
201.8807439184473
 20
52.1348041699364
 30
0.0
 10
201.8620659684206
 20
52.24178822388149
 30
0.0
 10
201.8512250865879
 20
52.33576600373699
 30
0.0
 10
201.8454061291032
 20
52.41649643475412
 30
0.0
 10
201.8446877713037
 20
52.47037216196754
 30
0.0
 10
201.8443284768957
 20
52.49731868851534
 30
0.0
  0
SPLINE
  5
14F
330
1F
100
AcDbEntity
  8
0
  6
Continuous
 62
     7
370
    15
100
AcDbSpline
210
0.0
220
0.0
230
1.0
 70
     8
 71
     3
 72
    23
 73
    19
 74
     0
 42
0.000000001
 43
0.00000001
 40
0.0
 40
0.0
 40
0.0
 40
0.0
 40
0.0365641333517059
 40
0.1027692571586052
 40
0.1689743809655049
 40
0.2351795047724042
 40
0.3013846285793043
 40
0.3675897523862035
 40
0.4337948761931028
 40
0.5000000000000022
 40
0.5662051238069017
 40
0.6324102476138012
 40
0.6986153714207004
 40
0.7648204952275995
 40
0.8310256190344991
 40
0.8972307428413988
 40
0.9634358666482975
 40
1.0
 40
1.0
 40
1.0
 40
1.0
 10
201.8743734331061
 20
52.28161466204517
 30
0.0
 10
201.8829669410423
 20
52.37072519445135
 30
0.0
 10
201.9071203489321
 20
52.62118438439855
 30
0.0
 10
202.0933738782347
 20
53.01680369968393
 30
0.0
 10
202.4131314437212
 20
53.44684514988024
 30
0.0
 10
202.8516254824549
 20
53.82339844074608
 30
0.0
 10
203.3839148880693
 20
54.13252490058554
 30
0.0
 10
203.9917115937165
 20
54.36220239471072
 30
0.0
 10
204.6510782732285
 20
54.50364279851393
 30
0.0
 10
205.3368284768957
 20
54.5514002040466
 30
0.0
 10
206.022578680563
 20
54.50364279851389
 30
0.0
 10
206.6819453600749
 20
54.36220239471074
 30
0.0
 10
207.2897420657222
 20
54.13252490058554
 30
0.0
 10
207.8220314713365
 20
53.82339844074608
 30
0.0
 10
208.2605255100703
 20
53.44684514988028
 30
0.0
 10
208.5802830755568
 20
53.01680369968393
 30
0.0
 10
208.7665366048594
 20
52.62118438439861
 30
0.0
 10
208.7906900127492
 20
52.37072519445141
 30
0.0
 10
208.7992835206853
 20
52.28161466204523
 30
0.0
  0
SPLINE
  5
150
330
1F
100
AcDbEntity
  8
0
  6
Continuous
 62
     7
370
    15
100
AcDbSpline
210
0.0
220
0.0
230
1.0
 70
    11
 71
     3
 72
    70
 73
    66
 74
     0
 42
0.000000001
 43
0.00000001
 40
0.0
 40
0.0
 40
0.0
 40
0.0
 40
0.0312499999999999
 40
0.0312499999999999
 40
0.0624999999999999
 40
0.0624999999999999
 40
0.09375
 40
0.09375
 40
0.125
 40
0.125
 40
0.15625
 40
0.15625
 40
0.1875
 40
0.1875
 40
0.21875
 40
0.21875
 40
0.2500000000000001
 40
0.2500000000000001
 40
0.2812500000000001
 40
0.2812500000000001
 40
0.3125000000000001
 40
0.3125000000000001
 40
0.3437500000000001
 40
0.3437500000000001
 40
0.3750000000000001
 40
0.3750000000000001
 40
0.4062500000000001
 40
0.4062500000000001
 40
0.4375000000000002
 40
0.4375000000000002
 40
0.4687500000000002
 40
0.4687500000000002
 40
0.5000000000000002
 40
0.5000000000000002
 40
0.5312500000000002
 40
0.5312500000000002
 40
0.5625000000000002
 40
0.5625000000000002
 40
0.5937500000000001
 40
0.5937500000000001
 40
0.6250000000000001
 40
0.6250000000000001
 40
0.65625
 40
0.65625
 40
0.6875
 40
0.6875
 40
0.71875
 40
0.71875
 40
0.75
 40
0.75
 40
0.7812499999999999
 40
0.7812499999999999
 40
0.8124999999999999
 40
0.8124999999999999
 40
0.8437499999999999
 40
0.8437499999999999
 40
0.8749999999999999
 40
0.8749999999999999
 40
0.90625
 40
0.90625
 40
0.9375
 40
0.9375
 40
0.96875
 40
0.96875
 40
1.0
 40
1.0
 40
1.0
 40
1.0
 10
205.3368284766853
 20
54.07779701585631
 30
0.0
 10
205.4827576386527
 20
54.07779701586504
 30
0.0
 10
205.6341440352503
 20
54.06862388434676
 30
0.0
 10
205.9407759167247
 20
54.02850054110819
 30
0.0
 10
206.0959902261121
 20
53.99751516345327
 30
0.0
 10
206.400839823748
 20
53.91217644309847
 30
0.0
 10
206.5504133207965
 20
53.85780296513508
 30
0.0
 10
206.8335735411593
 20
53.72690046406567
 30
0.0
 10
206.9670867442799
 20
53.65038039628052
 30
0.0
 10
207.208870096431
 20
53.47941374842557
 30
0.0
 10
207.3170858141091
 20
53.38500565713404
 30
0.0
 10
207.5022099065181
 20
53.18478114517547
 30
0.0
 10
207.5791056165128
 20
53.07901671113594
 30
0.0
 10
207.699792792286
 20
52.86345549342008
 30
0.0
 10
207.7436127336272
 20
52.75370240272036
 30
0.0
 10
207.800355709855
 20
52.53688092000855
 30
0.0
 10
207.8133284768834
 20
52.42983457239662
 30
0.0
 10
207.8133284769081
 20
52.2234595723966
 30
0.0
 10
207.8003557099055
 20
52.11641322478305
 30
0.0
 10
207.7436127337299
 20
51.89959174206449
 30
0.0
 10
207.699792792415
 20
51.78983865135947
 30
0.0
 10
207.5791056166937
 20
51.57427743362912
 30
0.0
 10
207.5022099067243
 20
51.46851299958038
 30
0.0
 10
207.3170858143635
 20
51.26828848759954
 30
0.0
 10
207.208870096708
 20
51.17388039629504
 30
0.0
 10
206.9670867445981
 20
51.00291374841101
 30
0.0
 10
206.8335735414959
 20
50.92639368060982
 30
0.0
 10
206.5504133211645
 20
50.79549117950643
 30
0.0
 10
206.4008398241291
 20
50.74111770152505
 30
0.0
 10
206.0959902265137
 20
50.65577898113355
 30
0.0
 10
205.9407759171338
 20
50.62479360345998
 30
0.0
 10
205.6341440356689
 20
50.58467026018464
 30
0.0
 10
205.4827576390736
 20
50.57549712864809
 30
0.0
 10
205.1908993151388
 20
50.57549712863052
 30
0.0
 10
205.0395129185412
 20
50.58467026014885
 30
0.0
 10
204.7328810370668
 20
50.62479360338738
 30
0.0
 10
204.5776667276794
 20
50.6557789810423
 30
0.0
 10
204.2728171300435
 20
50.74111770139717
 30
0.0
 10
204.123243632995
 20
50.79549117936055
 30
0.0
 10
203.8400834126322
 20
50.92639368042996
 30
0.0
 10
203.7065702095116
 20
51.00291374821509
 30
0.0
 10
203.4647868573605
 20
51.17388039607005
 30
0.0
 10
203.3565711396824
 20
51.26828848736155
 30
0.0
 10
203.1714470472734
 20
51.4685129993201
 30
0.0
 10
203.0945513372787
 20
51.57427743335967
 30
0.0
 10
202.9738641615055
 20
51.78983865107546
 30
0.0
 10
202.9300442201643
 20
51.89959174177525
 30
0.0
 10
202.8733012439365
 20
52.11641322448701
 30
0.0
 10
202.8603284769081
 20
52.22345957209901
 30
0.0
 10
202.8603284768834
 20
52.42983457209903
 30
0.0
 10
202.8733012438859
 20
52.53688091971255
 30
0.0
 10
202.9300442200616
 20
52.75370240243114
 30
0.0
 10
202.9738641613765
 20
52.86345549313613
 30
0.0
 10
203.0945513370978
 20
53.07901671086643
 30
0.0
 10
203.1714470470671
 20
53.18478114491526
 30
0.0
 10
203.356571139428
 20
53.38500565689606
 30
0.0
 10
203.4647868570835
 20
53.47941374820059
 30
0.0
 10
203.7065702091934
 20
53.65038039608461
 30
0.0
 10
203.8400834122956
 20
53.72690046388581
 30
0.0
 10
204.123243632627
 20
53.85780296498921
 30
0.0
 10
204.2728171296624
 20
53.91217644297061
 30
0.0
 10
204.5776667272778
 20
53.99751516336205
 30
0.0
 10
204.7328810366577
 20
54.02850054103564
 30
0.0
 10
205.0395129181225
 20
54.06862388431099
 30
0.0
 10
205.1908993147179
 20
54.07779701584757
 30
0.0
 10
205.3368284766853
 20
54.07779701585631
 30
0.0
  0
SPLINE
  5
151
330
1F
100
AcDbEntity
  8
0
  6
Continuous
 62
     7
370
    15
100
AcDbSpline
210
0.0
220
0.0
230
1.0
 70
     8
 71
     3
 72
    10
 73
     6
 74
     0
 42
0.000000001
 43
0.00000001
 40
0.0
 40
0.0
 40
0.0
 40
0.0
 40
0.0598101896121383
 40
0.5299050948060718
 40
1.0
 40
1.0
 40
1.0
 40
1.0
 10
207.491216971964
 20
52.32640814630651
 30
0.0
 10
207.4926974480811
 20
52.31375456328063
 30
0.0
 10
207.505814140107
 20
52.20164660715388
 30
0.0
 10
207.4555523632261
 20
51.98798836360965
 30
0.0
 10
207.3586362723811
 20
51.80086543256601
 30
0.0
 10
207.3101782269587
 20
51.70730396704423
 30
0.0
  0
SPLINE
  5
152
330
1F
100
AcDbEntity
  8
0
  6
Continuous
 62
     7
370
    15
100
AcDbSpline
210
0.0
220
0.0
230
1.0
 70
     8
 71
     3
 72
    21
 73
    17
 74
     0
 42
0.000000001
 43
0.00000001
 40
0.0
 40
0.0
 40
0.0
 40
0.0
 40
0.0720836575732997
 40
0.1441673151465996
 40
0.2162509727198995
 40
0.2883346302931984
 40
0.3604182878664982
 40
0.4325019454397979
 40
0.5045856030130974
 40
0.5766692605863969
 40
0.6487529181596969
 40
0.7208365757329953
 40
0.7929202333062956
 40
0.8650038908795952
 40
0.9370875484528941
 40
1.0
 40
1.0
 40
1.0
 40
1.0
 10
207.3101782269587
 20
51.70730396704426
 30
0.0
 10
207.245508027662
 20
51.61828305430681
 30
0.0
 10
207.1161676290686
 20
51.44024122883195
 30
0.0
 10
206.8334581761032
 20
51.21362003104596
 30
0.0
 10
206.4986787561779
 20
51.02806300259812
 30
0.0
 10
206.117791238671
 20
50.89286771337648
 30
0.0
 10
205.7072824588249
 20
50.81264906977043
 30
0.0
 10
205.2824333886207
 20
50.79064540294838
 30
0.0
 10
204.859699798869
 20
50.82766057951625
 30
0.0
 10
204.4553055173617
 20
50.92228344119629
 30
0.0
 10
204.0847484782117
 20
51.07087414965167
 30
0.0
 10
203.762461412967
 20
51.26772527239829
 30
0.0
 10
203.5001026147659
 20
51.50526416556686
 30
0.0
 10
203.3104700249006
 20
51.77439058006528
 30
0.0
 10
203.1957943636767
 20
52.0523467548859
 30
0.0
 10
203.186685158985
 20
52.23961369029177
 30
0.0
 10
203.1824399818275
 20
52.32688599818909
 30
0.0
  0
SPLINE
  5
153
330
1F
100
AcDbEntity
  8
0
  6
Continuous
 62
     7
370
    15
100
AcDbSpline
210
0.0
220
0.0
230
1.0
 70
     8
 71
     3
 72
    24
 73
    20
 74
     0
 42
0.000000001
 43
0.00000001
 40
0.0
 40
0.0
 40
0.0
 40
0.0
 40
0.0623790651333627
 40
0.1284946119322269
 40
0.1973588428524359
 40
0.2676844715564226
 40
0.3380101002604088
 40
0.3727562452363147
 40
0.4069622888695294
 40
0.4730778356683957
 40
0.5354569008017579
 40
0.5978359659351217
 40
0.6639515127339835
 40
0.7328157436541937
 40
0.8031413723581784
 40
0.8734670010621646
 40
0.9082131460380715
 40
0.9424191896712865
 40
1.0
 40
1.0
 40
1.0
 40
1.0
 10
205.3368284768736
 20
54.11085151323321
 30
0.0
 10
205.513215398826
 20
54.10421697541387
 30
0.0
 10
205.8765547505421
 20
54.09055049354814
 30
0.0
 10
206.4155449431771
 20
53.97678079271799
 30
0.0
 10
206.9338502669351
 20
53.78810779106417
 30
0.0
 10
207.3963022552352
 20
53.52217930519437
 30
0.0
 10
207.7109549803821
 20
53.2482915963465
 30
0.0
 10
207.9093928354709
 20
53.00769288514055
 30
0.0
 10
208.0676470559946
 20
52.761878197435
 30
0.0
 10
208.1955129172206
 20
52.44751390295522
 30
0.0
 10
208.2449835477979
 20
52.06592162581769
 30
0.0
 10
208.1954851068864
 20
51.68426209069759
 30
0.0
 10
208.0405304441238
 20
51.30314946682412
 30
0.0
 10
207.7720198493478
 20
50.9366230828438
 30
0.0
 10
207.3963785750335
 20
50.60972816740447
 30
0.0
 10
207.0090347853701
 20
50.38689950387248
 30
0.0
 10
206.6685766593677
 20
50.24725798080963
 30
0.0
 10
206.3436939702066
 20
50.13994914855888
 30
0.0
 10
206.0910444559379
 20
50.09649609034261
 30
0.0
 10
205.9325493868425
 20
50.06923660605533
 30
0.0
  0
SPLINE
  5
154
330
1F
100
AcDbEntity
  8
0
  6
Continuous
 62
     7
370
    15
100
AcDbSpline
210
0.0
220
0.0
230
1.0
 70
     8
 71
     3
 72
    24
 73
    20
 74
     0
 42
0.000000001
 43
0.00000001
 40
0.0
 40
0.0
 40
0.0
 40
0.0
 40
0.057580810325728
 40
0.1264450412461553
 40
0.1967706699503647
 40
0.2670962986545736
 40
0.3018424436305897
 40
0.3360484872639153
 40
0.4021640340629876
 40
0.4645430991965475
 40
0.5269221643301084
 40
0.5930377111291801
 40
0.6619019420496093
 40
0.7322275707538168
 40
0.8025531994580261
 40
0.8372993444340427
 40
0.8715053880673662
 40
0.9376209348664396
 40
1.0
 40
1.0
 40
1.0
 40
1.0
 10
204.7411075669665
 20
50.06923660605411
 30
0.0
 10
204.5827922593903
 20
50.09685909093027
 30
0.0
 10
204.2351384927425
 20
50.15751690765306
 30
0.0
 10
203.740227856311
 20
50.34529738645617
 30
0.0
 10
203.2772382842622
 20
50.60920416153441
 30
0.0
 10
202.9627162089962
 20
50.88358321485767
 30
0.0
 10
202.7642615564677
 20
51.12411874509469
 30
0.0
 10
202.6060113111832
 20
51.36994842285893
 30
0.0
 10
202.4781436227203
 20
51.68430555553284
 30
0.0
 10
202.4286734059785
 20
52.06590052402203
 30
0.0
 10
202.4781722608176
 20
52.44755737308926
 30
0.0
 10
202.6331247068122
 20
52.82867865598434
 30
0.0
 10
202.90164422922
 20
53.19517137539692
 30
0.0
 10
203.2772511915665
 20
53.52219534700082
 30
0.0
 10
203.6647018705153
 20
53.74462204610918
 30
0.0
 10
204.0049448797865
 20
53.88507251850459
 30
0.0
 10
204.3525835520672
 20
53.99645145399263
 30
0.0
 10
204.7971550639682
 20
54.09064080707843
 30
0.0
 10
205.160458830247
 20
54.10424649060776
 30
0.0
 10
205.3368284768736
 20
54.11085151323321
 30
0.0
  0
SPLINE
  5
155
330
1F
100
AcDbEntity
  8
0
  6
Continuous
 62
     7
370
    15
100
AcDbSpline
210
0.0
220
0.0
230
1.0
 70
     8
 71
     3
 72
    38
 73
    34
 74
     0
 42
0.000000001
 43
0.00000001
 40
0.0
 40
0.0
 40
0.0
 40
0.0
 40
0.0624999999999999
 40
0.0624999999999999
 40
0.1249999999999999
 40
0.1249999999999999
 40
0.1874999999999998
 40
0.1874999999999998
 40
0.2499999999999997
 40
0.2499999999999997
 40
0.3124999999999997
 40
0.3124999999999997
 40
0.3749999999999997
 40
0.3749999999999997
 40
0.4374999999999997
 40
0.4374999999999997
 40
0.4999999999999997
 40
0.4999999999999997
 40
0.5624999999999997
 40
0.5624999999999997
 40
0.6249999999999998
 40
0.6249999999999998
 40
0.6874999999999998
 40
0.6874999999999998
 40
0.7499999999999998
 40
0.7499999999999998
 40
0.8124999999999999
 40
0.8124999999999999
 40
0.8749999999999999
 40
0.8749999999999999
 40
0.9375
 40
0.9375
 40
1.0
 40
1.0
 40
1.0
 40
1.0
 10
203.3634787268328
 20
53.007897699375
 30
0.0
 10
203.4208051625614
 20
53.0992243862039
 30
0.0
 10
203.4908505666867
 20
53.18655647471682
 30
0.0
 10
203.6536943677841
 20
53.34988388698235
 30
0.0
 10
203.7464887381223
 20
53.4258751721428
 30
0.0
 10
203.9512654729075
 20
53.56360004215772
 30
0.0
 10
204.0632427738462
 20
53.62533022149342
 30
0.0
 10
204.3020829872415
 20
53.73215985974009
 30
0.0
 10
204.4289399939032
 20
53.77725667707778
 30
0.0
 10
204.6926651904509
 20
53.84908568046917
 30
0.0
 10
204.8295268592118
 20
53.8758160904092
 30
0.0
 10
205.1080022275075
 20
53.90988411062708
 30
0.0
 10
205.24960904119
 20
53.91722087850602
 30
0.0
 10
205.5321329290008
 20
53.91221870063903
 30
0.0
 10
205.6730430171692
 20
53.89987987858179
 30
0.0
 10
205.9487581899277
 20
53.85599973352012
 30
0.0
 10
206.0835564569169
 20
53.82445949553868
 30
0.0
 10
206.3418673351569
 20
53.74338767264874
 30
0.0
 10
206.4653735591623
 20
53.69385809240075
 30
0.0
 10
206.6963534006955
 20
53.57871013637058
 30
0.0
 10
206.8038213067916
 20
53.51309460784853
 30
0.0
 10
206.9985936858428
 20
53.36829559005268
 30
0.0
 10
207.085893342667
 20
53.28911568121997
 30
0.0
 10
207.2369732659389
 20
53.12023014670814
 30
0.0
 10
207.3007497966377
 20
53.03052869705663
 30
0.0
 10
207.4023313474055
 20
52.84404682220797
 30
0.0
 10
207.4401338556705
 20
52.74727100814264
 30
0.0
 10
207.4883133119059
 20
52.55035918682738
 30
0.0
 10
207.4986890685443
 20
52.45022804861021
 30
0.0
 10
207.4916149207633
 20
52.25045349169203
 30
0.0
 10
207.4741651912663
 20
52.15081501281056
 30
0.0
 10
207.4121092950012
 20
51.95585494447697
 30
0.0
 10
207.3675046626874
 20
51.86053817579672
 30
0.0
 10
207.3101782269587
 20
51.76921148896783
 30
0.0
  0
SPLINE
  5
156
330
1F
100
AcDbEntity
  8
0
  6
Continuous
 62
     7
370
    15
100
AcDbSpline
210
0.0
220
0.0
230
1.0
 70
     8
 71
     3
 72
    38
 73
    34
 74
     0
 42
0.000000001
 43
0.00000001
 40
0.0
 40
0.0
 40
0.0
 40
0.0
 40
0.0625
 40
0.0625
 40
0.125
 40
0.125
 40
0.1875
 40
0.1875
 40
0.25
 40
0.25
 40
0.3125
 40
0.3125
 40
0.375
 40
0.375
 40
0.4375
 40
0.4375
 40
0.5
 40
0.5
 40
0.5625
 40
0.5625
 40
0.625
 40
0.625
 40
0.6875
 40
0.6875
 40
0.75
 40
0.75
 40
0.8125
 40
0.8125
 40
0.875
 40
0.875
 40
0.9375
 40
0.9375
 40
1.0
 40
1.0
 40
1.0
 40
1.0
 10
207.3101782269587
 20
51.76921148896785
 30
0.0
 10
207.2528517912301
 20
51.67788480213892
 30
0.0
 10
207.1828063871048
 20
51.590552713626
 30
0.0
 10
207.0199625860074
 20
51.4272253013605
 30
0.0
 10
206.9271682156692
 20
51.35123401620005
 30
0.0
 10
206.722391480884
 20
51.2135091461851
 30
0.0
 10
206.6104141799453
 20
51.15177896684941
 30
0.0
 10
206.37157396655
 20
51.04494932860273
 30
0.0
 10
206.2447169598883
 20
50.99985251126504
 30
0.0
 10
205.9809917633406
 20
50.92802350787366
 30
0.0
 10
205.8441300945797
 20
50.90129309793362
 30
0.0
 10
205.565654726284
 20
50.86722507771571
 30
0.0
 10
205.4240479126015
 20
50.85988830983679
 30
0.0
 10
205.1415240247907
 20
50.86489048770378
 30
0.0
 10
205.0006139366223
 20
50.87722930976102
 30
0.0
 10
204.7248987638638
 20
50.9211094548227
 30
0.0
 10
204.5901004968746
 20
50.95264969280412
 30
0.0
 10
204.3317896186345
 20
51.03372151569408
 30
0.0
 10
204.2082833946292
 20
51.08325109594203
 30
0.0
 10
203.977303553096
 20
51.19839905197218
 30
0.0
 10
203.8698356469999
 20
51.26401458049428
 30
0.0
 10
203.6750632679487
 20
51.40881359829012
 30
0.0
 10
203.5877636111245
 20
51.48799350712282
 30
0.0
 10
203.4366836878526
 20
51.65687904163467
 30
0.0
 10
203.3729071571537
 20
51.74658049128617
 30
0.0
 10
203.2713256063859
 20
51.93306236613482
 30
0.0
 10
203.233523098121
 20
52.02983818020017
 30
0.0
 10
203.1853436418856
 20
52.22675000151546
 30
0.0
 10
203.1749678852472
 20
52.32688113973261
 30
0.0
 10
203.1820420330282
 20
52.52665569665077
 30
0.0
 10
203.1994917625252
 20
52.62629417553223
 30
0.0
 10
203.2615476587903
 20
52.82125424386582
 30
0.0
 10
203.3061522911041
 20
52.91657101254607
 30
0.0
 10
203.3634787268328
 20
53.00789769937496
 30
0.0
  0
LINE
  5
157
330
1F
100
AcDbEntity
  8
0
  6
Continuous
 62
     7
370
    15
100
AcDbLine
 10
198.9868284769
 20
40.480184225
 30
0.0
 11
211.6868284769
 21
40.480184225
 31
0.0
  0
LINE
  5
158
330
1F
100
AcDbEntity
  8
0
  6
Continuous
 62
     7
370
    15
100
AcDbLine
 10
198.9868284769
 20
39.210184225
 30
0.0
 11
211.6868284769
 21
39.210184225
 31
0.0
  0
ENDSEC
  0
SECTION
  2
OBJECTS
  0
DICTIONARY
  5
C
330
0
100
AcDbDictionary
281
     1
  3
ACAD_GROUP
350
D
  3
ACAD_LAYOUT
350
1A
  3
ACAD_MLINESTYLE
350
17
  3
ACAD_PLOTSETTINGS
350
19
  3
ACAD_PLOTSTYLENAME
350
E
  3
ACAD_SCALELIST
350
47
  0
DICTIONARY
  5
D
102
{ACAD_REACTORS
330
C
102
}
330
C
100
AcDbDictionary
281
     1
  0
DICTIONARY
  5
1A
102
{ACAD_REACTORS
330
C
102
}
330
C
100
AcDbDictionary
281
     1
  3
Layout1
350
1E
  3
Layout2
350
26
  3
Model
350
22
  0
DICTIONARY
  5
17
102
{ACAD_REACTORS
330
C
102
}
330
C
100
AcDbDictionary
281
     1
  3
Standard
350
18
  0
DICTIONARY
  5
19
102
{ACAD_REACTORS
330
C
102
}
330
C
100
AcDbDictionary
281
     1
  0
ACDBDICTIONARYWDFLT
  5
E
102
{ACAD_REACTORS
330
C
102
}
330
C
100
AcDbDictionary
281
     1
  3
Normal
350
F
100
AcDbDictionaryWithDefault
340
F
  0
DICTIONARY
  5
47
102
{ACAD_REACTORS
330
C
102
}
330
C
100
AcDbDictionary
281
     1
  3
A0
350
48
  3
A1
350
49
  3
A2
350
4A
  3
A3
350
4B
  3
A4
350
4C
  3
A5
350
4D
  3
A6
350
4E
  3
A7
350
4F
  3
A8
350
50
  3
A9
350
51
  3
B0
350
52
  3
B1
350
53
  3
B2
350
54
  3
B3
350
55
  3
B4
350
56
  3
B5
350
57
  3
B6
350
58
  3
B7
350
59
  3
B8
350
5A
  3
B9
350
5B
  3
C0
350
5C
  3
C1
350
5D
  3
C2
350
5E
  3
C3
350
5F
  3
C4
350
60
  3
C5
350
61
  3
C6
350
62
  3
C7
350
63
  3
C8
350
64
  3
C9
350
65
  3
D0
350
66
  3
D1
350
67
  3
D2
350
68
  0
LAYOUT
  5
1E
102
{ACAD_REACTORS
330
1A
102
}
330
1A
100
AcDbPlotSettings
  1

  2
none_device
  4

  6

 40
0.0
 41
0.0
 42
0.0
 43
0.0
 44
0.0
 45
0.0
 46
0.0
 47
0.0
 48
0.0
 49
0.0
140
0.0
141
0.0
142
1.0
143
1.0
 70
   688
 72
     1
 73
     0
 74
     5
  7

 75
    16
147
1.0
148
0.0
149
0.0
100
AcDbLayout
  1
Layout1
 70
     1
 71
     1
 10
0.0
 20
0.0
 11
420.0
 21
297.0
 12
0.0
 22
0.0
 32
0.0
 14
1.0000000000E+20
 24
1.0000000000E+20
 34
1.0000000000E+20
 15
-1.0000000000E+20
 25
-1.0000000000E+20
 35
-1.0000000000E+20
146
0.0
 13
0.0
 23
0.0
 33
0.0
 16
1.0
 26
0.0
 36
0.0
 17
0.0
 27
1.0
 37
0.0
 76
     0
330
1B
  0
LAYOUT
  5
26
102
{ACAD_REACTORS
330
1A
102
}
330
1A
100
AcDbPlotSettings
  1

  2
none_device
  4

  6

 40
0.0
 41
0.0
 42
0.0
 43
0.0
 44
0.0
 45
0.0
 46
0.0
 47
0.0
 48
0.0
 49
0.0
140
0.0
141
0.0
142
1.0
143
1.0
 70
   688
 72
     1
 73
     0
 74
     5
  7

 75
    16
147
1.0
148
0.0
149
0.0
100
AcDbLayout
  1
Layout2
 70
     1
 71
     2
 10
0.0
 20
0.0
 11
0.0
 21
0.0
 12
0.0
 22
0.0
 32
0.0
 14
0.0
 24
0.0
 34
0.0
 15
0.0
 25
0.0
 35
0.0
146
0.0
 13
0.0
 23
0.0
 33
0.0
 16
1.0
 26
0.0
 36
0.0
 17
0.0
 27
1.0
 37
0.0
 76
     0
330
23
  0
LAYOUT
  5
22
102
{ACAD_REACTORS
330
1A
102
}
330
1A
100
AcDbPlotSettings
  1

  2
none_device
  4
Letter_(8.50_x_11.00_Inches)
  6

 40
6.35
 41
6.35
 42
6.35000508
 43
6.35000508
 44
215.9
 45
279.4
 46
0.0
 47
0.0
 48
0.0
 49
0.0
140
0.0
141
0.0
142
1.0
143
1.0
 70
  1712
 72
     1
 73
     0
 74
     0
  7

 75
     0
147
1.0
148
0.0
149
0.0
100
AcDbLayout
  1
Model
 70
     1
 71
     0
 10
0.0
 20
0.0
 11
431.8
 21
279.4
 12
0.0
 22
0.0
 32
0.0
 14
0.0
 24
0.0
 34
0.0
 15
431.8
 25
279.4
 35
0.0
146
0.0
 13
0.0
 23
0.0
 33
0.0
 16
1.0
 26
0.0
 36
0.0
 17
0.0
 27
1.0
 37
0.0
 76
     0
330
1F
331
29
  0
MLINESTYLE
  5
18
102
{ACAD_REACTORS
330
17
102
}
330
17
100
AcDbMlineStyle
  2
Standard
 70
     0
  3

 62
   256
 51
90.0
 52
90.0
 71
     2
 49
0.5
 62
   256
  6
BYLAYER
 49
-0.5
 62
   256
  6
BYLAYER
  0
ACDBPLACEHOLDER
  5
F
102
{ACAD_REACTORS
330
E
102
}
330
E
  0
SCALE
  5
48
102
{ACAD_REACTORS
330
47
102
}
330
47
100
AcDbScale
 70
     0
300
1:1
140
1.0
141
1.0
290
     1
  0
SCALE
  5
49
102
{ACAD_REACTORS
330
47
102
}
330
47
100
AcDbScale
 70
     0
300
1:2
140
1.0
141
2.0
290
     0
  0
SCALE
  5
4A
102
{ACAD_REACTORS
330
47
102
}
330
47
100
AcDbScale
 70
     0
300
1:4
140
1.0
141
4.0
290
     0
  0
SCALE
  5
4B
102
{ACAD_REACTORS
330
47
102
}
330
47
100
AcDbScale
 70
     0
300
1:5
140
1.0
141
5.0
290
     0
  0
SCALE
  5
4C
102
{ACAD_REACTORS
330
47
102
}
330
47
100
AcDbScale
 70
     0
300
1:8
140
1.0
141
8.0
290
     0
  0
SCALE
  5
4D
102
{ACAD_REACTORS
330
47
102
}
330
47
100
AcDbScale
 70
     0
300
1:10
140
1.0
141
10.0
290
     0
  0
SCALE
  5
4E
102
{ACAD_REACTORS
330
47
102
}
330
47
100
AcDbScale
 70
     0
300
1:16
140
1.0
141
16.0
290
     0
  0
SCALE
  5
4F
102
{ACAD_REACTORS
330
47
102
}
330
47
100
AcDbScale
 70
     0
300
1:20
140
1.0
141
20.0
290
     0
  0
SCALE
  5
50
102
{ACAD_REACTORS
330
47
102
}
330
47
100
AcDbScale
 70
     0
300
1:30
140
1.0
141
30.0
290
     0
  0
SCALE
  5
51
102
{ACAD_REACTORS
330
47
102
}
330
47
100
AcDbScale
 70
     0
300
1:40
140
1.0
141
40.0
290
     0
  0
SCALE
  5
52
102
{ACAD_REACTORS
330
47
102
}
330
47
100
AcDbScale
 70
     0
300
1:50
140
1.0
141
50.0
290
     0
  0
SCALE
  5
53
102
{ACAD_REACTORS
330
47
102
}
330
47
100
AcDbScale
 70
     0
300
1:100
140
1.0
141
100.0
290
     0
  0
SCALE
  5
54
102
{ACAD_REACTORS
330
47
102
}
330
47
100
AcDbScale
 70
     0
300
2:1
140
2.0
141
1.0
290
     0
  0
SCALE
  5
55
102
{ACAD_REACTORS
330
47
102
}
330
47
100
AcDbScale
 70
     0
300
4:1
140
4.0
141
1.0
290
     0
  0
SCALE
  5
56
102
{ACAD_REACTORS
330
47
102
}
330
47
100
AcDbScale
 70
     0
300
8:1
140
8.0
141
1.0
290
     0
  0
SCALE
  5
57
102
{ACAD_REACTORS
330
47
102
}
330
47
100
AcDbScale
 70
     0
300
10:1
140
10.0
141
1.0
290
     0
  0
SCALE
  5
58
102
{ACAD_REACTORS
330
47
102
}
330
47
100
AcDbScale
 70
     0
300
100:1
140
100.0
141
1.0
290
     0
  0
SCALE
  5
59
102
{ACAD_REACTORS
330
47
102
}
330
47
100
AcDbScale
 70
     0
300
1/128" = 1'-0"
140
0.0078125
141
12.0
290
     0
  0
SCALE
  5
5A
102
{ACAD_REACTORS
330
47
102
}
330
47
100
AcDbScale
 70
     0
300
1/64" = 1'-0"
140
0.015625
141
12.0
290
     0
  0
SCALE
  5
5B
102
{ACAD_REACTORS
330
47
102
}
330
47
100
AcDbScale
 70
     0
300
1/32" = 1'-0"
140
0.03125
141
12.0
290
     0
  0
SCALE
  5
5C
102
{ACAD_REACTORS
330
47
102
}
330
47
100
AcDbScale
 70
     0
300
1/16" = 1'-0"
140
0.0625
141
12.0
290
     0
  0
SCALE
  5
5D
102
{ACAD_REACTORS
330
47
102
}
330
47
100
AcDbScale
 70
     0
300
3/32" = 1'-0"
140
0.09375
141
12.0
290
     0
  0
SCALE
  5
5E
102
{ACAD_REACTORS
330
47
102
}
330
47
100
AcDbScale
 70
     0
300
1/8" = 1'-0"
140
0.125
141
12.0
290
     0
  0
SCALE
  5
5F
102
{ACAD_REACTORS
330
47
102
}
330
47
100
AcDbScale
 70
     0
300
3/16" = 1'-0"
140
0.1875
141
12.0
290
     0
  0
SCALE
  5
60
102
{ACAD_REACTORS
330
47
102
}
330
47
100
AcDbScale
 70
     0
300
1/4" = 1'-0"
140
0.25
141
12.0
290
     0
  0
SCALE
  5
61
102
{ACAD_REACTORS
330
47
102
}
330
47
100
AcDbScale
 70
     0
300
3/8" = 1'-0"
140
0.375
141
12.0
290
     0
  0
SCALE
  5
62
102
{ACAD_REACTORS
330
47
102
}
330
47
100
AcDbScale
 70
     0
300
1/2" = 1'-0"
140
0.5
141
12.0
290
     0
  0
SCALE
  5
63
102
{ACAD_REACTORS
330
47
102
}
330
47
100
AcDbScale
 70
     0
300
3/4" = 1'-0"
140
0.75
141
12.0
290
     0
  0
SCALE
  5
64
102
{ACAD_REACTORS
330
47
102
}
330
47
100
AcDbScale
 70
     0
300
1" = 1'-0"
140
1.0
141
12.0
290
     0
  0
SCALE
  5
65
102
{ACAD_REACTORS
330
47
102
}
330
47
100
AcDbScale
 70
     0
300
1-1/2" = 1'-0"
140
1.5
141
12.0
290
     0
  0
SCALE
  5
66
102
{ACAD_REACTORS
330
47
102
}
330
47
100
AcDbScale
 70
     0
300
3" = 1'-0"
140
3.0
141
12.0
290
     0
  0
SCALE
  5
67
102
{ACAD_REACTORS
330
47
102
}
330
47
100
AcDbScale
 70
     0
300
6" = 1'-0"
140
6.0
141
12.0
290
     0
  0
SCALE
  5
68
102
{ACAD_REACTORS
330
47
102
}
330
47
100
AcDbScale
 70
     0
300
1'-0" = 1'-0"
140
12.0
141
12.0
290
     0
  0
ENDSEC
  0
EOF
