  0
SECTION
  2
HEADER
  9
$ACADVER
  1
AC1015
  9
$ACADMAINTVER
 70
     6
  9
$DWGCODEPAGE
  3
ANSI_1252
  9
$INSBASE
 10
0.0
 20
0.0
 30
0.0
  9
$EXTMIN
 10
0.0
 20
0.0
 30
0.0
  9
$EXTMAX
 10
431.8
 20
279.4
 30
0.0
  9
$LIMMIN
 10
0.0
 20
0.0
  9
$LIMMAX
 10
431.8
 20
279.4
  9
$ORTHOMODE
 70
     0
  9
$REGENMODE
 70
     1
  9
$FILLMODE
 70
     1
  9
$QTEXTMODE
 70
     0
  9
$MIRRTEXT
 70
     1
  9
$LTSCALE
 40
1.0
  9
$ATTMODE
 70
     1
  9
$TEXTSIZE
 40
3.175
  9
$TRACEWID
 40
1.0
  9
$TEXTSTYLE
  7
Standard
  9
$CLAYER
  8
0
  9
$CELTYPE
  6
ByLayer
  9
$CECOLOR
 62
   256
  9
$CELTSCALE
 40
1.0
  9
$DISPSILH
 70
     0
  9
$DIMSCALE
 40
1.0
  9
$DIMASZ
 40
3.302
  9
$DIMEXO
 40
1.27
  9
$DIMDLI
 40
3.75
  9
$DIMRND
 40
0.0
  9
$DIMDLE
 40
0.0
  9
$DIMEXE
 40
3.175
  9
$DIMTP
 40
0.0
  9
$DIMTM
 40
0.0
  9
$DIMTXT
 40
3.175
  9
$DIMCEN
 40
2.5
  9
$DIMTSZ
 40
0.0
  9
$DIMTOL
 70
     0
  9
$DIMLIM
 70
     0
  9
$DIMTIH
 70
     1
  9
$DIMTOH
 70
     1
  9
$DIMSE1
 70
     0
  9
$DIMSE2
 70
     0
  9
$DIMTAD
 70
     0
  9
$DIMZIN
 70
     0
  9
$DIMBLK
  1

  9
$DIMASO
 70
     1
  9
$DIMSHO
 70
     1
  9
$DIMPOST
  1

  9
$DIMAPOST
  1

  9
$DIMALT
 70
     0
  9
$DIMALTD
 70
     3
  9
$DIMALTF
 40
0.0393700787
  9
$DIMLFAC
 40
15.0
  9
$DIMTOFL
 70
     1
  9
$DIMTVP
 40
0.0
  9
$DIMTIX
 70
     0
  9
$DIMSOXD
 70
     0
  9
$DIMSAH
 70
     0
  9
$DIMBLK1
  1

  9
$DIMBLK2
  1

  9
$DIMSTYLE
  2
ISO-25
  9
$DIMCLRD
 70
     0
  9
$DIMCLRE
 70
     0
  9
$DIMCLRT
 70
     0
  9
$DIMTFAC
 40
1.0
  9
$DIMGAP
 40
1.524
  9
$DIMJUST
 70
     0
  9
$DIMSD1
 70
     0
  9
$DIMSD2
 70
     0
  9
$DIMTOLJ
 70
     0
  9
$DIMTZIN
 70
     0
  9
$DIMALTZ
 70
     0
  9
$DIMALTTZ
 70
     0
  9
$DIMUPT
 70
     0
  9
$DIMDEC
 70
     0
  9
$DIMTDEC
 70
     0
  9
$DIMALTU
 70
     2
  9
$DIMALTTD
 70
     3
  9
$DIMTXSTY
  7
Standard
  9
$DIMAUNIT
 70
     0
  9
$DIMADEC
 70
     0
  9
$DIMALTRND
 40
0.0
  9
$DIMAZIN
 70
     0
  9
$DIMDSEP
 70
    44
  9
$DIMATFIT
 70
     3
  9
$DIMFRAC
 70
     0
  9
$DIMLDRBLK
  1

  9
$DIMLUNIT
 70
     2
  9
$DIMLWD
 70
    -2
  9
$DIMLWE
 70
    -2
  9
$DIMTMOVE
 70
     0
  9
$LUNITS
 70
     2
  9
$LUPREC
 70
     2
  9
$SKETCHINC
 40
1.0
  9
$FILLETRAD
 40
10.0
  9
$AUNITS
 70
     0
  9
$AUPREC
 70
     2
  9
$MENU
  1
.
  9
$ELEVATION
 40
0.0
  9
$PELEVATION
 40
0.0
  9
$THICKNESS
 40
0.0
  9
$LIMCHECK
 70
     0
  9
$CHAMFERA
 40
0.0
  9
$CHAMFERB
 40
0.0
  9
$CHAMFERC
 40
0.0
  9
$CHAMFERD
 40
0.0
  9
$SKPOLY
 70
     0
  9
$TDCREATE
 40
2458681.608555845
  9
$TDUCREATE
 40
2458681.775222511
  9
$TDUPDATE
 40
2458681.608556563
  9
$TDUUPDATE
 40
2458681.775223229
  9
$TDINDWG
 40
0.0000000116
  9
$TDUSRTIMER
 40
0.0000000116
  9
$USRTIMER
 70
     1
  9
$ANGBASE
 50
0.0
  9
$ANGDIR
 70
     0
  9
$PDMODE
 70
     0
  9
$PDSIZE
 40
-1.0
  9
$PLINEWID
 40
0.0
  9
$SPLFRAME
 70
     0
  9
$SPLINETYPE
 70
     6
  9
$SPLINESEGS
 70
     8
  9
$HANDSEED
  5
15F
  9
$SURFTAB1
 70
     6
  9
$SURFTAB2
 70
     6
  9
$SURFTYPE
 70
     6
  9
$SURFU
 70
     6
  9
$SURFV
 70
     6
  9
$UCSBASE
  2

  9
$UCSNAME
  2

  9
$UCSORG
 10
0.0
 20
0.0
 30
0.0
  9
$UCSXDIR
 10
1.0
 20
0.0
 30
0.0
  9
$UCSYDIR
 10
0.0
 20
1.0
 30
0.0
  9
$UCSORTHOREF
  2

  9
$UCSORTHOVIEW
 70
     0
  9
$UCSORGTOP
 10
0.0
 20
0.0
 30
0.0
  9
$UCSORGBOTTOM
 10
0.0
 20
0.0
 30
0.0
  9
$UCSORGLEFT
 10
0.0
 20
0.0
 30
0.0
  9
$UCSORGRIGHT
 10
0.0
 20
0.0
 30
0.0
  9
$UCSORGFRONT
 10
0.0
 20
0.0
 30
0.0
  9
$UCSORGBACK
 10
0.0
 20
0.0
 30
0.0
  9
$PUCSBASE
  2

  9
$PUCSNAME
  2

  9
$PUCSORG
 10
0.0
 20
0.0
 30
0.0
  9
$PUCSXDIR
 10
1.0
 20
0.0
 30
0.0
  9
$PUCSYDIR
 10
0.0
 20
1.0
 30
0.0
  9
$PUCSORTHOREF
  2

  9
$PUCSORTHOVIEW
 70
     0
  9
$PUCSORGTOP
 10
0.0
 20
0.0
 30
0.0
  9
$PUCSORGBOTTOM
 10
0.0
 20
0.0
 30
0.0
  9
$PUCSORGLEFT
 10
0.0
 20
0.0
 30
0.0
  9
$PUCSORGRIGHT
 10
0.0
 20
0.0
 30
0.0
  9
$PUCSORGFRONT
 10
0.0
 20
0.0
 30
0.0
  9
$PUCSORGBACK
 10
0.0
 20
0.0
 30
0.0
  9
$USERI1
 70
     0
  9
$USERI2
 70
     0
  9
$USERI3
 70
     0
  9
$USERI4
 70
     0
  9
$USERI5
 70
     0
  9
$USERR1
 40
0.0
  9
$USERR2
 40
0.0
  9
$USERR3
 40
0.0
  9
$USERR4
 40
0.0
  9
$USERR5
 40
0.0
  9
$WORLDVIEW
 70
     1
  9
$SHADEDGE
 70
     3
  9
$SHADEDIF
 70
    70
  9
$TILEMODE
 70
     1
  9
$MAXACTVP
 70
    64
  9
$PINSBASE
 10
0.0
 20
0.0
 30
0.0
  9
$PLIMCHECK
 70
     0
  9
$PEXTMIN
 10
1.0000000000E+20
 20
1.0000000000E+20
 30
1.0000000000E+20
  9
$PEXTMAX
 10
-1.0000000000E+20
 20
-1.0000000000E+20
 30
-1.0000000000E+20
  9
$PLIMMIN
 10
0.0
 20
0.0
  9
$PLIMMAX
 10
420.0
 20
297.0
  9
$UNITMODE
 70
     0
  9
$VISRETAIN
 70
     1
  9
$PLINEGEN
 70
     0
  9
$PSLTSCALE
 70
     1
  9
$TREEDEPTH
 70
  3020
  9
$CMLSTYLE
  2
Standard
  9
$CMLJUST
 70
     0
  9
$CMLSCALE
 40
20.0
  9
$PROXYGRAPHICS
 70
     1
  9
$MEASUREMENT
 70
     1
  9
$CELWEIGHT
370
    -1
  9
$ENDCAPS
280
     0
  9
$JOINSTYLE
280
     0
  9
$LWDISPLAY
290
     1
  9
$INSUNITS
 70
     4
  9
$HYPERLINKBASE
  1

  9
$STYLESHEET
  1

  9
$XEDIT
290
     1
  9
$CEPSNTYPE
380
     0
  9
$PSTYLEMODE
290
     1
  9
$FINGERPRINTGUID
  2
{B5B808E6-6006-4763-9471-3B0BF8B964B8}
  9
$VERSIONGUID
  2
{FAEB1C32-E019-11D5-929B-00C0DF256EC4}
  9
$EXTNAMES
290
     1
  9
$PSVPSCALE
 40
0.0
  9
$OLESTARTUP
290
     0
  0
ENDSEC
  0
SECTION
  2
CLASSES
  0
CLASS
  1
ACDBDICTIONARYWDFLT
  2
AcDbDictionaryWithDefault
  3
ObjectDBX Classes
 90
        0
280
     0
281
     0
  0
CLASS
  1
VISUALSTYLE
  2
AcDbVisualStyle
  3
ObjectDBX Classes
 90
     4095
280
     0
281
     0
  0
CLASS
  1
MATERIAL
  2
AcDbMaterial
  3
ObjectDBX Classes
 90
     1153
280
     0
281
     0
  0
CLASS
  1
SCALE
  2
AcDbScale
  3
ObjectDBX Classes
 90
     1153
280
     0
281
     0
  0
CLASS
  1
TABLESTYLE
  2
AcDbTableStyle
  3
ObjectDBX Classes
 90
     4095
280
     0
281
     0
  0
CLASS
  1
MLEADERSTYLE
  2
AcDbMLeaderStyle
  3
ACDB_MLEADERSTYLE_CLASS
 90
     4095
280
     0
281
     0
  0
CLASS
  1
SUN
  2
AcDbSun
  3
SCENEOE
 90
     1153
280
     0
281
     0
  0
CLASS
  1
ACDBPLACEHOLDER
  2
AcDbPlaceHolder
  3
ObjectDBX Classes
 90
        0
280
     0
281
     0
  0
CLASS
  1
LAYOUT
  2
AcDbLayout
  3
ObjectDBX Classes
 90
        0
280
     0
281
     0
  0
ENDSEC
  0
SECTION
  2
TABLES
  0
TABLE
  2
VPORT
  5
8
330
0
100
AcDbSymbolTable
 70
     1
  0
VPORT
  5
29
330
8
100
AcDbSymbolTableRecord
100
AcDbViewportTableRecord
  2
*Active
 70
     0
 10
0.0
 20
0.0
 11
1.0
 21
1.0
 12
215.9
 22
139.7
 13
0.0
 23
0.0
 14
10.0
 24
10.0
 15
10.0
 25
10.0
 16
0.0
 26
0.0
 36
1.0
 17
0.0
 27
0.0
 37
0.0
 40
279.4
 41
1.5454545455
 42
50.0
 43
0.0
 44
0.0
 50
0.0
 51
0.0
 71
     0
 72
  2000
 73
     1
 74
     3
 75
     0
 76
     0
 77
     0
 78
     0
281
     0
 65
     1
110
0.0
120
0.0
130
0.0
111
1.0
121
0.0
131
0.0
112
0.0
122
1.0
132
0.0
 79
     0
146
0.0
  0
ENDTAB
  0
TABLE
  2
LTYPE
  5
5
330
0
100
AcDbSymbolTable
 70
     6
  0
LTYPE
  5
14
330
5
100
AcDbSymbolTableRecord
100
AcDbLinetypeTableRecord
  2
ByBlock
 70
     0
  3

 72
    65
 73
     0
 40
0.0
  0
LTYPE
  5
15
330
5
100
AcDbSymbolTableRecord
100
AcDbLinetypeTableRecord
  2
ByLayer
 70
     0
  3

 72
    65
 73
     0
 40
0.0
  0
LTYPE
  5
16
330
5
100
AcDbSymbolTableRecord
100
AcDbLinetypeTableRecord
  2
Continuous
 70
     0
  3
Solid line
 72
    65
 73
     0
 40
0.0
  0
LTYPE
  5
6E
330
5
100
AcDbSymbolTableRecord
100
AcDbLinetypeTableRecord
  2
HIDDEN
 70
     0
  3
Hidden __ __ __ __ __ __ __ __ __ __ __ __ __ __
 72
    65
 73
     2
 40
1.905
 49
1.27
 74
     0
 49
-0.635
 74
     0
  0
LTYPE
  5
6F
330
5
100
AcDbSymbolTableRecord
100
AcDbLinetypeTableRecord
  2
PHANTOM
 70
     0
  3
Phantom ______  __  __  ______  __  __  ______
 72
    65
 73
     6
 40
12.7
 49
6.35
 74
     0
 49
-1.27
 74
     0
 49
1.27
 74
     0
 49
-1.27
 74
     0
 49
1.27
 74
     0
 49
-1.27
 74
     0
  0
LTYPE
  5
70
330
5
100
AcDbSymbolTableRecord
100
AcDbLinetypeTableRecord
  2
CENTER
 70
     0
  3
Center ____ _ ____ _ ____ _ ____ _ ____ _ ____
 72
    65
 73
     4
 40
10.16
 49
6.35
 74
     0
 49
-1.27
 74
     0
 49
1.27
 74
     0
 49
-1.27
 74
     0
  0
LTYPE
  5
71
330
5
100
AcDbSymbolTableRecord
100
AcDbLinetypeTableRecord
  2
CENTERX2
 70
     0
  3
Center (2x) ________  __  ________  __  _____
 72
    65
 73
     4
 40
20.32
 49
12.7
 74
     0
 49
-2.54
 74
     0
 49
2.54
 74
     0
 49
-2.54
 74
     0
  0
LTYPE
  5
72
330
5
100
AcDbSymbolTableRecord
100
AcDbLinetypeTableRecord
  2
DOT2
 70
     0
  3
Dot (.5x) ........................................
 72
    65
 73
     2
 40
0.635
 49
0.0
 74
     0
 49
-0.635
 74
     0
  0
ENDTAB
  0
TABLE
  2
LAYER
  5
2
330
0
100
AcDbSymbolTable
 70
     2
  0
LAYER
  5
10
330
2
100
AcDbSymbolTableRecord
100
AcDbLayerTableRecord
  2
0
 70
     0
 62
     7
  6
Continuous
370
    -3
390
F
  0
LAYER
  5
73
330
2
100
AcDbSymbolTableRecord
100
AcDbLayerTableRecord
  2
FORMAT
 70
     0
 62
     7
  6
Continuous
370
    -3
390
F
  0
ENDTAB
  0
TABLE
  2
STYLE
  5
3
330
0
100
AcDbSymbolTable
 70
     2
  0
STYLE
  5
11
330
3
100
AcDbSymbolTableRecord
100
AcDbTextStyleTableRecord
  2
Standard
 70
     0
 40
0.0
 41
1.0
 50
0.0
 71
     0
 42
3.175
  3
txt
  4

  0
STYLE
  5
B8
330
3
100
AcDbSymbolTableRecord
100
AcDbTextStyleTableRecord
  2
SLDTEXTSTYLE0
 70
     0
 40
0.0
 41
0.7
 50
0.0
 71
     0
 42
3.175
  3
TXT
  4

  0
ENDTAB
  0
TABLE
  2
VIEW
  5
6
330
0
100
AcDbSymbolTable
 70
     0
  0
ENDTAB
  0
TABLE
  2
UCS
  5
7
330
0
100
AcDbSymbolTable
 70
     0
  0
ENDTAB
  0
TABLE
  2
APPID
  5
9
330
0
100
AcDbSymbolTable
 70
     1
  0
APPID
  5
12
330
9
100
AcDbSymbolTableRecord
100
AcDbRegAppTableRecord
  2
ACAD
 70
     0
  0
ENDTAB
  0
TABLE
  2
DIMSTYLE
  5
A
330
0
100
AcDbSymbolTable
 70
     1
100
AcDbDimStyleTable
  0
DIMSTYLE
105
27
330
A
100
AcDbSymbolTableRecord
100
AcDbDimStyleTableRecord
  2
ISO-25
 70
     0
 41
2.5
 42
0.625
 43
3.75
 44
1.25
 73
     0
 74
     0
 77
     1
 78
     8
140
2.5
141
2.5
143
0.0393700787
147
0.625
171
     3
172
     1
178
     0
271
     2
272
     2
274
     3
278
    44
283
     0
284
     8
340
11
  0
ENDTAB
  0
TABLE
  2
BLOCK_RECORD
  5
1
330
0
100
AcDbSymbolTable
 70
     5
  0
BLOCK_RECORD
  5
1F
330
1
100
AcDbSymbolTableRecord
100
AcDbBlockTableRecord
  2
*Model_Space
340
22
  0
BLOCK_RECORD
  5
1B
330
1
100
AcDbSymbolTableRecord
100
AcDbBlockTableRecord
  2
*Paper_Space
340
1E
  0
BLOCK_RECORD
  5
23
330
1
100
AcDbSymbolTableRecord
100
AcDbBlockTableRecord
  2
*Paper_Space0
340
26
  0
BLOCK_RECORD
  5
BB
330
1
100
AcDbSymbolTableRecord
100
AcDbBlockTableRecord
  2
SW_NOTE_0
340
0
102
{BLKREFS
331
C1
102
}
  0
BLOCK_RECORD
  5
C6
330
1
100
AcDbSymbolTableRecord
100
AcDbBlockTableRecord
  2
SW_NOTE_1
340
0
102
{BLKREFS
331
CC
102
}
  0
BLOCK_RECORD
  5
EB
330
1
100
AcDbSymbolTableRecord
100
AcDbBlockTableRecord
  2
SW_CENTERMARKSYMBOL_0
340
0
102
{BLKREFS
331
F6
102
}
  0
BLOCK_RECORD
  5
123
330
1
100
AcDbSymbolTableRecord
100
AcDbBlockTableRecord
  2
SW_CENTERMARKSYMBOL_1
340
0
102
{BLKREFS
331
12E
102
}
  0
ENDTAB
  0
ENDSEC
  0
SECTION
  2
BLOCKS
  0
BLOCK
  5
20
330
1F
100
AcDbEntity
  8
0
100
AcDbBlockBegin
  2
*Model_Space
 70
     0
 10
0.0
 20
0.0
 30
0.0
  3
*Model_Space
  1

  0
ENDBLK
  5
21
330
1F
100
AcDbEntity
  8
0
100
AcDbBlockEnd
  0
BLOCK
  5
1C
330
1B
100
AcDbEntity
 67
     1
  8
0
100
AcDbBlockBegin
  2
*Paper_Space
 70
     0
 10
0.0
 20
0.0
 30
0.0
  3
*Paper_Space
  1

  0
ENDBLK
  5
1D
330
1B
100
AcDbEntity
 67
     1
  8
0
100
AcDbBlockEnd
  0
BLOCK
  5
24
330
23
100
AcDbEntity
  8
0
100
AcDbBlockBegin
  2
*Paper_Space0
 70
     0
 10
0.0
 20
0.0
 30
0.0
  3
*Paper_Space0
  1

  0
ENDBLK
  5
25
330
23
100
AcDbEntity
  8
0
100
AcDbBlockEnd
  0
BLOCK
  5
BC
330
BB
100
AcDbEntity
  8
0
100
AcDbBlockBegin
  2
SW_NOTE_0
 70
     0
 10
0.0
 20
0.0
 30
0.0
  3
SW_NOTE_0
  1

  0
MTEXT
  5
BE
330
BB
100
AcDbEntity
  8
0
  6
Continuous
 62
     0
370
     0
100
AcDbMText
 10
0.0
 20
2.0463950369
 30
0.0
 40
1.5875
 41
0.0
 71
     1
 72
     1
  1
87 34th Street, Unit 11, Brooklyn, NY 11232
  7
SLDTEXTSTYLE0
 73
     1
 44
1.0
  0
MTEXT
  5
BF
330
BB
100
AcDbEntity
  8
0
  6
Continuous
 62
     0
370
     0
100
AcDbMText
 10
0.0
 20
-0.0702716042
 30
0.0
 40
1.5875
 41
0.0
 71
     1
 72
     1
  1
T +1 718-387-6132
  7
SLDTEXTSTYLE0
 73
     1
 44
1.0
  0
MTEXT
  5
C0
330
BB
100
AcDbEntity
  8
0
  6
Continuous
 62
     0
370
     0
100
AcDbMText
 10
0.0
 20
-2.1869382453
 30
0.0
 40
1.5875
 41
0.0
 71
     1
 72
     1
  1
www.rollandhill.com
  7
SLDTEXTSTYLE0
 73
     1
 44
1.0
  0
ENDBLK
  5
BD
330
BB
100
AcDbEntity
  8
0
100
AcDbBlockEnd
  0
BLOCK
  5
C7
330
C6
100
AcDbEntity
  8
0
100
AcDbBlockBegin
  2
SW_NOTE_1
 70
     0
 10
0.0
 20
0.0
 30
0.0
  3
SW_NOTE_1
  1

  0
MTEXT
  5
C9
330
C6
100
AcDbEntity
  8
0
  6
Continuous
 62
     0
370
     0
100
AcDbMText
 10
0.0
 20
2.0463950369
 30
0.0
 40
1.5875
 41
0.0
 71
     1
 72
     1
  1
\LPROPRIETARY AND CONFIDENTIAL
  7
SLDTEXTSTYLE0
 73
     1
 44
1.0
  0
MTEXT
  5
CA
330
C6
100
AcDbEntity
  8
0
  6
Continuous
 62
     0
370
     0
100
AcDbMText
 10
37.3117625713
 20
2.0463950369
 30
0.0
 40
1.5875
 41
0.0
 71
     1
 72
     1
  1
THE INFORMATION CONTAINED IN THIS DRAWING IS THE SOLE PROPERTY OF ROLL & HILL LLC. ANY REPRODUCTION IN
  7
SLDTEXTSTYLE0
 73
     1
 44
1.0
  0
MTEXT
  5
CB
330
C6
100
AcDbEntity
  8
0
  6
Continuous
 62
     0
370
     0
100
AcDbMText
 10
0.0
 20
-0.0702716042
 30
0.0
 40
1.5875
 41
0.0
 71
     1
 72
     1
  1
PART OR AS A WHOLE WITHOUT THE WRITTEN PERMISSION OF ROLL & HILL LLC. IS PROHIBITED.
  7
SLDTEXTSTYLE0
 73
     1
 44
1.0
  0
ENDBLK
  5
C8
330
C6
100
AcDbEntity
  8
0
100
AcDbBlockEnd
  0
BLOCK
  5
EC
330
EB
100
AcDbEntity
  8
0
100
AcDbBlockBegin
  2
SW_CENTERMARKSYMBOL_0
 70
     0
 10
0.0
 20
0.0
 30
0.0
  3
SW_CENTERMARKSYMBOL_0
  1

  0
LINE
  5
EE
330
EB
100
AcDbEntity
  8
0
  6
Continuous
 62
     0
370
     0
100
AcDbLine
 10
0.0
 20
0.0
 30
0.0
 11
0.0
 21
0.1693333333
 31
0.0
  0
LINE
  5
EF
330
EB
100
AcDbEntity
  8
0
  6
Continuous
 62
     0
370
     0
100
AcDbLine
 10
0.0
 20
0.0
 30
0.0
 11
-0.1693333333
 21
0.0
 31
0.0
  0
LINE
  5
F0
330
EB
100
AcDbEntity
  8
0
  6
Continuous
 62
     0
370
     0
100
AcDbLine
 10
0.0
 20
0.0
 30
0.0
 11
0.0
 21
-0.1693333333
 31
0.0
  0
LINE
  5
F1
330
EB
100
AcDbEntity
  8
0
  6
Continuous
 62
     0
370
     0
100
AcDbLine
 10
0.0
 20
0.0
 30
0.0
 11
0.1693333333
 21
0.0
 31
0.0
  0
LINE
  5
F2
330
EB
100
AcDbEntity
  8
0
  6
Continuous
 62
     0
370
     0
100
AcDbLine
 10
0.0
 20
0.3386666667
 30
0.0
 11
0.0
 21
1.2276666667
 31
0.0
  0
LINE
  5
F3
330
EB
100
AcDbEntity
  8
0
  6
Continuous
 62
     0
370
     0
100
AcDbLine
 10
-0.3386666667
 20
0.0
 30
0.0
 11
-1.2276666667
 21
0.0
 31
0.0
  0
LINE
  5
F4
330
EB
100
AcDbEntity
  8
0
  6
Continuous
 62
     0
370
     0
100
AcDbLine
 10
0.0
 20
-0.3386666667
 30
0.0
 11
0.0
 21
-1.2276666667
 31
0.0
  0
LINE
  5
F5
330
EB
100
AcDbEntity
  8
0
  6
Continuous
 62
     0
370
     0
100
AcDbLine
 10
0.3386666667
 20
0.0
 30
0.0
 11
1.2276666667
 21
0.0
 31
0.0
  0
ENDBLK
  5
ED
330
EB
100
AcDbEntity
  8
0
100
AcDbBlockEnd
  0
BLOCK
  5
124
330
123
100
AcDbEntity
  8
0
100
AcDbBlockBegin
  2
SW_CENTERMARKSYMBOL_1
 70
     0
 10
0.0
 20
0.0
 30
0.0
  3
SW_CENTERMARKSYMBOL_1
  1

  0
LINE
  5
126
330
123
100
AcDbEntity
  8
0
  6
Continuous
 62
     0
370
     0
100
AcDbLine
 10
0.0
 20
0.0
 30
0.0
 11
0.0
 21
0.1693333333
 31
0.0
  0
LINE
  5
127
330
123
100
AcDbEntity
  8
0
  6
Continuous
 62
     0
370
     0
100
AcDbLine
 10
0.0
 20
0.0
 30
0.0
 11
-0.1693333333
 21
0.0
 31
0.0
  0
LINE
  5
128
330
123
100
AcDbEntity
  8
0
  6
Continuous
 62
     0
370
     0
100
AcDbLine
 10
0.0
 20
0.0
 30
0.0
 11
0.0
 21
-0.1693333333
 31
0.0
  0
LINE
  5
129
330
123
100
AcDbEntity
  8
0
  6
Continuous
 62
     0
370
     0
100
AcDbLine
 10
0.0
 20
0.0
 30
0.0
 11
0.1693333333
 21
0.0
 31
0.0
  0
LINE
  5
12A
330
123
100
AcDbEntity
  8
0
  6
Continuous
 62
     0
370
     0
100
AcDbLine
 10
0.0
 20
0.3386666667
 30
0.0
 11
0.0
 21
2.7093333333
 31
0.0
  0
LINE
  5
12B
330
123
100
AcDbEntity
  8
0
  6
Continuous
 62
     0
370
     0
100
AcDbLine
 10
-0.3386666667
 20
0.0
 30
0.0
 11
-2.7093333333
 21
0.0
 31
0.0
  0
LINE
  5
12C
330
123
100
AcDbEntity
  8
0
  6
Continuous
 62
     0
370
     0
100
AcDbLine
 10
0.0
 20
-0.3386666667
 30
0.0
 11
0.0
 21
-2.7093333333
 31
0.0
  0
LINE
  5
12D
330
123
100
AcDbEntity
  8
0
  6
Continuous
 62
     0
370
     0
100
AcDbLine
 10
0.3386666667
 20
0.0
 30
0.0
 11
2.7093333333
 21
0.0
 31
0.0
  0
ENDBLK
  5
125
330
123
100
AcDbEntity
  8
0
100
AcDbBlockEnd
  0
ENDSEC
  0
SECTION
  2
ENTITIES
  0
HATCH
  5
74
330
1F
100
AcDbEntity
  8
0
  6
Continuous
 62
     7
100
AcDbHatch
 10
0.0
 20
0.0
 30
0.0
210
0.0
220
0.0
230
1.0
  2
SOLID
 70
     1
 71
     0
 91
        2
 92
        0
 93
        6
 72
     4
 94
        3
 73
     1
 74
     0
 95
       20
 96
       16
 40
0.0
 40
0.0
 40
0.0
 40
0.0
 40
1.0
 40
1.0
 40
1.0
 40
2.0
 40
2.0
 40
2.0
 40
3.0
 40
3.0
 40
3.0
 40
4.0
 40
4.0
 40
4.0
 40
5.0
 40
5.0
 40
5.0
 40
5.0
 10
261.0219043336847
 20
23.63056361828031
 42
1.0
 10
261.2341319795987
 20
23.68742184709604
 42
1.0
 10
261.3945785321864
 20
23.72473719781129
 42
1.0
 10
261.5515161764629
 20
23.77337299628437
 42
1.0
 10
262.5617362220245
 20
24.08644572151765
 42
1.0
 10
262.9966382899503
 20
24.76217905347502
 42
1.0
 10
262.9131259646454
 20
25.88395655371281
 42
1.0
 10
262.8488620904764
 20
26.74717259793779
 42
1.0
 10
262.3071445332423
 20
27.30037799580671
 42
1.0
 10
261.2989762515715
 20
27.40941936834727
 42
1.0
 10
260.5093946232761
 20
27.49481913962259
 42
1.0
 10
259.7094699986221
 20
27.48819126576296
 42
1.0
 10
258.913837050576
 20
27.51251762112626
 42
1.0
 10
258.5159962651877
 20
27.52468175973202
 42
1.0
 10
258.1174764912431
 20
27.51463645747964
 42
1.0
 10
257.7192638284546
 20
27.51463645747964
 42
1.0
 72
     4
 94
        3
 73
     1
 74
     0
 95
       14
 96
       10
 40
17.0
 40
17.0
 40
17.0
 40
17.0
 40
18.0
 40
18.0
 40
18.0
 40
19.0
 40
19.0
 40
19.0
 40
20.0
 40
20.0
 40
20.0
 40
20.0
 10
257.7192638284546
 20
27.51463645747964
 42
1.0
 10
258.2057453879524
 20
27.36893835120056
 42
1.0
 10
258.4151924094879
 20
27.04153921726714
 42
1.0
 10
258.4151320634913
 20
26.55729487989966
 42
1.0
 10
258.4149081683119
 20
24.76100595804667
 42
1.0
 10
258.4191609275175
 20
22.96470127704905
 42
1.0
 10
258.4124688639662
 20
21.16843695483816
 42
1.0
 10
258.4104423723632
 20
20.62446660851326
 42
1.0
 10
258.2139995287706
 20
20.39587059142628
 42
1.0
 10
257.7053577757453
 20
20.25910042553502
 42
1.0
 72
     1
 10
257.7053577757453
 20
20.25910042553502
 11
260.1134120717832
 21
20.25910042553502
 72
     4
 94
        3
 73
     1
 74
     0
 95
       14
 96
       10
 40
13.0
 40
13.0
 40
13.0
 40
13.0
 40
14.0
 40
14.0
 40
14.0
 40
15.0
 40
15.0
 40
15.0
 40
16.0
 40
16.0
 40
16.0
 40
16.0
 10
260.1134120717832
 20
20.25910042553502
 42
1.0
 10
259.6377614656041
 20
20.40079128856704
 42
1.0
 10
259.4435911100346
 20
20.64162793377141
 42
1.0
 10
259.4408326829897
 20
21.14221143023692
 42
1.0
 10
259.4366701545022
 20
21.89763799307775
 42
1.0
 10
259.4392191002215
 20
22.65310606781492
 42
1.0
 10
259.4405559370167
 20
23.40855338660287
 42
1.0
 10
259.4406539512153
 20
23.46398560492077
 42
1.0
 10
259.4539911852495
 20
23.51939476107442
 42
1.0
 10
259.4607286043899
 20
23.57138302951071
 42
1.0
 72
     4
 94
        3
 73
     1
 74
     0
 95
       20
 96
       16
 40
8.0
 40
8.0
 40
8.0
 40
8.0
 40
9.0
 40
9.0
 40
9.0
 40
10.0
 40
10.0
 40
10.0
 40
11.0
 40
11.0
 40
11.0
 40
12.0
 40
12.0
 40
12.0
 40
13.0
 40
13.0
 40
13.0
 40
13.0
 10
259.4607286043899
 20
23.57138302951071
 42
1.0
 10
260.3725694925604
 20
23.65083910446931
 42
1.0
 10
260.6054131759577
 20
23.52556773374194
 42
1.0
 10
261.0037355762117
 20
22.71920223094413
 42
1.0
 10
261.378026816807
 20
21.9614848264415
 42
1.0
 10
261.7451764738302
 20
21.200166649339
 42
1.0
 10
262.1067370153144
 20
20.43629933433309
 42
1.0
 10
262.1765046750147
 20
20.28890135435546
 42
1.0
 10
262.2549406335689
 20
20.22203337745712
 42
1.0
 10
262.427398730108
 20
20.22724465786873
 42
1.0
 10
262.8718696744063
 20
20.24067529366942
 42
1.0
 10
263.3170171088603
 20
20.2311736819415
 42
1.0
 10
263.7618904879274
 20
20.2323936704376
 42
1.0
 10
263.8264337986554
 20
20.23257048036439
 42
1.0
 10
263.8909540472192
 20
20.24131411562171
 42
1.0
 10
263.9554858268652
 20
20.24609336482204
 42
1.0
 72
     4
 94
        3
 73
     1
 74
     0
 95
       14
 96
       10
 40
5.0
 40
5.0
 40
5.0
 40
5.0
 40
6.0
 40
6.0
 40
6.0
 40
7.0
 40
7.0
 40
7.0
 40
8.0
 40
8.0
 40
8.0
 40
8.0
 10
263.9554858268652
 20
20.24609336482204
 42
1.0
 10
263.5606000734738
 20
20.32757122285868
 42
1.0
 10
263.3178377375433
 20
20.57267359973515
 42
1.0
 10
263.1292772534607
 20
20.88520667032095
 42
1.0
 10
262.8739775562312
 20
21.30835818112304
 42
1.0
 10
262.6276890153665
 20
21.7369354504649
 42
1.0
 10
262.3739921385617
 20
22.16106556577572
 42
1.0
 10
262.033208300972
 20
22.73079019980925
 42
1.0
 10
261.7521543160346
 20
23.35408286053947
 42
1.0
 10
261.0219043336847
 20
23.63056361828031
 42
1.0
 97
        0
 92
        0
 93
        2
 72
     1
 10
259.4558811296203
 20
23.74052094311722
 11
259.4558811296203
 21
27.35855230546976
 72
     4
 94
        3
 73
     1
 74
     0
 95
       20
 96
       16
 40
1.0
 40
1.0
 40
1.0
 40
1.0
 40
2.0
 40
2.0
 40
2.0
 40
3.0
 40
3.0
 40
3.0
 40
4.0
 40
4.0
 40
4.0
 40
5.0
 40
5.0
 40
5.0
 40
6.0
 40
6.0
 40
6.0
 40
6.0
 10
259.4558811296203
 20
27.35855230546976
 42
1.0
 10
259.8103733099057
 20
27.35855230546976
 42
1.0
 10
260.1467440101549
 20
27.38072599997261
 42
1.0
 10
260.4792308497364
 20
27.35420547185249
 42
1.0
 10
261.3230227860075
 20
27.28690123567825
 42
1.0
 10
261.7108519014664
 20
26.95476897687368
 42
1.0
 10
261.8164781518313
 20
26.10478869315943
 42
1.0
 10
261.8719876284001
 20
25.65810454981779
 42
1.0
 10
261.8389787525148
 20
25.18024881635489
 42
1.0
 10
261.7413862071132
 20
24.73962656292206
 42
1.0
 10
261.608259863196
 20
24.13857044109259
 42
1.0
 10
261.1506181168165
 20
23.81517009427841
 42
1.0
 10
260.5489927438957
 20
23.74778168120397
 42
1.0
 10
260.1942113256325
 20
23.70804326575078
 42
1.0
 10
259.8313410453958
 20
23.74052094311722
 42
1.0
 10
259.4558811296203
 20
23.74052094311722
 42
1.0
 97
        0
 75
     0
 76
     1
 98
        1
 10
0.0
 20
0.0
  0
HATCH
  5
75
330
1F
100
AcDbEntity
  8
0
  6
Continuous
 62
     7
100
AcDbHatch
 10
0.0
 20
0.0
 30
0.0
210
0.0
220
0.0
230
1.0
  2
SOLID
 70
     1
 71
     0
 91
        2
 92
        0
 93
        2
 72
     4
 94
        3
 73
     1
 74
     0
 95
       14
 96
       10
 40
0.0
 40
0.0
 40
0.0
 40
0.0
 40
1.0
 40
1.0
 40
1.0
 40
2.0
 40
2.0
 40
2.0
 40
3.0
 40
3.0
 40
3.0
 40
3.0
 10
267.2336118279071
 20
20.23490821509466
 42
1.0
 10
268.1650050112285
 20
19.98240211471103
 42
1.0
 10
269.1482911393735
 20
20.33660467264827
 42
1.0
 10
269.7215189161771
 20
21.13111084177937
 42
1.0
 10
270.3723808569537
 20
22.03321892002499
 42
1.0
 10
270.372934348899
 20
23.32205720159637
 42
1.0
 10
269.7103360726668
 20
24.21398909980579
 42
1.0
 10
269.2464106552308
 20
24.83848445240961
 42
1.0
 10
268.6216197225536
 20
25.16033694362372
 42
1.0
 10
267.7758432870376
 20
25.16748813643033
 42
1.0
 72
     4
 94
        3
 73
     1
 74
     0
 95
       14
 96
       10
 40
3.0
 40
3.0
 40
3.0
 40
3.0
 40
4.0
 40
4.0
 40
4.0
 40
5.0
 40
5.0
 40
5.0
 40
6.0
 40
6.0
 40
6.0
 40
6.0
 10
267.7758432870376
 20
25.16748813643033
 42
1.0
 10
266.9062728477855
 20
25.1505801106106
 42
1.0
 10
266.225828300013
 20
24.723612195973
 42
1.0
 10
265.7739382574312
 20
23.92202056120339
 42
1.0
 10
265.4879189885011
 20
23.41465794151554
 42
1.0
 10
265.4259332718035
 20
22.86561853145873
 42
1.0
 10
265.4837047623288
 20
22.29272284982232
 42
1.0
 10
265.5792320909092
 20
21.34541139190241
 42
1.0
 10
266.3034040398354
 20
20.48709452013179
 42
1.0
 10
267.2336118279071
 20
20.23490821509466
 42
1.0
 97
        0
 92
        0
 93
        2
 72
     4
 94
        3
 73
     1
 74
     0
 95
       17
 96
       13
 40
0.0
 40
0.0
 40
0.0
 40
0.0
 40
1.0
 40
1.0
 40
1.0
 40
2.0
 40
2.0
 40
2.0
 40
3.0
 40
3.0
 40
3.0
 40
4.0
 40
4.0
 40
4.0
 40
4.0
 10
266.4699528411193
 20
22.82140374989816
 42
1.0
 10
266.4968487059656
 20
23.23360918874381
 42
1.0
 10
266.5993976948625
 20
23.64490674705059
 42
1.0
 10
266.7072125446274
 20
24.04607386528146
 42
1.0
 10
266.7597204805012
 20
24.2414496033099
 42
1.0
 10
266.882078331128
 20
24.42789874624283
 42
1.0
 10
267.0072628343699
 20
24.59213287496141
 42
1.0
 10
267.4640605055332
 20
25.19142205062979
 42
1.0
 10
268.2143234497673
 20
25.18405330473933
 42
1.0
 10
268.6683621173312
 20
24.58056604641373
 42
1.0
 10
269.0963628325642
 20
24.01168817818241
 42
1.0
 10
269.195680043492
 20
23.34551372899321
 42
1.0
 10
269.218762963826
 20
22.68351122534059
 42
1.0
 72
     4
 94
        3
 73
     1
 74
     0
 95
       17
 96
       13
 40
4.0
 40
4.0
 40
4.0
 40
4.0
 40
5.0
 40
5.0
 40
5.0
 40
6.0
 40
6.0
 40
6.0
 40
7.0
 40
7.0
 40
7.0
 40
8.0
 40
8.0
 40
8.0
 40
8.0
 10
269.218762963826
 20
22.68351122534059
 42
1.0
 10
269.202432645224
 20
22.05765558940843
 42
1.0
 10
269.1208448575376
 20
21.47214721006825
 42
1.0
 10
268.810867074766
 20
20.94311038392242
 42
1.0
 10
268.6078393105943
 20
20.5966013640246
 42
1.0
 10
268.3388937306983
 20
20.33416469565678
 42
1.0
 10
267.9076604687568
 20
20.30531315927085
 42
1.0
 10
267.4153070900211
 20
20.27237193240103
 42
1.0
 10
267.1048165584612
 20
20.54785025472892
 42
1.0
 10
266.8746830637486
 20
20.93428603108956
 42
1.0
 10
266.5287029361534
 20
21.51524885782822
 42
1.0
 10
266.4269741915698
 20
22.16270989809668
 42
1.0
 10
266.4699528411193
 20
22.82140374989816
 42
1.0
 97
        0
 75
     0
 76
     1
 98
        1
 10
0.0
 20
0.0
  0
HATCH
  5
76
330
1F
100
AcDbEntity
  8
0
  6
Continuous
 62
     7
100
AcDbHatch
 10
0.0
 20
0.0
 30
0.0
210
0.0
220
0.0
230
1.0
  2
SOLID
 70
     1
 71
     0
 91
        1
 92
        0
 93
        4
 72
     1
 10
273.9540333846496
 20
27.87257450949275
 11
272.4594267850394
 21
27.32510813123116
 72
     4
 94
        3
 73
     1
 74
     0
 95
       14
 96
       10
 40
6.0
 40
6.0
 40
6.0
 40
6.0
 40
7.0
 40
7.0
 40
7.0
 40
8.0
 40
8.0
 40
8.0
 40
9.0
 40
9.0
 40
9.0
 40
9.0
 10
272.4594267850394
 20
27.32510813123116
 42
1.0
 10
272.9826104338649
 20
27.28380667758701
 42
1.0
 10
273.0476395875227
 20
27.23250104921648
 42
1.0
 10
273.0527409382852
 20
26.65700799131587
 42
1.0
 10
273.0685846452182
 20
24.86961337752774
 42
1.0
 10
273.0702866329497
 20
23.08209538116094
 42
1.0
 10
273.0783845276048
 20
21.29462927466367
 42
1.0
 10
273.0805785081768
 20
20.81042375860576
 42
1.0
 10
273.0059923935969
 20
20.37668517687364
 42
1.0
 10
272.426404840594
 20
20.2590796695872
 42
1.0
 72
     1
 10
272.426404840594
 20
20.2590796695872
 11
274.6224502449564
 21
20.2590796695872
 72
     4
 94
        3
 73
     1
 74
     0
 95
       17
 96
       13
 40
1.0
 40
1.0
 40
1.0
 40
1.0
 40
2.0
 40
2.0
 40
2.0
 40
3.0
 40
3.0
 40
3.0
 40
4.0
 40
4.0
 40
4.0
 40
5.0
 40
5.0
 40
5.0
 40
5.0
 10
274.6224502449564
 20
20.2590796695872
 42
1.0
 10
274.1836818051716
 20
20.38260600321025
 42
1.0
 10
274.0006220316647
 20
20.58964274029083
 42
1.0
 10
273.9590578615309
 20
21.04279505200226
 42
1.0
 10
273.9506540088286
 20
21.13443409966764
 42
1.0
 10
273.954217881965
 20
21.22727776105204
 42
1.0
 10
273.9542086570993
 20
21.31956562427539
 42
1.0
 10
273.9539872603212
 20
23.41776441505853
 42
1.0
 10
273.9540349221275
 20
25.51596282147274
 42
1.0
 10
273.9540333846496
 20
27.61416161225588
 42
1.0
 10
273.9540333846496
 20
27.71082379150879
 42
1.0
 10
273.9540333846496
 20
27.8074859707617
 42
1.0
 10
273.9540333846496
 20
27.87257450949275
 42
1.0
 97
        0
 75
     0
 76
     1
 98
        1
 10
0.0
 20
0.0
  0
HATCH
  5
77
330
1F
100
AcDbEntity
  8
0
  6
Continuous
 62
     7
100
AcDbHatch
 10
0.0
 20
0.0
 30
0.0
210
0.0
220
0.0
230
1.0
  2
SOLID
 70
     1
 71
     0
 91
        1
 92
        0
 93
        4
 72
     1
 10
276.9460186560295
 20
20.2549177176549
 11
279.1055120673172
 21
20.2549177176549
 72
     4
 94
        3
 73
     1
 74
     0
 95
       14
 96
       10
 40
6.0
 40
6.0
 40
6.0
 40
6.0
 40
7.0
 40
7.0
 40
7.0
 40
8.0
 40
8.0
 40
8.0
 40
9.0
 40
9.0
 40
9.0
 40
9.0
 10
279.1055120673172
 20
20.2549177176549
 42
1.0
 10
278.6550987719953
 20
20.40793364087759
 42
1.0
 10
278.4823339486704
 20
20.63637283524633
 42
1.0
 10
278.4822124879378
 20
21.11904779232805
 42
1.0
 10
278.4816605334703
 20
23.30086999117493
 42
1.0
 10
278.4819664915176
 20
25.48269219002111
 42
1.0
 10
278.4819649540404
 20
27.66451419668386
 42
1.0
 10
278.4819649540404
 20
27.75219577693941
 42
1.0
 10
278.4819664915176
 20
27.83987735719566
 42
1.0
 10
278.4819664915176
 20
27.88441039662488
 42
1.0
 72
     1
 10
278.4819664915176
 20
27.88441039662488
 11
276.9846800684063
 21
27.3296354262854
 72
     4
 94
        3
 73
     1
 74
     0
 95
       17
 96
       13
 40
1.0
 40
1.0
 40
1.0
 40
1.0
 40
2.0
 40
2.0
 40
2.0
 40
3.0
 40
3.0
 40
3.0
 40
4.0
 40
4.0
 40
4.0
 40
5.0
 40
5.0
 40
5.0
 40
5.0
 10
276.9846800684063
 20
27.3296354262854
 42
1.0
 10
277.5366914227135
 20
27.25167954511983
 42
1.0
 10
277.5738092075535
 20
27.20775573119973
 42
1.0
 10
277.5772915943764
 20
26.57154691311976
 42
1.0
 10
277.5773838430334
 20
26.55476419172763
 42
1.0
 10
277.577359243392
 20
26.53798031722657
 42
1.0
 10
277.577359243392
 20
26.52119721146337
 42
1.0
 10
277.5773700057348
 20
24.72538990447762
 42
1.0
 10
277.5776652014392
 20
22.92958298186009
 42
1.0
 10
277.5771993457187
 20
21.13377529050539
 42
1.0
 10
277.5770686601204
 20
20.6342380475635
 42
1.0
 10
277.4179566381115
 20
20.4199152040148
 42
1.0
 10
276.9460186560295
 20
20.2549177176549
 42
1.0
 97
        0
 75
     0
 76
     1
 98
        1
 10
0.0
 20
0.0
  0
HATCH
  5
78
330
1F
100
AcDbEntity
  8
0
  6
Continuous
 62
     7
100
AcDbHatch
 10
0.0
 20
0.0
 30
0.0
210
0.0
220
0.0
230
1.0
  2
SOLID
 70
     1
 71
     0
 91
        3
 92
        0
 93
        9
 72
     4
 94
        3
 73
     1
 74
     0
 95
       14
 96
       10
 40
0.0
 40
0.0
 40
0.0
 40
0.0
 40
1.0
 40
1.0
 40
1.0
 40
2.0
 40
2.0
 40
2.0
 40
3.0
 40
3.0
 40
3.0
 40
3.0
 10
287.0539854214827
 20
21.61211917311517
 42
1.0
 10
287.2972697310664
 20
21.3082559388604
 42
1.0
 10
287.5152010346028
 20
21.01001756649998
 42
1.0
 10
287.7601488949774
 20
20.73592220529573
 42
1.0
 10
288.1784811821614
 20
20.26780485511384
 42
1.0
 10
288.7048673968812
 20
20.09831485913089
 42
1.0
 10
289.3271645408483
 20
20.20870037148624
 42
1.0
 10
289.9739444785289
 20
20.32342848939635
 42
1.0
 10
290.7160910783766
 20
21.04182259740494
 42
1.0
 10
290.8103661314317
 20
21.70506046432864
 42
1.0
 72
     4
 94
        3
 73
     1
 74
     0
 95
       14
 96
       10
 40
24.0
 40
24.0
 40
24.0
 40
24.0
 40
25.0
 40
25.0
 40
25.0
 40
26.0
 40
26.0
 40
26.0
 40
27.0
 40
27.0
 40
27.0
 40
27.0
 10
290.8103661314317
 20
21.70506046432864
 42
1.0
 10
290.6825002672103
 20
21.49939669476813
 42
1.0
 10
290.5884281612034
 20
21.32571784099438
 42
1.0
 10
290.4735170834558
 20
21.16713932372221
 42
1.0
 10
289.9836367374808
 20
20.49110656799653
 42
1.0
 10
289.3841588364346
 20
20.43289382139212
 42
1.0
 10
288.8166481701822
 20
21.05011190802389
 42
1.0
 10
288.4270667146001
 20
21.47381844824843
 42
1.0
 10
288.0996055050067
 20
21.95463920731319
 42
1.0
 10
287.7314564875268
 20
22.4264857094768
 42
1.0
 72
     4
 94
        3
 73
     1
 74
     0
 95
       11
 96
        7
 40
22.0
 40
22.0
 40
22.0
 40
22.0
 40
23.0
 40
23.0
 40
23.0
 40
24.0
 40
24.0
 40
24.0
 40
24.0
 10
287.7314564875268
 20
22.4264857094768
 42
1.0
 10
288.1508588591387
 20
23.00030157147278
 42
1.0
 10
288.5466855488353
 20
23.55949371503118
 42
1.0
 10
288.9612633156569
 20
24.10441845059237
 42
1.0
 10
289.4290162836425
 20
24.71923384406366
 42
1.0
 10
289.9536528488242
 20
25.26443186627322
 42
1.0
 10
290.7742138825406
 20
25.39867403457779
 42
1.0
 72
     1
 10
290.7742138825406
 20
25.39867403457779
 11
287.7715077796773
 21
25.39867403457779
 72
     4
 94
        3
 73
     1
 74
     0
 95
       17
 96
       13
 40
16.0
 40
16.0
 40
16.0
 40
16.0
 40
17.0
 40
17.0
 40
17.0
 40
18.0
 40
18.0
 40
18.0
 40
19.0
 40
19.0
 40
19.0
 40
20.0
 40
20.0
 40
20.0
 40
20.0
 10
287.7715077796773
 20
25.39867403457779
 42
1.0
 10
287.9710693005408
 20
25.34310267453518
 42
1.0
 10
288.1718392788191
 20
25.32949945687163
 42
1.0
 10
288.3670435880915
 20
25.28904726743022
 42
1.0
 10
288.7601181928394
 20
25.20759054971102
 42
1.0
 10
288.9174636530569
 20
24.97387165717582
 42
1.0
 10
288.8543009972361
 20
24.57697987985169
 42
1.0
 10
288.8373887433532
 20
24.47070865762303
 42
1.0
 10
288.8131334963293
 20
24.35736772890119
 42
1.0
 10
288.7595985254019
 20
24.26650702928458
 42
1.0
 10
288.4211781752921
 20
23.692108847638
 42
1.0
 10
288.0735790837579
 20
23.12311989664797
 42
1.0
 10
287.7233847299918
 20
22.54303496963325
 42
1.0
 72
     1
 10
287.7233847299918
 20
22.54303496963325
 11
285.8065406500284
 21
24.86455968857224
 72
     4
 94
        3
 73
     1
 74
     0
 95
       20
 96
       16
 40
10.0
 40
10.0
 40
10.0
 40
10.0
 40
11.0
 40
11.0
 40
11.0
 40
12.0
 40
12.0
 40
12.0
 40
13.0
 40
13.0
 40
13.0
 40
14.0
 40
14.0
 40
14.0
 40
15.0
 40
15.0
 40
15.0
 40
15.0
 10
285.8065406500283
 20
24.86455968857225
 42
1.0
 10
285.9002991106001
 20
24.9215528310502
 42
1.0
 10
286.0025259979348
 20
24.975621306713
 42
1.0
 10
286.0959738880259
 20
25.04203380586477
 42
1.0
 10
286.361711520857
 20
25.23088333574105
 42
1.0
 10
286.6551698752792
 20
25.39378370261948
 42
1.0
 10
286.8815726805328
 20
25.62247811827483
 42
1.0
 10
287.5614237619422
 20
26.30921056516709
 42
1.0
 10
287.361321048954
 20
27.32558686332681
 42
1.0
 10
286.4793408590448
 20
27.71426216803416
 42
1.0
 10
285.840402057257
 20
27.99583274545401
 42
1.0
 10
285.1912113546599
 20
27.99239110178883
 42
1.0
 10
284.558084218296
 20
27.68711127408746
 42
1.0
 10
283.9109291360762
 20
27.37506654483262
 42
1.0
 10
283.6309452355653
 20
26.8393466878164
 42
1.0
 10
283.7149530130354
 20
26.1296866058298
 42
1.0
 72
     4
 94
        3
 73
     1
 74
     0
 95
       11
 96
        7
 40
8.0
 40
8.0
 40
8.0
 40
8.0
 40
9.0
 40
9.0
 40
9.0
 40
10.0
 40
10.0
 40
10.0
 40
10.0
 10
283.7149530130354
 20
26.1296866058298
 42
1.0
 10
283.7707819005811
 20
25.65802498535045
 42
1.0
 10
284.0198409761273
 20
25.28515591156022
 42
1.0
 10
284.3077767109179
 20
24.93075271279267
 42
1.0
 10
284.4323277733789
 20
24.77744812814591
 42
1.0
 10
284.5641388051866
 20
24.6300390014551
 42
1.0
 10
284.7027239634148
 20
24.46818604120849
 42
1.0
 72
     4
 94
        3
 73
     1
 74
     0
 95
       20
 96
       16
 40
3.0
 40
3.0
 40
3.0
 40
3.0
 40
4.0
 40
4.0
 40
4.0
 40
5.0
 40
5.0
 40
5.0
 40
6.0
 40
6.0
 40
6.0
 40
7.0
 40
7.0
 40
7.0
 40
8.0
 40
8.0
 40
8.0
 40
8.0
 10
284.7027239634148
 20
24.46818604120849
 42
1.0
 10
284.5513685160267
 20
24.38851087568819
 42
1.0
 10
284.4255536469583
 20
24.32317807019961
 42
1.0
 10
284.3005597909425
 20
24.25632085564481
 42
1.0
 10
283.8607304915963
 20
24.02105948868024
 42
1.0
 10
283.460866385652
 20
23.73663343094009
 42
1.0
 10
283.1417229300147
 20
23.34576433784628
 42
1.0
 10
282.3522343191156
 20
22.37884389028816
 42
1.0
 10
282.6109241545095
 20
20.5355588898502
 42
1.0
 10
284.198169930981
 20
20.23446388406056
 42
1.0
 10
285.1515567317372
 20
20.05360962220845
 42
1.0
 10
285.9488126796034
 20
20.36759637788916
 42
1.0
 10
286.5896302790503
 20
21.09003174583673
 42
1.0
 10
286.7443651022574
 20
21.26447318851251
 42
1.0
 10
286.8995550188436
 20
21.43851181205056
 42
1.0
 10
287.0539854214827
 20
21.61211917311517
 42
1.0
 97
        0
 92
        0
 93
        2
 72
     4
 94
        3
 73
     1
 74
     0
 95
       14
 96
       10
 40
0.0
 40
0.0
 40
0.0
 40
0.0
 40
1.0
 40
1.0
 40
1.0
 40
2.0
 40
2.0
 40
2.0
 40
3.0
 40
3.0
 40
3.0
 40
3.0
 10
284.688382372121
 20
27.15085253116304
 42
1.0
 10
284.8337724063213
 20
27.5710895609412
 42
1.0
 10
285.1818973152029
 20
27.79269159230804
 42
1.0
 10
285.6158934244382
 20
27.76810636414938
 42
1.0
 10
285.9916529561654
 20
27.74682017860581
 42
1.0
 10
286.2400293916459
 20
27.5110460628537
 42
1.0
 10
286.3549927436335
 20
27.06650131962916
 42
1.0
 10
286.5713650448558
 20
26.2298440482801
 42
1.0
 10
286.3259713159692
 20
25.4295804098103
 42
1.0
 10
285.6520579731507
 20
24.9254318870995
 42
1.0
 72
     4
 94
        3
 73
     1
 74
     0
 95
       11
 96
        7
 40
3.0
 40
3.0
 40
3.0
 40
3.0
 40
4.0
 40
4.0
 40
4.0
 40
5.0
 40
5.0
 40
5.0
 40
5.0
 10
285.6520579731507
 20
24.9254318870995
 42
1.0
 10
285.3510444536752
 20
25.31853032275095
 42
1.0
 10
285.0380140090768
 20
25.68714980838475
 42
1.0
 10
284.7721626029031
 20
26.08712768767229
 42
1.0
 10
284.5571094574822
 20
26.41068293535724
 42
1.0
 10
284.5630810205802
 20
26.788679112661
 42
1.0
 10
284.688382372121
 20
27.15085253116304
 42
1.0
 97
        0
 92
        0
 93
        2
 72
     1
 10
284.845288113738
 20
24.3712657578988
 11
287.0009947176327
 21
21.77781006188367
 72
     4
 94
        3
 73
     1
 74
     0
 95
       14
 96
       10
 40
1.0
 40
1.0
 40
1.0
 40
1.0
 40
2.0
 40
2.0
 40
2.0
 40
3.0
 40
3.0
 40
3.0
 40
4.0
 40
4.0
 40
4.0
 40
4.0
 10
287.0009947176327
 20
21.77781006188367
 42
1.0
 10
286.5509442670314
 20
21.22618922689351
 42
1.0
 10
286.0339581905155
 20
20.90925282038733
 42
1.0
 10
285.3603677179978
 20
20.87638462370451
 42
1.0
 10
284.4974276510072
 20
20.83427541775252
 42
1.0
 10
283.8665083325146
 20
21.39392726712143
 42
1.0
 10
283.7780264951535
 20
22.28619625730053
 42
1.0
 10
283.6988925217564
 20
23.08417174469389
 42
1.0
 10
284.1054815548355
 20
23.90423117633508
 42
1.0
 10
284.845288113738
 20
24.3712657578988
 42
1.0
 97
        0
 75
     0
 76
     1
 98
        1
 10
0.0
 20
0.0
  0
HATCH
  5
79
330
1F
100
AcDbEntity
  8
0
  6
Continuous
 62
     7
100
AcDbHatch
 10
0.0
 20
0.0
 30
0.0
210
0.0
220
0.0
230
1.0
  2
SOLID
 70
     1
 71
     0
 91
        1
 92
        0
 93
        2
 72
     4
 94
        3
 73
     1
 74
     0
 95
       11
 96
        7
 40
0.0
 40
0.0
 40
0.0
 40
0.0
 40
1.0
 40
1.0
 40
1.0
 40
2.0
 40
2.0
 40
2.0
 40
2.0
 10
303.0570519104932
 20
26.35430478392947
 42
1.0
 10
303.0628482011429
 20
25.96449808787493
 42
1.0
 10
303.3259905717408
 20
25.69768229885988
 42
1.0
 10
303.6993639381942
 20
25.70301926806731
 42
1.0
 10
304.0680572227529
 20
25.70828897263022
 42
1.0
 10
304.3293945946187
 20
25.98752450590587
 42
1.0
 10
304.327448147944
 20
26.37412133304796
 42
1.0
 72
     4
 94
        3
 73
     1
 74
     0
 95
       11
 96
        7
 40
2.0
 40
2.0
 40
2.0
 40
2.0
 40
3.0
 40
3.0
 40
3.0
 40
4.0
 40
4.0
 40
4.0
 40
4.0
 10
304.327448147944
 20
26.37412133304796
 42
1.0
 10
304.3255386007336
 20
26.75299425696746
 42
1.0
 10
304.0507636744179
 20
27.04560238626284
 42
1.0
 10
303.6924299141011
 20
27.05034857969325
 42
1.0
 10
303.3266947364936
 20
27.05519259513757
 42
1.0
 10
303.0511172468595
 20
26.75330175249256
 42
1.0
 10
303.0570519104932
 20
26.35430478392947
 42
1.0
 97
        0
 75
     0
 76
     1
 98
        1
 10
0.0
 20
0.0
  0
HATCH
  5
7A
330
1F
100
AcDbEntity
  8
0
  6
Continuous
 62
     7
100
AcDbHatch
 10
0.0
 20
0.0
 30
0.0
210
0.0
220
0.0
230
1.0
  2
SOLID
 70
     1
 71
     0
 91
        1
 92
        0
 93
        4
 72
     1
 10
302.6973344203136
 20
20.2539775500868
 11
304.8038079156778
 21
20.2539775500868
 72
     4
 94
        3
 73
     1
 74
     0
 95
       17
 96
       13
 40
6.0
 40
6.0
 40
6.0
 40
6.0
 40
7.0
 40
7.0
 40
7.0
 40
8.0
 40
8.0
 40
8.0
 40
9.0
 40
9.0
 40
9.0
 40
10.0
 40
10.0
 40
10.0
 40
10.0
 10
304.8038079156778
 20
20.2539775500868
 42
1.0
 10
304.4578262506061
 20
20.33981031349822
 42
1.0
 10
304.2621822227331
 20
20.55023795748124
 42
1.0
 10
304.2107535961514
 20
20.89393877449616
 42
1.0
 10
304.1922454404932
 20
21.01764883669525
 42
1.0
 10
304.1821011631179
 20
21.14380579453512
 42
1.0
 10
304.1818797663412
 20
21.26887114326077
 42
1.0
 10
304.1797703470369
 20
22.46084295323946
 42
1.0
 10
304.1808527312862
 20
23.65282014439031
 42
1.0
 10
304.1800932173391
 20
24.84479541369365
 42
1.0
 10
304.1800409430993
 20
24.93136078519359
 42
1.0
 10
304.1727133247369
 20
25.01792115989102
 42
1.0
 10
304.1706223551654
 20
25.06377258638473
 42
1.0
 72
     1
 10
304.1706223551654
 20
25.06377258638473
 11
302.7125031745686
 21
24.50968064047992
 72
     4
 94
        3
 73
     1
 74
     0
 95
       17
 96
       13
 40
1.0
 40
1.0
 40
1.0
 40
1.0
 40
2.0
 40
2.0
 40
2.0
 40
3.0
 40
3.0
 40
3.0
 40
4.0
 40
4.0
 40
4.0
 40
5.0
 40
5.0
 40
5.0
 40
5.0
 10
302.7125031745686
 20
24.50968064047994
 42
1.0
 10
302.7604109773859
 20
24.50557288463289
 42
1.0
 10
302.8224697242704
 20
24.49650561033552
 42
1.0
 10
302.8846514693661
 20
24.49557889569631
 42
1.0
 10
303.1332831261333
 20
24.4918735746181
 42
1.0
 10
303.2632153602819
 20
24.35030186610297
 42
1.0
 10
303.2668591822546
 20
24.11891186780057
 42
1.0
 10
303.2829750227277
 20
23.09531768874206
 42
1.0
 10
303.296603224403
 20
22.071496731734
 42
1.0
 10
303.2916556214044
 20
21.04785181591346
 42
1.0
 10
303.2897768237453
 20
20.65853557522151
 42
1.0
 10
303.1321361678242
 20
20.3494649042487
 42
1.0
 10
302.6973344203136
 20
20.2539775500868
 42
1.0
 97
        0
 75
     0
 76
     1
 98
        1
 10
0.0
 20
0.0
  0
HATCH
  5
7B
330
1F
100
AcDbEntity
  8
0
  6
Continuous
 62
     7
100
AcDbHatch
 10
0.0
 20
0.0
 30
0.0
210
0.0
220
0.0
230
1.0
  2
SOLID
 70
     1
 71
     0
 91
        1
 92
        0
 93
        4
 72
     1
 10
308.65963267846
 20
27.88697759989075
 11
307.1608133901539
 21
27.32540717062984
 72
     4
 94
        3
 73
     1
 74
     0
 95
       20
 96
       16
 40
5.0
 40
5.0
 40
5.0
 40
5.0
 40
6.0
 40
6.0
 40
6.0
 40
7.0
 40
7.0
 40
7.0
 40
8.0
 40
8.0
 40
8.0
 40
9.0
 40
9.0
 40
9.0
 40
10.0
 40
10.0
 40
10.0
 40
10.0
 10
307.1608133901539
 20
27.32540717062984
 42
1.0
 10
307.6774858212348
 20
27.28280885460759
 42
1.0
 10
307.7501131893193
 20
27.20350460556406
 42
1.0
 10
307.7547502218385
 20
26.63215658734291
 42
1.0
 10
307.7552944889174
 20
26.56503146731187
 42
1.0
 10
307.7550361926765
 20
26.49789904426262
 42
1.0
 10
307.7550361926765
 20
26.43077008053731
 42
1.0
 10
307.7550484924979
 20
24.69380511724257
 42
1.0
 10
307.7587445887104
 20
22.95682170421714
 42
1.0
 10
307.7500732149022
 20
21.21990094340409
 42
1.0
 10
307.7490584796685
 20
21.01681475508336
 42
1.0
 10
307.7285516030971
 20
20.78446498637255
 42
1.0
 10
307.6283941606454
 20
20.61954360515536
 42
1.0
 10
307.5293898264143
 20
20.45652254628292
 42
1.0
 10
307.3179589782804
 20
20.36177625633667
 42
1.0
 10
307.178408284104
 20
20.25443648715803
 42
1.0
 72
     1
 10
307.178408284104
 20
20.25443648715803
 11
309.3620693061908
 21
20.25443648715802
 72
     4
 94
        3
 73
     1
 74
     0
 95
       14
 96
       10
 40
1.0
 40
1.0
 40
1.0
 40
1.0
 40
2.0
 40
2.0
 40
2.0
 40
3.0
 40
3.0
 40
3.0
 40
4.0
 40
4.0
 40
4.0
 40
4.0
 10
309.3620693061908
 20
20.25443648715802
 42
1.0
 10
308.807415027844
 20
20.43200746554105
 42
1.0
 10
308.6597679764911
 20
20.6374237012035
 42
1.0
 10
308.6597187772069
 20
21.15880542625192
 42
1.0
 10
308.6595035303402
 20
23.32371921490944
 42
1.0
 10
308.65963267846
 20
25.48863300356693
 42
1.0
 10
308.65963267846
 20
27.65354698440997
 42
1.0
 10
308.65963267846
 20
27.74275854708867
 42
1.0
 10
308.65963267846
 20
27.83196991758182
 42
1.0
 10
308.65963267846
 20
27.88697759989075
 42
1.0
 97
        0
 75
     0
 76
     1
 98
        1
 10
0.0
 20
0.0
  0
HATCH
  5
7C
330
1F
100
AcDbEntity
  8
0
  6
Continuous
 62
     7
100
AcDbHatch
 10
0.0
 20
0.0
 30
0.0
210
0.0
220
0.0
230
1.0
  2
SOLID
 70
     1
 71
     0
 91
        1
 92
        0
 93
        4
 72
     1
 10
313.1781318226163
 20
27.87703492426926
 11
311.6691528821608
 21
27.32445797038016
 72
     4
 94
        3
 73
     1
 74
     0
 95
       17
 96
       13
 40
6.0
 40
6.0
 40
6.0
 40
6.0
 40
7.0
 40
7.0
 40
7.0
 40
8.0
 40
8.0
 40
8.0
 40
9.0
 40
9.0
 40
9.0
 40
10.0
 40
10.0
 40
10.0
 40
10.0
 10
311.6691528821608
 20
27.32445797038016
 42
1.0
 10
312.2096131670664
 20
27.27631108979181
 42
1.0
 10
312.2683694120104
 20
27.21300429544448
 42
1.0
 10
312.2823973578678
 20
26.60716642601487
 42
1.0
 10
312.2845313768121
 20
26.51487279724974
 42
1.0
 10
312.2871512386867
 20
26.42255802816857
 42
1.0
 10
312.2871819882395
 20
26.33025248395311
 42
1.0
 10
312.2877662297369
 20
24.60974045310045
 42
1.0
 10
312.2890700107628
 20
22.88922803787955
 42
1.0
 10
312.2876555313485
 20
21.16871754450475
 42
1.0
 10
312.2872188877024
 20
20.63608302071405
 42
1.0
 10
312.1185268426077
 20
20.41647125413319
 42
1.0
 10
311.6156486607861
 20
20.25320881127337
 42
1.0
 72
     1
 10
311.6156486607861
 20
20.25320881127337
 11
313.8867245107604
 21
20.25320881127337
 72
     4
 94
        3
 73
     1
 74
     0
 95
       17
 96
       13
 40
1.0
 40
1.0
 40
1.0
 40
1.0
 40
2.0
 40
2.0
 40
2.0
 40
3.0
 40
3.0
 40
3.0
 40
4.0
 40
4.0
 40
4.0
 40
5.0
 40
5.0
 40
5.0
 40
5.0
 10
313.8867245107604
 20
20.25320881127337
 42
1.0
 10
313.3266152617988
 20
20.4348325806782
 42
1.0
 10
313.1888880160859
 20
20.62648762285203
 42
1.0
 10
313.1786115156352
 20
21.17082388885262
 42
1.0
 10
313.1771847363981
 20
21.24633325874564
 42
1.0
 10
313.1781441224363
 20
21.32188875296783
 42
1.0
 10
313.1781441224363
 20
21.39742349124222
 42
1.0
 10
313.1781256727049
 20
23.48721689184593
 42
1.0
 10
313.1781318226163
 20
25.57700952371036
 42
1.0
 10
313.1781318226163
 20
27.66680273212925
 42
1.0
 10
313.1781318226163
 20
27.75161518695077
 42
1.0
 10
313.1781318226163
 20
27.83642744958889
 42
1.0
 10
313.1781318226163
 20
27.87703492426926
 42
1.0
 97
        0
 75
     0
 76
     1
 98
        1
 10
0.0
 20
0.0
  0
HATCH
  5
7D
330
1F
100
AcDbEntity
  8
0
  6
Continuous
 62
     7
100
AcDbHatch
 10
0.0
 20
0.0
 30
0.0
210
0.0
220
0.0
230
1.0
  2
SOLID
 70
     1
 71
     0
 91
        1
 92
        0
 93
       12
 72
     1
 10
296.2715297073844
 20
27.50458020069891
 11
293.841527870193
 21
27.50458020069891
 72
     4
 94
        3
 73
     1
 74
     0
 95
       17
 96
       13
 40
21.0
 40
21.0
 40
21.0
 40
21.0
 40
22.0
 40
22.0
 40
22.0
 40
23.0
 40
23.0
 40
23.0
 40
24.0
 40
24.0
 40
24.0
 40
25.0
 40
25.0
 40
25.0
 40
25.0
 10
293.841527870193
 20
27.50458020069891
 42
1.0
 10
294.4654639653083
 20
27.35271373418588
 42
1.0
 10
294.541848928711
 20
26.88863860486635
 42
1.0
 10
294.5396718603926
 20
26.35648992400541
 42
1.0
 10
294.5326947869268
 20
24.65236702027423
 42
1.0
 10
294.54232862173
 20
22.9481603240125
 42
1.0
 10
294.5304592944584
 20
21.24409084762873
 42
1.0
 10
294.52894334152
 20
21.02641399663968
 42
1.0
 10
294.4888489999954
 20
20.77588586122133
 42
1.0
 10
294.3739502220706
 20
20.60171040217499
 42
1.0
 10
294.2655211499942
 20
20.43733713173098
 42
1.0
 10
294.0348564567621
 20
20.35359533789035
 42
1.0
 10
293.8906841048422
 20
20.25643828302682
 42
1.0
 72
     1
 10
293.8906841048422
 20
20.25643828302682
 11
296.2880237673525
 21
20.25643828302682
 72
     4
 94
        3
 73
     1
 74
     0
 95
       14
 96
       10
 40
17.0
 40
17.0
 40
17.0
 40
17.0
 40
18.0
 40
18.0
 40
18.0
 40
19.0
 40
19.0
 40
19.0
 40
20.0
 40
20.0
 40
20.0
 40
20.0
 10
296.2880237673525
 20
20.25643828302682
 42
1.0
 10
295.7413366980624
 20
20.4024294709773
 42
1.0
 10
295.5628078711177
 20
20.63015527572819
 42
1.0
 10
295.5619960829322
 20
21.2138824872384
 42
1.0
 10
295.560827599936
 20
22.05336910178782
 42
1.0
 10
295.561359567195
 20
22.89285956003151
 42
1.0
 10
295.5621928800676
 20
23.73234771205876
 42
1.0
 10
295.5622759038603
 20
23.81306182808445
 42
1.0
 10
295.5696219719554
 20
23.89376787235267
 42
1.0
 10
295.5733857171835
 20
23.97022240661697
 42
1.0
 72
     1
 10
295.5733857171835
 20
23.97022240661697
 11
298.4851131190222
 21
23.97022240661697
 72
     4
 94
        3
 73
     1
 74
     0
 95
       11
 96
        7
 40
14.0
 40
14.0
 40
14.0
 40
14.0
 40
15.0
 40
15.0
 40
15.0
 40
16.0
 40
16.0
 40
16.0
 40
16.0
 10
298.4851131190222
 20
23.97022240661697
 42
1.0
 10
298.4851131190222
 20
23.04419117651474
 42
1.0
 10
298.4852207424561
 20
22.13796342697173
 42
1.0
 10
298.485073144605
 20
21.23173567742801
 42
1.0
 10
298.4849747460367
 20
20.62384393007452
 42
1.0
 10
298.3307257657572
 20
20.41986831094703
 42
1.0
 10
297.7632396991476
 20
20.25412130424438
 42
1.0
 72
     1
 10
297.7632396991476
 20
20.25412130424438
 11
300.2193725060648
 21
20.25412130424438
 72
     4
 94
        3
 73
     1
 74
     0
 95
       17
 96
       13
 40
9.0
 40
9.0
 40
9.0
 40
9.0
 40
10.0
 40
10.0
 40
10.0
 40
11.0
 40
11.0
 40
11.0
 40
12.0
 40
12.0
 40
12.0
 40
13.0
 40
13.0
 40
13.0
 40
13.0
 10
300.2193725060648
 20
20.25412130424438
 42
1.0
 10
299.739442715284
 20
20.41422423058344
 42
1.0
 10
299.5427163031618
 20
20.62720562490344
 42
1.0
 10
299.542119761843
 20
21.03839632851544
 42
1.0
 10
299.5393769017586
 20
22.92724217217554
 42
1.0
 10
299.5395583241182
 20
24.8160968563317
 42
1.0
 10
299.5421628112159
 20
26.70494346873036
 42
1.0
 10
299.5426363543262
 20
27.0468754177367
 42
1.0
 10
299.7248336028849
 20
27.28837413924314
 42
1.0
 10
300.049118383702
 20
27.40930924651266
 42
1.0
 10
300.1052670665942
 20
27.43024796211264
 42
1.0
 10
300.1600043450263
 20
27.45496618208605
 42
1.0
 10
300.2549312885929
 20
27.49433829349534
 42
1.0
 72
     1
 10
300.2549312885929
 20
27.49433829349534
 11
297.7186989723292
 21
27.49433829349534
 72
     4
 94
        3
 73
     1
 74
     0
 95
       14
 96
       10
 40
5.0
 40
5.0
 40
5.0
 40
5.0
 40
6.0
 40
6.0
 40
6.0
 40
7.0
 40
7.0
 40
7.0
 40
8.0
 40
8.0
 40
8.0
 40
8.0
 10
297.7186989723292
 20
27.49433829349534
 42
1.0
 10
298.3648823686909
 20
27.26685790861022
 42
1.0
 10
298.4850762195593
 20
27.0944786077999
 42
1.0
 10
298.4851069691121
 20
26.45733654080182
 42
1.0
 10
298.4851377186649
 20
25.7773505457302
 42
1.0
 10
298.4851131190222
 20
25.09736416629037
 42
1.0
 10
298.4851131190222
 20
24.41737817121947
 42
1.0
 10
298.4851131190222
 20
24.32893553953832
 42
1.0
 10
298.4851131190222
 20
24.24049329222682
 42
1.0
 10
298.4851131190222
 20
24.16049564077468
 42
1.0
 72
     1
 10
298.4851131190222
 20
24.16049564077468
 11
295.5632814142282
 21
24.16049564077468
 72
     4
 94
        3
 73
     1
 74
     0
 95
       14
 96
       10
 40
1.0
 40
1.0
 40
1.0
 40
1.0
 40
2.0
 40
2.0
 40
2.0
 40
3.0
 40
3.0
 40
3.0
 40
4.0
 40
4.0
 40
4.0
 40
4.0
 10
295.5632814142282
 20
24.16049564077468
 42
1.0
 10
295.5632814142282
 20
25.01272602299438
 42
1.0
 10
295.5627432970579
 20
25.84365465270932
 42
1.0
 10
295.5644406723573
 20
26.67457866999212
 42
1.0
 10
295.5645605956114
 20
26.73240397223375
 42
1.0
 10
295.5792681065788
 20
26.79059327230427
 42
1.0
 10
295.5906023916358
 20
26.8479388815276
 42
1.0
 10
295.6648994604227
 20
27.22384581892186
 42
1.0
 10
295.9411319155254
 20
27.38780204855992
 42
1.0
 10
296.2715297073844
 20
27.50458020069891
 42
1.0
 97
        0
 75
     0
 76
     1
 98
        1
 10
0.0
 20
0.0
  0
SPLINE
  5
7E
330
1F
100
AcDbEntity
  8
0
  6
Continuous
 62
   179
370
     0
100
AcDbSpline
210
0.0
220
0.0
230
1.0
 70
     8
 71
     3
 72
    14
 73
    10
 74
     0
 42
0.000000001
 43
0.00000001
 40
24.0
 40
24.0
 40
24.0
 40
24.0
 40
25.0
 40
25.0
 40
25.0
 40
26.0
 40
26.0
 40
26.0
 40
27.0
 40
27.0
 40
27.0
 40
27.0
 10
287.7314564875268
 20
22.4264857094768
 30
0.0
 10
288.0996055050067
 20
21.95463920731319
 30
0.0
 10
288.4270667146001
 20
21.47381844824843
 30
0.0
 10
288.8166481701822
 20
21.05011190802389
 30
0.0
 10
289.3841588364346
 20
20.43289382139212
 30
0.0
 10
289.9836367374808
 20
20.49110656799653
 30
0.0
 10
290.4735170834558
 20
21.16713932372221
 30
0.0
 10
290.5884281612034
 20
21.32571784099438
 30
0.0
 10
290.6825002672103
 20
21.49939669476813
 30
0.0
 10
290.8103661314317
 20
21.70506046432864
 30
0.0
  0
SPLINE
  5
7F
330
1F
100
AcDbEntity
  8
0
  6
Continuous
 62
   179
370
     0
100
AcDbSpline
210
0.0
220
0.0
230
1.0
 70
     8
 71
     3
 72
    11
 73
     7
 74
     0
 42
0.000000001
 43
0.00000001
 40
22.0
 40
22.0
 40
22.0
 40
22.0
 40
23.0
 40
23.0
 40
23.0
 40
24.0
 40
24.0
 40
24.0
 40
24.0
 10
290.7742138825406
 20
25.39867403457779
 30
0.0
 10
289.9536528488242
 20
25.26443186627322
 30
0.0
 10
289.4290162836425
 20
24.71923384406366
 30
0.0
 10
288.9612633156569
 20
24.10441845059237
 30
0.0
 10
288.5466855488353
 20
23.55949371503118
 30
0.0
 10
288.1508588591387
 20
23.00030157147278
 30
0.0
 10
287.7314564875268
 20
22.4264857094768
 30
0.0
  0
SPLINE
  5
80
330
1F
100
AcDbEntity
  8
0
  6
Continuous
 62
   179
370
     0
100
AcDbSpline
210
0.0
220
0.0
230
1.0
 70
     8
 71
     3
 72
    11
 73
     7
 74
     0
 42
0.000000001
 43
0.00000001
 40
20.0
 40
20.0
 40
20.0
 40
20.0
 40
21.0
 40
21.0
 40
21.0
 40
22.0
 40
22.0
 40
22.0
 40
22.0
 10
287.7715077796773
 20
25.39867403457779
 30
0.0
 10
288.2706160663608
 20
25.39867403457779
 30
0.0
 10
288.76972127809
 20
25.39867441894744
 30
0.0
 10
289.2688295647749
 20
25.39867441894744
 30
0.0
 10
289.7706253623487
 20
25.39867441894744
 30
0.0
 10
290.2724180849667
 20
25.39867403457779
 30
0.0
 10
290.7742138825406
 20
25.39867403457779
 30
0.0
  0
SPLINE
  5
81
330
1F
100
AcDbEntity
  8
0
  6
Continuous
 62
   179
370
     0
100
AcDbSpline
210
0.0
220
0.0
230
1.0
 70
     8
 71
     3
 72
    17
 73
    13
 74
     0
 42
0.000000001
 43
0.00000001
 40
16.0
 40
16.0
 40
16.0
 40
16.0
 40
17.0
 40
17.0
 40
17.0
 40
18.0
 40
18.0
 40
18.0
 40
19.0
 40
19.0
 40
19.0
 40
20.0
 40
20.0
 40
20.0
 40
20.0
 10
287.7233847299918
 20
22.54303496963325
 30
0.0
 10
288.0735790837579
 20
23.12311989664797
 30
0.0
 10
288.4211781752921
 20
23.692108847638
 30
0.0
 10
288.7595985254018
 20
24.26650702928458
 30
0.0
 10
288.8131334963293
 20
24.35736772890119
 30
0.0
 10
288.8373887433532
 20
24.47070865762303
 30
0.0
 10
288.8543009972361
 20
24.57697987985169
 30
0.0
 10
288.9174636530569
 20
24.97387165717582
 30
0.0
 10
288.7601181928394
 20
25.20759054971102
 30
0.0
 10
288.3670435880915
 20
25.28904726743022
 30
0.0
 10
288.1718392788191
 20
25.32949945687163
 30
0.0
 10
287.9710693005408
 20
25.34310267453518
 30
0.0
 10
287.7715077796773
 20
25.39867403457779
 30
0.0
  0
SPLINE
  5
82
330
1F
100
AcDbEntity
  8
0
  6
Continuous
 62
   179
370
     0
100
AcDbSpline
210
0.0
220
0.0
230
1.0
 70
     8
 71
     3
 72
     8
 73
     4
 74
     0
 42
0.000000001
 43
0.00000001
 40
15.0
 40
15.0
 40
15.0
 40
15.0
 40
16.0
 40
16.0
 40
16.0
 40
16.0
 10
285.8065406500282
 20
24.86455968857225
 30
0.0
 10
286.4380688096612
 20
24.09970377545334
 30
0.0
 10
287.0596648638312
 20
23.34687900912474
 30
0.0
 10
287.7233847299918
 20
22.54303496963325
 30
0.0
  0
SPLINE
  5
83
330
1F
100
AcDbEntity
  8
0
  6
Continuous
 62
   179
370
     0
100
AcDbSpline
210
0.0
220
0.0
230
1.0
 70
     8
 71
     3
 72
    26
 73
    22
 74
     0
 42
0.000000001
 43
0.00000001
 40
8.0
 40
8.0
 40
8.0
 40
8.0
 40
9.0
 40
9.0
 40
9.0
 40
10.0
 40
10.0
 40
10.0
 40
11.0
 40
11.0
 40
11.0
 40
12.0
 40
12.0
 40
12.0
 40
13.0
 40
13.0
 40
13.0
 40
14.0
 40
14.0
 40
14.0
 40
15.0
 40
15.0
 40
15.0
 40
15.0
 10
284.7027239634148
 20
24.46818604120849
 30
0.0
 10
284.5641388051866
 20
24.6300390014551
 30
0.0
 10
284.4323277733789
 20
24.77744812814591
 30
0.0
 10
284.3077767109179
 20
24.93075271279267
 30
0.0
 10
284.0198409761273
 20
25.28515591156022
 30
0.0
 10
283.7707819005811
 20
25.65802498535045
 30
0.0
 10
283.7149530130354
 20
26.1296866058298
 30
0.0
 10
283.6309452355653
 20
26.8393466878164
 30
0.0
 10
283.9109291360762
 20
27.37506654483262
 30
0.0
 10
284.558084218296
 20
27.68711127408746
 30
0.0
 10
285.1912113546599
 20
27.99239110178883
 30
0.0
 10
285.840402057257
 20
27.99583274545401
 30
0.0
 10
286.4793408590448
 20
27.71426216803416
 30
0.0
 10
287.361321048954
 20
27.32558686332681
 30
0.0
 10
287.5614237619422
 20
26.30921056516709
 30
0.0
 10
286.8815726805328
 20
25.62247811827483
 30
0.0
 10
286.6551698752792
 20
25.39378370261948
 30
0.0
 10
286.361711520857
 20
25.23088333574105
 30
0.0
 10
286.0959738880259
 20
25.04203380586477
 30
0.0
 10
286.0025259979348
 20
24.975621306713
 30
0.0
 10
285.9002991106001
 20
24.9215528310502
 30
0.0
 10
285.8065406500282
 20
24.86455968857225
 30
0.0
  0
SPLINE
  5
84
330
1F
100
AcDbEntity
  8
0
  6
Continuous
 62
   179
370
     0
100
AcDbSpline
210
0.0
220
0.0
230
1.0
 70
     8
 71
     3
 72
    20
 73
    16
 74
     0
 42
0.000000001
 43
0.00000001
 40
3.0
 40
3.0
 40
3.0
 40
3.0
 40
4.0
 40
4.0
 40
4.0
 40
5.0
 40
5.0
 40
5.0
 40
6.0
 40
6.0
 40
6.0
 40
7.0
 40
7.0
 40
7.0
 40
8.0
 40
8.0
 40
8.0
 40
8.0
 10
287.0539854214827
 20
21.61211917311517
 30
0.0
 10
286.8995550188436
 20
21.43851181205056
 30
0.0
 10
286.7443651022574
 20
21.26447318851251
 30
0.0
 10
286.5896302790503
 20
21.09003174583673
 30
0.0
 10
285.9488126796034
 20
20.36759637788916
 30
0.0
 10
285.1515567317372
 20
20.05360962220845
 30
0.0
 10
284.198169930981
 20
20.23446388406056
 30
0.0
 10
282.6109241545095
 20
20.5355588898502
 30
0.0
 10
282.3522343191156
 20
22.37884389028816
 30
0.0
 10
283.1417229300146
 20
23.34576433784628
 30
0.0
 10
283.460866385652
 20
23.73663343094009
 30
0.0
 10
283.8607304915963
 20
24.02105948868024
 30
0.0
 10
284.3005597909425
 20
24.25632085564481
 30
0.0
 10
284.4255536469583
 20
24.32317807019961
 30
0.0
 10
284.5513685160267
 20
24.38851087568819
 30
0.0
 10
284.7027239634148
 20
24.46818604120849
 30
0.0
  0
SPLINE
  5
85
330
1F
100
AcDbEntity
  8
0
  6
Continuous
 62
   179
370
     0
100
AcDbSpline
210
0.0
220
0.0
230
1.0
 70
     8
 71
     3
 72
    14
 73
    10
 74
     0
 42
0.000000001
 43
0.00000001
 40
0.0
 40
0.0
 40
0.0
 40
0.0
 40
1.0
 40
1.0
 40
1.0
 40
2.0
 40
2.0
 40
2.0
 40
3.0
 40
3.0
 40
3.0
 40
3.0
 10
290.8103661314317
 20
21.70506046432864
 30
0.0
 10
290.7160910783766
 20
21.04182259740494
 30
0.0
 10
289.9739444785289
 20
20.32342848939635
 30
0.0
 10
289.3271645408483
 20
20.20870037148624
 30
0.0
 10
288.7048673968812
 20
20.09831485913089
 30
0.0
 10
288.1784811821614
 20
20.26780485511384
 30
0.0
 10
287.7601488949774
 20
20.73592220529573
 30
0.0
 10
287.5152010346028
 20
21.01001756649998
 30
0.0
 10
287.2972697310664
 20
21.3082559388604
 30
0.0
 10
287.0539854214827
 20
21.61211917311517
 30
0.0
  0
SPLINE
  5
86
330
1F
100
AcDbEntity
  8
0
  6
Continuous
 62
   179
370
     0
100
AcDbSpline
210
0.0
220
0.0
230
1.0
 70
     8
 71
     3
 72
    14
 73
    10
 74
     0
 42
0.000000001
 43
0.00000001
 40
1.0
 40
1.0
 40
1.0
 40
1.0
 40
2.0
 40
2.0
 40
2.0
 40
3.0
 40
3.0
 40
3.0
 40
4.0
 40
4.0
 40
4.0
 40
4.0
 10
284.845288113738
 20
24.3712657578988
 30
0.0
 10
284.1054815548355
 20
23.90423117633508
 30
0.0
 10
283.6988925217564
 20
23.08417174469389
 30
0.0
 10
283.7780264951535
 20
22.28619625730053
 30
0.0
 10
283.8665083325146
 20
21.39392726712143
 30
0.0
 10
284.4974276510072
 20
20.83427541775252
 30
0.0
 10
285.3603677179978
 20
20.87638462370451
 30
0.0
 10
286.0339581905155
 20
20.90925282038733
 30
0.0
 10
286.5509442670314
 20
21.22618922689351
 30
0.0
 10
287.0009947176327
 20
21.77781006188367
 30
0.0
  0
SPLINE
  5
87
330
1F
100
AcDbEntity
  8
0
  6
Continuous
 62
   179
370
     0
100
AcDbSpline
210
0.0
220
0.0
230
1.0
 70
     8
 71
     3
 72
     8
 73
     4
 74
     0
 42
0.000000001
 43
0.00000001
 40
0.0
 40
0.0
 40
0.0
 40
0.0
 40
1.0
 40
1.0
 40
1.0
 40
1.0
 10
287.0009947176327
 20
21.77781006188367
 30
0.0
 10
286.2819902310067
 20
22.64282111123716
 30
0.0
 10
285.5612360948443
 20
23.50993158628786
 30
0.0
 10
284.845288113738
 20
24.3712657578988
 30
0.0
  0
SPLINE
  5
88
330
1F
100
AcDbEntity
  8
0
  6
Continuous
 62
   179
370
     0
100
AcDbSpline
210
0.0
220
0.0
230
1.0
 70
     8
 71
     3
 72
    11
 73
     7
 74
     0
 42
0.000000001
 43
0.00000001
 40
3.0
 40
3.0
 40
3.0
 40
3.0
 40
4.0
 40
4.0
 40
4.0
 40
5.0
 40
5.0
 40
5.0
 40
5.0
 10
284.688382372121
 20
27.15085253116304
 30
0.0
 10
284.5630810205802
 20
26.788679112661
 30
0.0
 10
284.5571094574822
 20
26.41068293535724
 30
0.0
 10
284.7721626029031
 20
26.08712768767229
 30
0.0
 10
285.0380140090768
 20
25.68714980838475
 30
0.0
 10
285.3510444536752
 20
25.31853032275095
 30
0.0
 10
285.6520579731507
 20
24.9254318870995
 30
0.0
  0
SPLINE
  5
89
330
1F
100
AcDbEntity
  8
0
  6
Continuous
 62
   179
370
     0
100
AcDbSpline
210
0.0
220
0.0
230
1.0
 70
     8
 71
     3
 72
    14
 73
    10
 74
     0
 42
0.000000001
 43
0.00000001
 40
0.0
 40
0.0
 40
0.0
 40
0.0
 40
1.0
 40
1.0
 40
1.0
 40
2.0
 40
2.0
 40
2.0
 40
3.0
 40
3.0
 40
3.0
 40
3.0
 10
285.6520579731507
 20
24.9254318870995
 30
0.0
 10
286.3259713159692
 20
25.4295804098103
 30
0.0
 10
286.5713650448558
 20
26.2298440482801
 30
0.0
 10
286.3549927436335
 20
27.06650131962916
 30
0.0
 10
286.2400293916459
 20
27.5110460628537
 30
0.0
 10
285.9916529561654
 20
27.74682017860581
 30
0.0
 10
285.6158934244382
 20
27.76810636414938
 30
0.0
 10
285.1818973152029
 20
27.79269159230804
 30
0.0
 10
284.8337724063213
 20
27.5710895609412
 30
0.0
 10
284.688382372121
 20
27.15085253116304
 30
0.0
  0
SPLINE
  5
8A
330
1F
100
AcDbEntity
  8
0
  6
Continuous
 62
   179
370
     0
100
AcDbSpline
210
0.0
220
0.0
230
1.0
 70
     8
 71
     3
 72
    17
 73
    13
 74
     0
 42
0.000000001
 43
0.00000001
 40
21.0
 40
21.0
 40
21.0
 40
21.0
 40
22.0
 40
22.0
 40
22.0
 40
23.0
 40
23.0
 40
23.0
 40
24.0
 40
24.0
 40
24.0
 40
25.0
 40
25.0
 40
25.0
 40
25.0
 10
293.8906841048422
 20
20.25643828302682
 30
0.0
 10
294.0348564567621
 20
20.35359533789035
 30
0.0
 10
294.2655211499942
 20
20.43733713173098
 30
0.0
 10
294.3739502220706
 20
20.60171040217499
 30
0.0
 10
294.4888489999954
 20
20.77588586122133
 30
0.0
 10
294.52894334152
 20
21.02641399663968
 30
0.0
 10
294.5304592944584
 20
21.24409084762873
 30
0.0
 10
294.54232862173
 20
22.9481603240125
 30
0.0
 10
294.5326947869268
 20
24.65236702027423
 30
0.0
 10
294.5396718603926
 20
26.35648992400541
 30
0.0
 10
294.541848928711
 20
26.88863860486635
 30
0.0
 10
294.4654639653083
 20
27.35271373418588
 30
0.0
 10
293.841527870193
 20
27.50458020069891
 30
0.0
  0
SPLINE
  5
8B
330
1F
100
AcDbEntity
  8
0
  6
Continuous
 62
   179
370
     0
100
AcDbSpline
210
0.0
220
0.0
230
1.0
 70
    24
 71
     3
 72
     8
 73
     4
 74
     0
 42
0.000000001
 43
0.00000001
 40
20.0
 40
20.0
 40
20.0
 40
20.0
 40
21.0
 40
21.0
 40
21.0
 40
21.0
 10
296.2880237673525
 20
20.25643828302682
 30
0.0
 10
295.4693261565182
 20
20.25643828302682
 30
0.0
 10
294.6506254707311
 20
20.25643828302682
 30
0.0
 10
293.8906841048422
 20
20.25643828302682
 30
0.0
  0
SPLINE
  5
8C
330
1F
100
AcDbEntity
  8
0
  6
Continuous
 62
   179
370
     0
100
AcDbSpline
210
0.0
220
0.0
230
1.0
 70
     8
 71
     3
 72
    14
 73
    10
 74
     0
 42
0.000000001
 43
0.00000001
 40
17.0
 40
17.0
 40
17.0
 40
17.0
 40
18.0
 40
18.0
 40
18.0
 40
19.0
 40
19.0
 40
19.0
 40
20.0
 40
20.0
 40
20.0
 40
20.0
 10
295.5733857171835
 20
23.97022240661697
 30
0.0
 10
295.5696219719554
 20
23.89376787235267
 30
0.0
 10
295.5622759038603
 20
23.81306182808445
 30
0.0
 10
295.5621928800676
 20
23.73234771205876
 30
0.0
 10
295.561359567195
 20
22.89285956003151
 30
0.0
 10
295.560827599936
 20
22.05336910178782
 30
0.0
 10
295.5619960829322
 20
21.2138824872384
 30
0.0
 10
295.5628078711177
 20
20.63015527572819
 30
0.0
 10
295.7413366980624
 20
20.4024294709773
 30
0.0
 10
296.2880237673525
 20
20.25643828302682
 30
0.0
  0
SPLINE
  5
8D
330
1F
100
AcDbEntity
  8
0
  6
Continuous
 62
   179
370
     0
100
AcDbSpline
210
0.0
220
0.0
230
1.0
 70
    24
 71
     3
 72
     8
 73
     4
 74
     0
 42
0.000000001
 43
0.00000001
 40
16.0
 40
16.0
 40
16.0
 40
16.0
 40
17.0
 40
17.0
 40
17.0
 40
17.0
 10
298.4851131190222
 20
23.97022240661697
 30
0.0
 10
297.5154382802974
 20
23.97022240661697
 30
0.0
 10
296.5557754958724
 20
23.97022240661697
 30
0.0
 10
295.5733857171835
 20
23.97022240661697
 30
0.0
  0
SPLINE
  5
8E
330
1F
100
AcDbEntity
  8
0
  6
Continuous
 62
   179
370
     0
100
AcDbSpline
210
0.0
220
0.0
230
1.0
 70
     8
 71
     3
 72
    11
 73
     7
 74
     0
 42
0.000000001
 43
0.00000001
 40
14.0
 40
14.0
 40
14.0
 40
14.0
 40
15.0
 40
15.0
 40
15.0
 40
16.0
 40
16.0
 40
16.0
 40
16.0
 10
297.7632396991476
 20
20.25412130424438
 30
0.0
 10
298.3307257657572
 20
20.41986831094703
 30
0.0
 10
298.4849747460367
 20
20.62384393007452
 30
0.0
 10
298.4850731446049
 20
21.23173567742801
 30
0.0
 10
298.4852207424561
 20
22.13796342697173
 30
0.0
 10
298.4851131190222
 20
23.04419117651474
 30
0.0
 10
298.4851131190222
 20
23.97022240661697
 30
0.0
  0
SPLINE
  5
8F
330
1F
100
AcDbEntity
  8
0
  6
Continuous
 62
   179
370
     0
100
AcDbSpline
210
0.0
220
0.0
230
1.0
 70
    24
 71
     3
 72
     8
 73
     4
 74
     0
 42
0.000000001
 43
0.00000001
 40
13.0
 40
13.0
 40
13.0
 40
13.0
 40
14.0
 40
14.0
 40
14.0
 40
14.0
 10
300.2193725060648
 20
20.25412130424438
 30
0.0
 10
299.4006625954106
 20
20.25412130424438
 30
0.0
 10
298.5819526847563
 20
20.25412130424438
 30
0.0
 10
297.7632396991476
 20
20.25412130424438
 30
0.0
  0
SPLINE
  5
90
330
1F
100
AcDbEntity
  8
0
  6
Continuous
 62
   179
370
     0
100
AcDbSpline
210
0.0
220
0.0
230
1.0
 70
     8
 71
     3
 72
    17
 73
    13
 74
     0
 42
0.000000001
 43
0.00000001
 40
9.0
 40
9.0
 40
9.0
 40
9.0
 40
10.0
 40
10.0
 40
10.0
 40
11.0
 40
11.0
 40
11.0
 40
12.0
 40
12.0
 40
12.0
 40
13.0
 40
13.0
 40
13.0
 40
13.0
 10
300.2549312885929
 20
27.49433829349534
 30
0.0
 10
300.1600043450263
 20
27.45496618208605
 30
0.0
 10
300.1052670665942
 20
27.43024796211264
 30
0.0
 10
300.0491183837019
 20
27.40930924651266
 30
0.0
 10
299.7248336028849
 20
27.28837413924314
 30
0.0
 10
299.5426363543262
 20
27.0468754177367
 30
0.0
 10
299.5421628112159
 20
26.70494346873036
 30
0.0
 10
299.5395583241182
 20
24.8160968563317
 30
0.0
 10
299.5393769017586
 20
22.92724217217554
 30
0.0
 10
299.542119761843
 20
21.03839632851544
 30
0.0
 10
299.5427163031618
 20
20.62720562490344
 30
0.0
 10
299.739442715284
 20
20.41422423058344
 30
0.0
 10
300.2193725060648
 20
20.25412130424438
 30
0.0
  0
SPLINE
  5
91
330
1F
100
AcDbEntity
  8
0
  6
Continuous
 62
   179
370
     0
100
AcDbSpline
210
0.0
220
0.0
230
1.0
 70
    24
 71
     3
 72
     8
 73
     4
 74
     0
 42
0.000000001
 43
0.00000001
 40
8.0
 40
8.0
 40
8.0
 40
8.0
 40
9.0
 40
9.0
 40
9.0
 40
9.0
 10
297.7186989723292
 20
27.49433829349534
 30
0.0
 10
298.5854396840106
 20
27.49433829349534
 30
0.0
 10
299.3949493285535
 20
27.49433829349534
 30
0.0
 10
300.2549312885929
 20
27.49433829349534
 30
0.0
  0
SPLINE
  5
92
330
1F
100
AcDbEntity
  8
0
  6
Continuous
 62
   179
370
     0
100
AcDbSpline
210
0.0
220
0.0
230
1.0
 70
     8
 71
     3
 72
    14
 73
    10
 74
     0
 42
0.000000001
 43
0.00000001
 40
5.0
 40
5.0
 40
5.0
 40
5.0
 40
6.0
 40
6.0
 40
6.0
 40
7.0
 40
7.0
 40
7.0
 40
8.0
 40
8.0
 40
8.0
 40
8.0
 10
298.4851131190222
 20
24.16049564077468
 30
0.0
 10
298.4851131190222
 20
24.24049329222682
 30
0.0
 10
298.4851131190222
 20
24.32893553953832
 30
0.0
 10
298.4851131190222
 20
24.41737817121947
 30
0.0
 10
298.4851131190222
 20
25.09736416629037
 30
0.0
 10
298.4851377186649
 20
25.7773505457302
 30
0.0
 10
298.4851069691121
 20
26.45733654080182
 30
0.0
 10
298.4850762195593
 20
27.0944786077999
 30
0.0
 10
298.3648823686909
 20
27.26685790861022
 30
0.0
 10
297.7186989723292
 20
27.49433829349534
 30
0.0
  0
SPLINE
  5
93
330
1F
100
AcDbEntity
  8
0
  6
Continuous
 62
   179
370
     0
100
AcDbSpline
210
0.0
220
0.0
230
1.0
 70
    24
 71
     3
 72
     8
 73
     4
 74
     0
 42
0.000000001
 43
0.00000001
 40
4.0
 40
4.0
 40
4.0
 40
4.0
 40
5.0
 40
5.0
 40
5.0
 40
5.0
 10
295.5632814142282
 20
24.16049564077468
 30
0.0
 10
296.5292663066504
 20
24.16049564077468
 30
0.0
 10
297.4889290910767
 20
24.16049564077468
 30
0.0
 10
298.4851131190222
 20
24.16049564077468
 30
0.0
  0
SPLINE
  5
94
330
1F
100
AcDbEntity
  8
0
  6
Continuous
 62
   179
370
     0
100
AcDbSpline
210
0.0
220
0.0
230
1.0
 70
     8
 71
     3
 72
    14
 73
    10
 74
     0
 42
0.000000001
 43
0.00000001
 40
1.0
 40
1.0
 40
1.0
 40
1.0
 40
2.0
 40
2.0
 40
2.0
 40
3.0
 40
3.0
 40
3.0
 40
4.0
 40
4.0
 40
4.0
 40
4.0
 10
296.2715297073844
 20
27.50458020069891
 30
0.0
 10
295.9411319155254
 20
27.38780204855992
 30
0.0
 10
295.6648994604227
 20
27.22384581892186
 30
0.0
 10
295.5906023916358
 20
26.8479388815276
 30
0.0
 10
295.5792681065788
 20
26.79059327230427
 30
0.0
 10
295.5645605956114
 20
26.73240397223375
 30
0.0
 10
295.5644406723573
 20
26.67457866999212
 30
0.0
 10
295.5627432970579
 20
25.84365465270932
 30
0.0
 10
295.5632814142282
 20
25.01272602299438
 30
0.0
 10
295.5632814142282
 20
24.16049564077468
 30
0.0
  0
SPLINE
  5
95
330
1F
100
AcDbEntity
  8
0
  6
Continuous
 62
   179
370
     0
100
AcDbSpline
210
0.0
220
0.0
230
1.0
 70
    24
 71
     3
 72
     8
 73
     4
 74
     0
 42
0.000000001
 43
0.00000001
 40
0.0
 40
0.0
 40
0.0
 40
0.0
 40
1.0
 40
1.0
 40
1.0
 40
1.0
 10
293.841527870193
 20
27.50458020069891
 30
0.0
 10
294.6515264326192
 20
27.50458020069891
 30
0.0
 10
295.4615280700011
 20
27.50458020069891
 30
0.0
 10
296.2715297073844
 20
27.50458020069891
 30
0.0
  0
SPLINE
  5
96
330
1F
100
AcDbEntity
  8
0
  6
Continuous
 62
   179
370
     0
100
AcDbSpline
210
0.0
220
0.0
230
1.0
 70
     8
 71
     3
 72
    14
 73
    10
 74
     0
 42
0.000000001
 43
0.00000001
 40
17.0
 40
17.0
 40
17.0
 40
17.0
 40
18.0
 40
18.0
 40
18.0
 40
19.0
 40
19.0
 40
19.0
 40
20.0
 40
20.0
 40
20.0
 40
20.0
 10
257.7053577757453
 20
20.25910042553502
 30
0.0
 10
258.2139995287706
 20
20.39587059142628
 30
0.0
 10
258.4104423723632
 20
20.62446660851326
 30
0.0
 10
258.4124688639662
 20
21.16843695483816
 30
0.0
 10
258.4191609275175
 20
22.96470127704905
 30
0.0
 10
258.4149081683119
 20
24.76100595804667
 30
0.0
 10
258.4151320634913
 20
26.55729487989966
 30
0.0
 10
258.4151924094879
 20
27.04153921726714
 30
0.0
 10
258.2057453879524
 20
27.36893835120056
 30
0.0
 10
257.7192638284546
 20
27.51463645747964
 30
0.0
  0
SPLINE
  5
97
330
1F
100
AcDbEntity
  8
0
  6
Continuous
 62
   179
370
     0
100
AcDbSpline
210
0.0
220
0.0
230
1.0
 70
    24
 71
     3
 72
     8
 73
     4
 74
     0
 42
0.000000001
 43
0.00000001
 40
16.0
 40
16.0
 40
16.0
 40
16.0
 40
17.0
 40
17.0
 40
17.0
 40
17.0
 10
260.1134120717832
 20
20.25910042553502
 30
0.0
 10
259.3107272904223
 20
20.25910042553502
 30
0.0
 10
258.5080426051526
 20
20.25910042553502
 30
0.0
 10
257.7053577757453
 20
20.25910042553502
 30
0.0
  0
SPLINE
  5
98
330
1F
100
AcDbEntity
  8
0
  6
Continuous
 62
   179
370
     0
100
AcDbSpline
210
0.0
220
0.0
230
1.0
 70
     8
 71
     3
 72
    14
 73
    10
 74
     0
 42
0.000000001
 43
0.00000001
 40
13.0
 40
13.0
 40
13.0
 40
13.0
 40
14.0
 40
14.0
 40
14.0
 40
15.0
 40
15.0
 40
15.0
 40
16.0
 40
16.0
 40
16.0
 40
16.0
 10
259.4607286043899
 20
23.57138302951071
 30
0.0
 10
259.4539911852495
 20
23.51939476107442
 30
0.0
 10
259.4406539512153
 20
23.46398560492077
 30
0.0
 10
259.4405559370167
 20
23.40855338660287
 30
0.0
 10
259.4392191002215
 20
22.65310606781492
 30
0.0
 10
259.4366701545022
 20
21.89763799307775
 30
0.0
 10
259.4408326829897
 20
21.14221143023692
 30
0.0
 10
259.4435911100346
 20
20.64162793377141
 30
0.0
 10
259.6377614656041
 20
20.40079128856704
 30
0.0
 10
260.1134120717832
 20
20.25910042553502
 30
0.0
  0
SPLINE
  5
99
330
1F
100
AcDbEntity
  8
0
  6
Continuous
 62
   179
370
     0
100
AcDbSpline
210
0.0
220
0.0
230
1.0
 70
     8
 71
     3
 72
    20
 73
    16
 74
     0
 42
0.000000001
 43
0.00000001
 40
8.0
 40
8.0
 40
8.0
 40
8.0
 40
9.0
 40
9.0
 40
9.0
 40
10.0
 40
10.0
 40
10.0
 40
11.0
 40
11.0
 40
11.0
 40
12.0
 40
12.0
 40
12.0
 40
13.0
 40
13.0
 40
13.0
 40
13.0
 10
263.9554858268652
 20
20.24609336482204
 30
0.0
 10
263.8909540472192
 20
20.24131411562171
 30
0.0
 10
263.8264337986554
 20
20.23257048036439
 30
0.0
 10
263.7618904879274
 20
20.2323936704376
 30
0.0
 10
263.3170171088603
 20
20.2311736819415
 30
0.0
 10
262.8718696744063
 20
20.24067529366942
 30
0.0
 10
262.427398730108
 20
20.22724465786873
 30
0.0
 10
262.2549406335689
 20
20.22203337745712
 30
0.0
 10
262.1765046750147
 20
20.28890135435546
 30
0.0
 10
262.1067370153144
 20
20.43629933433309
 30
0.0
 10
261.7451764738302
 20
21.200166649339
 30
0.0
 10
261.378026816807
 20
21.9614848264415
 30
0.0
 10
261.0037355762117
 20
22.71920223094413
 30
0.0
 10
260.6054131759577
 20
23.52556773374194
 30
0.0
 10
260.3725694925604
 20
23.65083910446931
 30
0.0
 10
259.4607286043899
 20
23.57138302951071
 30
0.0
  0
SPLINE
  5
9A
330
1F
100
AcDbEntity
  8
0
  6
Continuous
 62
   179
370
     0
100
AcDbSpline
210
0.0
220
0.0
230
1.0
 70
     8
 71
     3
 72
    14
 73
    10
 74
     0
 42
0.000000001
 43
0.00000001
 40
5.0
 40
5.0
 40
5.0
 40
5.0
 40
6.0
 40
6.0
 40
6.0
 40
7.0
 40
7.0
 40
7.0
 40
8.0
 40
8.0
 40
8.0
 40
8.0
 10
261.0219043336847
 20
23.63056361828031
 30
0.0
 10
261.7521543160346
 20
23.35408286053947
 30
0.0
 10
262.033208300972
 20
22.73079019980925
 30
0.0
 10
262.3739921385617
 20
22.16106556577572
 30
0.0
 10
262.6276890153665
 20
21.7369354504649
 30
0.0
 10
262.8739775562312
 20
21.30835818112304
 30
0.0
 10
263.1292772534607
 20
20.88520667032095
 30
0.0
 10
263.3178377375433
 20
20.57267359973515
 30
0.0
 10
263.5606000734738
 20
20.32757122285868
 30
0.0
 10
263.9554858268652
 20
20.24609336482204
 30
0.0
  0
SPLINE
  5
9B
330
1F
100
AcDbEntity
  8
0
  6
Continuous
 62
   179
370
     0
100
AcDbSpline
210
0.0
220
0.0
230
1.0
 70
     8
 71
     3
 72
    20
 73
    16
 74
     0
 42
0.000000001
 43
0.00000001
 40
0.0
 40
0.0
 40
0.0
 40
0.0
 40
1.0
 40
1.0
 40
1.0
 40
2.0
 40
2.0
 40
2.0
 40
3.0
 40
3.0
 40
3.0
 40
4.0
 40
4.0
 40
4.0
 40
5.0
 40
5.0
 40
5.0
 40
5.0
 10
257.7192638284546
 20
27.51463645747964
 30
0.0
 10
258.1174764912431
 20
27.51463645747964
 30
0.0
 10
258.5159962651877
 20
27.52468175973202
 30
0.0
 10
258.913837050576
 20
27.51251762112626
 30
0.0
 10
259.7094699986221
 20
27.48819126576296
 30
0.0
 10
260.5093946232761
 20
27.49481913962259
 30
0.0
 10
261.2989762515715
 20
27.40941936834727
 30
0.0
 10
262.3071445332423
 20
27.30037799580671
 30
0.0
 10
262.8488620904764
 20
26.74717259793779
 30
0.0
 10
262.9131259646454
 20
25.88395655371281
 30
0.0
 10
262.9966382899503
 20
24.76217905347502
 30
0.0
 10
262.5617362220245
 20
24.08644572151765
 30
0.0
 10
261.5515161764629
 20
23.77337299628437
 30
0.0
 10
261.3945785321864
 20
23.72473719781129
 30
0.0
 10
261.2341319795987
 20
23.68742184709604
 30
0.0
 10
261.0219043336847
 20
23.63056361828031
 30
0.0
  0
SPLINE
  5
9C
330
1F
100
AcDbEntity
  8
0
  6
Continuous
 62
   179
370
     0
100
AcDbSpline
210
0.0
220
0.0
230
1.0
 70
     8
 71
     3
 72
    20
 73
    16
 74
     0
 42
0.000000001
 43
0.00000001
 40
1.0
 40
1.0
 40
1.0
 40
1.0
 40
2.0
 40
2.0
 40
2.0
 40
3.0
 40
3.0
 40
3.0
 40
4.0
 40
4.0
 40
4.0
 40
5.0
 40
5.0
 40
5.0
 40
6.0
 40
6.0
 40
6.0
 40
6.0
 10
259.4558811296203
 20
23.74052094311722
 30
0.0
 10
259.8313410453958
 20
23.74052094311722
 30
0.0
 10
260.1942113256325
 20
23.70804326575078
 30
0.0
 10
260.5489927438957
 20
23.74778168120397
 30
0.0
 10
261.1506181168165
 20
23.81517009427841
 30
0.0
 10
261.608259863196
 20
24.13857044109259
 30
0.0
 10
261.7413862071132
 20
24.73962656292206
 30
0.0
 10
261.8389787525148
 20
25.18024881635489
 30
0.0
 10
261.8719876284001
 20
25.65810454981779
 30
0.0
 10
261.8164781518313
 20
26.10478869315943
 30
0.0
 10
261.7108519014664
 20
26.95476897687368
 30
0.0
 10
261.3230227860075
 20
27.28690123567825
 30
0.0
 10
260.4792308497364
 20
27.35420547185249
 30
0.0
 10
260.1467440101549
 20
27.38072599997261
 30
0.0
 10
259.8103733099057
 20
27.35855230546976
 30
0.0
 10
259.4558811296203
 20
27.35855230546976
 30
0.0
  0
SPLINE
  5
9D
330
1F
100
AcDbEntity
  8
0
  6
Continuous
 62
   179
370
     0
100
AcDbSpline
210
0.0
220
0.0
230
1.0
 70
    24
 71
     3
 72
     8
 73
     4
 74
     0
 42
0.000000001
 43
0.00000001
 40
0.0
 40
0.0
 40
0.0
 40
0.0
 40
1.0
 40
1.0
 40
1.0
 40
1.0
 10
259.4558811296203
 20
27.35855230546976
 30
0.0
 10
259.4558811296203
 20
26.13864548795524
 30
0.0
 10
259.4558811296203
 20
24.94385548148867
 30
0.0
 10
259.4558811296203
 20
23.74052094311722
 30
0.0
  0
SPLINE
  5
9E
330
1F
100
AcDbEntity
  8
0
  6
Continuous
 62
   179
370
     0
100
AcDbSpline
210
0.0
220
0.0
230
1.0
 70
     8
 71
     3
 72
    14
 73
    10
 74
     0
 42
0.000000001
 43
0.00000001
 40
3.0
 40
3.0
 40
3.0
 40
3.0
 40
4.0
 40
4.0
 40
4.0
 40
5.0
 40
5.0
 40
5.0
 40
6.0
 40
6.0
 40
6.0
 40
6.0
 10
267.2336118279071
 20
20.23490821509466
 30
0.0
 10
266.3034040398354
 20
20.48709452013179
 30
0.0
 10
265.5792320909092
 20
21.34541139190241
 30
0.0
 10
265.4837047623288
 20
22.29272284982232
 30
0.0
 10
265.4259332718035
 20
22.86561853145873
 30
0.0
 10
265.4879189885011
 20
23.41465794151554
 30
0.0
 10
265.7739382574312
 20
23.92202056120339
 30
0.0
 10
266.225828300013
 20
24.723612195973
 30
0.0
 10
266.9062728477855
 20
25.1505801106106
 30
0.0
 10
267.7758432870376
 20
25.16748813643033
 30
0.0
  0
SPLINE
  5
9F
330
1F
100
AcDbEntity
  8
0
  6
Continuous
 62
   179
370
     0
100
AcDbSpline
210
0.0
220
0.0
230
1.0
 70
     8
 71
     3
 72
    14
 73
    10
 74
     0
 42
0.000000001
 43
0.00000001
 40
0.0
 40
0.0
 40
0.0
 40
0.0
 40
1.0
 40
1.0
 40
1.0
 40
2.0
 40
2.0
 40
2.0
 40
3.0
 40
3.0
 40
3.0
 40
3.0
 10
267.7758432870376
 20
25.16748813643033
 30
0.0
 10
268.6216197225536
 20
25.16033694362372
 30
0.0
 10
269.2464106552308
 20
24.83848445240961
 30
0.0
 10
269.7103360726668
 20
24.21398909980579
 30
0.0
 10
270.372934348899
 20
23.32205720159637
 30
0.0
 10
270.3723808569537
 20
22.03321892002499
 30
0.0
 10
269.7215189161771
 20
21.13111084177937
 30
0.0
 10
269.1482911393735
 20
20.33660467264827
 30
0.0
 10
268.1650050112285
 20
19.98240211471103
 30
0.0
 10
267.2336118279071
 20
20.23490821509466
 30
0.0
  0
SPLINE
  5
A0
330
1F
100
AcDbEntity
  8
0
  6
Continuous
 62
   179
370
     0
100
AcDbSpline
210
0.0
220
0.0
230
1.0
 70
     8
 71
     3
 72
    17
 73
    13
 74
     0
 42
0.000000001
 43
0.00000001
 40
4.0
 40
4.0
 40
4.0
 40
4.0
 40
5.0
 40
5.0
 40
5.0
 40
6.0
 40
6.0
 40
6.0
 40
7.0
 40
7.0
 40
7.0
 40
8.0
 40
8.0
 40
8.0
 40
8.0
 10
266.4699528411193
 20
22.82140374989816
 30
0.0
 10
266.4269741915698
 20
22.16270989809668
 30
0.0
 10
266.5287029361534
 20
21.51524885782822
 30
0.0
 10
266.8746830637486
 20
20.93428603108956
 30
0.0
 10
267.1048165584611
 20
20.54785025472892
 30
0.0
 10
267.4153070900211
 20
20.27237193240103
 30
0.0
 10
267.9076604687568
 20
20.30531315927085
 30
0.0
 10
268.3388937306983
 20
20.33416469565678
 30
0.0
 10
268.6078393105943
 20
20.5966013640246
 30
0.0
 10
268.810867074766
 20
20.94311038392242
 30
0.0
 10
269.1208448575376
 20
21.47214721006825
 30
0.0
 10
269.202432645224
 20
22.05765558940843
 30
0.0
 10
269.218762963826
 20
22.68351122534059
 30
0.0
  0
SPLINE
  5
A1
330
1F
100
AcDbEntity
  8
0
  6
Continuous
 62
   179
370
     0
100
AcDbSpline
210
0.0
220
0.0
230
1.0
 70
     8
 71
     3
 72
    17
 73
    13
 74
     0
 42
0.000000001
 43
0.00000001
 40
0.0
 40
0.0
 40
0.0
 40
0.0
 40
1.0
 40
1.0
 40
1.0
 40
2.0
 40
2.0
 40
2.0
 40
3.0
 40
3.0
 40
3.0
 40
4.0
 40
4.0
 40
4.0
 40
4.0
 10
269.218762963826
 20
22.68351122534059
 30
0.0
 10
269.195680043492
 20
23.34551372899321
 30
0.0
 10
269.0963628325642
 20
24.01168817818241
 30
0.0
 10
268.6683621173312
 20
24.58056604641373
 30
0.0
 10
268.2143234497673
 20
25.18405330473933
 30
0.0
 10
267.4640605055332
 20
25.19142205062979
 30
0.0
 10
267.0072628343699
 20
24.59213287496141
 30
0.0
 10
266.882078331128
 20
24.42789874624283
 30
0.0
 10
266.7597204805012
 20
24.2414496033099
 30
0.0
 10
266.7072125446274
 20
24.04607386528146
 30
0.0
 10
266.5993976948625
 20
23.64490674705059
 30
0.0
 10
266.4968487059656
 20
23.23360918874381
 30
0.0
 10
266.4699528411193
 20
22.82140374989816
 30
0.0
  0
SPLINE
  5
A2
330
1F
100
AcDbEntity
  8
0
  6
Continuous
 62
   179
370
     0
100
AcDbSpline
210
0.0
220
0.0
230
1.0
 70
     8
 71
     3
 72
    17
 73
    13
 74
     0
 42
0.000000001
 43
0.00000001
 40
6.0
 40
6.0
 40
6.0
 40
6.0
 40
7.0
 40
7.0
 40
7.0
 40
8.0
 40
8.0
 40
8.0
 40
9.0
 40
9.0
 40
9.0
 40
10.0
 40
10.0
 40
10.0
 40
10.0
 10
311.6156486607861
 20
20.25320881127337
 30
0.0
 10
312.1185268426077
 20
20.41647125413319
 30
0.0
 10
312.2872188877024
 20
20.63608302071405
 30
0.0
 10
312.2876555313485
 20
21.16871754450475
 30
0.0
 10
312.2890700107628
 20
22.88922803787955
 30
0.0
 10
312.2877662297369
 20
24.60974045310045
 30
0.0
 10
312.2871819882395
 20
26.33025248395311
 30
0.0
 10
312.2871512386867
 20
26.42255802816857
 30
0.0
 10
312.2845313768121
 20
26.51487279724974
 30
0.0
 10
312.2823973578678
 20
26.60716642601487
 30
0.0
 10
312.2683694120104
 20
27.21300429544448
 30
0.0
 10
312.2096131670664
 20
27.27631108979181
 30
0.0
 10
311.6691528821608
 20
27.32445797038016
 30
0.0
  0
SPLINE
  5
A3
330
1F
100
AcDbEntity
  8
0
  6
Continuous
 62
   179
370
     0
100
AcDbSpline
210
0.0
220
0.0
230
1.0
 70
    24
 71
     3
 72
     8
 73
     4
 74
     0
 42
0.000000001
 43
0.00000001
 40
5.0
 40
5.0
 40
5.0
 40
5.0
 40
6.0
 40
6.0
 40
6.0
 40
6.0
 10
313.8867245107603
 20
20.25320881127337
 30
0.0
 10
313.0865658051385
 20
20.25320881127337
 30
0.0
 10
312.3511103079174
 20
20.25320881127337
 30
0.0
 10
311.6156486607861
 20
20.25320881127337
 30
0.0
  0
SPLINE
  5
A4
330
1F
100
AcDbEntity
  8
0
  6
Continuous
 62
   179
370
     0
100
AcDbSpline
210
0.0
220
0.0
230
1.0
 70
     8
 71
     3
 72
    17
 73
    13
 74
     0
 42
0.000000001
 43
0.00000001
 40
1.0
 40
1.0
 40
1.0
 40
1.0
 40
2.0
 40
2.0
 40
2.0
 40
3.0
 40
3.0
 40
3.0
 40
4.0
 40
4.0
 40
4.0
 40
5.0
 40
5.0
 40
5.0
 40
5.0
 10
313.1781318226163
 20
27.87703492426926
 30
0.0
 10
313.1781318226163
 20
27.83642744958889
 30
0.0
 10
313.1781318226163
 20
27.75161518695077
 30
0.0
 10
313.1781318226163
 20
27.66680273212925
 30
0.0
 10
313.1781318226163
 20
25.57700952371036
 30
0.0
 10
313.1781256727049
 20
23.48721689184593
 30
0.0
 10
313.1781441224363
 20
21.39742349124222
 30
0.0
 10
313.1781441224363
 20
21.32188875296783
 30
0.0
 10
313.1771847363981
 20
21.24633325874564
 30
0.0
 10
313.1786115156352
 20
21.17082388885262
 30
0.0
 10
313.1888880160859
 20
20.62648762285203
 30
0.0
 10
313.3266152617988
 20
20.4348325806782
 30
0.0
 10
313.8867245107603
 20
20.25320881127337
 30
0.0
  0
SPLINE
  5
A5
330
1F
100
AcDbEntity
  8
0
  6
Continuous
 62
   179
370
     0
100
AcDbSpline
210
0.0
220
0.0
230
1.0
 70
     8
 71
     3
 72
     8
 73
     4
 74
     0
 42
0.000000001
 43
0.00000001
 40
0.0
 40
0.0
 40
0.0
 40
0.0
 40
1.0
 40
1.0
 40
1.0
 40
1.0
 10
311.6691528821608
 20
27.32445797038016
 30
0.0
 10
312.1410908642435
 20
27.49727756634619
 30
0.0
 10
312.6458878181427
 20
27.68213176842718
 30
0.0
 10
313.1781318226163
 20
27.87703492426926
 30
0.0
  0
SPLINE
  5
A6
330
1F
100
AcDbEntity
  8
0
  6
Continuous
 62
   179
370
     0
100
AcDbSpline
210
0.0
220
0.0
230
1.0
 70
     8
 71
     3
 72
    14
 73
    10
 74
     0
 42
0.000000001
 43
0.00000001
 40
6.0
 40
6.0
 40
6.0
 40
6.0
 40
7.0
 40
7.0
 40
7.0
 40
8.0
 40
8.0
 40
8.0
 40
9.0
 40
9.0
 40
9.0
 40
9.0
 10
278.4819664915176
 20
27.88441039662488
 30
0.0
 10
278.4819664915176
 20
27.83987735719566
 30
0.0
 10
278.4819649540404
 20
27.75219577693941
 30
0.0
 10
278.4819649540404
 20
27.66451419668386
 30
0.0
 10
278.4819664915176
 20
25.48269219002111
 30
0.0
 10
278.4816605334703
 20
23.30086999117493
 30
0.0
 10
278.4822124879378
 20
21.11904779232805
 30
0.0
 10
278.4823339486704
 20
20.63637283524633
 30
0.0
 10
278.6550987719953
 20
20.40793364087759
 30
0.0
 10
279.1055120673172
 20
20.2549177176549
 30
0.0
  0
SPLINE
  5
A7
330
1F
100
AcDbEntity
  8
0
  6
Continuous
 62
   179
370
     0
100
AcDbSpline
210
0.0
220
0.0
230
1.0
 70
     8
 71
     3
 72
     8
 73
     4
 74
     0
 42
0.000000001
 43
0.00000001
 40
5.0
 40
5.0
 40
5.0
 40
5.0
 40
6.0
 40
6.0
 40
6.0
 40
6.0
 10
276.9846800684063
 20
27.3296354262854
 30
0.0
 10
277.4478728777531
 20
27.5012575193644
 30
0.0
 10
277.9568994326009
 20
27.68986239811422
 30
0.0
 10
278.4819664915176
 20
27.88441039662488
 30
0.0
  0
SPLINE
  5
A8
330
1F
100
AcDbEntity
  8
0
  6
Continuous
 62
   179
370
     0
100
AcDbSpline
210
0.0
220
0.0
230
1.0
 70
     8
 71
     3
 72
    17
 73
    13
 74
     0
 42
0.000000001
 43
0.00000001
 40
1.0
 40
1.0
 40
1.0
 40
1.0
 40
2.0
 40
2.0
 40
2.0
 40
3.0
 40
3.0
 40
3.0
 40
4.0
 40
4.0
 40
4.0
 40
5.0
 40
5.0
 40
5.0
 40
5.0
 10
276.9460186560295
 20
20.2549177176549
 30
0.0
 10
277.4179566381115
 20
20.4199152040148
 30
0.0
 10
277.5770686601204
 20
20.6342380475635
 30
0.0
 10
277.5771993457187
 20
21.13377529050539
 30
0.0
 10
277.5776652014392
 20
22.92958298186009
 30
0.0
 10
277.5773700057348
 20
24.72538990447762
 30
0.0
 10
277.577359243392
 20
26.52119721146337
 30
0.0
 10
277.577359243392
 20
26.53798031722657
 30
0.0
 10
277.5773838430333
 20
26.55476419172763
 30
0.0
 10
277.5772915943764
 20
26.57154691311976
 30
0.0
 10
277.5738092075535
 20
27.20775573119973
 30
0.0
 10
277.5366914227135
 20
27.25167954511983
 30
0.0
 10
276.9846800684063
 20
27.3296354262854
 30
0.0
  0
SPLINE
  5
A9
330
1F
100
AcDbEntity
  8
0
  6
Continuous
 62
   179
370
     0
100
AcDbSpline
210
0.0
220
0.0
230
1.0
 70
    24
 71
     3
 72
     8
 73
     4
 74
     0
 42
0.000000001
 43
0.00000001
 40
0.0
 40
0.0
 40
0.0
 40
0.0
 40
1.0
 40
1.0
 40
1.0
 40
1.0
 10
279.1055120673172
 20
20.2549177176549
 30
0.0
 10
278.3856819552066
 20
20.2549177176549
 30
0.0
 10
277.6658503056181
 20
20.2549177176549
 30
0.0
 10
276.9460186560295
 20
20.2549177176549
 30
0.0
  0
SPLINE
  5
AA
330
1F
100
AcDbEntity
  8
0
  6
Continuous
 62
   179
370
     0
100
AcDbSpline
210
0.0
220
0.0
230
1.0
 70
     8
 71
     3
 72
    20
 73
    16
 74
     0
 42
0.000000001
 43
0.00000001
 40
5.0
 40
5.0
 40
5.0
 40
5.0
 40
6.0
 40
6.0
 40
6.0
 40
7.0
 40
7.0
 40
7.0
 40
8.0
 40
8.0
 40
8.0
 40
9.0
 40
9.0
 40
9.0
 40
10.0
 40
10.0
 40
10.0
 40
10.0
 10
307.178408284104
 20
20.25443648715803
 30
0.0
 10
307.3179589782804
 20
20.36177625633667
 30
0.0
 10
307.5293898264143
 20
20.45652254628291
 30
0.0
 10
307.6283941606454
 20
20.61954360515536
 30
0.0
 10
307.7285516030971
 20
20.78446498637255
 30
0.0
 10
307.7490584796685
 20
21.01681475508336
 30
0.0
 10
307.7500732149022
 20
21.21990094340409
 30
0.0
 10
307.7587445887104
 20
22.95682170421714
 30
0.0
 10
307.7550484924979
 20
24.69380511724257
 30
0.0
 10
307.7550361926765
 20
26.43077008053731
 30
0.0
 10
307.7550361926765
 20
26.49789904426262
 30
0.0
 10
307.7552944889174
 20
26.56503146731187
 30
0.0
 10
307.7547502218385
 20
26.63215658734291
 30
0.0
 10
307.7501131893193
 20
27.20350460556406
 30
0.0
 10
307.6774858212348
 20
27.28280885460759
 30
0.0
 10
307.1608133901539
 20
27.32540717062984
 30
0.0
  0
SPLINE
  5
AB
330
1F
100
AcDbEntity
  8
0
  6
Continuous
 62
   179
370
     0
100
AcDbSpline
210
0.0
220
0.0
230
1.0
 70
    24
 71
     3
 72
     8
 73
     4
 74
     0
 42
0.000000001
 43
0.00000001
 40
4.0
 40
4.0
 40
4.0
 40
4.0
 40
5.0
 40
5.0
 40
5.0
 40
5.0
 10
309.3620693061908
 20
20.25443648715802
 30
0.0
 10
308.5715044609524
 20
20.25443648715802
 30
0.0
 10
307.8517004859624
 20
20.25443648715802
 30
0.0
 10
307.178408284104
 20
20.25443648715803
 30
0.0
  0
SPLINE
  5
AC
330
1F
100
AcDbEntity
  8
0
  6
Continuous
 62
   179
370
     0
100
AcDbSpline
210
0.0
220
0.0
230
1.0
 70
     8
 71
     3
 72
    14
 73
    10
 74
     0
 42
0.000000001
 43
0.00000001
 40
1.0
 40
1.0
 40
1.0
 40
1.0
 40
2.0
 40
2.0
 40
2.0
 40
3.0
 40
3.0
 40
3.0
 40
4.0
 40
4.0
 40
4.0
 40
4.0
 10
308.65963267846
 20
27.88697759989075
 30
0.0
 10
308.65963267846
 20
27.83196991758182
 30
0.0
 10
308.65963267846
 20
27.74275854708867
 30
0.0
 10
308.65963267846
 20
27.65354698440997
 30
0.0
 10
308.65963267846
 20
25.48863300356693
 30
0.0
 10
308.6595035303402
 20
23.32371921490944
 30
0.0
 10
308.6597187772069
 20
21.15880542625192
 30
0.0
 10
308.6597679764911
 20
20.6374237012035
 30
0.0
 10
308.807415027844
 20
20.43200746554105
 30
0.0
 10
309.3620693061908
 20
20.25443648715802
 30
0.0
  0
SPLINE
  5
AD
330
1F
100
AcDbEntity
  8
0
  6
Continuous
 62
   179
370
     0
100
AcDbSpline
210
0.0
220
0.0
230
1.0
 70
     8
 71
     3
 72
     8
 73
     4
 74
     0
 42
0.000000001
 43
0.00000001
 40
0.0
 40
0.0
 40
0.0
 40
0.0
 40
1.0
 40
1.0
 40
1.0
 40
1.0
 10
307.1608133901539
 20
27.32540717062984
 30
0.0
 10
307.6336123597077
 20
27.50255342081908
 30
0.0
 10
308.1420254609839
 20
27.69304267058278
 30
0.0
 10
308.65963267846
 20
27.88697759989075
 30
0.0
  0
SPLINE
  5
AE
330
1F
100
AcDbEntity
  8
0
  6
Continuous
 62
   179
370
     0
100
AcDbSpline
210
0.0
220
0.0
230
1.0
 70
     8
 71
     3
 72
    14
 73
    10
 74
     0
 42
0.000000001
 43
0.00000001
 40
6.0
 40
6.0
 40
6.0
 40
6.0
 40
7.0
 40
7.0
 40
7.0
 40
8.0
 40
8.0
 40
8.0
 40
9.0
 40
9.0
 40
9.0
 40
9.0
 10
272.426404840594
 20
20.2590796695872
 30
0.0
 10
273.0059923935969
 20
20.37668517687364
 30
0.0
 10
273.0805785081768
 20
20.81042375860576
 30
0.0
 10
273.0783845276048
 20
21.29462927466367
 30
0.0
 10
273.0702866329497
 20
23.08209538116094
 30
0.0
 10
273.0685846452182
 20
24.86961337752774
 30
0.0
 10
273.0527409382852
 20
26.65700799131587
 30
0.0
 10
273.0476395875227
 20
27.23250104921648
 30
0.0
 10
272.9826104338649
 20
27.28380667758701
 30
0.0
 10
272.4594267850393
 20
27.32510813123116
 30
0.0
  0
SPLINE
  5
AF
330
1F
100
AcDbEntity
  8
0
  6
Continuous
 62
   179
370
     0
100
AcDbSpline
210
0.0
220
0.0
230
1.0
 70
    24
 71
     3
 72
     8
 73
     4
 74
     0
 42
0.000000001
 43
0.00000001
 40
5.0
 40
5.0
 40
5.0
 40
5.0
 40
6.0
 40
6.0
 40
6.0
 40
6.0
 10
274.6224502449563
 20
20.2590796695872
 30
0.0
 10
273.8904356226618
 20
20.2590796695872
 30
0.0
 10
273.1584194628892
 20
20.2590796695872
 30
0.0
 10
272.426404840594
 20
20.2590796695872
 30
0.0
  0
SPLINE
  5
B0
330
1F
100
AcDbEntity
  8
0
  6
Continuous
 62
   179
370
     0
100
AcDbSpline
210
0.0
220
0.0
230
1.0
 70
     8
 71
     3
 72
    17
 73
    13
 74
     0
 42
0.000000001
 43
0.00000001
 40
1.0
 40
1.0
 40
1.0
 40
1.0
 40
2.0
 40
2.0
 40
2.0
 40
3.0
 40
3.0
 40
3.0
 40
4.0
 40
4.0
 40
4.0
 40
5.0
 40
5.0
 40
5.0
 40
5.0
 10
273.9540333846496
 20
27.87257450949275
 30
0.0
 10
273.9540333846496
 20
27.8074859707617
 30
0.0
 10
273.9540333846496
 20
27.71082379150879
 30
0.0
 10
273.9540333846496
 20
27.61416161225588
 30
0.0
 10
273.9540349221275
 20
25.51596282147274
 30
0.0
 10
273.9539872603212
 20
23.41776441505853
 30
0.0
 10
273.9542086570993
 20
21.31956562427539
 30
0.0
 10
273.954217881965
 20
21.22727776105204
 30
0.0
 10
273.9506540088286
 20
21.13443409966764
 30
0.0
 10
273.9590578615309
 20
21.04279505200226
 30
0.0
 10
274.0006220316647
 20
20.58964274029083
 30
0.0
 10
274.1836818051716
 20
20.38260600321025
 30
0.0
 10
274.6224502449563
 20
20.2590796695872
 30
0.0
  0
SPLINE
  5
B1
330
1F
100
AcDbEntity
  8
0
  6
Continuous
 62
   179
370
     0
100
AcDbSpline
210
0.0
220
0.0
230
1.0
 70
     8
 71
     3
 72
     8
 73
     4
 74
     0
 42
0.000000001
 43
0.00000001
 40
0.0
 40
0.0
 40
0.0
 40
0.0
 40
1.0
 40
1.0
 40
1.0
 40
1.0
 10
272.4594267850393
 20
27.32510813123116
 30
0.0
 10
272.932774634105
 20
27.4984925580398
 30
0.0
 10
273.4351023989377
 20
27.68249307566929
 30
0.0
 10
273.9540333846496
 20
27.87257450949275
 30
0.0
  0
SPLINE
  5
B2
330
1F
100
AcDbEntity
  8
0
  6
Continuous
 62
   179
370
     0
100
AcDbSpline
210
0.0
220
0.0
230
1.0
 70
     8
 71
     3
 72
    17
 73
    13
 74
     0
 42
0.000000001
 43
0.00000001
 40
6.0
 40
6.0
 40
6.0
 40
6.0
 40
7.0
 40
7.0
 40
7.0
 40
8.0
 40
8.0
 40
8.0
 40
9.0
 40
9.0
 40
9.0
 40
10.0
 40
10.0
 40
10.0
 40
10.0
 10
304.1706223551654
 20
25.06377258638473
 30
0.0
 10
304.1727133247369
 20
25.01792115989102
 30
0.0
 10
304.1800409430993
 20
24.93136078519359
 30
0.0
 10
304.1800932173391
 20
24.84479541369365
 30
0.0
 10
304.1808527312862
 20
23.65282014439031
 30
0.0
 10
304.1797703470369
 20
22.46084295323946
 30
0.0
 10
304.1818797663412
 20
21.26887114326077
 30
0.0
 10
304.1821011631179
 20
21.14380579453512
 30
0.0
 10
304.1922454404932
 20
21.01764883669525
 30
0.0
 10
304.2107535961514
 20
20.89393877449616
 30
0.0
 10
304.2621822227331
 20
20.55023795748124
 30
0.0
 10
304.4578262506061
 20
20.33981031349822
 30
0.0
 10
304.8038079156778
 20
20.2539775500868
 30
0.0
  0
SPLINE
  5
B3
330
1F
100
AcDbEntity
  8
0
  6
Continuous
 62
   179
370
     0
100
AcDbSpline
210
0.0
220
0.0
230
1.0
 70
     8
 71
     3
 72
     8
 73
     4
 74
     0
 42
0.000000001
 43
0.00000001
 40
5.0
 40
5.0
 40
5.0
 40
5.0
 40
6.0
 40
6.0
 40
6.0
 40
6.0
 10
302.7125031745686
 20
24.50968064047994
 30
0.0
 10
303.1898069535648
 20
24.69105879783349
 30
0.0
 10
303.6729961969132
 20
24.874672832025
 30
0.0
 10
304.1706223551654
 20
25.06377258638473
 30
0.0
  0
SPLINE
  5
B4
330
1F
100
AcDbEntity
  8
0
  6
Continuous
 62
   179
370
     0
100
AcDbSpline
210
0.0
220
0.0
230
1.0
 70
     8
 71
     3
 72
    17
 73
    13
 74
     0
 42
0.000000001
 43
0.00000001
 40
1.0
 40
1.0
 40
1.0
 40
1.0
 40
2.0
 40
2.0
 40
2.0
 40
3.0
 40
3.0
 40
3.0
 40
4.0
 40
4.0
 40
4.0
 40
5.0
 40
5.0
 40
5.0
 40
5.0
 10
302.6973344203136
 20
20.2539775500868
 30
0.0
 10
303.1321361678242
 20
20.3494649042487
 30
0.0
 10
303.2897768237453
 20
20.65853557522151
 30
0.0
 10
303.2916556214044
 20
21.04785181591346
 30
0.0
 10
303.296603224403
 20
22.071496731734
 30
0.0
 10
303.2829750227277
 20
23.09531768874206
 30
0.0
 10
303.2668591822546
 20
24.11891186780057
 30
0.0
 10
303.2632153602819
 20
24.35030186610297
 30
0.0
 10
303.1332831261333
 20
24.4918735746181
 30
0.0
 10
302.8846514693661
 20
24.49557889569631
 30
0.0
 10
302.8224697242704
 20
24.49650561033552
 30
0.0
 10
302.7604109773859
 20
24.50557288463289
 30
0.0
 10
302.7125031745686
 20
24.50968064047994
 30
0.0
  0
SPLINE
  5
B5
330
1F
100
AcDbEntity
  8
0
  6
Continuous
 62
   179
370
     0
100
AcDbSpline
210
0.0
220
0.0
230
1.0
 70
    24
 71
     3
 72
     8
 73
     4
 74
     0
 42
0.000000001
 43
0.00000001
 40
0.0
 40
0.0
 40
0.0
 40
0.0
 40
1.0
 40
1.0
 40
1.0
 40
1.0
 10
304.8038079156778
 20
20.2539775500868
 30
0.0
 10
304.1016511088749
 20
20.2539775500868
 30
0.0
 10
303.3994912271164
 20
20.2539775500868
 30
0.0
 10
302.6973344203136
 20
20.2539775500868
 30
0.0
  0
SPLINE
  5
B6
330
1F
100
AcDbEntity
  8
0
  6
Continuous
 62
   179
370
     0
100
AcDbSpline
210
0.0
220
0.0
230
1.0
 70
     8
 71
     3
 72
    11
 73
     7
 74
     0
 42
0.000000001
 43
0.00000001
 40
2.0
 40
2.0
 40
2.0
 40
2.0
 40
3.0
 40
3.0
 40
3.0
 40
4.0
 40
4.0
 40
4.0
 40
4.0
 10
303.0570519104932
 20
26.35430478392947
 30
0.0
 10
303.0511172468595
 20
26.75330175249256
 30
0.0
 10
303.3266947364936
 20
27.05519259513757
 30
0.0
 10
303.6924299141011
 20
27.05034857969325
 30
0.0
 10
304.0507636744179
 20
27.04560238626284
 30
0.0
 10
304.3255386007336
 20
26.75299425696746
 30
0.0
 10
304.327448147944
 20
26.37412133304796
 30
0.0
  0
SPLINE
  5
B7
330
1F
100
AcDbEntity
  8
0
  6
Continuous
 62
   179
370
     0
100
AcDbSpline
210
0.0
220
0.0
230
1.0
 70
     8
 71
     3
 72
    11
 73
     7
 74
     0
 42
0.000000001
 43
0.00000001
 40
0.0
 40
0.0
 40
0.0
 40
0.0
 40
1.0
 40
1.0
 40
1.0
 40
2.0
 40
2.0
 40
2.0
 40
2.0
 10
304.327448147944
 20
26.37412133304796
 30
0.0
 10
304.3293945946187
 20
25.98752450590587
 30
0.0
 10
304.0680572227529
 20
25.70828897263022
 30
0.0
 10
303.6993639381942
 20
25.70301926806731
 30
0.0
 10
303.3259905717407
 20
25.69768229885988
 30
0.0
 10
303.0628482011429
 20
25.96449808787493
 30
0.0
 10
303.0570519104932
 20
26.35430478392947
 30
0.0
  0
MTEXT
  5
B9
330
1F
100
AcDbEntity
  8
0
  6
Continuous
 62
     7
370
     0
100
AcDbMText
 10
257.9690483454
 20
40.3166048975
 30
0.0
 40
3.7041666667
 41
0.0
 71
     1
 72
     1
  1
BOUN36 - Bounce Large Shade
  7
SLDTEXTSTYLE0
 73
     1
 44
1.0
  0
MTEXT
  5
BA
330
1F
100
AcDbEntity
  8
0
  6
Continuous
 62
     7
370
     0
100
AcDbMText
 10
258.6105142387
 20
44.3546043689
 30
0.0
 40
1.5875
 41
0.0
 71
     1
 72
     1
  1
\LDESCRIPTION
  7
SLDTEXTSTYLE0
 73
     1
 44
1.0
  0
INSERT
  5
C1
330
1F
100
AcDbEntity
  8
0
  6
Continuous
 62
     7
370
     0
100
AcDbBlockReference
  2
SW_NOTE_0
 10
317.1049495712
 20
24.1495665419
 30
0.0
  0
MTEXT
  5
C2
330
1F
100
AcDbEntity
  8
0
  6
Continuous
 62
     7
370
     0
100
AcDbMText
 10
273.8048790106
 20
32.371143085
 30
0.0
 40
1.5875
 41
0.0
 71
     2
 72
     1
  1
\LSCALE
  7
SLDTEXTSTYLE0
 73
     1
 44
1.0
  0
MTEXT
  5
C3
330
1F
100
AcDbEntity
  8
0
  6
Continuous
 62
     7
370
     0
100
AcDbMText
 10
278.3960862508
 20
33.4394651033
 30
0.0
 40
2.6458333333
 41
0.0
 71
     1
 72
     1
  1
1:15
  7
SLDTEXTSTYLE0
 73
     1
 44
1.0
  0
MTEXT
  5
C4
330
1F
100
AcDbEntity
  8
0
  6
Continuous
 62
     7
370
     0
100
AcDbMText
 10
261.4913139704
 20
32.371143085
 30
0.0
 40
1.5875
 41
0.0
 71
     2
 72
     1
  1
\LSIZE
  7
SLDTEXTSTYLE0
 73
     1
 44
1.0
  0
MTEXT
  5
C5
330
1F
100
AcDbEntity
  8
0
  6
Continuous
 62
     7
370
     0
100
AcDbMText
 10
264.7495209372
 20
33.4394651033
 30
0.0
 40
2.6458333333
 41
0.0
 71
     1
 72
     1
  1
B
  7
SLDTEXTSTYLE0
 73
     1
 44
1.0
  0
INSERT
  5
CC
330
1F
100
AcDbEntity
  8
0
  6
Continuous
 62
     7
370
     0
100
AcDbBlockReference
  2
SW_NOTE_1
 10
258.0900415808
 20
15.6806800849
 30
0.0
  0
LINE
  5
CD
330
1F
100
AcDbEntity
  8
0
  6
Continuous
 62
     7
370
    15
100
AcDbLine
 10
123.2837167693
 20
126.1062738102
 30
0.0
 11
67.7625182272
 21
100.9407926613
 31
0.0
  0
SPLINE
  5
CE
330
1F
100
AcDbEntity
  8
0
  6
Continuous
 62
     7
370
    15
100
AcDbSpline
210
0.0
220
0.0
230
1.0
 70
     8
 71
     3
 72
    44
 73
    40
 74
     0
 42
0.000000001
 43
0.00000001
 40
0.0
 40
0.0
 40
0.0
 40
0.0
 40
0.0008108281498073
 40
0.0014599609188754
 40
0.0021409200405192
 40
0.0035063980773753
 40
0.0048612308479694
 40
0.0091594684569015
 40
0.0137620611194271
 40
0.0187249467251168
 40
0.0240972335007381
 40
0.0335745683528736
 40
0.0440968451570642
 40
0.0555749131849965
 40
0.0671138406871352
 40
0.078461003182828
 40
0.0896166519214843
 40
0.1005793700585085
 40
0.1297618290332721
 40
0.1582601229443699
 40
0.2083025695757079
 40
0.2580462281888794
 40
0.4357068038811519
 40
0.7371907341234396
 40
0.7703538301672761
 40
0.8035167928717873
 40
0.8366238419580552
 40
0.8690041835222296
 40
0.878327361751189
 40
0.887571143754924
 40
0.8968588781512798
 40
0.9073840217983717
 40
0.919446957963325
 40
0.9330477602341315
 40
0.9472799439532656
 40
0.9628792083868727
 40
0.9798453684057835
 40
0.9981780700305198
 40
1.0
 40
1.0
 40
1.0
 40
1.0
 10
67.88312956404913
 20
100.6778473004952
 30
0.0
 10
67.8703723750697
 20
100.6805815932094
 30
0.0
 10
67.84740203622654
 20
100.6855049058798
 30
0.0
 10
67.81795675294603
 20
100.7037806175222
 30
0.0
 10
67.78629867319785
 20
100.7332863735739
 30
0.0
 10
67.75945807151226
 20
100.7818747305448
 30
0.0
 10
67.72987196011768
 20
100.8903243446079
 30
0.0
 10
67.7270187710624
 20
101.0559942189411
 30
0.0
 10
67.74528530121557
 20
101.2761842984185
 30
0.0
 10
67.77718220449192
 20
101.5127274898046
 30
0.0
 10
67.8262608542227
 20
101.8251637872079
 30
0.0
 10
67.90043705853077
 20
102.2234556762919
 30
0.0
 10
67.99989030087441
 20
102.7160438390603
 30
0.0
 10
68.10984540712384
 20
103.2400918616122
 30
0.0
 10
68.22462992955178
 20
103.7765691698635
 30
0.0
 10
68.33968226874515
 20
104.3077250621496
 30
0.0
 10
68.45359582777003
 20
104.8297137608396
 30
0.0
 10
68.62913183955273
 20
105.6296942642673
 30
0.0
 10
68.86558605370803
 20
106.6997675361612
 30
0.0
 10
69.23853269256145
 20
108.3786328221143
 30
0.0
 10
69.68454900408183
 20
110.3775247516743
 30
0.0
 10
70.6517792488734
 20
114.7000381623128
 30
0.0
 10
72.50170220477315
 20
122.9385425443861
 30
0.0
 10
74.29627595586788
 20
130.9181754515354
 30
0.0
 10
75.58482065992546
 20
136.6471032020938
 30
0.0
 10
75.93317782563194
 20
138.1958482809243
 30
0.0
 10
76.27879670385121
 20
139.7324004727057
 30
0.0
 10
76.54089640325171
 20
140.8976297272721
 30
0.0
 10
76.7193920406429
 20
141.6911709392057
 30
0.0
 10
76.81698178763955
 20
142.1250279904761
 30
0.0
 10
76.9187843741825
 20
142.577606425536
 30
0.0
 10
77.03045623844125
 20
143.0740956386944
 30
0.0
 10
77.15702411100915
 20
143.6378071581417
 30
0.0
 10
77.2958971601944
 20
144.2594043515831
 30
0.0
 10
77.4457479617335
 20
144.9363895151221
 30
0.0
 10
77.60522118255855
 20
145.66626889831
 30
0.0
 10
77.7762490174328
 20
146.4606369329547
 30
0.0
 10
77.90035685165097
 20
147.0401266599996
 30
0.0
 10
77.96756148364837
 20
147.3547962109964
 30
0.0
 10
77.97363661990434
 20
147.3832415776489
 30
0.0
  0
SPLINE
  5
CF
330
1F
100
AcDbEntity
  8
0
  6
Continuous
 62
     7
370
    15
100
AcDbSpline
210
0.0
220
0.0
230
1.0
 70
     8
 71
     3
 72
    41
 73
    37
 74
     0
 42
0.000000001
 43
0.00000001
 40
0.0
 40
0.0
 40
0.0
 40
0.0
 40
0.0048507783899065
 40
0.0256161766027163
 40
0.044560784581387
 40
0.0616841604123717
 40
0.0769861309000633
 40
0.0902419279491129
 40
0.1017408444572867
 40
0.111730753954314
 40
0.1215966671946697
 40
0.1575725829082324
 40
0.1945369174408594
 40
0.3269902527061787
 40
0.5635150398290655
 40
0.6307096144005151
 40
0.6979046286520094
 40
0.7650979395473159
 40
0.8324813740905175
 40
0.8580437267452676
 40
0.8839530763045352
 40
0.9108492899505366
 40
0.9239363001666725
 40
0.9372831320683055
 40
0.9507952710681975
 40
0.9632551712836053
 40
0.974294296139635
 40
0.981270718418117
 40
0.9875695730002564
 40
0.9905290700549791
 40
0.9934107918755968
 40
0.9948646456631561
 40
0.9963842809486163
 40
0.9979295942865575
 40
0.9993761588899363
 40
1.0
 40
1.0
 40
1.0
 40
1.0
 10
77.97491061860791
 20
147.3876937610536
 30
0.0
 10
77.95705573993558
 20
147.3121335938519
 30
0.0
 10
77.86276701170962
 20
146.9131125643201
 30
0.0
 10
77.69905735464467
 20
146.2189190977115
 30
0.0
 10
77.49221350695682
 20
145.333097428399
 30
0.0
 10
77.30812745670156
 20
144.5317715298468
 30
0.0
 10
77.14627621237275
 20
143.8187591716925
 30
0.0
 10
77.00522997224351
 20
143.1933304053678
 30
0.0
 10
76.8831695032689
 20
142.6507732193909
 30
0.0
 10
76.7730372921929
 20
142.161144689093
 30
0.0
 10
76.57692472623681
 20
141.2892909340675
 30
0.0
 10
76.2860676240561
 20
139.9962102505011
 30
0.0
 10
75.5646216508128
 20
136.7888348088853
 30
0.0
 10
74.1388907898886
 20
130.4497052503488
 30
0.0
 10
72.60717890081288
 20
123.6384620574023
 30
0.0
 10
71.30628387257542
 20
117.8459179394738
 30
0.0
 10
70.59984718102099
 20
114.6976842190236
 30
0.0
 10
69.89372502228957
 20
111.5462820725979
 30
0.0
 10
69.33483527080153
 20
109.0447819819767
 30
0.0
 10
68.92185148660964
 20
107.1877639204491
 30
0.0
 10
68.6505899564154
 20
105.9630954310623
 30
0.0
 10
68.42395982984873
 20
104.933060872153
 30
0.0
 10
68.24230276928778
 20
104.0990166688104
 30
0.0
 10
68.10762296188554
 20
103.4739917964195
 30
0.0
 10
67.97736517313149
 20
102.8582734998565
 30
0.0
 10
67.85890853640299
 20
102.2778602742437
 30
0.0
 10
67.76934603309033
 20
101.7982347748196
 30
0.0
 10
67.71095305161084
 20
101.41352923475
 30
0.0
 10
67.68138429614795
 20
101.1549636100844
 30
0.0
 10
67.67715867116287
 20
100.960664145943
 30
0.0
 10
67.68828156065985
 20
100.8435480978769
 30
0.0
 10
67.71606631853338
 20
100.7536948021206
 30
0.0
 10
67.75338302040525
 20
100.6900702776062
 30
0.0
 10
67.81123875808991
 20
100.6451064456488
 30
0.0
 10
67.86687707134433
 20
100.6228978827719
 30
0.0
 10
67.90015688414884
 20
100.6239538484337
 30
0.0
 10
67.91018453970827
 20
100.6242720251013
 30
0.0
  0
SPLINE
  5
D0
330
1F
100
AcDbEntity
  8
0
  6
Continuous
 62
     7
370
    15
100
AcDbSpline
210
0.0
220
0.0
230
1.0
 70
     8
 71
     3
 72
    18
 73
    14
 74
     0
 42
0.000000001
 43
0.00000001
 40
0.0
 40
0.0
 40
0.0
 40
0.0
 40
0.0182591325722213
 40
0.4311291983912431
 40
0.6485806869823559
 40
0.7361418906292672
 40
0.7790538473961933
 40
0.8177425923432259
 40
0.8360911533275657
 40
0.8547084372851893
 40
0.8997985659980962
 40
0.9565775430024573
 40
0.9999999999999999
 40
0.9999999999999999
 40
0.9999999999999999
 40
0.9999999999999999
 10
123.2858628433617
 20
126.1007825037434
 30
0.0
 10
123.2874201584342
 20
126.0995852693646
 30
0.0
 10
123.3241910179574
 20
126.0713165279022
 30
0.0
 10
123.3742252734736
 20
126.0220871205308
 30
0.0
 10
123.4219399390594
 20
125.960699984259
 30
0.0
 10
123.4371002586674
 20
125.9260733284037
 30
0.0
 10
123.4403904765156
 20
125.9080768905115
 30
0.0
 10
123.4396074881561
 20
125.8971340565274
 30
0.0
 10
123.4366290773706
 20
125.8895016395866
 30
0.0
 10
123.4317848037493
 20
125.8820371066059
 30
0.0
 10
123.4215889987889
 20
125.8737663035279
 30
0.0
 10
123.4090467517823
 20
125.8644958868307
 30
0.0
 10
123.3997109680275
 20
125.8590799369913
 30
0.0
 10
123.3956652907109
 20
125.8567329261791
 30
0.0
  0
SPLINE
  5
D1
330
1F
100
AcDbEntity
  8
0
  6
Continuous
 62
     7
370
    15
100
AcDbSpline
210
0.0
220
0.0
230
1.0
 70
     8
 71
     3
 72
    14
 73
    10
 74
     0
 42
0.000000001
 43
0.00000001
 40
0.0
 40
0.0
 40
0.0
 40
0.0
 40
0.2154348926333839
 40
0.4075993340596281
 40
0.5594585130008501
 40
0.6764269406110855
 40
0.7946968493708825
 40
0.899230444096481
 40
1.0
 40
1.0
 40
1.0
 40
1.0
 10
121.9873149926693
 20
126.85888664539
 30
0.0
 10
122.0837250052914
 20
126.8107070575983
 30
0.0
 10
122.2661311905714
 20
126.7195520563862
 30
0.0
 10
122.5135594602843
 20
126.5886811502825
 30
0.0
 10
122.7152714832203
 20
126.4768608787801
 30
0.0
 10
122.8824298906854
 20
126.3790311656462
 30
0.0
 10
123.0266700839017
 20
126.2891155396871
 30
0.0
 10
123.1615337855892
 20
126.1993497234846
 30
0.0
 10
123.2420194576062
 20
126.1354793668192
 30
0.0
 10
123.2815244793308
 20
126.1041296897351
 30
0.0
  0
SPLINE
  5
D2
330
1F
100
AcDbEntity
  8
0
  6
Continuous
 62
     7
370
    15
100
AcDbSpline
210
0.0
220
0.0
230
1.0
 70
     8
 71
     3
 72
    22
 73
    18
 74
     0
 42
0.000000001
 43
0.00000001
 40
0.0
 40
0.0
 40
0.0
 40
0.0
 40
0.0224857861878043
 40
0.0342298239322429
 40
0.0479792374820033
 40
0.0614589250936532
 40
0.0738690045037223
 40
0.0956267509825894
 40
0.11698423011099
 40
0.1847477716878949
 40
0.2698541454382867
 40
0.3562307248386113
 40
0.4542532104417313
 40
0.5482645315294409
 40
0.6678584671548049
 40
0.8229671547975689
 40
0.9999999999999999
 40
0.9999999999999999
 40
0.9999999999999999
 40
0.9999999999999999
 10
123.4131833501026
 20
125.8096173733345
 30
0.0
 10
123.4260423263033
 20
125.8165909911466
 30
0.0
 10
123.4456173808566
 20
125.8272068401051
 30
0.0
 10
123.46952609222
 20
125.8473934567141
 30
0.0
 10
123.4844013580768
 20
125.8684111847227
 30
0.0
 10
123.4911761600686
 20
125.893715176185
 30
0.0
 10
123.4906122565279
 20
125.924902504421
 30
0.0
 10
123.4791760457583
 20
125.9596877969264
 30
0.0
 10
123.442861934576
 20
126.0219985110621
 30
0.0
 10
123.3637072680839
 20
126.1044211478972
 30
0.0
 10
123.2434311419244
 20
126.2022888310471
 30
0.0
 10
123.099903034524
 20
126.3023766747643
 30
0.0
 10
122.9474228015553
 20
126.3991239883365
 30
0.0
 10
122.7735082960378
 20
126.5021655673151
 30
0.0
 10
122.5647429712206
 20
126.6188475635145
 30
0.0
 10
122.3059671805793
 20
126.7563143123464
 30
0.0
 10
122.113286838046
 20
126.852668405657
 30
0.0
 10
122.0105873985599
 20
126.9040255459084
 30
0.0
  0
LINE
  5
D3
330
1F
100
AcDbEntity
  8
0
  6
Continuous
 62
     7
370
    15
100
AcDbLine
 10
122.002049895
 20
126.8874669803
 30
0.0
 11
122.0024200628
 21
126.8872846026
 31
0.0
  0
LINE
  5
D4
330
1F
100
AcDbEntity
  8
0
  6
Continuous
 62
     7
370
    15
100
AcDbLine
 10
122.0020380457
 20
126.8874728183
 30
0.0
 11
122.002049895
 21
126.8874669803
 31
0.0
  0
SPLINE
  5
D5
330
1F
100
AcDbEntity
  8
0
  6
Continuous
 62
     7
370
    15
100
AcDbSpline
210
0.0
220
0.0
230
1.0
 70
     8
 71
     3
 72
    31
 73
    27
 74
     0
 42
0.000000001
 43
0.00000001
 40
0.0
 40
0.0
 40
0.0
 40
0.0
 40
0.007495168143935
 40
0.0152858063922832
 40
0.0216074947871998
 40
0.026464927107117
 40
0.030741565620069
 40
0.0350940873399364
 40
0.045619685959549
 40
0.0562205345626282
 40
0.094080708105542
 40
0.1616881607416852
 40
0.2824157537992693
 40
0.4980007333186575
 40
0.7723815879662976
 40
0.8931091751587953
 40
0.9462293152062748
 40
0.9509037337099102
 40
0.9554600484550381
 40
0.9597963062936953
 40
0.9639125071755021
 40
0.9682631309252011
 40
0.9741216483401531
 40
0.9816475262345118
 40
0.990841105060173
 40
1.0
 40
1.0
 40
1.0
 40
1.0
 10
79.6175976844611
 20
149.748924132333
 30
0.0
 10
79.72332029519652
 20
149.6914883588463
 30
0.0
 10
79.93893325116419
 20
149.5743526126363
 30
0.0
 10
80.24372138679394
 20
149.4087827408093
 30
0.0
 10
80.51130497993265
 20
149.2634293867893
 30
0.0
 10
80.72932273825869
 20
149.1450051718411
 30
0.0
 10
80.91956490936755
 20
149.0416714344453
 30
0.0
 10
81.18976417955066
 20
148.8949117834899
 30
0.0
 10
81.54917769435299
 20
148.6997051192498
 30
0.0
 10
82.38127366972623
 20
148.2478061112591
 30
0.0
 10
84.01866080032454
 20
147.3587199337931
 30
0.0
 10
87.20990872927452
 20
145.6266030717611
 30
0.0
 10
92.90961124982573
 20
142.5354641271176
 30
0.0
 10
101.5304417561293
 20
137.8681095477862
 30
0.0
 10
110.1574819316397
 20
133.2122323871256
 30
0.0
 10
116.4947836593158
 20
129.8048982010718
 30
0.0
 10
119.0198954694843
 20
128.449801413764
 30
0.0
 10
119.9019492061187
 20
127.9767606368542
 30
0.0
 10
120.0938811101904
 20
127.8738405811598
 30
0.0
 10
120.277918797162
 20
127.7751597985393
 30
0.0
 10
120.4590553474068
 20
127.6780585041856
 30
0.0
 10
120.6617122971403
 20
127.5693698135659
 30
0.0
 10
120.9127930100379
 20
127.4352735370607
 30
0.0
 10
121.2339586760487
 20
127.2675764660269
 30
0.0
 10
121.6056884506694
 20
127.0822977925167
 30
0.0
 10
121.8700880748234
 20
126.952332603703
 30
0.0
 10
122.0020380457483
 20
126.8874728182926
 30
0.0
  0
SPLINE
  5
D6
330
1F
100
AcDbEntity
  8
0
  6
Continuous
 62
     7
370
    15
100
AcDbSpline
210
0.0
220
0.0
230
1.0
 70
     8
 71
     3
 72
    31
 73
    27
 74
     0
 42
0.000000001
 43
0.00000001
 40
0.0
 40
0.0
 40
0.0
 40
0.0
 40
0.0075628213516998
 40
0.0153519460187666
 40
0.0216693980824181
 40
0.0265217372407656
 40
0.0307936374801061
 40
0.0351413369006961
 40
0.0456552744387948
 40
0.0562443792939517
 40
0.0940626107770861
 40
0.1615951664098734
 40
0.2821890131194169
 40
0.497535159670459
 40
0.771612078519693
 40
0.8922059304352803
 40
0.9452672256691621
 40
0.9499364661345602
 40
0.9544877381404729
 40
0.9588191967726807
 40
0.9629308420842296
 40
0.9672766324353957
 40
0.9731286372307356
 40
0.9806461345488383
 40
0.9898294452619052
 40
0.9999999999999999
 40
0.9999999999999999
 40
0.9999999999999999
 40
0.9999999999999999
 10
121.9964751830161
 20
126.8767192844556
 30
0.0
 10
121.8922901622407
 20
126.9393302175247
 30
0.0
 10
121.6808025783711
 20
127.0664255989918
 30
0.0
 10
121.3794928016671
 20
127.2406666447548
 30
0.0
 10
121.1117984508682
 20
127.3858831987327
 30
0.0
 10
120.8930399518472
 20
127.503038539173
 30
0.0
 10
120.7022330677991
 20
127.6053319963023
 30
0.0
 10
120.4312309015033
 20
127.7506001629079
 30
0.0
 10
120.0707729249792
 20
127.9438661530487
 30
0.0
 10
119.2363138758156
 20
128.3913750134963
 30
0.0
 10
117.5945472394266
 20
129.2723249824613
 30
0.0
 10
114.3958870223457
 20
130.9906710511544
 30
0.0
 10
108.6864665187476
 20
134.0637455853231
 30
0.0
 10
100.060104542288
 20
138.7207541912728
 30
0.0
 10
91.43998634305213
 20
143.389308830698
 30
0.0
 10
85.11579456696494
 20
146.8208257980575
 30
0.0
 10
82.59736198933271
 20
148.1882611672943
 30
0.0
 10
81.7178127656072
 20
148.6659306713949
 30
0.0
 10
81.52643167739141
 20
148.7698690691663
 30
0.0
 10
81.3429276345404
 20
148.869536615551
 30
0.0
 10
81.16232163164275
 20
148.967618529209
 30
0.0
 10
80.9602649030304
 20
149.0774151624614
 30
0.0
 10
80.7099333481059
 20
149.2128986228531
 30
0.0
 10
80.38972381737663
 20
149.3824040749478
 30
0.0
 10
80.00439913725646
 20
149.5771877528763
 30
0.0
 10
79.72607102714584
 20
149.7160243949388
 30
0.0
 10
79.57980818956572
 20
149.7889837565357
 30
0.0
  0
LINE
  5
D7
330
1F
100
AcDbEntity
  8
0
  6
Continuous
 62
     7
370
    15
100
AcDbLine
 10
126.6309879639
 20
60.7465043862
 30
0.0
 11
126.6309879639
 21
66.4615043862
 31
0.0
  0
LINE
  5
D8
330
1F
100
AcDbEntity
  8
0
  6
Continuous
 62
     7
370
    15
100
AcDbLine
 10
121.5509879639
 20
64.3572994893
 30
0.0
 11
121.5509879639
 21
60.7465043862
 31
0.0
  0
LINE
  5
D9
330
1F
100
AcDbEntity
  8
0
  6
Continuous
 62
     7
370
    15
100
AcDbLine
 10
126.6309879639
 20
66.4615043862
 30
0.0
 11
121.6918470973
 21
71.4006452528
 31
0.0
  0
LINE
  5
DA
330
1F
100
AcDbEntity
  8
0
  6
Continuous
 62
     7
370
    15
100
AcDbLine
 10
118.0997446488
 20
67.8085428043
 30
0.0
 11
121.5509879639
 21
64.3572994893
 31
0.0
  0
LINE
  5
DB
330
1F
100
AcDbEntity
  8
0
  6
Continuous
 62
     7
370
    15
100
AcDbLine
 10
123.3132769871
 20
126.0410567492
 30
0.0
 11
123.3892903629
 21
125.8733526744
 31
0.0
  0
LWPOLYLINE
  5
DC
330
1F
100
AcDbEntity
  8
0
  6
Continuous
 62
     7
370
    15
100
AcDbPolyline
 90
      113
 70
   128
 43
0.0
 10
67.8680918208
 20
100.7078715255
 10
68.0580236672
 20
100.3333309928
 10
68.269399374
 20
99.9689671655
 10
68.5020542547
 20
99.6150639257
 10
68.7558070439
 20
99.2718970058
 10
69.0304600383
 20
98.9397337728
 10
69.3257992512
 20
98.618833021
 10
69.6415945784
 20
98.3094447696
 10
69.9775999786
 20
98.0118100685
 10
70.333553664
 20
97.72616081
 10
70.7091783049
 20
97.4527195483
 10
71.1041812458
 20
97.1916993263
 10
71.5182547329
 20
96.9433035094
 10
71.9510761545
 20
96.707725627
 10
72.4023082918
 20
96.4851492219
 10
72.8715995822
 20
96.2757477073
 10
73.3585843926
 20
96.0796842315
 10
73.8628833047
 20
95.897111551
 10
74.3841034106
 20
95.7281719113
 10
74.9218386185
 20
95.5729969362
 10
75.4756699698
 20
95.4317075253
 10
76.0451659648
 20
95.3044137594
 10
76.6298828993
 20
95.1912148155
 10
77.2293652103
 20
95.0921988887
 10
77.8431458306
 20
95.0074431242
 10
78.4707465532
 20
94.9370135565
 10
79.1116784035
 20
94.8809650586
 10
79.7654420203
 20
94.8393412989
 10
80.4315280452
 20
94.812174707
 10
81.109417519
 20
94.7994864491
 10
81.7985822862
 20
94.8012864107
 10
82.4984854066
 20
94.8175731894
 10
83.2085815737
 20
94.848334096
 10
83.9283175391
 20
94.893545164
 10
84.6571325442
 20
94.9531711688
 10
85.3944587565
 20
95.0271656547
 10
86.1397217125
 20
95.1154709713
 10
86.8923407647
 20
95.2180183184
 10
87.6517295348
 20
95.3347277997
 10
88.4172963698
 20
95.4655084846
 10
89.1884448033
 20
95.6102584798
 10
89.9645740201
 20
95.768865008
 10
90.7450793247
 20
95.9412044961
 10
91.5293526117
 20
96.1271426714
 10
92.3167828404
 20
96.3265346663
 10
93.1067565101
 20
96.539225131
 10
93.8986581387
 20
96.7650483547
 10
94.6918707419
 20
97.0038283947
 10
95.4857763141
 20
97.2553792131
 10
96.2797563097
 20
97.5195048226
 10
97.0731921251
 20
97.7959994381
 10
97.8654655807
 20
98.084647638
 10
98.6559594026
 20
98.3852245315
 10
99.4440577033
 20
98.6974959339
 10
100.2291464619
 20
99.0212185491
 10
101.010614002
 20
99.3561401593
 10
101.7878514688
 20
99.7019998212
 10
102.5602533031
 20
100.0585280695
 10
103.3272177133
 20
100.4254471271
 10
104.088147144
 20
100.8024711207
 10
104.8424487421
 20
101.1893063046
 10
105.5895348181
 20
101.5856512887
 10
106.3288233043
 20
101.9911972738
 10
107.0597382081
 20
102.4056282921
 10
107.7817100613
 20
102.828621453
 10
108.4941763629
 20
103.2598471954
 10
109.1965820182
 20
103.6989695437
 10
109.8883797707
 20
104.1456463702
 10
110.5690306289
 20
104.5995296612
 10
111.2380042859
 20
105.0602657884
 10
111.8947795327
 20
105.5274957842
 10
112.5388446643
 20
106.0008556217
 10
113.1696978785
 20
106.4799764981
 10
113.7868476666
 20
106.964485122
 10
114.3898131965
 20
107.4540040043
 10
114.9781246873
 20
107.9481517524
 10
115.5513237753
 20
108.4465433672
 10
116.1089638713
 20
108.9487905432
 10
116.6506105081
 20
109.4545019709
 10
117.1758416796
 20
109.9632836418
 10
117.6842481689
 20
110.4747391553
 10
118.1754338678
 20
110.9884700274
 10
118.649016085
 20
111.5040760017
 10
119.1046258444
 20
112.0211553606
 10
119.5419081726
 20
112.5393052385
 10
119.9605223752
 20
113.058121936
 10
120.3601423028
 20
113.577201234
 10
120.7404566046
 20
114.0961387087
 10
121.101168971
 20
114.6145300471
 10
121.4419983649
 20
115.1319713615
 10
121.7626792401
 20
115.6480595043
 10
122.0629617486
 20
116.1623923824
 10
122.3426119352
 20
116.6745692701
 10
122.6014119194
 20
117.1841911215
 10
122.8391600659
 20
117.6908608815
 10
123.0556711408
 20
118.1941837948
 10
123.2507764567
 20
118.6937677138
 10
123.4243240035
 20
119.1892234041
 10
123.5761785675
 20
119.6801648476
 10
123.7062218361
 20
120.1662095432
 10
123.8143524904
 20
120.6469788052
 10
123.9004862838
 20
121.1220980578
 10
123.964556108
 20
121.5911971275
 10
124.0065120452
 20
122.0539105311
 10
124.0263214067
 20
122.5098777604
 10
124.0239687587
 20
122.9587435636
 10
123.9994559342
 20
123.4001582216
 10
123.9528020316
 20
123.8337778204
 10
123.8840433997
 20
124.2592645197
 10
123.7932336096
 20
124.6762868153
 10
123.6804434128
 20
125.0845197979
 10
123.545760686
 20
125.4836454062
 10
123.3892903629
 20
125.8733526744
  0
LINE
  5
DD
330
1F
100
AcDbEntity
  8
0
  6
Continuous
 62
     7
370
    15
100
AcDbLine
 10
67.8680918208
 20
100.7078715255
 30
0.0
 11
67.7920784449
 21
100.8755756003
 31
0.0
  0
LWPOLYLINE
  5
DE
330
1F
100
AcDbEntity
  8
0
  6
Continuous
 62
     7
370
    15
100
AcDbPolyline
 90
      113
 70
   128
 43
0.0
 10
67.7920784449
 20
100.8755756003
 10
67.9820102914
 20
100.5010350675
 10
68.1933859982
 20
100.1366712402
 10
68.4260408789
 20
99.7827680005
 10
68.679793668
 20
99.4396010805
 10
68.9544466625
 20
99.1074378475
 10
69.2497858753
 20
98.7865370957
 10
69.5655812026
 20
98.4771488444
 10
69.9015866028
 20
98.1795141433
 10
70.2575402881
 20
97.8938648847
 10
70.6331649291
 20
97.6204236231
 10
71.0281678699
 20
97.3594034011
 10
71.4422413571
 20
97.1110075841
 10
71.8750627786
 20
96.8754297017
 10
72.326294916
 20
96.6528532967
 10
72.7955862063
 20
96.4434517821
 10
73.2825710167
 20
96.2473883063
 10
73.7868699289
 20
96.0648156258
 10
74.3080900347
 20
95.8958759861
 10
74.8458252427
 20
95.740701011
 10
75.399656594
 20
95.5994116
 10
75.969152589
 20
95.4721178342
 10
76.5538695235
 20
95.3589188903
 10
77.1533518344
 20
95.2599029635
 10
77.7671324547
 20
95.175147199
 10
78.3947331773
 20
95.1047176313
 10
79.0356650276
 20
95.0486691334
 10
79.6894286445
 20
95.0070453736
 10
80.3555146694
 20
94.9798787818
 10
81.0334041431
 20
94.9671905239
 10
81.7225689104
 20
94.9689904854
 10
82.4224720308
 20
94.9852772642
 10
83.1325681979
 20
95.0160381707
 10
83.8523041633
 20
95.0612492388
 10
84.5811191684
 20
95.1208752436
 10
85.3184453807
 20
95.1948697295
 10
86.0637083366
 20
95.2831750461
 10
86.8163273889
 20
95.3857223932
 10
87.575716159
 20
95.5024318744
 10
88.341282994
 20
95.6332125594
 10
89.1124314274
 20
95.7779625546
 10
89.8885606443
 20
95.9365690828
 10
90.6690659488
 20
96.1089085708
 10
91.4533392359
 20
96.2948467462
 10
92.2407694645
 20
96.4942387411
 10
93.0307431342
 20
96.7069292058
 10
93.8226447628
 20
96.9327524295
 10
94.6158573661
 20
97.1715324694
 10
95.4097629382
 20
97.4230832879
 10
96.2037429338
 20
97.6872088973
 10
96.9971787492
 20
97.9637035129
 10
97.7894522048
 20
98.2523517128
 10
98.5799460267
 20
98.5529286063
 10
99.3680443275
 20
98.8652000086
 10
100.153133086
 20
99.1889226239
 10
100.9346006262
 20
99.523844234
 10
101.711838093
 20
99.8697038959
 10
102.4842399273
 20
100.2262321443
 10
103.2512043374
 20
100.5931512018
 10
104.0121337682
 20
100.9701751955
 10
104.7664353663
 20
101.3570103794
 10
105.5135214423
 20
101.7533553635
 10
106.2528099284
 20
102.1589013486
 10
106.9837248323
 20
102.5733323668
 10
107.7056966854
 20
102.9963255278
 10
108.4181629871
 20
103.4275512701
 10
109.1205686424
 20
103.8666736185
 10
109.8123663949
 20
104.313350445
 10
110.4930172531
 20
104.767233736
 10
111.1619909101
 20
105.2279698631
 10
111.8187661568
 20
105.695199859
 10
112.4628312885
 20
106.1685596965
 10
113.0936845027
 20
106.6476805729
 10
113.7108342907
 20
107.1321891968
 10
114.3137998206
 20
107.6217080791
 10
114.9021113114
 20
108.1158558272
 10
115.4753103995
 20
108.614247442
 10
116.0329504955
 20
109.116494618
 10
116.5745971323
 20
109.6222060457
 10
117.0998283037
 20
110.1309877166
 10
117.608234793
 20
110.64244323
 10
118.0994204919
 20
111.1561741022
 10
118.5730027091
 20
111.6717800765
 10
119.0286124686
 20
112.1888594354
 10
119.4658947967
 20
112.7070093133
 10
119.8845089994
 20
113.2258260108
 10
120.284128927
 20
113.7449053087
 10
120.6644432288
 20
114.2638427835
 10
121.0251555952
 20
114.7822341219
 10
121.365984989
 20
115.2996754362
 10
121.6866658643
 20
115.815763579
 10
121.9869483728
 20
116.3300964571
 10
122.2665985593
 20
116.8422733448
 10
122.5253985436
 20
117.3518951963
 10
122.76314669
 20
117.8585649562
 10
122.979657765
 20
118.3618878695
 10
123.1747630808
 20
118.8614717886
 10
123.3483106277
 20
119.3569274789
 10
123.5001651917
 20
119.8478689223
 10
123.6302084603
 20
120.333913618
 10
123.7383391145
 20
120.8146828799
 10
123.8244729079
 20
121.2898021326
 10
123.8885427321
 20
121.7589012023
 10
123.9304986693
 20
122.2216146058
 10
123.9503080308
 20
122.6775818352
 10
123.9479553828
 20
123.1264476384
 10
123.9234425584
 20
123.5678622963
 10
123.8767886557
 20
124.0014818952
 10
123.8080300239
 20
124.4269685944
 10
123.7172202338
 20
124.84399089
 10
123.6044300369
 20
125.2522238726
 10
123.4697473101
 20
125.6513494809
 10
123.3132769871
 20
126.0410567492
  0
LINE
  5
DF
330
1F
100
AcDbEntity
  8
0
  6
Continuous
 62
     7
370
    15
100
AcDbLine
 10
67.7920784449
 20
100.8755756003
 30
0.0
 11
123.3132769871
 21
126.0410567492
 31
0.0
  0
CIRCLE
  5
E0
330
1F
100
AcDbEntity
  8
0
  6
Continuous
 62
     7
370
    15
100
AcDbCircle
 10
78.8583314519
 20
149.0151622805
 30
0.0
 40
1.058333333333366
  0
LINE
  5
E1
330
1F
100
AcDbEntity
  8
0
  6
Continuous
 62
     7
370
    15
100
AcDbLine
 10
67.7625182272
 20
100.9407926613
 30
0.0
 11
67.7920784449
 21
100.8755756003
 31
0.0
  0
LINE
  5
E2
330
1F
100
AcDbEntity
  8
0
  6
Continuous
 62
     7
370
    15
100
AcDbLine
 10
123.3132769871
 20
126.0410567492
 30
0.0
 11
123.2837167693
 21
126.1062738102
 31
0.0
  0
SPLINE
  5
E3
330
1F
100
AcDbEntity
  8
0
  6
Continuous
 62
     7
370
    15
100
AcDbSpline
210
0.0
220
0.0
230
1.0
 70
    27
 71
     3
 72
    22
 73
    18
 74
     0
 42
0.000000001
 43
0.00000001
 40
0.0
 40
0.0
 40
0.0
 40
0.0
 40
0.125
 40
0.125
 40
0.25
 40
0.25
 40
0.375
 40
0.375
 40
0.5
 40
0.5
 40
0.625
 40
0.625
 40
0.75
 40
0.75
 40
0.875
 40
0.875
 40
1.0
 40
1.0
 40
1.0
 40
1.0
 10
78.16160358427405
 20
148.2185194979604
 30
0.0
 10
78.15868313631881
 20
148.2191764144668
 30
0.0
 10
78.15553233825692
 20
148.2198851452119
 30
0.0
 10
78.14943145086723
 20
148.2212574599017
 30
0.0
 10
78.14650027484521
 20
148.2219167895461
 30
0.0
 10
78.14166151824016
 20
148.2230052044513
 30
0.0
 10
78.13977030813518
 20
148.2234306073875
 30
0.0
 10
78.13735502245217
 20
148.2239738942589
 30
0.0
 10
78.13682276163513
 20
148.2240936193565
 30
0.0
 10
78.13682276163513
 20
148.2240936193565
 30
0.0
 10
78.13735502245217
 20
148.2239738942589
 30
0.0
 10
78.13977030813518
 20
148.2234306073875
 30
0.0
 10
78.14166151824016
 20
148.2230052044513
 30
0.0
 10
78.1465002748452
 20
148.2219167895462
 30
0.0
 10
78.14943145086721
 20
148.2212574599017
 30
0.0
 10
78.15553233825692
 20
148.2198851452118
 30
0.0
 10
78.1586831363188
 20
148.2191764144668
 30
0.0
 10
78.16160358427405
 20
148.2185194979604
 30
0.0
  0
SPLINE
  5
E4
330
1F
100
AcDbEntity
  8
0
  6
Continuous
 62
     7
370
    15
100
AcDbSpline
210
0.0
220
0.0
230
1.0
 70
     8
 71
     3
 72
    19
 73
    15
 74
     0
 42
0.000000001
 43
0.00000001
 40
0.0
 40
0.0
 40
0.0
 40
0.0
 40
0.0768236369483734
 40
0.1569762924473515
 40
0.2400070050125399
 40
0.3253348473419847
 40
0.4122653573387594
 40
0.5000191986309178
 40
0.5877716279542586
 40
0.674698045616598
 40
0.7600195221587163
 40
0.8430421992141925
 40
0.9231857970176114
 40
1.0
 40
1.0
 40
1.0
 40
1.0
 10
121.999038922967
 20
126.8816297494253
 30
0.0
 10
121.9985707542989
 20
126.8807216874265
 30
0.0
 10
121.9976141296887
 20
126.8788662141433
 30
0.0
 10
121.9961731321306
 20
126.8760712482777
 30
0.0
 10
121.9947284337851
 20
126.873269103831
 30
0.0
 10
121.9933200997907
 20
126.870537491321
 30
0.0
 10
121.9919906659387
 20
126.8679589134848
 30
0.0
 10
121.9907814231969
 20
126.8656134586316
 30
0.0
 10
121.9897282852978
 20
126.8635707853977
 30
0.0
 10
121.9888588960817
 20
126.8618845121013
 30
0.0
 10
121.9881882249958
 20
126.8605836737171
 30
0.0
 10
121.9877255390546
 20
126.8596862447231
 30
0.0
 10
121.9874477876177
 20
126.8591475160012
 30
0.0
 10
121.9874143220764
 20
126.859082605991
 30
0.0
 10
121.9873979442419
 20
126.8590508394227
 30
0.0
  0
SPLINE
  5
E5
330
1F
100
AcDbEntity
  8
0
  6
Continuous
 62
     7
370
    15
100
AcDbSpline
210
0.0
220
0.0
230
1.0
 70
     8
 71
     3
 72
    19
 73
    15
 74
     0
 42
0.000000001
 43
0.00000001
 40
0.0
 40
0.0
 40
0.0
 40
0.0
 40
0.0768142035885717
 40
0.1569578037438036
 40
0.2399804815272165
 40
0.3253019582593693
 40
0.4122283756977355
 40
0.499980804529535
 40
0.5877346451736625
 40
0.6746651544579958
 40
0.7599929969002812
 40
0.8430237094012
 40
0.9231763674506954
 40
1.0
 40
1.0
 40
1.0
 40
1.0
 10
122.010680007108
 20
126.9042086029792
 30
0.0
 10
122.0106636289768
 20
126.9041768365717
 30
0.0
 10
122.0106301628288
 20
126.9041119268894
 30
0.0
 10
122.0103524064224
 20
126.9035732008478
 30
0.0
 10
122.0098897124672
 20
126.9026757761643
 30
0.0
 10
122.0092190303441
 20
126.901374943714
 30
0.0
 10
122.0083496278805
 20
126.8996886775198
 30
0.0
 10
122.0072964754253
 20
126.8976460120593
 30
0.0
 10
122.0060872184093
 20
126.8953005648064
 30
0.0
 10
122.0047577704048
 20
126.8927219944579
 30
0.0
 10
122.00334942843
 20
126.8899903862151
 30
0.0
 10
122.0019047109465
 20
126.8871882516997
 30
0.0
 10
122.0004637171535
 20
126.8843932840377
 30
0.0
 10
121.9995070919192
 20
126.8825378111763
 30
0.0
 10
121.999038922967
 20
126.8816297494253
 30
0.0
  0
SPLINE
  5
E6
330
1F
100
AcDbEntity
  8
0
  6
Continuous
 62
     7
370
    15
100
AcDbSpline
210
0.0
220
0.0
230
1.0
 70
    27
 71
     3
 72
    22
 73
    18
 74
     0
 42
0.000000001
 43
0.00000001
 40
0.0
 40
0.0
 40
0.0
 40
0.0
 40
0.125
 40
0.125
 40
0.25
 40
0.25
 40
0.375
 40
0.375
 40
0.5
 40
0.5
 40
0.625
 40
0.625
 40
0.75
 40
0.75
 40
0.875
 40
0.875
 40
1.0
 40
1.0
 40
1.0
 40
1.0
 10
79.55505931955963
 20
149.8118050629416
 30
0.0
 10
79.55648832717199
 20
149.8144353657378
 30
0.0
 10
79.5580300476493
 20
149.8172731334636
 30
0.0
 10
79.5610152795917
 20
149.8227679005014
 30
0.0
 10
79.56244953656628
 20
149.8254078655359
 30
0.0
 10
79.56481719390138
 20
149.8297658939011
 30
0.0
 10
79.56574258400522
 20
149.8314692131533
 30
0.0
 10
79.56692441010863
 20
149.8336445413162
 30
0.0
 10
79.56718485123648
 20
149.8341239222663
 30
0.0
 10
79.56718485123648
 20
149.8341239222663
 30
0.0
 10
79.56692441010863
 20
149.8336445413162
 30
0.0
 10
79.56574258400522
 20
149.8314692131533
 30
0.0
 10
79.56481719390138
 20
149.8297658939011
 30
0.0
 10
79.56244953656628
 20
149.8254078655359
 30
0.0
 10
79.5610152795917
 20
149.8227679005014
 30
0.0
 10
79.55803004764928
 20
149.8172731334636
 30
0.0
 10
79.55648832717199
 20
149.8144353657378
 30
0.0
 10
79.55505931955963
 20
149.8118050629416
 30
0.0
  0
LWPOLYLINE
  5
E7
330
1F
100
AcDbEntity
  8
0
  6
Continuous
 62
     7
370
    15
100
AcDbPolyline
 90
      113
 70
   128
 43
0.0
 10
123.4162015637
 20
125.8109350272
 10
123.5515822904
 20
125.4708015248
 10
123.6909938028
 20
125.0612430603
 10
123.808504404
 20
124.6425957127
 10
123.9040225393
 20
124.2151856575
 10
123.977473789
 20
123.7793458971
 10
124.0288009259
 20
123.3354160019
 10
124.0579639601
 20
122.8837418454
 10
124.0649401702
 20
122.4246753346
 10
124.049724121
 20
121.9585741364
 10
124.0123276675
 20
121.4858013982
 10
123.9527799459
 20
121.0067254654
 10
123.871127351
 20
120.5217195943
 10
123.7674334996
 20
120.0311616615
 10
123.6417791814
 20
119.5354338692
 10
123.494262296
 20
119.0349224473
 10
123.3249977761
 20
118.5300173532
 10
123.1341174989
 20
118.0211119669
 10
122.9217701823
 20
117.5086027857
 10
122.6881212699
 20
116.9928891141
 10
122.4333528015
 20
116.4743727538
 10
122.1576632718
 20
115.9534576896
 10
121.8612674752
 20
115.4305497757
 10
121.5443963387
 20
114.9060564186
 10
121.2072967422
 20
114.3803862602
 10
120.8502313259
 20
113.8539488591
 10
120.4734782855
 20
113.3271543719
 10
120.0773311558
 20
112.8004132334
 10
119.662098582
 20
112.2741358365
 10
119.228104079
 20
111.7487322132
 10
118.7756857794
 20
111.2246117145
 10
118.30519617
 20
110.7021826919
 10
117.8170018176
 20
110.1818521786
 10
117.3114830828
 20
109.6640255734
 10
116.7890338239
 20
109.1491063239
 10
116.2500610903
 20
108.6374956125
 10
115.694984805
 20
108.129592044
 10
115.1242374374
 20
107.6257913349
 10
114.5382636668
 20
107.1264860051
 10
113.9375200354
 20
106.6320650719
 10
113.322474593
 20
106.1429137474
 10
112.6936065323
 20
105.6594131377
 10
112.051405815
 20
105.1819399465
 10
111.3963727911
 20
104.7108661816
 10
110.7290178079
 20
104.2465588645
 10
110.0498608135
 20
103.7893797452
 10
109.3594309506
 20
103.3396850199
 10
108.6582661453
 20
102.8978250535
 10
107.9469126871
 20
102.4641441067
 10
107.2259248038
 20
102.0389800679
 10
106.4958642296
 20
101.6226641897
 10
105.7572997673
 20
101.2155208311
 10
105.0108068453
 20
100.8178672045
 10
104.2569670691
 20
100.4300131287
 10
103.4963677684
 20
100.0522607875
 10
102.7296015392
 20
99.6849044944
 10
101.9572657823
 20
99.328230463
 10
101.1799622381
 20
98.9825165841
 10
100.398296517
 20
98.6480322096
 10
99.6128776284
 20
98.3250379418
 10
98.8243175058
 20
98.0137854314
 10
98.0332305299
 20
97.7145171804
 10
97.2402330504
 20
97.427466354
 10
96.4459429054
 20
97.1528565984
 10
95.6509789399
 20
96.8909018668
 10
94.8559605243
 20
96.6418062528
 10
94.0615070711
 20
96.4057638309
 10
93.2682375528
 20
96.1829585061
 10
92.4767700194
 20
95.9735638696
 10
91.6877211169
 20
95.7777430646
 10
90.901705607
 20
95.5956486584
 10
90.1193358881
 20
95.4274225239
 10
89.3412215178
 20
95.2731957291
 10
88.5679687386
 20
95.1330884346
 10
87.8001800051
 20
95.0072098004
 10
87.0384535149
 20
94.8956579009
 10
86.2833827421
 20
94.7985196481
 10
85.5355559756
 20
94.7158707239
 10
84.79555586
 20
94.6477755217
 10
84.0639589424
 20
94.5942870956
 10
83.3413352224
 20
94.5554471193
 10
82.6282477089
 20
94.5312858538
 10
81.9252519806
 20
94.5218221235
 10
81.2328957536
 20
94.5270633017
 10
80.5517184547
 20
94.547005305
 10
79.8822508009
 20
94.5816325962
 10
79.2250143861
 20
94.6309181966
 10
78.5805212745
 20
94.6948237069
 10
77.9492736018
 20
94.7732993372
 10
77.3317631841
 20
94.8662839459
 10
76.7284711344
 20
94.9737050869
 10
76.139867488
 20
95.0954790667
 10
75.5664108362
 20
95.2315110089
 10
75.008547969
 20
95.3816949289
 10
74.4667135269
 20
95.5459138155
 10
73.9413296627
 20
95.7240397232
 10
73.432805712
 20
95.9159338709
 10
72.9415378746
 20
96.1214467505
 10
72.4679089057
 20
96.3404182435
 10
72.0122878179
 20
96.5726777453
 10
71.5750295935
 20
96.8180442985
 10
71.156474908
 20
97.0763267338
 10
70.7569498645
 20
97.3473238189
 10
70.3767657398
 20
97.6308244153
 10
70.0162187422
 20
97.9266076427
 10
69.6755897799
 20
98.2344430514
 10
69.3551442428
 20
98.5540908013
 10
69.0551317957
 20
98.8853018494
 10
68.7757861835
 20
99.2278181435
 10
68.5173250491
 20
99.5813728232
 10
68.279949764
 20
99.9456904279
 10
68.0638452716
 20
100.3204871114
 10
67.908436055
 20
100.6234594205
  0
LINE
  5
E8
330
1F
100
AcDbEntity
  8
0
  6
Continuous
 62
     7
370
    15
100
AcDbLine
 10
126.6309879639
 20
66.4615043862
 30
0.0
 11
121.5509879639
 21
64.3572994893
 31
0.0
  0
LINE
  5
E9
330
1F
100
AcDbEntity
  8
0
  6
Continuous
 62
     7
370
    15
100
AcDbLine
 10
126.6309879639
 20
60.7465043862
 30
0.0
 11
121.5509879639
 21
60.7465043862
 31
0.0
  0
LINE
  5
EA
330
1F
100
AcDbEntity
  8
0
  6
Continuous
 62
     7
370
    15
100
AcDbLine
 10
121.6918470973
 20
71.4006452528
 30
0.0
 11
118.0997446488
 21
67.8085428043
 31
0.0
  0
INSERT
  5
F6
330
1F
100
AcDbEntity
  8
0
  6
Continuous
 62
     7
370
     0
100
AcDbBlockReference
  2
SW_CENTERMARKSYMBOL_0
 10
78.8583314519
 20
149.0151622805
 30
0.0
  0
LINE
  5
F7
330
1F
100
AcDbEntity
  8
0
  6
Continuous
 62
     7
370
    15
100
AcDbLine
 10
77.7999981185
 20
217.6355461653
 30
0.0
 11
77.7999981185
 21
216.9920794986
 31
0.0
  0
LINE
  5
F8
330
1F
100
AcDbEntity
  8
0
  6
Continuous
 62
     7
370
    15
100
AcDbLine
 10
79.9166647852
 20
216.9920794986
 30
0.0
 11
79.9166647852
 21
217.2884128319
 31
0.0
  0
LINE
  5
F9
330
1F
100
AcDbEntity
  8
0
  6
Continuous
 62
     7
370
    15
100
AcDbLine
 10
79.9166647852
 20
217.3392128319
 30
0.0
 11
79.9166647852
 21
217.6355461653
 31
0.0
  0
LINE
  5
FA
330
1F
100
AcDbEntity
  8
0
  6
Continuous
 62
     7
370
    15
100
AcDbLine
 10
122.0098847152
 20
217.3203673238
 30
0.0
 11
122.0106259099
 21
217.3203959444
 31
0.0
  0
LINE
  5
FB
330
1F
100
AcDbEntity
  8
0
  6
Continuous
 62
     7
370
    15
100
AcDbLine
 10
122.0098307678
 20
217.3203652407
 30
0.0
 11
122.0098847152
 21
217.3203673238
 31
0.0
  0
SPLINE
  5
FC
330
1F
100
AcDbEntity
  8
0
  6
Continuous
 62
     7
370
    15
100
AcDbSpline
210
0.0
220
0.0
230
1.0
 70
     8
 71
     3
 72
    31
 73
    27
 74
     0
 42
0.000000001
 43
0.00000001
 40
0.0
 40
0.0
 40
0.0
 40
0.0
 40
0.009243343628939
 40
0.0170203173503889
 40
0.0233309202631364
 40
0.0281798372862595
 40
0.0324489725432905
 40
0.0367938577814048
 40
0.0473009896899945
 40
0.0578832405470397
 40
0.0956769935675947
 40
0.1631658381288031
 40
0.2836816310536421
 40
0.4988883960649245
 40
0.7727878869668754
 40
0.893303674094
 40
0.9463306221104419
 40
0.9509968401392143
 40
0.9555451653344624
 40
0.9598738192244949
 40
0.9639828017801972
 40
0.968325789604413
 40
0.9741740484061411
 40
0.9816867418426071
 40
0.9908641420031913
 40
1.0
 40
1.0
 40
1.0
 40
1.0
 10
79.5550593195598
 20
217.2884128319242
 30
0.0
 10
79.68566943363287
 20
217.2884128319242
 30
0.0
 10
79.92616959027902
 20
217.2884128319242
 30
0.0
 10
80.25584508094155
 20
217.2884128319242
 30
0.0
 10
80.52342813314579
 20
217.2884128319242
 30
0.0
 10
80.74144541253428
 20
217.2884128319242
 30
0.0
 10
80.93168711112561
 20
217.2884128319242
 30
0.0
 10
81.20188557217128
 20
217.2884128319241
 30
0.0
 10
81.56129802752692
 20
217.2884128319256
 30
0.0
 10
82.39339158668224
 20
217.2884128319135
 30
0.0
 10
84.0307739882268
 20
217.2884128321449
 30
0.0
 10
87.22201272024182
 20
217.28841282991
 30
0.0
 10
92.92169862357648
 20
217.2884128507075
 30
0.0
 10
101.5425054934582
 20
217.2884126862937
 30
0.0
 10
110.1695156169406
 20
217.2884133575422
 30
0.0
 10
116.506807781561
 20
217.2884122164684
 30
0.0
 10
119.0319029471414
 20
217.2884134390066
 30
0.0
 10
119.9139601050699
 20
217.2884126670327
 30
0.0
 10
120.1058855481605
 20
217.2884134525071
 30
0.0
 10
120.2899440997849
 20
217.2884106765807
 30
0.0
 10
120.4710040577476
 20
217.2884206194285
 30
0.0
 10
120.6739923079345
 20
217.2883772995124
 30
0.0
 10
120.9276165533479
 20
217.2888057848006
 30
0.0
 10
121.2514902675999
 20
217.2927048490178
 30
0.0
 10
121.622142449458
 20
217.3049585784277
 30
0.0
 10
121.8807969073199
 20
217.3152374588653
 30
0.0
 10
122.009830767759
 20
217.3203652406744
 30
0.0
  0
SPLINE
  5
FD
330
1F
100
AcDbEntity
  8
0
  6
Continuous
 62
     7
370
    15
100
AcDbSpline
210
0.0
220
0.0
230
1.0
 70
     8
 71
     3
 72
    31
 73
    27
 74
     0
 42
0.000000001
 43
0.00000001
 40
0.0
 40
0.0
 40
0.0
 40
0.0
 40
0.0075649674443344
 40
0.0153489019115653
 40
0.0216620926236211
 40
0.0265111787215025
 40
0.0307802210869411
 40
0.0351250117867901
 40
0.0456319159991715
 40
0.0562139389757909
 40
0.094006878037446
 40
0.1614942686312687
 40
0.282007463488445
 40
0.4972095888841371
 40
0.7711032082012536
 40
0.8916164083180844
 40
0.9446422167599194
 40
0.9493083345803218
 40
0.9538565649987185
 40
0.9581851287584503
 40
0.9622940259165906
 40
0.9666368545367419
 40
0.9724839753673606
 40
0.9799935405617517
 40
0.9891655491755103
 40
0.9999999999999999
 40
0.9999999999999999
 40
0.9999999999999999
 40
0.9999999999999999
 10
121.9883150815261
 20
217.3082552885291
 30
0.0
 10
121.88089223324
 20
217.3142578426791
 30
0.0
 10
121.662937195953
 20
217.3264366941476
 30
0.0
 10
121.3627216050437
 20
217.3377227346873
 30
0.0
 10
121.0988010836478
 20
217.3392779153789
 30
0.0
 10
120.8812367382997
 20
217.3391994675485
 30
0.0
 10
120.6901748609525
 20
217.3392161916825
 30
0.0
 10
120.4192596454782
 20
217.3392104313099
 30
0.0
 10
120.058751537654
 20
217.3392136584755
 30
0.0
 10
119.2243162564913
 20
217.3392119396443
 30
0.0
 10
117.5825217031793
 20
217.3392134606829
 30
0.0
 10
114.3838676127436
 20
217.3392124483219
 30
0.0
 10
108.6744211100097
 20
217.3392130680712
 30
0.0
 10
100.0480391984941
 20
217.3392127283479
 30
0.0
 10
91.4278944629002
 20
217.3392128448781
 30
0.0
 10
85.10368409756595
 20
217.339212830964
 30
0.0
 10
82.5852446711601
 20
217.3392128319357
 30
0.0
 10
81.70569256086924
 20
217.3392128319236
 30
0.0
 10
81.51431116267294
 20
217.3392128319243
 30
0.0
 10
81.33080542195879
 20
217.3392128319242
 30
0.0
 10
81.1502035016767
 20
217.3392128319242
 30
0.0
 10
80.94814376625507
 20
217.3392128319242
 30
0.0
 10
80.6980305175733
 20
217.3392128319242
 30
0.0
 10
80.37967910802085
 20
217.3392128319242
 30
0.0
 10
79.9908566188301
 20
217.3392128319242
 30
0.0
 10
79.7081554625778
 20
217.3392128319242
 30
0.0
 10
79.5550593195598
 20
217.3392128319242
 30
0.0
  0
SPLINE
  5
FE
330
1F
100
AcDbEntity
  8
0
  6
Continuous
 62
     7
370
    15
100
AcDbSpline
210
0.0
220
0.0
230
1.0
 70
     8
 71
     3
 72
    35
 73
    31
 74
     0
 42
0.000000001
 43
0.00000001
 40
0.0
 40
0.0
 40
0.0
 40
0.0
 40
0.0011503415434519
 40
0.018499474434355
 40
0.03446605557155
 40
0.0490498946626276
 40
0.0620273207321646
 40
0.073670889545139
 40
0.0839806507628623
 40
0.0930035501972895
 40
0.1244132683118424
 40
0.156701469925435
 40
0.2153341057467453
 40
0.2739740304461197
 40
0.4834031902617843
 40
0.7499494280081839
 40
0.8085883242898783
 40
0.8665571020991993
 40
0.876611365534762
 40
0.8868274719075537
 40
0.8984330798403156
 40
0.9116339321928092
 40
0.9264315586971213
 40
0.935435044548066
 40
0.9449404566872524
 40
0.9549483630220356
 40
0.9654561655052102
 40
0.9764706961354944
 40
0.987986679734933
 40
1.0
 40
1.0
 40
1.0
 40
1.0
 10
77.79999811853075
 20
217.3229858085073
 30
0.0
 10
77.7960489936492
 20
217.3231693782533
 30
0.0
 10
77.73254025991662
 20
217.3261214961188
 30
0.0
 10
77.61162440264245
 20
217.3308740469911
 30
0.0
 10
77.44337156671077
 20
217.3355725787754
 30
0.0
 10
77.29019506708357
 20
217.3379293918361
 30
0.0
 10
77.15292414130704
 20
217.3389011813741
 30
0.0
 10
77.03147221065382
 20
217.3391840551479
 30
0.0
 10
76.92457344442207
 20
217.3392158142434
 30
0.0
 10
76.7517238473584
 20
217.3392098487913
 30
0.0
 10
76.50455347023475
 20
217.3392139855449
 30
0.0
 10
76.08839379513451
 20
217.3392122274573
 30
0.0
 10
75.57973140493856
 20
217.3392130239601
 30
0.0
 10
74.46857048344968
 20
217.3392126240946
 30
0.0
 10
72.65075688391505
 20
217.3392129396574
 30
0.0
 10
70.83384918494481
 20
217.339212825787
 30
0.0
 10
69.53743140086905
 20
217.3392128326002
 30
0.0
 10
69.11037828706289
 20
217.3392128318978
 30
0.0
 10
68.84780471315612
 20
217.3392128319266
 30
0.0
 10
68.74102335055255
 20
217.3392128319235
 30
0.0
 10
68.62397167913304
 20
217.3392128319245
 30
0.0
 10
68.49205446142423
 20
217.3392128319242
 30
0.0
 10
68.36944331613454
 20
217.3392128319242
 30
0.0
 10
68.25981419522627
 20
217.3392128319242
 30
0.0
 10
68.1666065395553
 20
217.3392128319242
 30
0.0
 10
68.06961905364429
 20
217.3392128319242
 30
0.0
 10
67.96928916432272
 20
217.3392128319242
 30
0.0
 10
67.86882821563125
 20
217.3392128319242
 30
0.0
 10
67.7685685661671
 20
217.3392128319242
 30
0.0
 10
67.72845004597572
 20
217.3392128319242
 30
0.0
 10
67.70796679520063
 20
217.3392128319242
 30
0.0
  0
SPLINE
  5
FF
330
1F
100
AcDbEntity
  8
0
  6
Continuous
 62
     7
370
    15
100
AcDbSpline
210
0.0
220
0.0
230
1.0
 70
     8
 71
     3
 72
    36
 73
    32
 74
     0
 42
0.000000001
 43
0.00000001
 40
0.0
 40
0.0
 40
0.0
 40
0.0
 40
0.0140100690261665
 40
0.0273817229915633
 40
0.0401004994235906
 40
0.0521732103808438
 40
0.0635988586410417
 40
0.077583233797101
 40
0.0909360531651411
 40
0.1040727588918164
 40
0.1382064170595366
 40
0.1710419518860728
 40
0.287779638958484
 40
0.4962429140311188
 40
0.7615589257439872
 40
0.7761512303965526
 40
0.7907435258125202
 40
0.8052966777352328
 40
0.8194636008663114
 40
0.8331625802928266
 40
0.8463936338689915
 40
0.8591567765217453
 40
0.8719387350621335
 40
0.8827527606286988
 40
0.8953863594403609
 40
0.9098396158320209
 40
0.9261126360465591
 40
0.9442054959607834
 40
0.9637465449861096
 40
0.9850426391117092
 40
1.0
 40
1.0
 40
1.0
 40
1.0
 10
67.70796679520063
 20
217.2884128319242
 30
0.0
 10
67.7330839534881
 20
217.2884128319242
 30
0.0
 10
67.78217372380105
 20
217.2884128319242
 30
0.0
 10
67.90427969329245
 20
217.2884128319242
 30
0.0
 10
68.02305338533974
 20
217.2884128319242
 30
0.0
 10
68.14036559013768
 20
217.2884128319242
 30
0.0
 10
68.26317848952102
 20
217.2884128319242
 30
0.0
 10
68.39157569264226
 20
217.2884128319242
 30
0.0
 10
68.5265089796963
 20
217.2884128319242
 30
0.0
 10
68.72956809884926
 20
217.2884128319243
 30
0.0
 10
68.99945996468603
 20
217.2884128319234
 30
0.0
 10
69.6210899972785
 20
217.2884128319303
 30
0.0
 10
70.83940173988667
 20
217.2884128317988
 30
0.0
 10
72.85474835969353
 20
217.2884128328744
 30
0.0
 10
74.52335389053498
 20
217.2884128292562
 30
0.0
 10
75.52963940208782
 20
217.288412832374
 30
0.0
 10
75.67909052671045
 20
217.2884128301409
 30
0.0
 10
75.82708955621672
 20
217.2884128385138
 30
0.0
 10
75.97203775642573
 20
217.2884128083803
 30
0.0
 10
76.1124671692117
 20
217.2884129154244
 30
0.0
 10
76.24810686901561
 20
217.2884125362459
 30
0.0
 10
76.38059059558994
 20
217.2884138940035
 30
0.0
 10
76.50489685853786
 20
217.2884091152069
 30
0.0
 10
76.62730698036776
 20
217.2884306406629
 30
0.0
 10
76.7546499217295
 20
217.2886191963445
 30
0.0
 10
76.89958350590088
 20
217.2892645127621
 30
0.0
 10
77.06218823969238
 20
217.2908325532118
 30
0.0
 10
77.24150544809561
 20
217.2939179374961
 30
0.0
 10
77.43818103901698
 20
217.299017032111
 30
0.0
 10
77.62554889031031
 20
217.3052510030606
 30
0.0
 10
77.7490459902116
 20
217.3095054211494
 30
0.0
 10
77.79999811853075
 20
217.3112606984519
 30
0.0
  0
SPLINE
  5
100
330
1F
100
AcDbEntity
  8
0
  6
Continuous
 62
     7
370
    15
100
AcDbSpline
210
0.0
220
0.0
230
1.0
 70
     8
 71
     3
 72
     9
 73
     5
 74
     0
 42
0.000000001
 43
0.00000001
 40
0.0
 40
0.0
 40
0.0
 40
0.0
 40
0.5525645970497838
 40
1.0
 40
1.0
 40
1.0
 40
1.0
 10
67.68439021173138
 20
217.3231574555737
 30
0.0
 10
67.68061834580831
 20
217.3164815953135
 30
0.0
 10
67.6737922372534
 20
217.3044000028701
 30
0.0
 10
67.69480835467583
 20
217.2961517800569
 30
0.0
 10
67.70421170964319
 20
217.2924612331589
 30
0.0
  0
SPLINE
  5
101
330
1F
100
AcDbEntity
  8
0
  6
Continuous
 62
     7
370
    15
100
AcDbSpline
210
0.0
220
0.0
230
1.0
 70
    24
 71
     3
 72
    14
 73
    10
 74
     0
 42
0.000000001
 43
0.00000001
 40
0.0
 40
0.0
 40
0.0
 40
0.0
 40
0.5062976532132172
 40
0.7018343909426459
 40
0.8380584141757742
 40
0.9158760598665894
 40
0.9571539560330663
 40
0.9784039372786816
 40
0.9999999999999999
 40
0.9999999999999999
 40
0.9999999999999999
 40
0.9999999999999999
 10
121.9987209247163
 20
217.2884128319242
 30
0.0
 10
122.2672274930627
 20
217.2884128319242
 30
0.0
 10
122.6394337291839
 20
217.2884128319242
 30
0.0
 10
123.0646298132392
 20
217.2884128319242
 30
0.0
 10
123.2629309960288
 20
217.2884128319242
 30
0.0
 10
123.3771802306995
 20
217.2884128319242
 30
0.0
 10
123.4304950901782
 20
217.2884128319242
 30
0.0
 10
123.4568894859168
 20
217.2884128319242
 30
0.0
 10
123.4623348391019
 20
217.2884128319242
 30
0.0
 10
123.4650795076415
 20
217.2884128319242
 30
0.0
  0
SPLINE
  5
102
330
1F
100
AcDbEntity
  8
0
  6
Continuous
 62
     7
370
    15
100
AcDbSpline
210
0.0
220
0.0
230
1.0
 70
    24
 71
     3
 72
    16
 73
    12
 74
     0
 42
0.000000001
 43
0.00000001
 40
0.0
 40
0.0
 40
0.0
 40
0.0
 40
0.0157239818988725
 40
0.0611525432161683
 40
0.1579076759217032
 40
0.2412511652756963
 40
0.3117921012844037
 40
0.3916555466261341
 40
0.5522668978124775
 40
0.7598972121893307
 40
1.0
 40
1.0
 40
1.0
 40
1.0
 10
123.4650795076415
 20
217.3392128319242
 30
0.0
 10
123.4633139661611
 20
217.3392128319242
 30
0.0
 10
123.4564475532906
 20
217.3392128319242
 30
0.0
 10
123.3993784870563
 20
217.3392128319242
 30
0.0
 10
123.3012932291376
 20
217.3392128319242
 30
0.0
 10
123.1820705300829
 20
217.3392128319242
 30
0.0
 10
123.0674318789497
 20
217.3392128319242
 30
0.0
 10
122.9114824909839
 20
217.3392128319242
 30
0.0
 10
122.6817545696917
 20
217.3392128319242
 30
0.0
 10
122.3640735356274
 20
217.3392128319242
 30
0.0
 10
122.1263831414357
 20
217.3392128319242
 30
0.0
 10
121.9989185291424
 20
217.3392128319242
 30
0.0
  0
SPLINE
  5
103
330
1F
100
AcDbEntity
  8
0
  6
Continuous
 62
     7
370
    15
100
AcDbSpline
210
0.0
220
0.0
230
1.0
 70
     8
 71
     3
 72
    18
 73
    14
 74
     0
 42
0.000000001
 43
0.00000001
 40
0.0
 40
0.0
 40
0.0
 40
0.0
 40
0.0727699040961153
 40
0.1484422591239369
 40
0.2249554368541057
 40
0.3000900128057705
 40
0.3718368218161958
 40
0.4386850324713616
 40
0.5582281918394236
 40
0.6794755567567905
 40
0.7981353869905964
 40
0.9063715148548609
 40
1.0
 40
1.0
 40
1.0
 40
1.0
 10
123.4650795076414
 20
217.2884128319242
 30
0.0
 10
123.4670179746205
 20
217.2885400591088
 30
0.0
 10
123.4709722249552
 20
217.288799587975
 30
0.0
 10
123.476654876381
 20
217.2909149091975
 30
0.0
 10
123.4817509713119
 20
217.2942481430838
 30
0.0
 10
123.4858405154808
 20
217.2986348189959
 30
0.0
 10
123.4886877580896
 20
217.3036070747255
 30
0.0
 10
123.4907457702119
 20
217.3102000439708
 30
0.0
 10
123.4908133099795
 20
217.3185927960789
 30
0.0
 10
123.4872155096865
 20
217.3277230548327
 30
0.0
 10
123.4807155500538
 20
217.3345774056563
 30
0.0
 10
123.4729231852396
 20
217.3385555386128
 30
0.0
 10
123.4675648166253
 20
217.3390045652086
 30
0.0
 10
123.4650795076415
 20
217.3392128319242
 30
0.0
  0
LINE
  5
104
330
1F
100
AcDbEntity
  8
0
  6
Continuous
 62
     7
370
    15
100
AcDbLine
 10
120.146176142
 20
199.2746317719
 30
0.0
 11
120.2221895178
 21
199.3790352573
 31
0.0
  0
LINE
  5
105
330
1F
100
AcDbEntity
  8
0
  6
Continuous
 62
     7
370
    15
100
AcDbLine
 10
120.5235477347
 20
234.7736423122
 30
0.0
 11
120.4482144349
 21
234.8808990829
 31
0.0
  0
LINE
  5
106
330
1F
100
AcDbEntity
  8
0
  6
Continuous
 62
     7
370
    15
100
AcDbLine
 10
124.0909879639
 20
219.3855175714
 30
0.0
 11
123.768081566
 21
219.3855175714
 31
0.0
  0
LINE
  5
107
330
1F
100
AcDbEntity
  8
0
  6
Continuous
 62
     7
370
    15
100
AcDbLine
 10
123.8682739711
 20
214.3055175714
 30
0.0
 11
124.0909879639
 21
214.3055175714
 31
0.0
  0
LINE
  5
108
330
1F
100
AcDbEntity
  8
0
  6
Continuous
 62
     7
370
    15
100
AcDbLine
 10
79.5550593196
 20
217.3392128319
 30
0.0
 11
79.5550593196
 21
217.2884128319
 31
0.0
  0
LINE
  5
109
330
1F
100
AcDbEntity
  8
0
  6
Continuous
 62
     7
370
    15
100
AcDbLine
 10
78.8583314519
 20
217.6355461653
 30
0.0
 11
77.7999981185
 21
217.6355461653
 31
0.0
  0
LINE
  5
10A
330
1F
100
AcDbEntity
  8
0
  6
Continuous
 62
     7
370
    15
100
AcDbLine
 10
79.9166647852
 20
217.6355461653
 30
0.0
 11
78.8583314519
 21
217.6355461653
 31
0.0
  0
LINE
  5
10B
330
1F
100
AcDbEntity
  8
0
  6
Continuous
 62
     7
370
    15
100
AcDbLine
 10
78.8583314519
 20
216.9920794986
 30
0.0
 11
79.9166647852
 21
216.9920794986
 31
0.0
  0
LINE
  5
10C
330
1F
100
AcDbEntity
  8
0
  6
Continuous
 62
     7
370
    15
100
AcDbLine
 10
77.7999981185
 20
216.9920794986
 30
0.0
 11
78.8583314519
 21
216.9920794986
 31
0.0
  0
SPLINE
  5
10D
330
1F
100
AcDbEntity
  8
0
  6
Continuous
 62
     7
370
    15
100
AcDbSpline
210
0.0
220
0.0
230
1.0
 70
     8
 71
     3
 72
    22
 73
    18
 74
     0
 42
0.000000001
 43
0.00000001
 40
0.0
 40
0.0
 40
0.0
 40
0.0
 40
0.125
 40
0.125
 40
0.25
 40
0.25
 40
0.375
 40
0.375
 40
0.5
 40
0.5
 40
0.625
 40
0.625
 40
0.75
 40
0.75
 40
0.875
 40
0.875
 40
1.0
 40
1.0
 40
1.0
 40
1.0
 10
79.55505931955963
 20
217.3392128319242
 30
0.0
 10
79.55648832717199
 20
217.3392128319242
 30
0.0
 10
79.5580300476493
 20
217.3386672719584
 30
0.0
 10
79.5610152795917
 20
217.3361916375841
 30
0.0
 10
79.56244953656628
 20
217.3342531734189
 30
0.0
 10
79.56481719390138
 20
217.3292935149137
 30
0.0
 10
79.56574258400522
 20
217.3262891000868
 30
0.0
 10
79.56692441010863
 20
217.3200357750073
 30
0.0
 10
79.56718485123648
 20
217.3168062506312
 30
0.0
 10
79.56718485123648
 20
217.3108194132172
 30
0.0
 10
79.56692441010863
 20
217.3075898888411
 30
0.0
 10
79.56574258400522
 20
217.3013365637616
 30
0.0
 10
79.56481719390138
 20
217.2983321489347
 30
0.0
 10
79.56244953656628
 20
217.2933724904294
 30
0.0
 10
79.5610152795917
 20
217.2914340262644
 30
0.0
 10
79.55803004764928
 20
217.2889583918901
 30
0.0
 10
79.55648832717199
 20
217.2884128319242
 30
0.0
 10
79.55505931955963
 20
217.2884128319242
 30
0.0
  0
SPLINE
  5
10E
330
1F
100
AcDbEntity
  8
0
  6
Continuous
 62
     7
370
    15
100
AcDbSpline
210
0.0
220
0.0
230
1.0
 70
     8
 71
     3
 72
    19
 73
    15
 74
     0
 42
0.000000001
 43
0.00000001
 40
0.0
 40
0.0
 40
0.0
 40
0.0
 40
0.0768236369483734
 40
0.1569762924473515
 40
0.2400070050125399
 40
0.3253348473419847
 40
0.4122653573387594
 40
0.5000191986309178
 40
0.5877716279542586
 40
0.674698045616598
 40
0.7600195221587163
 40
0.8430421992141925
 40
0.9231857970176114
 40
1.0
 40
1.0
 40
1.0
 40
1.0
 10
121.999038922967
 20
217.2884128319242
 30
0.0
 10
121.9985707542989
 20
217.2884485673222
 30
0.0
 10
121.9976141296887
 20
217.2885215866496
 30
0.0
 10
121.9961731321306
 20
217.2891276193042
 30
0.0
 10
121.9947284337851
 20
217.2901371635871
 30
0.0
 10
121.9933200997907
 20
217.2916005150985
 30
0.0
 10
121.9919906659387
 20
217.2934974584527
 30
0.0
 10
121.9907814231969
 20
217.2957953361835
 30
0.0
 10
121.9897282852978
 20
217.2984338356042
 30
0.0
 10
121.9888588960817
 20
217.3013345966229
 30
0.0
 10
121.9881882249958
 20
217.3044075228071
 30
0.0
 10
121.9877255390546
 20
217.3075597982034
 30
0.0
 10
121.9874477876177
 20
217.3107039962118
 30
0.0
 10
121.9874143220764
 20
217.3127913120946
 30
0.0
 10
121.9873979442419
 20
217.3138128319242
 30
0.0
  0
SPLINE
  5
10F
330
1F
100
AcDbEntity
  8
0
  6
Continuous
 62
     7
370
    15
100
AcDbSpline
210
0.0
220
0.0
230
1.0
 70
     8
 71
     3
 72
    19
 73
    15
 74
     0
 42
0.000000001
 43
0.00000001
 40
0.0
 40
0.0
 40
0.0
 40
0.0
 40
0.076823632550095
 40
0.1569762905988884
 40
0.2400070030998613
 40
0.3253348455426682
 40
0.4122653548262464
 40
0.5000191954704913
 40
0.5877716243020741
 40
0.6746980417404129
 40
0.7600195184727828
 40
0.8430421962562141
 40
0.9231857964114436
 40
1.0
 40
1.0
 40
1.0
 40
1.0
 10
121.999038922967
 20
217.3392128319242
 30
0.0
 10
121.9995070919193
 20
217.3391770965339
 30
0.0
 10
122.0004637171537
 20
217.3391040772189
 30
0.0
 10
122.0019047109465
 20
217.3384980445592
 30
0.0
 10
122.00334942843
 20
217.3374885003223
 30
0.0
 10
122.0047577704047
 20
217.3360251487834
 30
0.0
 10
122.0060872184094
 20
217.3341282053956
 30
0.0
 10
122.0072964754252
 20
217.3318303276195
 30
0.0
 10
122.0083496278803
 20
217.3291918281589
 30
0.0
 10
122.0092190303443
 20
217.32629106712
 30
0.0
 10
122.0098897124673
 20
217.3232181409421
 30
0.0
 10
122.0103524064223
 20
217.3200658655595
 30
0.0
 10
122.0106301628286
 20
217.3169216675861
 30
0.0
 10
122.0106636289768
 20
217.3148343517297
 30
0.0
 10
122.010680007108
 20
217.3138128319242
 30
0.0
  0
SPLINE
  5
110
330
1F
100
AcDbEntity
  8
0
  6
Continuous
 62
     7
370
    15
100
AcDbSpline
210
0.0
220
0.0
230
1.0
 70
     8
 71
     3
 72
    19
 73
    15
 74
     0
 42
0.000000001
 43
0.00000001
 40
0.0
 40
0.0
 40
0.0
 40
0.0
 40
0.0768142035885717
 40
0.1569578037438036
 40
0.2399804815272165
 40
0.3253019582593693
 40
0.4122283756977355
 40
0.499980804529535
 40
0.5877346451736625
 40
0.6746651544579958
 40
0.7599929969002812
 40
0.8430237094012
 40
0.9231763674506954
 40
1.0
 40
1.0
 40
1.0
 40
1.0
 10
122.010680007108
 20
217.3138128319242
 30
0.0
 10
122.0106636289768
 20
217.3127913121187
 30
0.0
 10
122.0106301628288
 20
217.3107039962622
 30
0.0
 10
122.0103524064224
 20
217.3075597982889
 30
0.0
 10
122.0098897124672
 20
217.3044075229064
 30
0.0
 10
122.0092190303441
 20
217.3013345967284
 30
0.0
 10
122.0083496278805
 20
217.2984338356896
 30
0.0
 10
122.0072964754253
 20
217.2957953362289
 30
0.0
 10
122.0060872184093
 20
217.2934974584528
 30
0.0
 10
122.0047577704048
 20
217.2916005150651
 30
0.0
 10
122.00334942843
 20
217.2901371635261
 30
0.0
 10
122.0019047109465
 20
217.2891276192892
 30
0.0
 10
122.0004637171535
 20
217.2885215866295
 30
0.0
 10
121.9995070919192
 20
217.2884485673146
 30
0.0
 10
121.999038922967
 20
217.2884128319242
 30
0.0
  0
ARC
  5
111
330
1F
100
AcDbEntity
  8
0
  6
Continuous
 62
     7
370
    15
100
AcDbCircle
 10
68.9387014714
 20
217.2944979856
 30
0.0
 40
1.17588755941308
100
AcDbArc
 50
166.8075789772
 51
177.8258520466
  0
ARC
  5
112
330
1F
100
AcDbEntity
  8
0
  6
Continuous
 62
     7
370
    15
100
AcDbCircle
 10
68.9715104919
 20
217.2784017833
 30
0.0
 40
1.209024347527
100
AcDbArc
 50
179.5451097175
 51
192.702795201
  0
ARC
  5
113
330
1F
100
AcDbEntity
  8
0
  6
Continuous
 62
     7
370
    15
100
AcDbCircle
 10
124.4578583614
 20
217.2944312531
 30
0.0
 40
1.173915138305565
100
AcDbArc
 50
166.7816660636
 51
178.5784562474
  0
ARC
  5
114
330
1F
100
AcDbEntity
  8
0
  6
Continuous
 62
     7
370
    15
100
AcDbCircle
 10
124.5007148686
 20
217.2795565727
 30
0.0
 40
1.217088325934013
100
AcDbArc
 50
178.896308635
 51
192.672953241
  0
LINE
  5
115
330
1F
100
AcDbEntity
  8
0
  6
Continuous
 62
     7
370
    15
100
AcDbLine
 10
123.3150451848
 20
217.5628614961
 30
0.0
 11
123.3903784846
 21
217.4556047254
 31
0.0
  0
ARC
  5
116
330
1F
100
AcDbEntity
  8
0
  6
Continuous
 62
     7
370
    15
100
AcDbCircle
 10
124.1263568816
 20
217.2817949219
 30
0.0
 40
0.7552757487058103
100
AcDbArc
 50
179.4703642901
 51
192.6068643966
  0
ARC
  5
117
330
1F
100
AcDbEntity
  8
0
  6
Continuous
 62
     7
370
    15
100
AcDbCircle
 10
124.0728180272
 20
217.2940522647
 30
0.0
 40
0.7013008818501226
100
AcDbArc
 50
166.6816663432
 51
176.2558697365
  0
LINE
  5
118
330
1F
100
AcDbEntity
  8
0
  6
Continuous
 62
     7
370
    15
100
AcDbLine
 10
123.3132769871
 20
217.0125448301
 30
0.0
 11
123.3892903629
 21
217.1169483155
 31
0.0
  0
LWPOLYLINE
  5
119
330
1F
100
AcDbEntity
  8
0
  6
Continuous
 62
     7
370
    15
100
AcDbPolyline
 90
       28
 70
   128
 43
0.0
 10
120.2221895178
 20
199.3790352573
 10
120.3601423028
 20
199.5709926214
 10
120.7404566046
 20
200.1276690086
 10
121.101168971
 20
200.697739776
 10
121.4419983649
 20
201.2807607717
 10
121.7626792401
 20
201.8762777538
 10
122.0629617486
 20
202.4838267448
 10
122.3426119352
 20
203.1029343928
 10
122.6014119194
 20
203.7331183402
 10
122.8391600659
 20
204.3738875998
 10
123.0556711408
 20
205.0247429373
 10
123.2507764567
 20
205.6851772598
 10
123.4243240035
 20
206.3546760117
 10
123.5761785675
 20
207.0327175749
 10
123.7062218361
 20
207.7187736754
 10
123.8143524904
 20
208.412309795
 10
123.9004862838
 20
209.1127855878
 10
123.964556108
 20
209.8196553009
 10
124.0065120452
 20
210.5323681999
 10
124.0263214067
 20
211.2503689979
 10
124.0239687587
 20
211.9730982879
 10
123.9994559342
 20
212.6999929791
 10
123.9528020316
 20
213.4304867352
 10
123.8840433997
 20
214.1640104159
 10
123.7932336096
 20
214.8999925203
 10
123.6804434128
 20
215.6378596318
 10
123.545760686
 20
216.3770368655
 10
123.3892903629
 20
217.1169483155
  0
LWPOLYLINE
  5
11A
330
1F
100
AcDbEntity
  8
0
  6
Continuous
 62
     7
370
    15
100
AcDbPolyline
 90
      113
 70
   128
 43
0.0
 10
67.7920784449
 20
217.0125448301
 10
67.9820102914
 20
216.27263338
 10
68.1933859982
 20
215.5334561463
 10
68.4260408789
 20
214.7955890348
 10
68.679793668
 20
214.0596069305
 10
68.9544466625
 20
213.3260832497
 10
69.2497858753
 20
212.5955894936
 10
69.5655812026
 20
211.8686948024
 10
69.9015866028
 20
211.1459655124
 10
70.2575402881
 20
210.4279647145
 10
70.6331649291
 20
209.7152518154
 10
71.0281678699
 20
209.0083821023
 10
71.4422413571
 20
208.3079063096
 10
71.8750627786
 20
207.6143701899
 10
72.326294916
 20
206.9283140894
 10
72.7955862063
 20
206.2502725263
 10
73.2825710167
 20
205.5807737744
 10
73.7868699289
 20
204.9203394518
 10
74.3080900347
 20
204.2694841143
 10
74.8458252427
 20
203.6287148547
 10
75.399656594
 20
202.9985309073
 10
75.969152589
 20
202.3794232593
 10
76.5538695235
 20
201.7718742683
 10
77.1533518344
 20
201.1763572862
 10
77.7671324547
 20
200.5933362906
 10
78.3947331773
 20
200.0232655231
 10
79.0356650276
 20
199.4665891359
 10
79.6894286445
 20
198.9237408452
 10
80.3555146694
 20
198.3951435934
 10
81.0334041431
 20
197.8812092198
 10
81.7225689104
 20
197.3823381396
 10
82.4224720308
 20
196.8989190319
 10
83.1325681979
 20
196.4313285368
 10
83.8523041633
 20
195.9799309623
 10
84.5811191684
 20
195.545078
 10
85.3184453807
 20
195.1271084514
 10
86.0637083366
 20
194.7263479638
 10
86.8163273889
 20
194.3431087765
 10
87.575716159
 20
193.977689478
 10
88.341282994
 20
193.6303747727
 10
89.1124314274
 20
193.3014352595
 10
89.8885606443
 20
192.9911272209
 10
90.6690659488
 20
192.6996924232
 10
91.4533392359
 20
192.4273579283
 10
92.2407694645
 20
192.1743359169
 10
93.0307431342
 20
191.9408235226
 10
93.8226447628
 20
191.7270026791
 10
94.6158573661
 20
191.5330399778
 10
95.4097629382
 20
191.3590865385
 10
96.2037429338
 20
191.2052778913
 10
96.9971787492
 20
191.0717338711
 10
97.7894522048
 20
190.9585585245
 10
98.5799460267
 20
190.8658400284
 10
99.3680443275
 20
190.7936506212
 10
100.153133086
 20
190.742046547
 10
100.9346006262
 20
190.7110680115
 10
101.711838093
 20
190.7007391505
 10
102.4842399273
 20
190.7110680115
 10
103.2512043374
 20
190.742046547
 10
104.0121337682
 20
190.7936506212
 10
104.7664353663
 20
190.8658400284
 10
105.5135214423
 20
190.9585585245
 10
106.2528099284
 20
191.0717338711
 10
106.9837248323
 20
191.2052778913
 10
107.7056966854
 20
191.3590865385
 10
108.4181629871
 20
191.5330399778
 10
109.1205686424
 20
191.7270026791
 10
109.8123663949
 20
191.9408235226
 10
110.4930172531
 20
192.1743359169
 10
111.1619909101
 20
192.4273579283
 10
111.8187661568
 20
192.6996924232
 10
112.4628312885
 20
192.9911272209
 10
113.0936845027
 20
193.3014352595
 10
113.7108342907
 20
193.6303747727
 10
114.3137998206
 20
193.977689478
 10
114.9021113114
 20
194.3431087765
 10
115.4753103995
 20
194.7263479638
 10
116.0329504955
 20
195.1271084514
 10
116.5745971323
 20
195.545078
 10
117.0998283037
 20
195.9799309623
 10
117.608234793
 20
196.4313285368
 10
118.0994204919
 20
196.8989190319
 10
118.5730027091
 20
197.3823381396
 10
119.0286124686
 20
197.8812092198
 10
119.4658947967
 20
198.3951435934
 10
119.8845089994
 20
198.9237408452
 10
120.284128927
 20
199.4665891359
 10
120.6644432288
 20
200.0232655231
 10
121.0251555952
 20
200.5933362906
 10
121.365984989
 20
201.1763572862
 10
121.6866658643
 20
201.7718742683
 10
121.9869483728
 20
202.3794232593
 10
122.2665985593
 20
202.9985309073
 10
122.5253985436
 20
203.6287148547
 10
122.76314669
 20
204.2694841143
 10
122.979657765
 20
204.9203394518
 10
123.1747630808
 20
205.5807737744
 10
123.3483106277
 20
206.2502725263
 10
123.5001651917
 20
206.9283140894
 10
123.6302084603
 20
207.6143701899
 10
123.7383391145
 20
208.3079063096
 10
123.8244729079
 20
209.0083821023
 10
123.8885427321
 20
209.7152518154
 10
123.9304986693
 20
210.4279647145
 10
123.9503080308
 20
211.1459655124
 10
123.9479553828
 20
211.8686948024
 10
123.9234425584
 20
212.5955894936
 10
123.8767886557
 20
213.3260832497
 10
123.8080300239
 20
214.0596069305
 10
123.7172202338
 20
214.7955890348
 10
123.6044300369
 20
215.5334561463
 10
123.4697473101
 20
216.27263338
 10
123.3132769871
 20
217.0125448301
  0
LWPOLYLINE
  5
11B
330
1F
100
AcDbEntity
  8
0
  6
Continuous
 62
     7
370
    15
100
AcDbPolyline
 90
       27
 70
   128
 43
0.0
 10
123.3903784846
 20
217.4556047254
 10
123.5515822904
 20
218.1888963395
 10
123.6909938028
 20
218.9214603062
 10
123.808504404
 20
219.6527258721
 10
123.9040225393
 20
220.3821232956
 10
123.977473789
 20
221.1090842904
 10
124.0288009259
 20
221.8330424688
 10
124.0579639601
 20
222.5534337824
 10
124.0649401702
 20
223.2696969618
 10
124.049724121
 20
223.9812739539
 10
124.0123276675
 20
224.6876103568
 10
123.9527799459
 20
225.3881558517
 10
123.871127351
 20
226.0823646313
 10
123.7674334996
 20
226.7696958256
 10
123.6417791814
 20
227.4496139229
 10
123.494262296
 20
228.1215891874
 10
123.3249977761
 20
228.7850980713
 10
123.1341174989
 20
229.4396236235
 10
122.9217701823
 20
230.0846558918
 10
122.6881212699
 20
230.7196923204
 10
122.4333528015
 20
231.3442381413
 10
122.1576632718
 20
231.9578067602
 10
121.8612674752
 20
232.5599201351
 10
121.5443963387
 20
233.1501091489
 10
121.2072967422
 20
233.7279139754
 10
120.8502313259
 20
234.2928844366
 10
120.5235477347
 20
234.7736423122
  0
LWPOLYLINE
  5
11C
330
1F
100
AcDbEntity
  8
0
  6
Continuous
 62
     7
370
    15
100
AcDbPolyline
 90
      113
 70
   128
 43
0.0
 10
123.3150451848
 20
217.5628614961
 10
123.4762489906
 20
218.2961531102
 10
123.6156605031
 20
219.0287170769
 10
123.7331711042
 20
219.7599826428
 10
123.8286892395
 20
220.4893800662
 10
123.9021404892
 20
221.2163410611
 10
123.9534676261
 20
221.9402992395
 10
123.9826306603
 20
222.6606905531
 10
123.9896068705
 20
223.3769537324
 10
123.9743908212
 20
224.0885307246
 10
123.9369943677
 20
224.7948671275
 10
123.8774466462
 20
225.4954126224
 10
123.7957940512
 20
226.189621402
 10
123.6921001998
 20
226.8769525963
 10
123.5664458817
 20
227.5568706936
 10
123.4189289962
 20
228.228845958
 10
123.2496644764
 20
228.892354842
 10
123.0587841991
 20
229.5468803942
 10
122.8464368825
 20
230.1919126625
 10
122.6127879701
 20
230.826949091
 10
122.3580195018
 20
231.451494912
 10
122.082329972
 20
232.0650635309
 10
121.7859341754
 20
232.6671769057
 10
121.469063039
 20
233.2573659196
 10
121.1319634425
 20
233.8351707461
 10
120.7748980261
 20
234.4001412073
 10
120.3981449857
 20
234.9518371251
 10
120.0019978561
 20
235.4898286636
 10
119.5867652823
 20
236.0136966643
 10
119.1527707792
 20
236.5230329725
 10
118.7003524796
 20
237.0174407555
 10
118.2298628703
 20
237.4965348116
 10
117.7416685178
 20
237.9599418705
 10
117.236149783
 20
238.4073008835
 10
116.7137005242
 20
238.8382633056
 10
116.1747277906
 20
239.2524933664
 10
115.6196515052
 20
239.6496683322
 10
115.0489041376
 20
240.0294787571
 10
114.462930367
 20
240.3916287241
 10
113.8621867356
 20
240.735836076
 10
113.2471412933
 20
241.0618326349
 10
112.6182732325
 20
241.3693644112
 10
111.9760725153
 20
241.6581918016
 10
111.3210394913
 20
241.9280897756
 10
110.6536845082
 20
242.178848051
 10
109.9745275137
 20
242.4102712578
 10
109.2840976509
 20
242.6221790901
 10
108.5829328455
 20
242.8144064469
 10
107.8715793873
 20
242.9868035605
 10
107.1505915041
 20
243.1392361133
 10
106.4205309299
 20
243.2715853425
 10
105.6819664676
 20
243.3837481325
 10
104.9354735455
 20
243.4756370953
 10
104.1816337693
 20
243.5471806387
 10
103.4210344686
 20
243.5983230218
 10
102.6542682394
 20
243.6290243987
 10
101.8819324826
 20
243.6392608495
 10
101.1046289383
 20
243.6290243987
 10
100.3229632172
 20
243.5983230218
 10
99.5375443286
 20
243.5471806387
 10
98.748984206
 20
243.4756370953
 10
97.9578972301
 20
243.3837481325
 10
97.1648997507
 20
243.2715853425
 10
96.3706096056
 20
243.1392361133
 10
95.5756456401
 20
242.9868035605
 10
94.7806272245
 20
242.8144064469
 10
93.9861737713
 20
242.6221790901
 10
93.192904253
 20
242.4102712578
 10
92.4014367196
 20
242.178848051
 10
91.6123878171
 20
241.9280897756
 10
90.8263723072
 20
241.6581918016
 10
90.0440025883
 20
241.3693644112
 10
89.265888218
 20
241.0618326349
 10
88.4926354388
 20
240.735836076
 10
87.7248467054
 20
240.3916287241
 10
86.9631202151
 20
240.0294787571
 10
86.2080494423
 20
239.6496683322
 10
85.4602226758
 20
239.2524933664
 10
84.7202225602
 20
238.8382633056
 10
83.9886256426
 20
238.4073008835
 10
83.2660019227
 20
237.9599418705
 10
82.5529144091
 20
237.4965348116
 10
81.8499186808
 20
237.0174407555
 10
81.1575624538
 20
236.5230329725
 10
80.4763851549
 20
236.0136966643
 10
79.8069175012
 20
235.4898286636
 10
79.1496810863
 20
234.9518371251
 10
78.5051879747
 20
234.4001412073
 10
77.873940302
 20
233.8351707461
 10
77.2564298843
 20
233.2573659196
 10
76.6531378346
 20
232.6671769057
 10
76.0645341882
 20
232.0650635309
 10
75.4910775364
 20
231.451494912
 10
74.9332146692
 20
230.826949091
 10
74.3913802272
 20
230.1919126625
 10
73.865996363
 20
229.5468803942
 10
73.3574724123
 20
228.892354842
 10
72.8662045748
 20
228.228845958
 10
72.3925756059
 20
227.5568706936
 10
71.9369545182
 20
226.8769525963
 10
71.4996962938
 20
226.189621402
 10
71.0811416082
 20
225.4954126224
 10
70.6816165647
 20
224.7948671275
 10
70.3014324401
 20
224.0885307246
 10
69.9408854424
 20
223.3769537324
 10
69.6002564801
 20
222.6606905531
 10
69.2798109431
 20
221.9402992395
 10
68.979798496
 20
221.2163410611
 10
68.7004528837
 20
220.4893800662
 10
68.4419917493
 20
219.7599826428
 10
68.2046164643
 20
219.0287170769
 10
67.9885119718
 20
218.2961531102
 10
67.7938466427
 20
217.5628614961
  0
ARC
  5
11D
330
1F
100
AcDbEntity
  8
0
  6
Continuous
 62
     7
370
    15
100
AcDbCircle
 10
124.0909879639
 20
216.8455175714
 30
0.0
 40
2.539999999999992
100
AcDbArc
 50
270.0
 51
0.0
  0
ARC
  5
11E
330
1F
100
AcDbEntity
  8
0
  6
Continuous
 62
     7
370
    15
100
AcDbCircle
 10
124.0909879639
 20
216.8455175714
 30
0.0
 40
2.539999999999992
100
AcDbArc
 50
360.0
 51
90.0
  0
LINE
  5
11F
330
1F
100
AcDbEntity
  8
0
  6
Continuous
 62
     8
370
    15
100
AcDbLine
 10
67.7938466427
 20
217.5628614961
 30
0.0
 11
77.7999981185
 21
217.5628614961
 31
0.0
  0
LINE
  5
120
330
1F
100
AcDbEntity
  8
0
  6
Continuous
 62
     8
370
    15
100
AcDbLine
 10
79.9166647852
 20
217.5628614961
 30
0.0
 11
123.3150451848
 21
217.5628614961
 31
0.0
  0
LINE
  5
121
330
1F
100
AcDbEntity
  8
0
  6
Continuous
 62
     8
370
    15
100
AcDbLine
 10
67.7920784449
 20
217.0125448301
 30
0.0
 11
77.7999981185
 21
217.0125448301
 31
0.0
  0
LINE
  5
122
330
1F
100
AcDbEntity
  8
0
  6
Continuous
 62
     8
370
    15
100
AcDbLine
 10
79.9166647852
 20
217.0125448301
 30
0.0
 11
123.3132769871
 21
217.0125448301
 31
0.0
  0
INSERT
  5
12E
330
1F
100
AcDbEntity
  8
0
  6
Continuous
 62
     7
370
     0
100
AcDbBlockReference
  2
SW_CENTERMARKSYMBOL_1
 10
124.0909879639
 20
216.8455175714
 30
0.0
  0
LINE
  5
12F
330
1F
100
AcDbEntity
  8
0
  6
Continuous
 62
     7
370
    15
100
AcDbLine
 10
273.9801919522
 20
96.8684886072
 30
0.0
 11
274.0874487229
 21
97.034692268
 31
0.0
  0
LINE
  5
130
330
1F
100
AcDbEntity
  8
0
  6
Continuous
 62
     7
370
    15
100
AcDbLine
 10
222.4545151866
 20
97.454195738
 30
0.0
 11
222.5589186721
 21
97.2864916633
 31
0.0
  0
SPLINE
  5
131
330
1F
100
AcDbEntity
  8
0
  6
Continuous
 62
     7
370
    15
100
AcDbSpline
210
0.0
220
0.0
230
1.0
 70
    24
 71
     3
 72
    31
 73
    27
 74
     0
 42
0.000000001
 43
0.00000001
 40
0.0
 40
0.0
 40
0.0
 40
0.0
 40
0.0799370006771394
 40
0.150168541920457
 40
0.2045902920019323
 40
0.2471958099639173
 40
0.2915862121913905
 40
0.3307924065973769
 40
0.3697422044300714
 40
0.4004373134484036
 40
0.4096584791786841
 40
0.4183106545051656
 40
0.422746887971992
 40
0.4272595895511848
 40
0.4318436771738883
 40
0.4546963580753902
 40
0.4826984268064781
 40
0.5505345351089698
 40
0.6160068489066711
 40
0.6761549802431388
 40
0.7338905325890359
 40
0.7693413425434948
 40
0.8084152787216734
 40
0.8597583527099437
 40
0.9236196979443796
 40
1.0
 40
1.0
 40
1.0
 40
1.0
 10
248.4034128319241
 20
126.8814527970852
 30
0.0
 10
248.4034128319241
 20
126.830697369278
 30
0.0
 10
248.4034128319241
 20
126.7353489258315
 30
0.0
 10
248.4034128319241
 20
126.5991528760717
 30
0.0
 10
248.4034128319241
 20
126.4834279840771
 30
0.0
 10
248.4034128319241
 20
126.3812204393468
 30
0.0
 10
248.4034128319241
 20
126.2854673569148
 30
0.0
 10
248.4034128319241
 20
126.1861720532085
 30
0.0
 10
248.4034128319241
 20
126.0891701742018
 30
0.0
 10
248.4034128319241
 20
126.0080082804526
 30
0.0
 10
248.4034128319241
 20
125.9482383029937
 30
0.0
 10
248.4034128319241
 20
125.9173549590438
 30
0.0
 10
248.4034128319241
 20
125.8920991644604
 30
0.0
 10
248.4034128319241
 20
125.8736265714717
 30
0.0
 10
248.4034128319241
 20
125.8404974813427
 30
0.0
 10
248.4034128319241
 20
125.8051020596955
 30
0.0
 10
248.4034128319241
 20
125.7281705044987
 30
0.0
 10
248.4034128319241
 20
125.6309452654149
 30
0.0
 10
248.4034128319241
 20
125.5143849115601
 30
0.0
 10
248.4034128319241
 20
125.4051313799777
 30
0.0
 10
248.4034128319241
 20
125.3140120303522
 30
0.0
 10
248.4034128319241
 20
125.2355970701446
 30
0.0
 10
248.4034128319241
 20
125.1610824441058
 30
0.0
 10
248.4034128319241
 20
125.0698945339631
 30
0.0
 10
248.4034128319241
 20
124.9568310714677
 30
0.0
 10
248.4034128319241
 20
124.8741835334192
 30
0.0
 10
248.4034128319241
 20
124.829170913828
 30
0.0
  0
SPLINE
  5
132
330
1F
100
AcDbEntity
  8
0
  6
Continuous
 62
     7
370
    15
100
AcDbSpline
210
0.0
220
0.0
230
1.0
 70
    24
 71
     3
 72
    32
 73
    28
 74
     0
 42
0.000000001
 43
0.00000001
 40
0.0
 40
0.0
 40
0.0
 40
0.0
 40
0.0950353963766493
 40
0.1697931796708452
 40
0.2242753000534123
 40
0.2693555140747097
 40
0.3154861807507638
 40
0.3619564437914334
 40
0.4113522075149526
 40
0.464210866569684
 40
0.5172847377073335
 40
0.5424281746476891
 40
0.5634902489185156
 40
0.5681706020977434
 40
0.5727545381429352
 40
0.5772670905050671
 40
0.5817031772833318
 40
0.5903550665168453
 40
0.5995759273399203
 40
0.6302700213932988
 40
0.6692185313113669
 40
0.7084234293247166
 40
0.7528123637384554
 40
0.7954164729057187
 40
0.8498364234767518
 40
0.9200656424428287
 40
1.0
 40
1.0
 40
1.0
 40
1.0
 10
248.4542128319241
 20
124.829170913828
 30
0.0
 10
248.4542128319241
 20
124.8851811692984
 30
0.0
 10
248.4542128319241
 20
124.9852508247436
 30
0.0
 10
248.4542128319241
 20
125.1176865023688
 30
0.0
 10
248.4542128319241
 20
125.2208299718822
 30
0.0
 10
248.4542128319241
 20
125.3072095715911
 30
0.0
 10
248.4542128319241
 20
125.389000867578
 30
0.0
 10
248.4542128319241
 20
125.4736093778178
 30
0.0
 10
248.4542128319241
 20
125.562546900302
 30
0.0
 10
248.4542128319241
 20
125.656386002076
 30
0.0
 10
248.4542128319241
 20
125.7362513032191
 30
0.0
 10
248.4542128319241
 20
125.7997531413757
 30
0.0
 10
248.4542128319241
 20
125.8332290139933
 30
0.0
 10
248.4542128319241
 20
125.8592081800953
 30
0.0
 10
248.4542128319241
 20
125.8736610954994
 30
0.0
 10
248.4542128319241
 20
125.8920903472576
 30
0.0
 10
248.4542128319241
 20
125.9173598638262
 30
0.0
 10
248.4542128319241
 20
125.9482365941364
 30
0.0
 10
248.4542128319241
 20
126.0080100335377
 30
0.0
 10
248.4542128319241
 20
126.0891693138731
 30
0.0
 10
248.4542128319241
 20
126.1861723071956
 30
0.0
 10
248.4542128319241
 20
126.2854672785062
 30
0.0
 10
248.4542128319241
 20
126.381220460272
 30
0.0
 10
248.4542128319241
 20
126.4834279768956
 30
0.0
 10
248.4542128319241
 20
126.5991528788566
 30
0.0
 10
248.4542128319241
 20
126.7353489249908
 30
0.0
 10
248.4542128319241
 20
126.8306973690688
 30
0.0
 10
248.4542128319241
 20
126.8814527972353
 30
0.0
  0
LINE
  5
133
330
1F
100
AcDbEntity
  8
0
  6
Continuous
 62
     7
370
    15
100
AcDbLine
 10
248.4353673237
 20
126.9026760328
 30
0.0
 11
248.4353959443
 21
126.9022783547
 31
0.0
  0
LINE
  5
134
330
1F
100
AcDbEntity
  8
0
  6
Continuous
 62
     7
370
    15
100
AcDbLine
 10
248.4353652406
 20
126.9027049776
 30
0.0
 11
248.4353673237
 21
126.9026760328
 31
0.0
  0
SPLINE
  5
135
330
1F
100
AcDbEntity
  8
0
  6
Continuous
 62
     7
370
    15
100
AcDbSpline
210
0.0
220
0.0
230
1.0
 70
     8
 71
     3
 72
    31
 73
    27
 74
     0
 42
0.000000001
 43
0.00000001
 40
0.0
 40
0.0
 40
0.0
 40
0.0
 40
0.0092433436289394
 40
0.0170203173503896
 40
0.0233309202631374
 40
0.0281798372862607
 40
0.0324489725432919
 40
0.0367938577814064
 40
0.0473009896899965
 40
0.0578832405470422
 40
0.0956769935675987
 40
0.16316583812881
 40
0.283681631053654
 40
0.4988883960649454
 40
0.7727878869669079
 40
0.8933036740940375
 40
0.9463306221104818
 40
0.9509968401392542
 40
0.9555451653345026
 40
0.9598738192245353
 40
0.9639828017802379
 40
0.9683257896044534
 40
0.9741740484061773
 40
0.9816867418426296
 40
0.990864142003194
 40
1.0
 40
1.0
 40
1.0
 40
1.0
 10
248.4034128319241
 20
149.8118050629415
 30
0.0
 10
248.4034128319241
 20
149.7408486083759
 30
0.0
 10
248.4034128319241
 20
149.6101922762901
 30
0.0
 10
248.4034128319241
 20
149.4311025459989
 30
0.0
 10
248.4034128319241
 20
149.2857495475942
 30
0.0
 10
248.4034128319241
 20
149.1673255812697
 30
0.0
 10
248.4034128319241
 20
149.0639921029515
 30
0.0
 10
248.403412831924
 20
148.9172328905933
 30
0.0
 10
248.4034128319255
 20
148.722026802136
 30
0.0
 10
248.4034128319134
 20
148.2701291061184
 30
0.0
 10
248.4034128321448
 20
147.3810454918558
 30
0.0
 10
248.4034128299099
 20
145.6489336606681
 30
0.0
 10
248.4034128507074
 20
142.5578033376944
 30
0.0
 10
248.4034126862936
 20
137.8904645639342
 30
0.0
 10
248.4034133575421
 20
133.2345912410542
 30
0.0
 10
248.4034122164683
 20
129.8272831728474
 30
0.0
 10
248.4034134390065
 20
128.4721728417848
 30
0.0
 10
248.4034126670326
 20
127.9991444230063
 30
0.0
 10
248.403413452507
 20
127.8962133931074
 30
0.0
 10
248.4034106765806
 20
127.7975724517446
 30
0.0
 10
248.4034206194283
 20
127.7003294521617
 30
0.0
 10
248.4033772995125
 20
127.5922594472332
 30
0.0
 10
248.4038057847989
 20
127.4629089147683
 30
0.0
 10
248.4077048489964
 20
127.3002675925777
 30
0.0
 10
248.4199585783586
 20
127.1132198321666
 30
0.0
 10
248.4302374587762
 20
126.9727703963487
 30
0.0
 10
248.4353652405752
 20
126.9027049776048
 30
0.0
  0
SPLINE
  5
136
330
1F
100
AcDbEntity
  8
0
  6
Continuous
 62
     7
370
    15
100
AcDbSpline
210
0.0
220
0.0
230
1.0
 70
     8
 71
     3
 72
    31
 73
    27
 74
     0
 42
0.000000001
 43
0.00000001
 40
0.0
 40
0.0
 40
0.0
 40
0.0
 40
0.00574563056604
 40
0.0135438345809994
 40
0.019868598665939
 40
0.024726574132772
 40
0.029003442528082
 40
0.0333561981200289
 40
0.0438823636418994
 40
0.0544837856361032
 40
0.0923460069031589
 40
0.1599571157198339
 40
0.2806912359701362
 40
0.4962878709812355
 40
0.7706835934547245
 40
0.8914177189743234
 40
0.944540734594092
 40
0.9492154063650811
 40
0.9537719746222879
 40
0.9581084735268096
 40
0.9622249031358243
 40
0.9665756930511792
 40
0.972433532853025
 40
0.9799568646199872
 40
0.9891456874059296
 40
1.0
 40
1.0
 40
1.0
 40
1.0
 10
248.427365340886
 20
126.9025820515121
 30
0.0
 10
248.4318826693359
 20
126.9457305526624
 30
0.0
 10
248.4425311000992
 20
127.0474419584484
 30
0.0
 10
248.4526886098832
 20
127.2094721992023
 30
0.0
 10
248.4542841361878
 20
127.3616371705203
 30
0.0
 10
248.4541981901542
 20
127.4810380542393
 30
0.0
 10
248.4542165128149
 20
127.5828530112396
 30
0.0
 10
248.4542102018542
 20
127.728286461291
 30
0.0
 10
248.4542137374789
 20
127.9214606153664
 30
0.0
 10
248.4542118543582
 20
128.36901996339
 30
0.0
 10
248.4542135207808
 20
129.2499289504544
 30
0.0
 10
248.4542124116564
 20
130.9683089793398
 30
0.0
 10
248.4542130906425
 20
134.0413746984988
 30
0.0
 10
248.4542127184478
 20
138.6984063730228
 30
0.0
 10
248.4542128461161
 20
143.3669718346435
 30
0.0
 10
248.4542128308722
 20
146.7984980923075
 30
0.0
 10
248.4542128319367
 20
148.1659385408661
 30
0.0
 10
248.4542128319235
 20
148.6436087304301
 30
0.0
 10
248.4542128319243
 20
148.7475481943432
 30
0.0
 10
248.4542128319241
 20
148.8472134897268
 30
0.0
 10
248.4542128319241
 20
148.9453045514971
 30
0.0
 10
248.4542128319241
 20
149.0550532993328
 30
0.0
 10
248.4542128319241
 20
149.1909070270944
 30
0.0
 10
248.4542128319241
 20
149.3638336229024
 30
0.0
 10
248.4542128319241
 20
149.5750504956591
 30
0.0
 10
248.4542128319241
 20
149.7286328836886
 30
0.0
 10
248.4542128319241
 20
149.8118050629415
 30
0.0
  0
SPLINE
  5
137
330
1F
100
AcDbEntity
  8
0
  6
Continuous
 62
     7
370
    15
100
AcDbSpline
210
0.0
220
0.0
230
1.0
 70
     8
 71
     3
 72
    36
 73
    32
 74
     0
 42
0.000000001
 43
0.00000001
 40
0.0
 40
0.0
 40
0.0
 40
0.0
 40
0.0167843026065301
 40
0.0323520829334535
 40
0.0467033434307264
 40
0.0598380862378232
 40
0.0717563132127702
 40
0.0824580259587244
 40
0.0914339857713878
 40
0.0993284914626757
 40
0.1063617621637622
 40
0.1133697760829361
 40
0.1204336562059692
 40
0.1526502391046303
 40
0.1855809354663773
 40
0.3032371668687181
 40
0.5133375803182978
 40
0.7520879601264963
 40
0.7918795532923656
 40
0.8316714071211481
 40
0.8716500806817762
 40
0.8919458015044331
 40
0.9125138998530806
 40
0.9337956035255239
 40
0.9502941133503255
 40
0.9672130930460804
 40
0.9838213214511093
 40
0.991922985963043
 40
0.9946063203061418
 40
0.9972886076549178
 40
0.9999999999999999
 40
0.9999999999999999
 40
0.9999999999999999
 40
0.9999999999999999
 10
248.4034128319241
 20
124.829170913828
 30
0.0
 10
248.4034128319241
 20
124.6934074292107
 30
0.0
 10
248.4034128319241
 20
124.4317205652019
 30
0.0
 10
248.4034128319241
 20
124.0539504156312
 30
0.0
 10
248.4034128319241
 20
123.7057005235039
 30
0.0
 10
248.4034128319241
 20
123.3869708341385
 30
0.0
 10
248.4034128319241
 20
123.0977613002807
 30
0.0
 10
248.4034128319241
 20
122.8421909818653
 30
0.0
 10
248.4034128319241
 20
122.6191674038276
 30
0.0
 10
248.4034128319241
 20
122.4258168141714
 30
0.0
 10
248.403412831924
 20
122.2483843797009
 30
0.0
 10
248.4034128319245
 20
122.0776706368216
 30
0.0
 10
248.4034128319206
 20
121.7032561512946
 30
0.0
 10
248.4034128319939
 20
121.1191603154693
 30
0.0
 10
248.4034128313865
 20
119.6405136101641
 30
0.0
 10
248.4034128430133
 20
116.7230123867598
 30
0.0
 10
248.4034127525049
 20
112.1406798394409
 30
0.0
 10
248.4034130463008
 20
108.1881546212105
 30
0.0
 10
248.4034127181428
 20
105.6132004029435
 30
0.0
 10
248.4034132786511
 20
104.6460829274624
 30
0.0
 10
248.4034115000974
 20
103.8366417017164
 30
0.0
 10
248.4034151901328
 20
103.1827421791721
 30
0.0
 10
248.403403564815
 20
102.679962867871
 30
0.0
 10
248.4034453699302
 20
102.2083331449852
 30
0.0
 10
248.4033204588125
 20
101.7648862988378
 30
0.0
 10
248.4037676367411
 20
101.3636573314109
 30
0.0
 10
248.402440143058
 20
101.0136508344508
 30
0.0
 10
248.415849246538
 20
100.7834672574167
 30
0.0
 10
248.4255397664648
 20
100.6893936358019
 30
0.0
 10
248.4313889981446
 20
100.6393700460414
 30
0.0
 10
248.4358966925608
 20
100.6271329806386
 30
0.0
 10
248.4381627018212
 20
100.6209814315399
 30
0.0
  0
LINE
  5
138
330
1F
100
AcDbEntity
  8
0
  6
Continuous
 62
     7
370
    15
100
AcDbLine
 10
248.4034128319
 20
127.6788785977
 30
0.0
 11
248.4034128319
 21
126.9047867971
 31
0.0
  0
SPLINE
  5
139
330
1F
100
AcDbEntity
  8
0
  6
Continuous
 62
     7
370
    15
100
AcDbSpline
210
0.0
220
0.0
230
1.0
 70
    24
 71
     3
 72
    11
 73
     7
 74
     0
 42
0.000000001
 43
0.00000001
 40
0.0
 40
0.0
 40
0.0
 40
0.0
 40
0.0667987407720956
 40
0.3502484690140723
 40
0.686817545714275
 40
0.9999999999999999
 40
0.9999999999999999
 40
0.9999999999999999
 40
0.9999999999999999
 10
248.4034128319241
 20
100.7428507100251
 30
0.0
 10
248.4034128319241
 20
100.7382883311122
 30
0.0
 10
248.4034128319241
 20
100.7143662300242
 30
0.0
 10
248.4034128319241
 20
100.6766400098035
 30
0.0
 10
248.4034128319241
 20
100.6468245611418
 30
0.0
 10
248.4034128319241
 20
100.6462374388014
 30
0.0
 10
248.4034128319241
 20
100.6459544438306
 30
0.0
  0
SPLINE
  5
13A
330
1F
100
AcDbEntity
  8
0
  6
Continuous
 62
     7
370
    15
100
AcDbSpline
210
0.0
220
0.0
230
1.0
 70
     8
 71
     3
 72
    35
 73
    31
 74
     0
 42
0.000000001
 43
0.00000001
 40
0.0
 40
0.0
 40
0.0
 40
0.0
 40
0.0027297161185914
 40
0.0067088717529956
 40
0.0107319487631641
 40
0.0236212211540072
 40
0.0354100163030104
 40
0.0471183825558325
 40
0.0674725603590208
 40
0.0871197930478333
 40
0.1210850396751943
 40
0.1544312764212146
 40
0.2727134283220539
 40
0.4839315215847224
 40
0.7527545884237826
 40
0.7823251256948877
 40
0.8118956630732602
 40
0.8414662003973955
 40
0.8705910042172249
 40
0.8789650165631393
 40
0.8872622496042426
 40
0.8954827033375924
 40
0.9040800988860439
 40
0.914119490896679
 40
0.9256451723410098
 40
0.9378735648007296
 40
0.9514232415732851
 40
0.9662942047151397
 40
0.9824864566092134
 40
1.0
 40
1.0
 40
1.0
 40
1.0
 10
248.4316089747895
 20
100.7364203560934
 30
0.0
 10
248.4336302218749
 20
100.7534171145561
 30
0.0
 10
248.4385978767106
 20
100.7951903494965
 30
0.0
 10
248.4449998981388
 20
100.8739212863919
 30
0.0
 10
248.4533189651513
 20
101.0295010132486
 30
0.0
 10
248.4543295587341
 20
101.2537590597664
 30
0.0
 10
248.4541835074233
 20
101.544959208432
 30
0.0
 10
248.4542273015633
 20
101.8983150526487
 30
0.0
 10
248.4542083728164
 20
102.314168104473
 30
0.0
 10
248.4542149907292
 20
102.9093691807889
 30
0.0
 10
248.4542121700569
 20
103.6090200947133
 30
0.0
 10
248.4542135346692
 20
105.1023417990295
 30
0.0
 10
248.454212331544
 20
108.0218035184362
 30
0.0
 10
248.4542130563172
 20
112.8359145807881
 30
0.0
 10
248.4542128258097
 20
116.9362152753702
 30
0.0
 10
248.4542128322949
 20
119.5749895268761
 30
0.0
 10
248.4542128318245
 20
120.2887560915011
 30
0.0
 10
248.4542128319513
 20
120.9989361496078
 30
0.0
 10
248.4542128319223
 20
121.538570586212
 30
0.0
 10
248.4542128319243
 20
121.9070417507833
 30
0.0
 10
248.454212831924
 20
122.1073182626861
 30
0.0
 10
248.4542128319241
 20
122.3093920897217
 30
0.0
 10
248.4542128319241
 20
122.5254831732853
 30
0.0
 10
248.4542128319241
 20
122.7681678306473
 30
0.0
 10
248.4542128319241
 20
123.0400671714964
 30
0.0
 10
248.4542128319241
 20
123.3402099556986
 30
0.0
 10
248.4542128319241
 20
123.6672685832479
 30
0.0
 10
248.4542128319241
 20
124.0262200795979
 30
0.0
 10
248.4542128319241
 20
124.4170645052274
 30
0.0
 10
248.4542128319241
 20
124.6882584449195
 30
0.0
 10
248.4542128319241
 20
124.829170913828
 30
0.0
  0
SPLINE
  5
13B
330
1F
100
AcDbEntity
  8
0
  6
Continuous
 62
     7
370
    15
100
AcDbSpline
210
0.0
220
0.0
230
1.0
 70
    24
 71
     3
 72
    11
 73
     7
 74
     0
 42
0.000000001
 43
0.00000001
 40
0.0
 40
0.0
 40
0.0
 40
0.0
 40
0.2939768001536658
 40
0.5991746344196865
 40
0.8392785837784651
 40
1.0
 40
1.0
 40
1.0
 40
1.0
 10
248.4542128319241
 20
100.645798860778
 30
0.0
 10
248.4542128319241
 20
100.6460350725039
 30
0.0
 10
248.4542128319241
 20
100.6465165121089
 30
0.0
 10
248.4542128319241
 20
100.6702423869658
 30
0.0
 10
248.4542128319241
 20
100.7056690091367
 30
0.0
 10
248.4542128319241
 20
100.7315346513909
 30
0.0
 10
248.4542128319241
 20
100.7419061573174
 30
0.0
  0
LINE
  5
13C
330
1F
100
AcDbEntity
  8
0
  6
Continuous
 62
     7
370
    15
100
AcDbLine
 10
248.4542128319
 20
126.9031539518
 30
0.0
 11
248.4542128319
 21
127.4850750327
 31
0.0
  0
SPLINE
  5
13D
330
1F
100
AcDbEntity
  8
0
  6
Continuous
 62
     7
370
    15
100
AcDbSpline
210
0.0
220
0.0
230
1.0
 70
     8
 71
     3
 72
    19
 73
    15
 74
     0
 42
0.000000001
 43
0.00000001
 40
0.0
 40
0.0
 40
0.0
 40
0.0
 40
0.1197285470965413
 40
0.1841804967285445
 40
0.2500001817413929
 40
0.3158198364903057
 40
0.3802717027020032
 40
0.5000000000000875
 40
0.619728297298225
 40
0.6841801635097737
 40
0.7499998182586651
 40
0.8158195032716241
 40
0.8802714529036691
 40
1.0
 40
1.0
 40
1.0
 40
1.0
 10
248.4034128319241
 20
100.6445761246603
 30
0.0
 10
248.4037521247127
 20
100.6413840797673
 30
0.0
 10
248.4042740646831
 20
100.636473701848
 30
0.0
 10
248.4074413835158
 20
100.6305639130414
 30
0.0
 10
248.4107195521844
 20
100.6265040513851
 30
0.0
 10
248.4147888029625
 20
100.6232078232347
 30
0.0
 10
248.4207023309291
 20
100.6201424772096
 30
0.0
 10
248.4288128319241
 20
100.6185866691543
 30
0.0
 10
248.4369233329191
 20
100.6201424772096
 30
0.0
 10
248.4428368608858
 20
100.6232078232346
 30
0.0
 10
248.4469061116639
 20
100.626504051385
 30
0.0
 10
248.4501842803325
 20
100.6305639130413
 30
0.0
 10
248.4533515991651
 20
100.6364737018479
 30
0.0
 10
248.4538735391356
 20
100.6413840797671
 30
0.0
 10
248.4542128319241
 20
100.6445761246601
 30
0.0
  0
SPLINE
  5
13E
330
1F
100
AcDbEntity
  8
0
  6
Continuous
 62
     7
370
    15
100
AcDbSpline
210
0.0
220
0.0
230
1.0
 70
     8
 71
     3
 72
    19
 73
    15
 74
     0
 42
0.000000001
 43
0.00000001
 40
0.0
 40
0.0
 40
0.0
 40
0.0
 40
0.1197285470964149
 40
0.1841804967283721
 40
0.2500001817412432
 40
0.3158198364901784
 40
0.3802717027018478
 40
0.4999999999999482
 40
0.6197282972980599
 40
0.6841801635097285
 40
0.7499998182586057
 40
0.8158195032714807
 40
0.8802714529035967
 40
0.9999999999999999
 40
0.9999999999999999
 40
0.9999999999999999
 40
0.9999999999999999
 10
248.4034128319241
 20
100.6445761246603
 30
0.0
 10
248.4037521247127
 20
100.6413840797673
 30
0.0
 10
248.4042740646831
 20
100.636473701848
 30
0.0
 10
248.4074413835158
 20
100.6305639130414
 30
0.0
 10
248.4107195521844
 20
100.6265040513851
 30
0.0
 10
248.4147888029625
 20
100.6232078232347
 30
0.0
 10
248.4207023309291
 20
100.6201424772097
 30
0.0
 10
248.4288128319241
 20
100.6185866691544
 30
0.0
 10
248.4369233329192
 20
100.6201424772097
 30
0.0
 10
248.4428368608857
 20
100.6232078232347
 30
0.0
 10
248.4469061116639
 20
100.6265040513851
 30
0.0
 10
248.4501842803325
 20
100.6305639130414
 30
0.0
 10
248.4533515991651
 20
100.636473701848
 30
0.0
 10
248.4538735391356
 20
100.6413840797673
 30
0.0
 10
248.4542128319241
 20
100.6445761246603
 30
0.0
  0
LINE
  5
13F
330
1F
100
AcDbEntity
  8
0
  6
Continuous
 62
     7
370
    15
100
AcDbLine
 10
248.7505461653
 20
150.0734956138
 30
0.0
 11
248.1070794986
 21
150.0734956138
 31
0.0
  0
LINE
  5
140
330
1F
100
AcDbEntity
  8
0
  6
Continuous
 62
     7
370
    15
100
AcDbLine
 10
248.1070794986
 20
147.9568289472
 30
0.0
 11
248.4034128319
 21
147.9568289472
 31
0.0
  0
LINE
  5
141
330
1F
100
AcDbEntity
  8
0
  6
Continuous
 62
     7
370
    15
100
AcDbLine
 10
248.4542128319
 20
147.9568289472
 30
0.0
 11
248.7505461653
 21
147.9568289472
 31
0.0
  0
LINE
  5
142
330
1F
100
AcDbEntity
  8
0
  6
Continuous
 62
     7
370
    15
100
AcDbLine
 10
250.5005175714
 20
60.7465043862
 30
0.0
 11
250.5005175714
 21
65.4094019377
 31
0.0
  0
LINE
  5
143
330
1F
100
AcDbEntity
  8
0
  6
Continuous
 62
     7
370
    15
100
AcDbLine
 10
245.4205175714
 20
65.4094019377
 30
0.0
 11
245.4205175714
 21
60.7465043862
 31
0.0
  0
LINE
  5
144
330
1F
100
AcDbEntity
  8
0
  6
Continuous
 62
     7
370
    15
100
AcDbLine
 10
250.5005175714
 20
65.4094019377
 30
0.0
 11
250.5005175714
 21
69.6045940285
 31
0.0
  0
LINE
  5
145
330
1F
100
AcDbEntity
  8
0
  6
Continuous
 62
     7
370
    15
100
AcDbLine
 10
245.4205175714
 20
69.6045940285
 30
0.0
 11
245.4205175714
 21
65.4094019377
 31
0.0
  0
LWPOLYLINE
  5
146
330
1F
100
AcDbEntity
  8
0
  6
Continuous
 62
     7
370
    15
100
AcDbPolyline
 90
      113
 70
   128
 43
0.0
 10
248.5706047254
 20
125.8709520121
 10
249.3038963395
 20
125.4708015248
 10
250.0364603062
 20
125.0612430603
 10
250.7677258721
 20
124.6425957127
 10
251.4971232956
 20
124.2151856575
 10
252.2240842904
 20
123.7793458971
 10
252.9480424688
 20
123.3354160019
 10
253.6684337824
 20
122.8837418454
 10
254.3846969618
 20
122.4246753346
 10
255.0962739539
 20
121.9585741364
 10
255.8026103568
 20
121.4858013982
 10
256.5031558517
 20
121.0067254654
 10
257.1973646313
 20
120.5217195943
 10
257.8846958256
 20
120.0311616615
 10
258.5646139229
 20
119.5354338692
 10
259.2365891874
 20
119.0349224473
 10
259.9000980713
 20
118.5300173532
 10
260.5546236235
 20
118.0211119669
 10
261.1996558918
 20
117.5086027857
 10
261.8346923204
 20
116.9928891141
 10
262.4592381413
 20
116.4743727538
 10
263.0728067602
 20
115.9534576896
 10
263.6749201351
 20
115.4305497757
 10
264.2651091489
 20
114.9060564186
 10
264.8429139754
 20
114.3803862602
 10
265.4078844366
 20
113.8539488591
 10
265.9595803544
 20
113.3271543719
 10
266.4975718929
 20
112.8004132334
 10
267.0214398936
 20
112.2741358365
 10
267.5307762018
 20
111.7487322132
 10
268.0251839848
 20
111.2246117145
 10
268.504278041
 20
110.7021826919
 10
268.9676850998
 20
110.1818521786
 10
269.4150441128
 20
109.6640255734
 10
269.8460065349
 20
109.1491063239
 10
270.2602365958
 20
108.6374956125
 10
270.6574115616
 20
108.129592044
 10
271.0372219864
 20
107.6257913349
 10
271.3993719535
 20
107.1264860051
 10
271.7435793054
 20
106.6320650719
 10
272.0695758643
 20
106.1429137474
 10
272.3771076405
 20
105.6594131377
 10
272.6659350309
 20
105.1819399465
 10
272.9358330049
 20
104.7108661816
 10
273.1865912803
 20
104.2465588645
 10
273.4180144871
 20
103.7893797452
 10
273.6299223195
 20
103.3396850199
 10
273.8221496763
 20
102.8978250535
 10
273.9945467898
 20
102.4641441067
 10
274.1469793427
 20
102.0389800679
 10
274.2793285718
 20
101.6226641897
 10
274.3914913618
 20
101.2155208311
 10
274.4833803247
 20
100.8178672045
 10
274.554923868
 20
100.4300131287
 10
274.6060662511
 20
100.0522607875
 10
274.6367676281
 20
99.6849044944
 10
274.6470040788
 20
99.328230463
 10
274.6367676281
 20
98.9825165841
 10
274.6060662511
 20
98.6480322096
 10
274.554923868
 20
98.3250379418
 10
274.4833803247
 20
98.0137854314
 10
274.3914913618
 20
97.7145171804
 10
274.2793285718
 20
97.427466354
 10
274.1469793427
 20
97.1528565984
 10
273.9945467898
 20
96.8909018668
 10
273.8221496763
 20
96.6418062528
 10
273.6299223195
 20
96.4057638309
 10
273.4180144871
 20
96.1829585061
 10
273.1865912803
 20
95.9735638696
 10
272.9358330049
 20
95.7777430646
 10
272.6659350309
 20
95.5956486584
 10
272.3771076405
 20
95.4274225239
 10
272.0695758643
 20
95.2731957291
 10
271.7435793054
 20
95.1330884346
 10
271.3993719535
 20
95.0072098004
 10
271.0372219864
 20
94.8956579009
 10
270.6574115616
 20
94.7985196481
 10
270.2602365958
 20
94.7158707239
 10
269.8460065349
 20
94.6477755217
 10
269.4150441128
 20
94.5942870956
 10
268.9676850998
 20
94.5554471193
 10
268.504278041
 20
94.5312858538
 10
268.0251839848
 20
94.5218221235
 10
267.5307762018
 20
94.5270633017
 10
267.0214398936
 20
94.547005305
 10
266.4975718929
 20
94.5816325962
 10
265.9595803544
 20
94.6309181966
 10
265.4078844366
 20
94.6948237069
 10
264.8429139754
 20
94.7732993372
 10
264.2651091489
 20
94.8662839459
 10
263.6749201351
 20
94.9737050869
 10
263.0728067602
 20
95.0954790667
 10
262.4592381413
 20
95.2315110089
 10
261.8346923204
 20
95.3816949289
 10
261.1996558918
 20
95.5459138155
 10
260.5546236235
 20
95.7240397232
 10
259.9000980713
 20
95.9159338709
 10
259.2365891874
 20
96.1214467505
 10
258.5646139229
 20
96.3404182435
 10
257.8846958256
 20
96.5726777453
 10
257.1973646313
 20
96.8180442985
 10
256.5031558517
 20
97.0763267338
 10
255.8026103568
 20
97.3473238189
 10
255.0962739539
 20
97.6308244153
 10
254.3846969618
 20
97.9266076427
 10
253.6684337824
 20
98.2344430514
 10
252.9480424688
 20
98.5540908013
 10
252.2240842904
 20
98.8853018494
 10
251.4971232956
 20
99.2278181435
 10
250.7677258721
 20
99.5813728232
 10
250.0364603062
 20
99.9456904279
 10
249.3038963395
 20
100.3204871114
 10
248.5706047254
 20
100.7054708632
  0
LINE
  5
147
330
1F
100
AcDbEntity
  8
0
  6
Continuous
 62
     7
370
    15
100
AcDbLine
 10
248.5706047254
 20
125.8709520121
 30
0.0
 11
248.5706047254
 21
100.7054708632
 31
0.0
  0
LINE
  5
148
330
1F
100
AcDbEntity
  8
0
  6
Continuous
 62
     7
370
    15
100
AcDbLine
 10
248.6778614961
 20
126.0371556729
 30
0.0
 11
248.5706047254
 21
125.8709520121
 31
0.0
  0
LWPOLYLINE
  5
149
330
1F
100
AcDbEntity
  8
0
  6
Continuous
 62
     7
370
    15
100
AcDbPolyline
 90
       66
 70
   128
 43
0.0
 10
248.6778614961
 20
126.0371556729
 10
249.4111531102
 20
125.6370051856
 10
250.1437170769
 20
125.2274467211
 10
250.8749826428
 20
124.8087993736
 10
251.6043800662
 20
124.3813893183
 10
252.3313410611
 20
123.9455495579
 10
253.0552992395
 20
123.5016196627
 10
253.7756905531
 20
123.0499455062
 10
254.4919537324
 20
122.5908789955
 10
255.2035307246
 20
122.1247777972
 10
255.9098671275
 20
121.652005059
 10
256.6104126224
 20
121.1729291262
 10
257.304621402
 20
120.6879232551
 10
257.9919525963
 20
120.1973653223
 10
258.6718706936
 20
119.70163753
 10
259.343845958
 20
119.2011261082
 10
260.007354842
 20
118.696221014
 10
260.6618803942
 20
118.1873156278
 10
261.3069126625
 20
117.6748064465
 10
261.941949091
 20
117.1590927749
 10
262.566494912
 20
116.6405764146
 10
263.1800635309
 20
116.1196613505
 10
263.7821769057
 20
115.5967534365
 10
264.3723659196
 20
115.0722600794
 10
264.9501707461
 20
114.546589921
 10
265.5151412073
 20
114.0201525199
 10
266.0668371251
 20
113.4933580328
 10
266.6048286636
 20
112.9666168942
 10
267.1286966643
 20
112.4403394973
 10
267.6380329725
 20
111.914935874
 10
268.1324407555
 20
111.3908153754
 10
268.6115348116
 20
110.8683863527
 10
269.0749418705
 20
110.3480558395
 10
269.5223008835
 20
109.8302292342
 10
269.9532633056
 20
109.3153099847
 10
270.3674933664
 20
108.8036992733
 10
270.7646683322
 20
108.2957957048
 10
271.1444787571
 20
107.7919949957
 10
271.5066287241
 20
107.2926896659
 10
271.850836076
 20
106.7982687328
 10
272.1768326349
 20
106.3091174082
 10
272.4843644112
 20
105.8256167985
 10
272.7731918016
 20
105.3481436074
 10
273.0430897756
 20
104.8770698424
 10
273.293848051
 20
104.4127625253
 10
273.5252712578
 20
103.9555834061
 10
273.7371790901
 20
103.5058886807
 10
273.9294064469
 20
103.0640287143
 10
274.1018035605
 20
102.6303477675
 10
274.2542361133
 20
102.2051837287
 10
274.3865853425
 20
101.7888678505
 10
274.4987481325
 20
101.3817244919
 10
274.5906370953
 20
100.9840708653
 10
274.6621806387
 20
100.5962167895
 10
274.7133230218
 20
100.2184644483
 10
274.7440243987
 20
99.8511081552
 10
274.7542608495
 20
99.4944341238
 10
274.7440243987
 20
99.148720245
 10
274.7133230218
 20
98.8142358704
 10
274.6621806387
 20
98.4912416027
 10
274.5906370953
 20
98.1799890922
 10
274.4987481325
 20
97.8807208412
 10
274.3865853425
 20
97.5936700148
 10
274.2542361133
 20
97.3190602592
 10
274.1018035605
 20
97.0571055276
 10
274.0874487229
 20
97.034692268
  0
LINE
  5
14A
330
1F
100
AcDbEntity
  8
0
  6
Continuous
 62
     7
370
    15
100
AcDbLine
 10
248.2319483155
 20
125.8733526744
 30
0.0
 11
248.2319483155
 21
100.7078715255
 31
0.0
  0
LWPOLYLINE
  5
14B
330
1F
100
AcDbEntity
  8
0
  6
Continuous
 62
     7
370
    15
100
AcDbPolyline
 90
      113
 70
   128
 43
0.0
 10
248.2319483155
 20
100.7078715255
 10
247.4920368655
 20
100.3333309928
 10
246.7528596318
 20
99.9689671655
 10
246.0149925203
 20
99.6150639257
 10
245.2790104159
 20
99.2718970058
 10
244.5454867352
 20
98.9397337728
 10
243.8149929791
 20
98.618833021
 10
243.0880982879
 20
98.3094447696
 10
242.3653689979
 20
98.0118100685
 10
241.6473681999
 20
97.72616081
 10
240.9346553009
 20
97.4527195483
 10
240.2277855878
 20
97.1916993263
 10
239.527309795
 20
96.9433035094
 10
238.8337736754
 20
96.707725627
 10
238.1477175749
 20
96.4851492219
 10
237.4696760117
 20
96.2757477073
 10
236.8001772598
 20
96.0796842315
 10
236.1397429373
 20
95.897111551
 10
235.4888875998
 20
95.7281719113
 10
234.8481183402
 20
95.5729969362
 10
234.2179343928
 20
95.4317075253
 10
233.5988267448
 20
95.3044137594
 10
232.9912777538
 20
95.1912148155
 10
232.3957607717
 20
95.0921988887
 10
231.812739776
 20
95.0074431242
 10
231.2426690086
 20
94.9370135565
 10
230.6859926214
 20
94.8809650586
 10
230.1431443307
 20
94.8393412989
 10
229.6145470788
 20
94.812174707
 10
229.1006127053
 20
94.7994864491
 10
228.6017416251
 20
94.8012864107
 10
228.1183225173
 20
94.8175731894
 10
227.6507320223
 20
94.848334096
 10
227.1993344478
 20
94.893545164
 10
226.7644814855
 20
94.9531711688
 10
226.3465119369
 20
95.0271656547
 10
225.9457514492
 20
95.1154709713
 10
225.562512262
 20
95.2180183184
 10
225.1970929635
 20
95.3347277997
 10
224.8497782582
 20
95.4655084846
 10
224.520838745
 20
95.6102584798
 10
224.2105307063
 20
95.768865008
 10
223.9190959087
 20
95.9412044961
 10
223.6467614138
 20
96.1271426714
 10
223.3937394023
 20
96.3265346663
 10
223.1602270081
 20
96.539225131
 10
222.9464061645
 20
96.7650483547
 10
222.7524434633
 20
97.0038283947
 10
222.5784900239
 20
97.2553792131
 10
222.4246813767
 20
97.5195048226
 10
222.2911373566
 20
97.7959994381
 10
222.17796201
 20
98.084647638
 10
222.0852435138
 20
98.3852245315
 10
222.0130541066
 20
98.6974959339
 10
221.9614500325
 20
99.0212185491
 10
221.9304714969
 20
99.3561401593
 10
221.920142636
 20
99.7019998212
 10
221.9304714969
 20
100.0585280695
 10
221.9614500325
 20
100.4254471271
 10
222.0130541066
 20
100.8024711207
 10
222.0852435138
 20
101.1893063046
 10
222.17796201
 20
101.5856512887
 10
222.2911373566
 20
101.9911972738
 10
222.4246813767
 20
102.4056282921
 10
222.5784900239
 20
102.828621453
 10
222.7524434633
 20
103.2598471954
 10
222.9464061645
 20
103.6989695437
 10
223.1602270081
 20
104.1456463702
 10
223.3937394023
 20
104.5995296612
 10
223.6467614138
 20
105.0602657884
 10
223.9190959087
 20
105.5274957842
 10
224.2105307063
 20
106.0008556217
 10
224.520838745
 20
106.4799764981
 10
224.8497782582
 20
106.964485122
 10
225.1970929635
 20
107.4540040043
 10
225.562512262
 20
107.9481517524
 10
225.9457514492
 20
108.4465433672
 10
226.3465119369
 20
108.9487905432
 10
226.7644814855
 20
109.4545019709
 10
227.1993344478
 20
109.9632836418
 10
227.6507320223
 20
110.4747391553
 10
228.1183225173
 20
110.9884700274
 10
228.6017416251
 20
111.5040760017
 10
229.1006127053
 20
112.0211553606
 10
229.6145470788
 20
112.5393052385
 10
230.1431443307
 20
113.058121936
 10
230.6859926214
 20
113.577201234
 10
231.2426690086
 20
114.0961387087
 10
231.812739776
 20
114.6145300471
 10
232.3957607717
 20
115.1319713615
 10
232.9912777538
 20
115.6480595043
 10
233.5988267448
 20
116.1623923824
 10
234.2179343928
 20
116.6745692701
 10
234.8481183402
 20
117.1841911215
 10
235.4888875998
 20
117.6908608815
 10
236.1397429373
 20
118.1941837948
 10
236.8001772598
 20
118.6937677138
 10
237.4696760117
 20
119.1892234041
 10
238.1477175749
 20
119.6801648476
 10
238.8337736754
 20
120.1662095432
 10
239.527309795
 20
120.6469788052
 10
240.2277855878
 20
121.1220980578
 10
240.9346553009
 20
121.5911971275
 10
241.6473681999
 20
122.0539105311
 10
242.3653689979
 20
122.5098777604
 10
243.0880982879
 20
122.9587435636
 10
243.8149929791
 20
123.4001582216
 10
244.5454867352
 20
123.8337778204
 10
245.2790104159
 20
124.2592645197
 10
246.0149925203
 20
124.6762868153
 10
246.7528596318
 20
125.0845197979
 10
247.4920368655
 20
125.4836454062
 10
248.2319483155
 20
125.8733526744
  0
LINE
  5
14C
330
1F
100
AcDbEntity
  8
0
  6
Continuous
 62
     7
370
    15
100
AcDbLine
 10
248.1275448301
 20
126.0410567492
 30
0.0
 11
248.2319483155
 21
125.8733526744
 31
0.0
  0
LWPOLYLINE
  5
14D
330
1F
100
AcDbEntity
  8
0
  6
Continuous
 62
     7
370
    15
100
AcDbPolyline
 90
       65
 70
   128
 43
0.0
 10
222.4545151866
 20
97.454195738
 10
222.3202778913
 20
97.6872088973
 10
222.1867338711
 20
97.9637035129
 10
222.0735585245
 20
98.2523517128
 10
221.9808400284
 20
98.5529286063
 10
221.9086506212
 20
98.8652000086
 10
221.857046547
 20
99.1889226239
 10
221.8260680115
 20
99.523844234
 10
221.8157391505
 20
99.8697038959
 10
221.8260680115
 20
100.2262321443
 10
221.857046547
 20
100.5931512018
 10
221.9086506212
 20
100.9701751955
 10
221.9808400284
 20
101.3570103794
 10
222.0735585245
 20
101.7533553635
 10
222.1867338711
 20
102.1589013486
 10
222.3202778913
 20
102.5733323668
 10
222.4740865385
 20
102.9963255278
 10
222.6480399778
 20
103.4275512701
 10
222.8420026791
 20
103.8666736185
 10
223.0558235226
 20
104.313350445
 10
223.2893359169
 20
104.767233736
 10
223.5423579283
 20
105.2279698631
 10
223.8146924232
 20
105.695199859
 10
224.1061272209
 20
106.1685596965
 10
224.4164352595
 20
106.6476805729
 10
224.7453747727
 20
107.1321891968
 10
225.092689478
 20
107.6217080791
 10
225.4581087765
 20
108.1158558272
 10
225.8413479638
 20
108.614247442
 10
226.2421084514
 20
109.116494618
 10
226.660078
 20
109.6222060457
 10
227.0949309623
 20
110.1309877166
 10
227.5463285368
 20
110.64244323
 10
228.0139190319
 20
111.1561741022
 10
228.4973381396
 20
111.6717800765
 10
228.9962092198
 20
112.1888594354
 10
229.5101435934
 20
112.7070093133
 10
230.0387408452
 20
113.2258260108
 10
230.5815891359
 20
113.7449053087
 10
231.1382655231
 20
114.2638427835
 10
231.7083362906
 20
114.7822341219
 10
232.2913572862
 20
115.2996754362
 10
232.8868742683
 20
115.815763579
 10
233.4944232593
 20
116.3300964571
 10
234.1135309073
 20
116.8422733448
 10
234.7437148547
 20
117.3518951963
 10
235.3844841143
 20
117.8585649562
 10
236.0353394518
 20
118.3618878695
 10
236.6957737744
 20
118.8614717886
 10
237.3652725263
 20
119.3569274789
 10
238.0433140894
 20
119.8478689223
 10
238.7293701899
 20
120.333913618
 10
239.4229063096
 20
120.8146828799
 10
240.1233821023
 20
121.2898021326
 10
240.8302518154
 20
121.7589012023
 10
241.5429647145
 20
122.2216146058
 10
242.2609655124
 20
122.6775818352
 10
242.9836948024
 20
123.1264476384
 10
243.7105894936
 20
123.5678622963
 10
244.4410832497
 20
124.0014818952
 10
245.1746069305
 20
124.4269685944
 10
245.9105890348
 20
124.84399089
 10
246.6484561463
 20
125.2522238726
 10
247.38763338
 20
125.6513494809
 10
248.1275448301
 20
126.0410567492
  0
SPLINE
  5
14E
330
1F
100
AcDbEntity
  8
0
  6
Continuous
 62
     7
370
    15
100
AcDbSpline
210
0.0
220
0.0
230
1.0
 70
     8
 71
     3
 72
    19
 73
    15
 74
     0
 42
0.000000001
 43
0.00000001
 40
0.0
 40
0.0
 40
0.0
 40
0.0
 40
0.0768142035885717
 40
0.1569578037438036
 40
0.2399804815272165
 40
0.3253019582593693
 40
0.4122283756977355
 40
0.499980804529535
 40
0.5877346451736625
 40
0.6746651544579958
 40
0.7599929969002812
 40
0.8430237094012
 40
0.9231763674506954
 40
1.0
 40
1.0
 40
1.0
 40
1.0
 10
248.4288128319241
 20
126.9042086029792
 30
0.0
 10
248.4277913121186
 20
126.9041768365717
 30
0.0
 10
248.4257039962621
 20
126.9041119268894
 30
0.0
 10
248.4225597982888
 20
126.9035732008478
 30
0.0
 10
248.4194075229063
 20
126.9026757761643
 30
0.0
 10
248.4163345967283
 20
126.901374943714
 30
0.0
 10
248.4134338356895
 20
126.8996886775198
 30
0.0
 10
248.4107953362287
 20
126.8976460120593
 30
0.0
 10
248.4084974584527
 20
126.8953005648064
 30
0.0
 10
248.406600515065
 20
126.8927219944579
 30
0.0
 10
248.4051371635259
 20
126.8899903862151
 30
0.0
 10
248.4041276192891
 20
126.8871882516997
 30
0.0
 10
248.4035215866294
 20
126.8843932840377
 30
0.0
 10
248.4034485673145
 20
126.8825378111763
 30
0.0
 10
248.4034128319241
 20
126.8816297494253
 30
0.0
  0
SPLINE
  5
14F
330
1F
100
AcDbEntity
  8
0
  6
Continuous
 62
     7
370
    15
100
AcDbSpline
210
0.0
220
0.0
230
1.0
 70
     8
 71
     3
 72
    19
 73
    15
 74
     0
 42
0.000000001
 43
0.00000001
 40
0.0
 40
0.0
 40
0.0
 40
0.0
 40
0.076823632550095
 40
0.1569762905988884
 40
0.2400070030998613
 40
0.3253348455426682
 40
0.4122653548262464
 40
0.5000191954704913
 40
0.5877716243020741
 40
0.6746980417404129
 40
0.7600195184727828
 40
0.8430421962562141
 40
0.9231857964114436
 40
1.0
 40
1.0
 40
1.0
 40
1.0
 10
248.4542128319241
 20
126.8816297494253
 30
0.0
 10
248.4541770965337
 20
126.8825378111762
 30
0.0
 10
248.4541040772188
 20
126.8843932840376
 30
0.0
 10
248.4534980445591
 20
126.8871882516997
 30
0.0
 10
248.4524885003222
 20
126.8899903862152
 30
0.0
 10
248.4510251487833
 20
126.892721994458
 30
0.0
 10
248.4491282053955
 20
126.8953005648064
 30
0.0
 10
248.4468303276194
 20
126.8976460120593
 30
0.0
 10
248.4441918281587
 20
126.8996886775199
 30
0.0
 10
248.4412910671199
 20
126.9013749437139
 30
0.0
 10
248.4382181409419
 20
126.9026757761642
 30
0.0
 10
248.4350658655594
 20
126.9035732008478
 30
0.0
 10
248.431921667586
 20
126.9041119268895
 30
0.0
 10
248.4298343517296
 20
126.9041768365717
 30
0.0
 10
248.4288128319241
 20
126.9042086029792
 30
0.0
  0
ARC
  5
150
330
1F
100
AcDbEntity
  8
0
  6
Continuous
 62
     7
370
    15
100
AcDbCircle
 10
248.3985421277
 20
125.5477164003
 30
0.0
 40
0.3657765455356949
100
AcDbArc
 50
89.1800512293
 51
117.0940473897
  0
ARC
  5
151
330
1F
100
AcDbEntity
  8
0
  6
Continuous
 62
     7
370
    15
100
AcDbCircle
 10
248.4010603215
 20
125.5527018954
 30
0.0
 40
0.3605945668812888
100
AcDbArc
 50
61.9540095569
 51
81.4215506144
  0
ARC
  5
152
330
1F
100
AcDbEntity
  8
0
  6
Continuous
 62
     7
370
    15
100
AcDbCircle
 10
248.400315572
 20
100.3851479144
 30
0.0
 40
0.3627742925056872
100
AcDbArc
 50
62.0041249024
 51
84.9071548666
  0
ARC
  5
153
330
1F
100
AcDbEntity
  8
0
  6
Continuous
 62
     7
370
    15
100
AcDbCircle
 10
248.3985740357
 20
100.3823556313
 30
0.0
 40
0.3656839181375943
100
AcDbArc
 50
86.6300398603
 51
117.1070885455
  0
ARC
  5
154
330
1F
100
AcDbEntity
  8
0
  6
Continuous
 62
     7
370
    15
100
AcDbCircle
 10
248.3980817588
 20
125.5128580164
 30
0.0
 40
0.5934510351742925
100
AcDbArc
 50
88.0766014043
 51
117.1209695118
  0
ARC
  5
155
330
1F
100
AcDbEntity
  8
0
  6
Continuous
 62
     7
370
    15
100
AcDbCircle
 10
248.4011381822
 20
125.5168472492
 30
0.0
 40
0.5893188001467532
100
AcDbArc
 50
61.9939551127
 51
86.3598627258
  0
SPLINE
  5
156
330
1F
100
AcDbEntity
  8
0
  6
Continuous
 62
     7
370
    15
100
AcDbSpline
210
0.0
220
0.0
230
1.0
 70
     8
 71
     3
 72
    22
 73
    18
 74
     0
 42
0.000000001
 43
0.00000001
 40
0.0
 40
0.0
 40
0.0
 40
0.0
 40
0.125
 40
0.125
 40
0.25
 40
0.25
 40
0.375
 40
0.375
 40
0.5
 40
0.5
 40
0.625
 40
0.625
 40
0.75
 40
0.75
 40
0.875
 40
0.875
 40
1.0
 40
1.0
 40
1.0
 40
1.0
 10
248.4542128319241
 20
149.8118050629416
 30
0.0
 10
248.4542128319241
 20
149.8144353657378
 30
0.0
 10
248.4536672719582
 20
149.8172731334636
 30
0.0
 10
248.4511916375839
 20
149.8227679005014
 30
0.0
 10
248.4492531734188
 20
149.8254078655359
 30
0.0
 10
248.4442935149136
 20
149.8297658939011
 30
0.0
 10
248.4412891000867
 20
149.8314692131533
 30
0.0
 10
248.4350357750072
 20
149.8336445413162
 30
0.0
 10
248.4318062506311
 20
149.8341239222663
 30
0.0
 10
248.4258194132171
 20
149.8341239222663
 30
0.0
 10
248.422589888841
 20
149.8336445413162
 30
0.0
 10
248.4163365637615
 20
149.8314692131533
 30
0.0
 10
248.4133321489346
 20
149.8297658939011
 30
0.0
 10
248.4083724904293
 20
149.8254078655359
 30
0.0
 10
248.4064340262643
 20
149.8227679005014
 30
0.0
 10
248.40395839189
 20
149.8172731334636
 30
0.0
 10
248.4034128319241
 20
149.8144353657378
 30
0.0
 10
248.4034128319241
 20
149.8118050629416
 30
0.0
  0
LINE
  5
157
330
1F
100
AcDbEntity
  8
0
  6
Continuous
 62
     7
370
    15
100
AcDbLine
 10
248.1070794986
 20
150.0734956138
 30
0.0
 11
248.1070794986
 21
147.9568289472
 31
0.0
  0
LINE
  5
158
330
1F
100
AcDbEntity
  8
0
  6
Continuous
 62
     7
370
    15
100
AcDbLine
 10
248.7505461653
 20
147.9568289472
 30
0.0
 11
248.7505461653
 21
150.0734956138
 31
0.0
  0
ELLIPSE
  5
159
330
1F
100
AcDbEntity
  8
0
  6
Continuous
 62
     7
370
    15
100
AcDbEllipse
 10
247.9605175714
 20
65.4094019377
 30
0.0
 11
2.54000000000002
 21
1.421085471520200E-14
 31
0.0
210
0.0
220
0.0
230
1.0
 40
0.4142135624
 41
1.570796326794894
 42
3.141592653589827
  0
ELLIPSE
  5
15A
330
1F
100
AcDbEntity
  8
0
  6
Continuous
 62
     7
370
    15
100
AcDbEllipse
 10
247.9605175714
 20
65.4094019377
 30
0.0
 11
2.54000000000002
 21
1.421085471520200E-14
 31
0.0
210
0.0
220
0.0
230
1.0
 40
0.4142135624
 41
0.0
 42
1.570796326794905
  0
LINE
  5
15B
330
1F
100
AcDbEntity
  8
0
  6
Continuous
 62
     7
370
    15
100
AcDbLine
 10
250.5005175714
 20
60.7465043862
 30
0.0
 11
245.4205175714
 21
60.7465043862
 31
0.0
  0
LWPOLYLINE
  5
15C
330
1F
100
AcDbEntity
  8
0
  6
Continuous
 62
     7
370
    15
100
AcDbPolyline
 90
       18
 70
   128
 43
0.0
 10
247.9605175714
 20
71.4006452528
 10
247.7153722123
 20
71.3922606296
 10
247.4725157093
 20
71.367185045
 10
247.2342155483
 20
71.325652623
 10
247.0026966735
 20
71.2680511406
 10
246.7801207144
 20
71.1949184074
 10
246.5685658027
 20
71.1069372439
 10
246.3700071697
 20
71.0049291066
 10
246.1862987037
 20
70.889846418
 10
246.0191556412
 20
70.7627636742
 10
245.8701385521
 20
70.6248674123
 10
245.7406387685
 20
70.4774451328
 10
245.6318653953
 20
70.3218732778
 10
245.54483402
 20
70.1596043796
 10
245.4803572312
 20
69.9921534993
 10
245.4390370312
 20
69.8210840807
 10
245.4212592157
 20
69.6479933528
 10
245.4205175714
 20
69.6045940285
  0
LWPOLYLINE
  5
15D
330
1F
100
AcDbEntity
  8
0
  6
Continuous
 62
     7
370
    15
100
AcDbPolyline
 90
       18
 70
   128
 43
0.0
 10
250.5005175714
 20
69.6045940285
 10
250.4997759272
 20
69.6479933528
 10
250.4819981116
 20
69.8210840807
 10
250.4406779116
 20
69.9921534993
 10
250.3762011228
 20
70.1596043796
 10
250.2891697475
 20
70.3218732778
 10
250.1803963743
 20
70.4774451328
 10
250.0508965908
 20
70.6248674123
 10
249.9018795016
 20
70.7627636742
 10
249.7347364392
 20
70.889846418
 10
249.5510279732
 20
71.0049291066
 10
249.3524693401
 20
71.1069372439
 10
249.1409144284
 20
71.1949184074
 10
248.9183384693
 20
71.2680511406
 10
248.6868195946
 20
71.325652623
 10
248.4485194335
 20
71.367185045
 10
248.2056629305
 20
71.3922606296
 10
247.9605175714
 20
71.4006452528
  0
ARC
  5
15E
330
1F
100
AcDbEntity
  8
0
  6
Continuous
 62
     8
370
    15
100
AcDbCircle
 10
248.4288085188
 20
124.8307849551
 30
0.0
 40
0.0254547851209609
100
AcDbArc
 50
183.9172712488
 51
356.391188502
  0
ENDSEC
  0
SECTION
  2
OBJECTS
  0
DICTIONARY
  5
C
330
0
100
AcDbDictionary
281
     1
  3
ACAD_GROUP
350
D
  3
ACAD_LAYOUT
350
1A
  3
ACAD_MLINESTYLE
350
17
  3
ACAD_PLOTSETTINGS
350
19
  3
ACAD_PLOTSTYLENAME
350
E
  3
ACAD_SCALELIST
350
47
  0
DICTIONARY
  5
D
102
{ACAD_REACTORS
330
C
102
}
330
C
100
AcDbDictionary
281
     1
  0
DICTIONARY
  5
1A
102
{ACAD_REACTORS
330
C
102
}
330
C
100
AcDbDictionary
281
     1
  3
Layout1
350
1E
  3
Layout2
350
26
  3
Model
350
22
  0
DICTIONARY
  5
17
102
{ACAD_REACTORS
330
C
102
}
330
C
100
AcDbDictionary
281
     1
  3
Standard
350
18
  0
DICTIONARY
  5
19
102
{ACAD_REACTORS
330
C
102
}
330
C
100
AcDbDictionary
281
     1
  0
ACDBDICTIONARYWDFLT
  5
E
102
{ACAD_REACTORS
330
C
102
}
330
C
100
AcDbDictionary
281
     1
  3
Normal
350
F
100
AcDbDictionaryWithDefault
340
F
  0
DICTIONARY
  5
47
102
{ACAD_REACTORS
330
C
102
}
330
C
100
AcDbDictionary
281
     1
  3
A0
350
48
  3
A1
350
49
  3
A2
350
4A
  3
A3
350
4B
  3
A4
350
4C
  3
A5
350
4D
  3
A6
350
4E
  3
A7
350
4F
  3
A8
350
50
  3
A9
350
51
  3
B0
350
52
  3
B1
350
53
  3
B2
350
54
  3
B3
350
55
  3
B4
350
56
  3
B5
350
57
  3
B6
350
58
  3
B7
350
59
  3
B8
350
5A
  3
B9
350
5B
  3
C0
350
5C
  3
C1
350
5D
  3
C2
350
5E
  3
C3
350
5F
  3
C4
350
60
  3
C5
350
61
  3
C6
350
62
  3
C7
350
63
  3
C8
350
64
  3
C9
350
65
  3
D0
350
66
  3
D1
350
67
  3
D2
350
68
  0
LAYOUT
  5
1E
102
{ACAD_REACTORS
330
1A
102
}
330
1A
100
AcDbPlotSettings
  1

  2
none_device
  4

  6

 40
0.0
 41
0.0
 42
0.0
 43
0.0
 44
0.0
 45
0.0
 46
0.0
 47
0.0
 48
0.0
 49
0.0
140
0.0
141
0.0
142
1.0
143
1.0
 70
   688
 72
     1
 73
     0
 74
     5
  7

 75
    16
147
1.0
148
0.0
149
0.0
100
AcDbLayout
  1
Layout1
 70
     1
 71
     1
 10
0.0
 20
0.0
 11
420.0
 21
297.0
 12
0.0
 22
0.0
 32
0.0
 14
1.0000000000E+20
 24
1.0000000000E+20
 34
1.0000000000E+20
 15
-1.0000000000E+20
 25
-1.0000000000E+20
 35
-1.0000000000E+20
146
0.0
 13
0.0
 23
0.0
 33
0.0
 16
1.0
 26
0.0
 36
0.0
 17
0.0
 27
1.0
 37
0.0
 76
     0
330
1B
  0
LAYOUT
  5
26
102
{ACAD_REACTORS
330
1A
102
}
330
1A
100
AcDbPlotSettings
  1

  2
none_device
  4

  6

 40
0.0
 41
0.0
 42
0.0
 43
0.0
 44
0.0
 45
0.0
 46
0.0
 47
0.0
 48
0.0
 49
0.0
140
0.0
141
0.0
142
1.0
143
1.0
 70
   688
 72
     1
 73
     0
 74
     5
  7

 75
    16
147
1.0
148
0.0
149
0.0
100
AcDbLayout
  1
Layout2
 70
     1
 71
     2
 10
0.0
 20
0.0
 11
0.0
 21
0.0
 12
0.0
 22
0.0
 32
0.0
 14
0.0
 24
0.0
 34
0.0
 15
0.0
 25
0.0
 35
0.0
146
0.0
 13
0.0
 23
0.0
 33
0.0
 16
1.0
 26
0.0
 36
0.0
 17
0.0
 27
1.0
 37
0.0
 76
     0
330
23
  0
LAYOUT
  5
22
102
{ACAD_REACTORS
330
1A
102
}
330
1A
100
AcDbPlotSettings
  1

  2
none_device
  4
Letter_(8.50_x_11.00_Inches)
  6

 40
6.35
 41
6.35
 42
6.35000508
 43
6.35000508
 44
215.9
 45
279.4
 46
0.0
 47
0.0
 48
0.0
 49
0.0
140
0.0
141
0.0
142
1.0
143
1.0
 70
  1712
 72
     1
 73
     0
 74
     0
  7

 75
     0
147
1.0
148
0.0
149
0.0
100
AcDbLayout
  1
Model
 70
     1
 71
     0
 10
0.0
 20
0.0
 11
431.8
 21
279.4
 12
0.0
 22
0.0
 32
0.0
 14
0.0
 24
0.0
 34
0.0
 15
431.8
 25
279.4
 35
0.0
146
0.0
 13
0.0
 23
0.0
 33
0.0
 16
1.0
 26
0.0
 36
0.0
 17
0.0
 27
1.0
 37
0.0
 76
     0
330
1F
331
29
  0
MLINESTYLE
  5
18
102
{ACAD_REACTORS
330
17
102
}
330
17
100
AcDbMlineStyle
  2
Standard
 70
     0
  3

 62
   256
 51
90.0
 52
90.0
 71
     2
 49
0.5
 62
   256
  6
BYLAYER
 49
-0.5
 62
   256
  6
BYLAYER
  0
ACDBPLACEHOLDER
  5
F
102
{ACAD_REACTORS
330
E
102
}
330
E
  0
SCALE
  5
48
102
{ACAD_REACTORS
330
47
102
}
330
47
100
AcDbScale
 70
     0
300
1:1
140
1.0
141
1.0
290
     1
  0
SCALE
  5
49
102
{ACAD_REACTORS
330
47
102
}
330
47
100
AcDbScale
 70
     0
300
1:2
140
1.0
141
2.0
290
     0
  0
SCALE
  5
4A
102
{ACAD_REACTORS
330
47
102
}
330
47
100
AcDbScale
 70
     0
300
1:4
140
1.0
141
4.0
290
     0
  0
SCALE
  5
4B
102
{ACAD_REACTORS
330
47
102
}
330
47
100
AcDbScale
 70
     0
300
1:5
140
1.0
141
5.0
290
     0
  0
SCALE
  5
4C
102
{ACAD_REACTORS
330
47
102
}
330
47
100
AcDbScale
 70
     0
300
1:8
140
1.0
141
8.0
290
     0
  0
SCALE
  5
4D
102
{ACAD_REACTORS
330
47
102
}
330
47
100
AcDbScale
 70
     0
300
1:10
140
1.0
141
10.0
290
     0
  0
SCALE
  5
4E
102
{ACAD_REACTORS
330
47
102
}
330
47
100
AcDbScale
 70
     0
300
1:16
140
1.0
141
16.0
290
     0
  0
SCALE
  5
4F
102
{ACAD_REACTORS
330
47
102
}
330
47
100
AcDbScale
 70
     0
300
1:20
140
1.0
141
20.0
290
     0
  0
SCALE
  5
50
102
{ACAD_REACTORS
330
47
102
}
330
47
100
AcDbScale
 70
     0
300
1:30
140
1.0
141
30.0
290
     0
  0
SCALE
  5
51
102
{ACAD_REACTORS
330
47
102
}
330
47
100
AcDbScale
 70
     0
300
1:40
140
1.0
141
40.0
290
     0
  0
SCALE
  5
52
102
{ACAD_REACTORS
330
47
102
}
330
47
100
AcDbScale
 70
     0
300
1:50
140
1.0
141
50.0
290
     0
  0
SCALE
  5
53
102
{ACAD_REACTORS
330
47
102
}
330
47
100
AcDbScale
 70
     0
300
1:100
140
1.0
141
100.0
290
     0
  0
SCALE
  5
54
102
{ACAD_REACTORS
330
47
102
}
330
47
100
AcDbScale
 70
     0
300
2:1
140
2.0
141
1.0
290
     0
  0
SCALE
  5
55
102
{ACAD_REACTORS
330
47
102
}
330
47
100
AcDbScale
 70
     0
300
4:1
140
4.0
141
1.0
290
     0
  0
SCALE
  5
56
102
{ACAD_REACTORS
330
47
102
}
330
47
100
AcDbScale
 70
     0
300
8:1
140
8.0
141
1.0
290
     0
  0
SCALE
  5
57
102
{ACAD_REACTORS
330
47
102
}
330
47
100
AcDbScale
 70
     0
300
10:1
140
10.0
141
1.0
290
     0
  0
SCALE
  5
58
102
{ACAD_REACTORS
330
47
102
}
330
47
100
AcDbScale
 70
     0
300
100:1
140
100.0
141
1.0
290
     0
  0
SCALE
  5
59
102
{ACAD_REACTORS
330
47
102
}
330
47
100
AcDbScale
 70
     0
300
1/128" = 1'-0"
140
0.0078125
141
12.0
290
     0
  0
SCALE
  5
5A
102
{ACAD_REACTORS
330
47
102
}
330
47
100
AcDbScale
 70
     0
300
1/64" = 1'-0"
140
0.015625
141
12.0
290
     0
  0
SCALE
  5
5B
102
{ACAD_REACTORS
330
47
102
}
330
47
100
AcDbScale
 70
     0
300
1/32" = 1'-0"
140
0.03125
141
12.0
290
     0
  0
SCALE
  5
5C
102
{ACAD_REACTORS
330
47
102
}
330
47
100
AcDbScale
 70
     0
300
1/16" = 1'-0"
140
0.0625
141
12.0
290
     0
  0
SCALE
  5
5D
102
{ACAD_REACTORS
330
47
102
}
330
47
100
AcDbScale
 70
     0
300
3/32" = 1'-0"
140
0.09375
141
12.0
290
     0
  0
SCALE
  5
5E
102
{ACAD_REACTORS
330
47
102
}
330
47
100
AcDbScale
 70
     0
300
1/8" = 1'-0"
140
0.125
141
12.0
290
     0
  0
SCALE
  5
5F
102
{ACAD_REACTORS
330
47
102
}
330
47
100
AcDbScale
 70
     0
300
3/16" = 1'-0"
140
0.1875
141
12.0
290
     0
  0
SCALE
  5
60
102
{ACAD_REACTORS
330
47
102
}
330
47
100
AcDbScale
 70
     0
300
1/4" = 1'-0"
140
0.25
141
12.0
290
     0
  0
SCALE
  5
61
102
{ACAD_REACTORS
330
47
102
}
330
47
100
AcDbScale
 70
     0
300
3/8" = 1'-0"
140
0.375
141
12.0
290
     0
  0
SCALE
  5
62
102
{ACAD_REACTORS
330
47
102
}
330
47
100
AcDbScale
 70
     0
300
1/2" = 1'-0"
140
0.5
141
12.0
290
     0
  0
SCALE
  5
63
102
{ACAD_REACTORS
330
47
102
}
330
47
100
AcDbScale
 70
     0
300
3/4" = 1'-0"
140
0.75
141
12.0
290
     0
  0
SCALE
  5
64
102
{ACAD_REACTORS
330
47
102
}
330
47
100
AcDbScale
 70
     0
300
1" = 1'-0"
140
1.0
141
12.0
290
     0
  0
SCALE
  5
65
102
{ACAD_REACTORS
330
47
102
}
330
47
100
AcDbScale
 70
     0
300
1-1/2" = 1'-0"
140
1.5
141
12.0
290
     0
  0
SCALE
  5
66
102
{ACAD_REACTORS
330
47
102
}
330
47
100
AcDbScale
 70
     0
300
3" = 1'-0"
140
3.0
141
12.0
290
     0
  0
SCALE
  5
67
102
{ACAD_REACTORS
330
47
102
}
330
47
100
AcDbScale
 70
     0
300
6" = 1'-0"
140
6.0
141
12.0
290
     0
  0
SCALE
  5
68
102
{ACAD_REACTORS
330
47
102
}
330
47
100
AcDbScale
 70
     0
300
1'-0" = 1'-0"
140
12.0
141
12.0
290
     0
  0
ENDSEC
  0
EOF
