  0
SECTION
  2
HEADER
  9
$ACADVER
  1
AC1015
  9
$ACADMAINTVER
 70
     6
  9
$DWGCODEPAGE
  3
ANSI_1252
  9
$INSBASE
 10
0.0
 20
0.0
 30
0.0
  9
$EXTMIN
 10
0.0
 20
0.0
 30
0.0
  9
$EXTMAX
 10
431.8
 20
279.4
 30
0.0
  9
$LIMMIN
 10
0.0
 20
0.0
  9
$LIMMAX
 10
431.8
 20
279.4
  9
$ORTHOMODE
 70
     0
  9
$REGENMODE
 70
     1
  9
$FILLMODE
 70
     1
  9
$QTEXTMODE
 70
     0
  9
$MIRRTEXT
 70
     1
  9
$LTSCALE
 40
1.0
  9
$ATTMODE
 70
     1
  9
$TEXTSIZE
 40
3.175
  9
$TRACEWID
 40
1.0
  9
$TEXTSTYLE
  7
Standard
  9
$CLAYER
  8
0
  9
$CELTYPE
  6
ByLayer
  9
$CECOLOR
 62
   256
  9
$CELTSCALE
 40
1.0
  9
$DISPSILH
 70
     0
  9
$DIMSCALE
 40
1.0
  9
$DIMASZ
 40
3.302
  9
$DIMEXO
 40
1.27
  9
$DIMDLI
 40
3.75
  9
$DIMRND
 40
0.0
  9
$DIMDLE
 40
0.0
  9
$DIMEXE
 40
3.175
  9
$DIMTP
 40
0.0
  9
$DIMTM
 40
0.0
  9
$DIMTXT
 40
3.175
  9
$DIMCEN
 40
2.5
  9
$DIMTSZ
 40
0.0
  9
$DIMTOL
 70
     0
  9
$DIMLIM
 70
     0
  9
$DIMTIH
 70
     1
  9
$DIMTOH
 70
     1
  9
$DIMSE1
 70
     0
  9
$DIMSE2
 70
     0
  9
$DIMTAD
 70
     0
  9
$DIMZIN
 70
     0
  9
$DIMBLK
  1

  9
$DIMASO
 70
     1
  9
$DIMSHO
 70
     1
  9
$DIMPOST
  1

  9
$DIMAPOST
  1

  9
$DIMALT
 70
     0
  9
$DIMALTD
 70
     3
  9
$DIMALTF
 40
0.0393700787
  9
$DIMLFAC
 40
10.0
  9
$DIMTOFL
 70
     1
  9
$DIMTVP
 40
0.0
  9
$DIMTIX
 70
     0
  9
$DIMSOXD
 70
     0
  9
$DIMSAH
 70
     0
  9
$DIMBLK1
  1

  9
$DIMBLK2
  1

  9
$DIMSTYLE
  2
ISO-25
  9
$DIMCLRD
 70
     0
  9
$DIMCLRE
 70
     0
  9
$DIMCLRT
 70
     0
  9
$DIMTFAC
 40
1.0
  9
$DIMGAP
 40
1.524
  9
$DIMJUST
 70
     0
  9
$DIMSD1
 70
     0
  9
$DIMSD2
 70
     0
  9
$DIMTOLJ
 70
     0
  9
$DIMTZIN
 70
     0
  9
$DIMALTZ
 70
     0
  9
$DIMALTTZ
 70
     0
  9
$DIMUPT
 70
     0
  9
$DIMDEC
 70
     0
  9
$DIMTDEC
 70
     0
  9
$DIMALTU
 70
     2
  9
$DIMALTTD
 70
     3
  9
$DIMTXSTY
  7
Standard
  9
$DIMAUNIT
 70
     0
  9
$DIMADEC
 70
     0
  9
$DIMALTRND
 40
0.0
  9
$DIMAZIN
 70
     0
  9
$DIMDSEP
 70
    44
  9
$DIMATFIT
 70
     3
  9
$DIMFRAC
 70
     0
  9
$DIMLDRBLK
  1

  9
$DIMLUNIT
 70
     2
  9
$DIMLWD
 70
    -2
  9
$DIMLWE
 70
    -2
  9
$DIMTMOVE
 70
     0
  9
$LUNITS
 70
     2
  9
$LUPREC
 70
     2
  9
$SKETCHINC
 40
1.0
  9
$FILLETRAD
 40
10.0
  9
$AUNITS
 70
     0
  9
$AUPREC
 70
     2
  9
$MENU
  1
.
  9
$ELEVATION
 40
0.0
  9
$PELEVATION
 40
0.0
  9
$THICKNESS
 40
0.0
  9
$LIMCHECK
 70
     0
  9
$CHAMFERA
 40
0.0
  9
$CHAMFERB
 40
0.0
  9
$CHAMFERC
 40
0.0
  9
$CHAMFERD
 40
0.0
  9
$SKPOLY
 70
     0
  9
$TDCREATE
 40
2458681.596780602
  9
$TDUCREATE
 40
2458681.763447268
  9
$TDUPDATE
 40
2458681.596781887
  9
$TDUUPDATE
 40
2458681.763448553
  9
$TDINDWG
 40
0.0000000116
  9
$TDUSRTIMER
 40
0.0000000116
  9
$USRTIMER
 70
     1
  9
$ANGBASE
 50
0.0
  9
$ANGDIR
 70
     0
  9
$PDMODE
 70
     0
  9
$PDSIZE
 40
-1.0
  9
$PLINEWID
 40
0.0
  9
$SPLFRAME
 70
     0
  9
$SPLINETYPE
 70
     6
  9
$SPLINESEGS
 70
     8
  9
$HANDSEED
  5
161
  9
$SURFTAB1
 70
     6
  9
$SURFTAB2
 70
     6
  9
$SURFTYPE
 70
     6
  9
$SURFU
 70
     6
  9
$SURFV
 70
     6
  9
$UCSBASE
  2

  9
$UCSNAME
  2

  9
$UCSORG
 10
0.0
 20
0.0
 30
0.0
  9
$UCSXDIR
 10
1.0
 20
0.0
 30
0.0
  9
$UCSYDIR
 10
0.0
 20
1.0
 30
0.0
  9
$UCSORTHOREF
  2

  9
$UCSORTHOVIEW
 70
     0
  9
$UCSORGTOP
 10
0.0
 20
0.0
 30
0.0
  9
$UCSORGBOTTOM
 10
0.0
 20
0.0
 30
0.0
  9
$UCSORGLEFT
 10
0.0
 20
0.0
 30
0.0
  9
$UCSORGRIGHT
 10
0.0
 20
0.0
 30
0.0
  9
$UCSORGFRONT
 10
0.0
 20
0.0
 30
0.0
  9
$UCSORGBACK
 10
0.0
 20
0.0
 30
0.0
  9
$PUCSBASE
  2

  9
$PUCSNAME
  2

  9
$PUCSORG
 10
0.0
 20
0.0
 30
0.0
  9
$PUCSXDIR
 10
1.0
 20
0.0
 30
0.0
  9
$PUCSYDIR
 10
0.0
 20
1.0
 30
0.0
  9
$PUCSORTHOREF
  2

  9
$PUCSORTHOVIEW
 70
     0
  9
$PUCSORGTOP
 10
0.0
 20
0.0
 30
0.0
  9
$PUCSORGBOTTOM
 10
0.0
 20
0.0
 30
0.0
  9
$PUCSORGLEFT
 10
0.0
 20
0.0
 30
0.0
  9
$PUCSORGRIGHT
 10
0.0
 20
0.0
 30
0.0
  9
$PUCSORGFRONT
 10
0.0
 20
0.0
 30
0.0
  9
$PUCSORGBACK
 10
0.0
 20
0.0
 30
0.0
  9
$USERI1
 70
     0
  9
$USERI2
 70
     0
  9
$USERI3
 70
     0
  9
$USERI4
 70
     0
  9
$USERI5
 70
     0
  9
$USERR1
 40
0.0
  9
$USERR2
 40
0.0
  9
$USERR3
 40
0.0
  9
$USERR4
 40
0.0
  9
$USERR5
 40
0.0
  9
$WORLDVIEW
 70
     1
  9
$SHADEDGE
 70
     3
  9
$SHADEDIF
 70
    70
  9
$TILEMODE
 70
     1
  9
$MAXACTVP
 70
    64
  9
$PINSBASE
 10
0.0
 20
0.0
 30
0.0
  9
$PLIMCHECK
 70
     0
  9
$PEXTMIN
 10
1.0000000000E+20
 20
1.0000000000E+20
 30
1.0000000000E+20
  9
$PEXTMAX
 10
-1.0000000000E+20
 20
-1.0000000000E+20
 30
-1.0000000000E+20
  9
$PLIMMIN
 10
0.0
 20
0.0
  9
$PLIMMAX
 10
420.0
 20
297.0
  9
$UNITMODE
 70
     0
  9
$VISRETAIN
 70
     1
  9
$PLINEGEN
 70
     0
  9
$PSLTSCALE
 70
     1
  9
$TREEDEPTH
 70
  3020
  9
$CMLSTYLE
  2
Standard
  9
$CMLJUST
 70
     0
  9
$CMLSCALE
 40
20.0
  9
$PROXYGRAPHICS
 70
     1
  9
$MEASUREMENT
 70
     1
  9
$CELWEIGHT
370
    -1
  9
$ENDCAPS
280
     0
  9
$JOINSTYLE
280
     0
  9
$LWDISPLAY
290
     1
  9
$INSUNITS
 70
     4
  9
$HYPERLINKBASE
  1

  9
$STYLESHEET
  1

  9
$XEDIT
290
     1
  9
$CEPSNTYPE
380
     0
  9
$PSTYLEMODE
290
     1
  9
$FINGERPRINTGUID
  2
{734EC097-144C-4251-83AD-2C43C9DAE495}
  9
$VERSIONGUID
  2
{FAEB1C32-E019-11D5-929B-00C0DF256EC4}
  9
$EXTNAMES
290
     1
  9
$PSVPSCALE
 40
0.0
  9
$OLESTARTUP
290
     0
  0
ENDSEC
  0
SECTION
  2
CLASSES
  0
CLASS
  1
ACDBDICTIONARYWDFLT
  2
AcDbDictionaryWithDefault
  3
ObjectDBX Classes
 90
        0
280
     0
281
     0
  0
CLASS
  1
VISUALSTYLE
  2
AcDbVisualStyle
  3
ObjectDBX Classes
 90
     4095
280
     0
281
     0
  0
CLASS
  1
MATERIAL
  2
AcDbMaterial
  3
ObjectDBX Classes
 90
     1153
280
     0
281
     0
  0
CLASS
  1
SCALE
  2
AcDbScale
  3
ObjectDBX Classes
 90
     1153
280
     0
281
     0
  0
CLASS
  1
TABLESTYLE
  2
AcDbTableStyle
  3
ObjectDBX Classes
 90
     4095
280
     0
281
     0
  0
CLASS
  1
MLEADERSTYLE
  2
AcDbMLeaderStyle
  3
ACDB_MLEADERSTYLE_CLASS
 90
     4095
280
     0
281
     0
  0
CLASS
  1
SUN
  2
AcDbSun
  3
SCENEOE
 90
     1153
280
     0
281
     0
  0
CLASS
  1
ACDBPLACEHOLDER
  2
AcDbPlaceHolder
  3
ObjectDBX Classes
 90
        0
280
     0
281
     0
  0
CLASS
  1
LAYOUT
  2
AcDbLayout
  3
ObjectDBX Classes
 90
        0
280
     0
281
     0
  0
ENDSEC
  0
SECTION
  2
TABLES
  0
TABLE
  2
VPORT
  5
8
330
0
100
AcDbSymbolTable
 70
     1
  0
VPORT
  5
29
330
8
100
AcDbSymbolTableRecord
100
AcDbViewportTableRecord
  2
*Active
 70
     0
 10
0.0
 20
0.0
 11
1.0
 21
1.0
 12
215.9
 22
139.7
 13
0.0
 23
0.0
 14
10.0
 24
10.0
 15
10.0
 25
10.0
 16
0.0
 26
0.0
 36
1.0
 17
0.0
 27
0.0
 37
0.0
 40
279.4
 41
1.5454545455
 42
50.0
 43
0.0
 44
0.0
 50
0.0
 51
0.0
 71
     0
 72
  2000
 73
     1
 74
     3
 75
     0
 76
     0
 77
     0
 78
     0
281
     0
 65
     1
110
0.0
120
0.0
130
0.0
111
1.0
121
0.0
131
0.0
112
0.0
122
1.0
132
0.0
 79
     0
146
0.0
  0
ENDTAB
  0
TABLE
  2
LTYPE
  5
5
330
0
100
AcDbSymbolTable
 70
     6
  0
LTYPE
  5
14
330
5
100
AcDbSymbolTableRecord
100
AcDbLinetypeTableRecord
  2
ByBlock
 70
     0
  3

 72
    65
 73
     0
 40
0.0
  0
LTYPE
  5
15
330
5
100
AcDbSymbolTableRecord
100
AcDbLinetypeTableRecord
  2
ByLayer
 70
     0
  3

 72
    65
 73
     0
 40
0.0
  0
LTYPE
  5
16
330
5
100
AcDbSymbolTableRecord
100
AcDbLinetypeTableRecord
  2
Continuous
 70
     0
  3
Solid line
 72
    65
 73
     0
 40
0.0
  0
LTYPE
  5
6E
330
5
100
AcDbSymbolTableRecord
100
AcDbLinetypeTableRecord
  2
HIDDEN
 70
     0
  3
Hidden __ __ __ __ __ __ __ __ __ __ __ __ __ __
 72
    65
 73
     2
 40
1.905
 49
1.27
 74
     0
 49
-0.635
 74
     0
  0
LTYPE
  5
6F
330
5
100
AcDbSymbolTableRecord
100
AcDbLinetypeTableRecord
  2
PHANTOM
 70
     0
  3
Phantom ______  __  __  ______  __  __  ______
 72
    65
 73
     6
 40
12.7
 49
6.35
 74
     0
 49
-1.27
 74
     0
 49
1.27
 74
     0
 49
-1.27
 74
     0
 49
1.27
 74
     0
 49
-1.27
 74
     0
  0
LTYPE
  5
70
330
5
100
AcDbSymbolTableRecord
100
AcDbLinetypeTableRecord
  2
CENTER
 70
     0
  3
Center ____ _ ____ _ ____ _ ____ _ ____ _ ____
 72
    65
 73
     4
 40
10.16
 49
6.35
 74
     0
 49
-1.27
 74
     0
 49
1.27
 74
     0
 49
-1.27
 74
     0
  0
LTYPE
  5
71
330
5
100
AcDbSymbolTableRecord
100
AcDbLinetypeTableRecord
  2
CENTERX2
 70
     0
  3
Center (2x) ________  __  ________  __  _____
 72
    65
 73
     4
 40
20.32
 49
12.7
 74
     0
 49
-2.54
 74
     0
 49
2.54
 74
     0
 49
-2.54
 74
     0
  0
LTYPE
  5
72
330
5
100
AcDbSymbolTableRecord
100
AcDbLinetypeTableRecord
  2
DOT2
 70
     0
  3
Dot (.5x) ........................................
 72
    65
 73
     2
 40
0.635
 49
0.0
 74
     0
 49
-0.635
 74
     0
  0
ENDTAB
  0
TABLE
  2
LAYER
  5
2
330
0
100
AcDbSymbolTable
 70
     2
  0
LAYER
  5
10
330
2
100
AcDbSymbolTableRecord
100
AcDbLayerTableRecord
  2
0
 70
     0
 62
     7
  6
Continuous
370
    -3
390
F
  0
LAYER
  5
73
330
2
100
AcDbSymbolTableRecord
100
AcDbLayerTableRecord
  2
FORMAT
 70
     0
 62
     7
  6
Continuous
370
    -3
390
F
  0
ENDTAB
  0
TABLE
  2
STYLE
  5
3
330
0
100
AcDbSymbolTable
 70
     2
  0
STYLE
  5
11
330
3
100
AcDbSymbolTableRecord
100
AcDbTextStyleTableRecord
  2
Standard
 70
     0
 40
0.0
 41
1.0
 50
0.0
 71
     0
 42
3.175
  3
txt
  4

  0
STYLE
  5
B8
330
3
100
AcDbSymbolTableRecord
100
AcDbTextStyleTableRecord
  2
SLDTEXTSTYLE0
 70
     0
 40
0.0
 41
0.7
 50
0.0
 71
     0
 42
3.175
  3
TXT
  4

  0
ENDTAB
  0
TABLE
  2
VIEW
  5
6
330
0
100
AcDbSymbolTable
 70
     0
  0
ENDTAB
  0
TABLE
  2
UCS
  5
7
330
0
100
AcDbSymbolTable
 70
     0
  0
ENDTAB
  0
TABLE
  2
APPID
  5
9
330
0
100
AcDbSymbolTable
 70
     1
  0
APPID
  5
12
330
9
100
AcDbSymbolTableRecord
100
AcDbRegAppTableRecord
  2
ACAD
 70
     0
  0
ENDTAB
  0
TABLE
  2
DIMSTYLE
  5
A
330
0
100
AcDbSymbolTable
 70
     1
100
AcDbDimStyleTable
  0
DIMSTYLE
105
27
330
A
100
AcDbSymbolTableRecord
100
AcDbDimStyleTableRecord
  2
ISO-25
 70
     0
 41
2.5
 42
0.625
 43
3.75
 44
1.25
 73
     0
 74
     0
 77
     1
 78
     8
140
2.5
141
2.5
143
0.0393700787
147
0.625
171
     3
172
     1
178
     0
271
     2
272
     2
274
     3
278
    44
283
     0
284
     8
340
11
  0
ENDTAB
  0
TABLE
  2
BLOCK_RECORD
  5
1
330
0
100
AcDbSymbolTable
 70
     3
  0
BLOCK_RECORD
  5
1F
330
1
100
AcDbSymbolTableRecord
100
AcDbBlockTableRecord
  2
*Model_Space
340
22
  0
BLOCK_RECORD
  5
1B
330
1
100
AcDbSymbolTableRecord
100
AcDbBlockTableRecord
  2
*Paper_Space
340
1E
  0
BLOCK_RECORD
  5
23
330
1
100
AcDbSymbolTableRecord
100
AcDbBlockTableRecord
  2
*Paper_Space0
340
26
  0
BLOCK_RECORD
  5
BB
330
1
100
AcDbSymbolTableRecord
100
AcDbBlockTableRecord
  2
SW_NOTE_0
340
0
102
{BLKREFS
331
C1
102
}
  0
BLOCK_RECORD
  5
C6
330
1
100
AcDbSymbolTableRecord
100
AcDbBlockTableRecord
  2
SW_NOTE_1
340
0
102
{BLKREFS
331
CC
102
}
  0
ENDTAB
  0
ENDSEC
  0
SECTION
  2
BLOCKS
  0
BLOCK
  5
20
330
1F
100
AcDbEntity
  8
0
100
AcDbBlockBegin
  2
*Model_Space
 70
     0
 10
0.0
 20
0.0
 30
0.0
  3
*Model_Space
  1

  0
ENDBLK
  5
21
330
1F
100
AcDbEntity
  8
0
100
AcDbBlockEnd
  0
BLOCK
  5
1C
330
1B
100
AcDbEntity
 67
     1
  8
0
100
AcDbBlockBegin
  2
*Paper_Space
 70
     0
 10
0.0
 20
0.0
 30
0.0
  3
*Paper_Space
  1

  0
ENDBLK
  5
1D
330
1B
100
AcDbEntity
 67
     1
  8
0
100
AcDbBlockEnd
  0
BLOCK
  5
24
330
23
100
AcDbEntity
  8
0
100
AcDbBlockBegin
  2
*Paper_Space0
 70
     0
 10
0.0
 20
0.0
 30
0.0
  3
*Paper_Space0
  1

  0
ENDBLK
  5
25
330
23
100
AcDbEntity
  8
0
100
AcDbBlockEnd
  0
BLOCK
  5
BC
330
BB
100
AcDbEntity
  8
0
100
AcDbBlockBegin
  2
SW_NOTE_0
 70
     0
 10
0.0
 20
0.0
 30
0.0
  3
SW_NOTE_0
  1

  0
MTEXT
  5
BE
330
BB
100
AcDbEntity
  8
0
  6
Continuous
 62
     0
370
     0
100
AcDbMText
 10
0.0
 20
2.0463950369
 30
0.0
 40
1.5875
 41
0.0
 71
     1
 72
     1
  1
87 34th Street, Unit 11, Brooklyn, NY 11232
  7
SLDTEXTSTYLE0
 73
     1
 44
1.0
  0
MTEXT
  5
BF
330
BB
100
AcDbEntity
  8
0
  6
Continuous
 62
     0
370
     0
100
AcDbMText
 10
0.0
 20
-0.0702716042
 30
0.0
 40
1.5875
 41
0.0
 71
     1
 72
     1
  1
T +1 718-387-6132
  7
SLDTEXTSTYLE0
 73
     1
 44
1.0
  0
MTEXT
  5
C0
330
BB
100
AcDbEntity
  8
0
  6
Continuous
 62
     0
370
     0
100
AcDbMText
 10
0.0
 20
-2.1869382453
 30
0.0
 40
1.5875
 41
0.0
 71
     1
 72
     1
  1
www.rollandhill.com
  7
SLDTEXTSTYLE0
 73
     1
 44
1.0
  0
ENDBLK
  5
BD
330
BB
100
AcDbEntity
  8
0
100
AcDbBlockEnd
  0
BLOCK
  5
C7
330
C6
100
AcDbEntity
  8
0
100
AcDbBlockBegin
  2
SW_NOTE_1
 70
     0
 10
0.0
 20
0.0
 30
0.0
  3
SW_NOTE_1
  1

  0
MTEXT
  5
C9
330
C6
100
AcDbEntity
  8
0
  6
Continuous
 62
     0
370
     0
100
AcDbMText
 10
0.0
 20
2.0463950369
 30
0.0
 40
1.5875
 41
0.0
 71
     1
 72
     1
  1
\LPROPRIETARY AND CONFIDENTIAL
  7
SLDTEXTSTYLE0
 73
     1
 44
1.0
  0
MTEXT
  5
CA
330
C6
100
AcDbEntity
  8
0
  6
Continuous
 62
     0
370
     0
100
AcDbMText
 10
37.3117625713
 20
2.0463950369
 30
0.0
 40
1.5875
 41
0.0
 71
     1
 72
     1
  1
THE INFORMATION CONTAINED IN THIS DRAWING IS THE SOLE PROPERTY OF ROLL & HILL LLC. ANY REPRODUCTION IN
  7
SLDTEXTSTYLE0
 73
     1
 44
1.0
  0
MTEXT
  5
CB
330
C6
100
AcDbEntity
  8
0
  6
Continuous
 62
     0
370
     0
100
AcDbMText
 10
0.0
 20
-0.0702716042
 30
0.0
 40
1.5875
 41
0.0
 71
     1
 72
     1
  1
PART OR AS A WHOLE WITHOUT THE WRITTEN PERMISSION OF ROLL & HILL LLC. IS PROHIBITED.
  7
SLDTEXTSTYLE0
 73
     1
 44
1.0
  0
ENDBLK
  5
C8
330
C6
100
AcDbEntity
  8
0
100
AcDbBlockEnd
  0
ENDSEC
  0
SECTION
  2
ENTITIES
  0
HATCH
  5
74
330
1F
100
AcDbEntity
  8
0
  6
Continuous
 62
     7
100
AcDbHatch
 10
0.0
 20
0.0
 30
0.0
210
0.0
220
0.0
230
1.0
  2
SOLID
 70
     1
 71
     0
 91
        2
 92
        0
 93
        6
 72
     4
 94
        3
 73
     1
 74
     0
 95
       20
 96
       16
 40
0.0
 40
0.0
 40
0.0
 40
0.0
 40
1.0
 40
1.0
 40
1.0
 40
2.0
 40
2.0
 40
2.0
 40
3.0
 40
3.0
 40
3.0
 40
4.0
 40
4.0
 40
4.0
 40
5.0
 40
5.0
 40
5.0
 40
5.0
 10
261.0219043336847
 20
23.63056361828031
 42
1.0
 10
261.2341319795987
 20
23.68742184709604
 42
1.0
 10
261.3945785321864
 20
23.72473719781129
 42
1.0
 10
261.5515161764629
 20
23.77337299628437
 42
1.0
 10
262.5617362220245
 20
24.08644572151765
 42
1.0
 10
262.9966382899503
 20
24.76217905347502
 42
1.0
 10
262.9131259646454
 20
25.88395655371281
 42
1.0
 10
262.8488620904764
 20
26.74717259793779
 42
1.0
 10
262.3071445332423
 20
27.30037799580671
 42
1.0
 10
261.2989762515715
 20
27.40941936834727
 42
1.0
 10
260.5093946232761
 20
27.49481913962259
 42
1.0
 10
259.7094699986221
 20
27.48819126576296
 42
1.0
 10
258.913837050576
 20
27.51251762112626
 42
1.0
 10
258.5159962651877
 20
27.52468175973202
 42
1.0
 10
258.1174764912431
 20
27.51463645747964
 42
1.0
 10
257.7192638284546
 20
27.51463645747964
 42
1.0
 72
     4
 94
        3
 73
     1
 74
     0
 95
       14
 96
       10
 40
17.0
 40
17.0
 40
17.0
 40
17.0
 40
18.0
 40
18.0
 40
18.0
 40
19.0
 40
19.0
 40
19.0
 40
20.0
 40
20.0
 40
20.0
 40
20.0
 10
257.7192638284546
 20
27.51463645747964
 42
1.0
 10
258.2057453879524
 20
27.36893835120056
 42
1.0
 10
258.4151924094879
 20
27.04153921726714
 42
1.0
 10
258.4151320634913
 20
26.55729487989966
 42
1.0
 10
258.4149081683119
 20
24.76100595804667
 42
1.0
 10
258.4191609275175
 20
22.96470127704905
 42
1.0
 10
258.4124688639662
 20
21.16843695483816
 42
1.0
 10
258.4104423723632
 20
20.62446660851326
 42
1.0
 10
258.2139995287706
 20
20.39587059142628
 42
1.0
 10
257.7053577757453
 20
20.25910042553502
 42
1.0
 72
     1
 10
257.7053577757453
 20
20.25910042553502
 11
260.1134120717832
 21
20.25910042553502
 72
     4
 94
        3
 73
     1
 74
     0
 95
       14
 96
       10
 40
13.0
 40
13.0
 40
13.0
 40
13.0
 40
14.0
 40
14.0
 40
14.0
 40
15.0
 40
15.0
 40
15.0
 40
16.0
 40
16.0
 40
16.0
 40
16.0
 10
260.1134120717832
 20
20.25910042553502
 42
1.0
 10
259.6377614656041
 20
20.40079128856704
 42
1.0
 10
259.4435911100346
 20
20.64162793377141
 42
1.0
 10
259.4408326829897
 20
21.14221143023692
 42
1.0
 10
259.4366701545022
 20
21.89763799307775
 42
1.0
 10
259.4392191002215
 20
22.65310606781492
 42
1.0
 10
259.4405559370167
 20
23.40855338660287
 42
1.0
 10
259.4406539512153
 20
23.46398560492077
 42
1.0
 10
259.4539911852495
 20
23.51939476107442
 42
1.0
 10
259.4607286043899
 20
23.57138302951071
 42
1.0
 72
     4
 94
        3
 73
     1
 74
     0
 95
       20
 96
       16
 40
8.0
 40
8.0
 40
8.0
 40
8.0
 40
9.0
 40
9.0
 40
9.0
 40
10.0
 40
10.0
 40
10.0
 40
11.0
 40
11.0
 40
11.0
 40
12.0
 40
12.0
 40
12.0
 40
13.0
 40
13.0
 40
13.0
 40
13.0
 10
259.4607286043899
 20
23.57138302951071
 42
1.0
 10
260.3725694925604
 20
23.65083910446931
 42
1.0
 10
260.6054131759577
 20
23.52556773374194
 42
1.0
 10
261.0037355762117
 20
22.71920223094413
 42
1.0
 10
261.378026816807
 20
21.9614848264415
 42
1.0
 10
261.7451764738302
 20
21.200166649339
 42
1.0
 10
262.1067370153144
 20
20.43629933433309
 42
1.0
 10
262.1765046750147
 20
20.28890135435546
 42
1.0
 10
262.2549406335689
 20
20.22203337745712
 42
1.0
 10
262.427398730108
 20
20.22724465786873
 42
1.0
 10
262.8718696744063
 20
20.24067529366942
 42
1.0
 10
263.3170171088603
 20
20.2311736819415
 42
1.0
 10
263.7618904879274
 20
20.2323936704376
 42
1.0
 10
263.8264337986554
 20
20.23257048036439
 42
1.0
 10
263.8909540472192
 20
20.24131411562171
 42
1.0
 10
263.9554858268652
 20
20.24609336482204
 42
1.0
 72
     4
 94
        3
 73
     1
 74
     0
 95
       14
 96
       10
 40
5.0
 40
5.0
 40
5.0
 40
5.0
 40
6.0
 40
6.0
 40
6.0
 40
7.0
 40
7.0
 40
7.0
 40
8.0
 40
8.0
 40
8.0
 40
8.0
 10
263.9554858268652
 20
20.24609336482204
 42
1.0
 10
263.5606000734738
 20
20.32757122285868
 42
1.0
 10
263.3178377375433
 20
20.57267359973515
 42
1.0
 10
263.1292772534607
 20
20.88520667032095
 42
1.0
 10
262.8739775562312
 20
21.30835818112304
 42
1.0
 10
262.6276890153665
 20
21.7369354504649
 42
1.0
 10
262.3739921385617
 20
22.16106556577572
 42
1.0
 10
262.033208300972
 20
22.73079019980925
 42
1.0
 10
261.7521543160346
 20
23.35408286053947
 42
1.0
 10
261.0219043336847
 20
23.63056361828031
 42
1.0
 97
        0
 92
        0
 93
        2
 72
     1
 10
259.4558811296203
 20
23.74052094311722
 11
259.4558811296203
 21
27.35855230546976
 72
     4
 94
        3
 73
     1
 74
     0
 95
       20
 96
       16
 40
1.0
 40
1.0
 40
1.0
 40
1.0
 40
2.0
 40
2.0
 40
2.0
 40
3.0
 40
3.0
 40
3.0
 40
4.0
 40
4.0
 40
4.0
 40
5.0
 40
5.0
 40
5.0
 40
6.0
 40
6.0
 40
6.0
 40
6.0
 10
259.4558811296203
 20
27.35855230546976
 42
1.0
 10
259.8103733099057
 20
27.35855230546976
 42
1.0
 10
260.1467440101549
 20
27.38072599997261
 42
1.0
 10
260.4792308497364
 20
27.35420547185249
 42
1.0
 10
261.3230227860075
 20
27.28690123567825
 42
1.0
 10
261.7108519014664
 20
26.95476897687368
 42
1.0
 10
261.8164781518313
 20
26.10478869315943
 42
1.0
 10
261.8719876284001
 20
25.65810454981779
 42
1.0
 10
261.8389787525148
 20
25.18024881635489
 42
1.0
 10
261.7413862071132
 20
24.73962656292206
 42
1.0
 10
261.608259863196
 20
24.13857044109259
 42
1.0
 10
261.1506181168165
 20
23.81517009427841
 42
1.0
 10
260.5489927438957
 20
23.74778168120397
 42
1.0
 10
260.1942113256325
 20
23.70804326575078
 42
1.0
 10
259.8313410453958
 20
23.74052094311722
 42
1.0
 10
259.4558811296203
 20
23.74052094311722
 42
1.0
 97
        0
 75
     0
 76
     1
 98
        1
 10
0.0
 20
0.0
  0
HATCH
  5
75
330
1F
100
AcDbEntity
  8
0
  6
Continuous
 62
     7
100
AcDbHatch
 10
0.0
 20
0.0
 30
0.0
210
0.0
220
0.0
230
1.0
  2
SOLID
 70
     1
 71
     0
 91
        2
 92
        0
 93
        2
 72
     4
 94
        3
 73
     1
 74
     0
 95
       14
 96
       10
 40
0.0
 40
0.0
 40
0.0
 40
0.0
 40
1.0
 40
1.0
 40
1.0
 40
2.0
 40
2.0
 40
2.0
 40
3.0
 40
3.0
 40
3.0
 40
3.0
 10
267.2336118279071
 20
20.23490821509466
 42
1.0
 10
268.1650050112285
 20
19.98240211471103
 42
1.0
 10
269.1482911393735
 20
20.33660467264827
 42
1.0
 10
269.7215189161771
 20
21.13111084177937
 42
1.0
 10
270.3723808569537
 20
22.03321892002499
 42
1.0
 10
270.372934348899
 20
23.32205720159637
 42
1.0
 10
269.7103360726668
 20
24.21398909980579
 42
1.0
 10
269.2464106552308
 20
24.83848445240961
 42
1.0
 10
268.6216197225536
 20
25.16033694362372
 42
1.0
 10
267.7758432870376
 20
25.16748813643033
 42
1.0
 72
     4
 94
        3
 73
     1
 74
     0
 95
       14
 96
       10
 40
3.0
 40
3.0
 40
3.0
 40
3.0
 40
4.0
 40
4.0
 40
4.0
 40
5.0
 40
5.0
 40
5.0
 40
6.0
 40
6.0
 40
6.0
 40
6.0
 10
267.7758432870376
 20
25.16748813643033
 42
1.0
 10
266.9062728477855
 20
25.1505801106106
 42
1.0
 10
266.225828300013
 20
24.723612195973
 42
1.0
 10
265.7739382574312
 20
23.92202056120339
 42
1.0
 10
265.4879189885011
 20
23.41465794151554
 42
1.0
 10
265.4259332718035
 20
22.86561853145873
 42
1.0
 10
265.4837047623288
 20
22.29272284982232
 42
1.0
 10
265.5792320909092
 20
21.34541139190241
 42
1.0
 10
266.3034040398354
 20
20.48709452013179
 42
1.0
 10
267.2336118279071
 20
20.23490821509466
 42
1.0
 97
        0
 92
        0
 93
        2
 72
     4
 94
        3
 73
     1
 74
     0
 95
       17
 96
       13
 40
0.0
 40
0.0
 40
0.0
 40
0.0
 40
1.0
 40
1.0
 40
1.0
 40
2.0
 40
2.0
 40
2.0
 40
3.0
 40
3.0
 40
3.0
 40
4.0
 40
4.0
 40
4.0
 40
4.0
 10
266.4699528411193
 20
22.82140374989816
 42
1.0
 10
266.4968487059656
 20
23.23360918874381
 42
1.0
 10
266.5993976948625
 20
23.64490674705059
 42
1.0
 10
266.7072125446274
 20
24.04607386528146
 42
1.0
 10
266.7597204805012
 20
24.2414496033099
 42
1.0
 10
266.882078331128
 20
24.42789874624283
 42
1.0
 10
267.0072628343699
 20
24.59213287496141
 42
1.0
 10
267.4640605055332
 20
25.19142205062979
 42
1.0
 10
268.2143234497673
 20
25.18405330473933
 42
1.0
 10
268.6683621173312
 20
24.58056604641373
 42
1.0
 10
269.0963628325642
 20
24.01168817818241
 42
1.0
 10
269.195680043492
 20
23.34551372899321
 42
1.0
 10
269.218762963826
 20
22.68351122534059
 42
1.0
 72
     4
 94
        3
 73
     1
 74
     0
 95
       17
 96
       13
 40
4.0
 40
4.0
 40
4.0
 40
4.0
 40
5.0
 40
5.0
 40
5.0
 40
6.0
 40
6.0
 40
6.0
 40
7.0
 40
7.0
 40
7.0
 40
8.0
 40
8.0
 40
8.0
 40
8.0
 10
269.218762963826
 20
22.68351122534059
 42
1.0
 10
269.202432645224
 20
22.05765558940843
 42
1.0
 10
269.1208448575376
 20
21.47214721006825
 42
1.0
 10
268.810867074766
 20
20.94311038392242
 42
1.0
 10
268.6078393105943
 20
20.5966013640246
 42
1.0
 10
268.3388937306983
 20
20.33416469565678
 42
1.0
 10
267.9076604687568
 20
20.30531315927085
 42
1.0
 10
267.4153070900211
 20
20.27237193240103
 42
1.0
 10
267.1048165584612
 20
20.54785025472892
 42
1.0
 10
266.8746830637486
 20
20.93428603108956
 42
1.0
 10
266.5287029361534
 20
21.51524885782822
 42
1.0
 10
266.4269741915698
 20
22.16270989809668
 42
1.0
 10
266.4699528411193
 20
22.82140374989816
 42
1.0
 97
        0
 75
     0
 76
     1
 98
        1
 10
0.0
 20
0.0
  0
HATCH
  5
76
330
1F
100
AcDbEntity
  8
0
  6
Continuous
 62
     7
100
AcDbHatch
 10
0.0
 20
0.0
 30
0.0
210
0.0
220
0.0
230
1.0
  2
SOLID
 70
     1
 71
     0
 91
        1
 92
        0
 93
        4
 72
     1
 10
273.9540333846496
 20
27.87257450949275
 11
272.4594267850394
 21
27.32510813123116
 72
     4
 94
        3
 73
     1
 74
     0
 95
       14
 96
       10
 40
6.0
 40
6.0
 40
6.0
 40
6.0
 40
7.0
 40
7.0
 40
7.0
 40
8.0
 40
8.0
 40
8.0
 40
9.0
 40
9.0
 40
9.0
 40
9.0
 10
272.4594267850394
 20
27.32510813123116
 42
1.0
 10
272.9826104338649
 20
27.28380667758701
 42
1.0
 10
273.0476395875227
 20
27.23250104921648
 42
1.0
 10
273.0527409382852
 20
26.65700799131587
 42
1.0
 10
273.0685846452182
 20
24.86961337752774
 42
1.0
 10
273.0702866329497
 20
23.08209538116094
 42
1.0
 10
273.0783845276048
 20
21.29462927466367
 42
1.0
 10
273.0805785081768
 20
20.81042375860576
 42
1.0
 10
273.0059923935969
 20
20.37668517687364
 42
1.0
 10
272.426404840594
 20
20.2590796695872
 42
1.0
 72
     1
 10
272.426404840594
 20
20.2590796695872
 11
274.6224502449564
 21
20.2590796695872
 72
     4
 94
        3
 73
     1
 74
     0
 95
       17
 96
       13
 40
1.0
 40
1.0
 40
1.0
 40
1.0
 40
2.0
 40
2.0
 40
2.0
 40
3.0
 40
3.0
 40
3.0
 40
4.0
 40
4.0
 40
4.0
 40
5.0
 40
5.0
 40
5.0
 40
5.0
 10
274.6224502449564
 20
20.2590796695872
 42
1.0
 10
274.1836818051716
 20
20.38260600321025
 42
1.0
 10
274.0006220316647
 20
20.58964274029083
 42
1.0
 10
273.9590578615309
 20
21.04279505200226
 42
1.0
 10
273.9506540088286
 20
21.13443409966764
 42
1.0
 10
273.954217881965
 20
21.22727776105204
 42
1.0
 10
273.9542086570993
 20
21.31956562427539
 42
1.0
 10
273.9539872603212
 20
23.41776441505853
 42
1.0
 10
273.9540349221275
 20
25.51596282147274
 42
1.0
 10
273.9540333846496
 20
27.61416161225588
 42
1.0
 10
273.9540333846496
 20
27.71082379150879
 42
1.0
 10
273.9540333846496
 20
27.8074859707617
 42
1.0
 10
273.9540333846496
 20
27.87257450949275
 42
1.0
 97
        0
 75
     0
 76
     1
 98
        1
 10
0.0
 20
0.0
  0
HATCH
  5
77
330
1F
100
AcDbEntity
  8
0
  6
Continuous
 62
     7
100
AcDbHatch
 10
0.0
 20
0.0
 30
0.0
210
0.0
220
0.0
230
1.0
  2
SOLID
 70
     1
 71
     0
 91
        1
 92
        0
 93
        4
 72
     1
 10
276.9460186560295
 20
20.2549177176549
 11
279.1055120673172
 21
20.2549177176549
 72
     4
 94
        3
 73
     1
 74
     0
 95
       14
 96
       10
 40
6.0
 40
6.0
 40
6.0
 40
6.0
 40
7.0
 40
7.0
 40
7.0
 40
8.0
 40
8.0
 40
8.0
 40
9.0
 40
9.0
 40
9.0
 40
9.0
 10
279.1055120673172
 20
20.2549177176549
 42
1.0
 10
278.6550987719953
 20
20.40793364087759
 42
1.0
 10
278.4823339486704
 20
20.63637283524633
 42
1.0
 10
278.4822124879378
 20
21.11904779232805
 42
1.0
 10
278.4816605334703
 20
23.30086999117493
 42
1.0
 10
278.4819664915176
 20
25.48269219002111
 42
1.0
 10
278.4819649540404
 20
27.66451419668386
 42
1.0
 10
278.4819649540404
 20
27.75219577693941
 42
1.0
 10
278.4819664915176
 20
27.83987735719566
 42
1.0
 10
278.4819664915176
 20
27.88441039662488
 42
1.0
 72
     1
 10
278.4819664915176
 20
27.88441039662488
 11
276.9846800684063
 21
27.3296354262854
 72
     4
 94
        3
 73
     1
 74
     0
 95
       17
 96
       13
 40
1.0
 40
1.0
 40
1.0
 40
1.0
 40
2.0
 40
2.0
 40
2.0
 40
3.0
 40
3.0
 40
3.0
 40
4.0
 40
4.0
 40
4.0
 40
5.0
 40
5.0
 40
5.0
 40
5.0
 10
276.9846800684063
 20
27.3296354262854
 42
1.0
 10
277.5366914227135
 20
27.25167954511983
 42
1.0
 10
277.5738092075535
 20
27.20775573119973
 42
1.0
 10
277.5772915943764
 20
26.57154691311976
 42
1.0
 10
277.5773838430334
 20
26.55476419172763
 42
1.0
 10
277.577359243392
 20
26.53798031722657
 42
1.0
 10
277.577359243392
 20
26.52119721146337
 42
1.0
 10
277.5773700057348
 20
24.72538990447762
 42
1.0
 10
277.5776652014392
 20
22.92958298186009
 42
1.0
 10
277.5771993457187
 20
21.13377529050539
 42
1.0
 10
277.5770686601204
 20
20.6342380475635
 42
1.0
 10
277.4179566381115
 20
20.4199152040148
 42
1.0
 10
276.9460186560295
 20
20.2549177176549
 42
1.0
 97
        0
 75
     0
 76
     1
 98
        1
 10
0.0
 20
0.0
  0
HATCH
  5
78
330
1F
100
AcDbEntity
  8
0
  6
Continuous
 62
     7
100
AcDbHatch
 10
0.0
 20
0.0
 30
0.0
210
0.0
220
0.0
230
1.0
  2
SOLID
 70
     1
 71
     0
 91
        3
 92
        0
 93
        9
 72
     4
 94
        3
 73
     1
 74
     0
 95
       14
 96
       10
 40
0.0
 40
0.0
 40
0.0
 40
0.0
 40
1.0
 40
1.0
 40
1.0
 40
2.0
 40
2.0
 40
2.0
 40
3.0
 40
3.0
 40
3.0
 40
3.0
 10
287.0539854214827
 20
21.61211917311517
 42
1.0
 10
287.2972697310664
 20
21.3082559388604
 42
1.0
 10
287.5152010346028
 20
21.01001756649998
 42
1.0
 10
287.7601488949774
 20
20.73592220529573
 42
1.0
 10
288.1784811821614
 20
20.26780485511384
 42
1.0
 10
288.7048673968812
 20
20.09831485913089
 42
1.0
 10
289.3271645408483
 20
20.20870037148624
 42
1.0
 10
289.9739444785289
 20
20.32342848939635
 42
1.0
 10
290.7160910783766
 20
21.04182259740494
 42
1.0
 10
290.8103661314317
 20
21.70506046432864
 42
1.0
 72
     4
 94
        3
 73
     1
 74
     0
 95
       14
 96
       10
 40
24.0
 40
24.0
 40
24.0
 40
24.0
 40
25.0
 40
25.0
 40
25.0
 40
26.0
 40
26.0
 40
26.0
 40
27.0
 40
27.0
 40
27.0
 40
27.0
 10
290.8103661314317
 20
21.70506046432864
 42
1.0
 10
290.6825002672103
 20
21.49939669476813
 42
1.0
 10
290.5884281612034
 20
21.32571784099438
 42
1.0
 10
290.4735170834558
 20
21.16713932372221
 42
1.0
 10
289.9836367374808
 20
20.49110656799653
 42
1.0
 10
289.3841588364346
 20
20.43289382139212
 42
1.0
 10
288.8166481701822
 20
21.05011190802389
 42
1.0
 10
288.4270667146001
 20
21.47381844824843
 42
1.0
 10
288.0996055050067
 20
21.95463920731319
 42
1.0
 10
287.7314564875268
 20
22.4264857094768
 42
1.0
 72
     4
 94
        3
 73
     1
 74
     0
 95
       11
 96
        7
 40
22.0
 40
22.0
 40
22.0
 40
22.0
 40
23.0
 40
23.0
 40
23.0
 40
24.0
 40
24.0
 40
24.0
 40
24.0
 10
287.7314564875268
 20
22.4264857094768
 42
1.0
 10
288.1508588591387
 20
23.00030157147278
 42
1.0
 10
288.5466855488353
 20
23.55949371503118
 42
1.0
 10
288.9612633156569
 20
24.10441845059237
 42
1.0
 10
289.4290162836425
 20
24.71923384406366
 42
1.0
 10
289.9536528488242
 20
25.26443186627322
 42
1.0
 10
290.7742138825406
 20
25.39867403457779
 42
1.0
 72
     1
 10
290.7742138825406
 20
25.39867403457779
 11
287.7715077796773
 21
25.39867403457779
 72
     4
 94
        3
 73
     1
 74
     0
 95
       17
 96
       13
 40
16.0
 40
16.0
 40
16.0
 40
16.0
 40
17.0
 40
17.0
 40
17.0
 40
18.0
 40
18.0
 40
18.0
 40
19.0
 40
19.0
 40
19.0
 40
20.0
 40
20.0
 40
20.0
 40
20.0
 10
287.7715077796773
 20
25.39867403457779
 42
1.0
 10
287.9710693005408
 20
25.34310267453518
 42
1.0
 10
288.1718392788191
 20
25.32949945687163
 42
1.0
 10
288.3670435880915
 20
25.28904726743022
 42
1.0
 10
288.7601181928394
 20
25.20759054971102
 42
1.0
 10
288.9174636530569
 20
24.97387165717582
 42
1.0
 10
288.8543009972361
 20
24.57697987985169
 42
1.0
 10
288.8373887433532
 20
24.47070865762303
 42
1.0
 10
288.8131334963293
 20
24.35736772890119
 42
1.0
 10
288.7595985254019
 20
24.26650702928458
 42
1.0
 10
288.4211781752921
 20
23.692108847638
 42
1.0
 10
288.0735790837579
 20
23.12311989664797
 42
1.0
 10
287.7233847299918
 20
22.54303496963325
 42
1.0
 72
     1
 10
287.7233847299918
 20
22.54303496963325
 11
285.8065406500284
 21
24.86455968857224
 72
     4
 94
        3
 73
     1
 74
     0
 95
       20
 96
       16
 40
10.0
 40
10.0
 40
10.0
 40
10.0
 40
11.0
 40
11.0
 40
11.0
 40
12.0
 40
12.0
 40
12.0
 40
13.0
 40
13.0
 40
13.0
 40
14.0
 40
14.0
 40
14.0
 40
15.0
 40
15.0
 40
15.0
 40
15.0
 10
285.8065406500283
 20
24.86455968857225
 42
1.0
 10
285.9002991106001
 20
24.9215528310502
 42
1.0
 10
286.0025259979348
 20
24.975621306713
 42
1.0
 10
286.0959738880259
 20
25.04203380586477
 42
1.0
 10
286.361711520857
 20
25.23088333574105
 42
1.0
 10
286.6551698752792
 20
25.39378370261948
 42
1.0
 10
286.8815726805328
 20
25.62247811827483
 42
1.0
 10
287.5614237619422
 20
26.30921056516709
 42
1.0
 10
287.361321048954
 20
27.32558686332681
 42
1.0
 10
286.4793408590448
 20
27.71426216803416
 42
1.0
 10
285.840402057257
 20
27.99583274545401
 42
1.0
 10
285.1912113546599
 20
27.99239110178883
 42
1.0
 10
284.558084218296
 20
27.68711127408746
 42
1.0
 10
283.9109291360762
 20
27.37506654483262
 42
1.0
 10
283.6309452355653
 20
26.8393466878164
 42
1.0
 10
283.7149530130354
 20
26.1296866058298
 42
1.0
 72
     4
 94
        3
 73
     1
 74
     0
 95
       11
 96
        7
 40
8.0
 40
8.0
 40
8.0
 40
8.0
 40
9.0
 40
9.0
 40
9.0
 40
10.0
 40
10.0
 40
10.0
 40
10.0
 10
283.7149530130354
 20
26.1296866058298
 42
1.0
 10
283.7707819005811
 20
25.65802498535045
 42
1.0
 10
284.0198409761273
 20
25.28515591156022
 42
1.0
 10
284.3077767109179
 20
24.93075271279267
 42
1.0
 10
284.4323277733789
 20
24.77744812814591
 42
1.0
 10
284.5641388051866
 20
24.6300390014551
 42
1.0
 10
284.7027239634148
 20
24.46818604120849
 42
1.0
 72
     4
 94
        3
 73
     1
 74
     0
 95
       20
 96
       16
 40
3.0
 40
3.0
 40
3.0
 40
3.0
 40
4.0
 40
4.0
 40
4.0
 40
5.0
 40
5.0
 40
5.0
 40
6.0
 40
6.0
 40
6.0
 40
7.0
 40
7.0
 40
7.0
 40
8.0
 40
8.0
 40
8.0
 40
8.0
 10
284.7027239634148
 20
24.46818604120849
 42
1.0
 10
284.5513685160267
 20
24.38851087568819
 42
1.0
 10
284.4255536469583
 20
24.32317807019961
 42
1.0
 10
284.3005597909425
 20
24.25632085564481
 42
1.0
 10
283.8607304915963
 20
24.02105948868024
 42
1.0
 10
283.460866385652
 20
23.73663343094009
 42
1.0
 10
283.1417229300147
 20
23.34576433784628
 42
1.0
 10
282.3522343191156
 20
22.37884389028816
 42
1.0
 10
282.6109241545095
 20
20.5355588898502
 42
1.0
 10
284.198169930981
 20
20.23446388406056
 42
1.0
 10
285.1515567317372
 20
20.05360962220845
 42
1.0
 10
285.9488126796034
 20
20.36759637788916
 42
1.0
 10
286.5896302790503
 20
21.09003174583673
 42
1.0
 10
286.7443651022574
 20
21.26447318851251
 42
1.0
 10
286.8995550188436
 20
21.43851181205056
 42
1.0
 10
287.0539854214827
 20
21.61211917311517
 42
1.0
 97
        0
 92
        0
 93
        2
 72
     4
 94
        3
 73
     1
 74
     0
 95
       14
 96
       10
 40
0.0
 40
0.0
 40
0.0
 40
0.0
 40
1.0
 40
1.0
 40
1.0
 40
2.0
 40
2.0
 40
2.0
 40
3.0
 40
3.0
 40
3.0
 40
3.0
 10
284.688382372121
 20
27.15085253116304
 42
1.0
 10
284.8337724063213
 20
27.5710895609412
 42
1.0
 10
285.1818973152029
 20
27.79269159230804
 42
1.0
 10
285.6158934244382
 20
27.76810636414938
 42
1.0
 10
285.9916529561654
 20
27.74682017860581
 42
1.0
 10
286.2400293916459
 20
27.5110460628537
 42
1.0
 10
286.3549927436335
 20
27.06650131962916
 42
1.0
 10
286.5713650448558
 20
26.2298440482801
 42
1.0
 10
286.3259713159692
 20
25.4295804098103
 42
1.0
 10
285.6520579731507
 20
24.9254318870995
 42
1.0
 72
     4
 94
        3
 73
     1
 74
     0
 95
       11
 96
        7
 40
3.0
 40
3.0
 40
3.0
 40
3.0
 40
4.0
 40
4.0
 40
4.0
 40
5.0
 40
5.0
 40
5.0
 40
5.0
 10
285.6520579731507
 20
24.9254318870995
 42
1.0
 10
285.3510444536752
 20
25.31853032275095
 42
1.0
 10
285.0380140090768
 20
25.68714980838475
 42
1.0
 10
284.7721626029031
 20
26.08712768767229
 42
1.0
 10
284.5571094574822
 20
26.41068293535724
 42
1.0
 10
284.5630810205802
 20
26.788679112661
 42
1.0
 10
284.688382372121
 20
27.15085253116304
 42
1.0
 97
        0
 92
        0
 93
        2
 72
     1
 10
284.845288113738
 20
24.3712657578988
 11
287.0009947176327
 21
21.77781006188367
 72
     4
 94
        3
 73
     1
 74
     0
 95
       14
 96
       10
 40
1.0
 40
1.0
 40
1.0
 40
1.0
 40
2.0
 40
2.0
 40
2.0
 40
3.0
 40
3.0
 40
3.0
 40
4.0
 40
4.0
 40
4.0
 40
4.0
 10
287.0009947176327
 20
21.77781006188367
 42
1.0
 10
286.5509442670314
 20
21.22618922689351
 42
1.0
 10
286.0339581905155
 20
20.90925282038733
 42
1.0
 10
285.3603677179978
 20
20.87638462370451
 42
1.0
 10
284.4974276510072
 20
20.83427541775252
 42
1.0
 10
283.8665083325146
 20
21.39392726712143
 42
1.0
 10
283.7780264951535
 20
22.28619625730053
 42
1.0
 10
283.6988925217564
 20
23.08417174469389
 42
1.0
 10
284.1054815548355
 20
23.90423117633508
 42
1.0
 10
284.845288113738
 20
24.3712657578988
 42
1.0
 97
        0
 75
     0
 76
     1
 98
        1
 10
0.0
 20
0.0
  0
HATCH
  5
79
330
1F
100
AcDbEntity
  8
0
  6
Continuous
 62
     7
100
AcDbHatch
 10
0.0
 20
0.0
 30
0.0
210
0.0
220
0.0
230
1.0
  2
SOLID
 70
     1
 71
     0
 91
        1
 92
        0
 93
        2
 72
     4
 94
        3
 73
     1
 74
     0
 95
       11
 96
        7
 40
0.0
 40
0.0
 40
0.0
 40
0.0
 40
1.0
 40
1.0
 40
1.0
 40
2.0
 40
2.0
 40
2.0
 40
2.0
 10
303.0570519104932
 20
26.35430478392947
 42
1.0
 10
303.0628482011429
 20
25.96449808787493
 42
1.0
 10
303.3259905717408
 20
25.69768229885988
 42
1.0
 10
303.6993639381942
 20
25.70301926806731
 42
1.0
 10
304.0680572227529
 20
25.70828897263022
 42
1.0
 10
304.3293945946187
 20
25.98752450590587
 42
1.0
 10
304.327448147944
 20
26.37412133304796
 42
1.0
 72
     4
 94
        3
 73
     1
 74
     0
 95
       11
 96
        7
 40
2.0
 40
2.0
 40
2.0
 40
2.0
 40
3.0
 40
3.0
 40
3.0
 40
4.0
 40
4.0
 40
4.0
 40
4.0
 10
304.327448147944
 20
26.37412133304796
 42
1.0
 10
304.3255386007336
 20
26.75299425696746
 42
1.0
 10
304.0507636744179
 20
27.04560238626284
 42
1.0
 10
303.6924299141011
 20
27.05034857969325
 42
1.0
 10
303.3266947364936
 20
27.05519259513757
 42
1.0
 10
303.0511172468595
 20
26.75330175249256
 42
1.0
 10
303.0570519104932
 20
26.35430478392947
 42
1.0
 97
        0
 75
     0
 76
     1
 98
        1
 10
0.0
 20
0.0
  0
HATCH
  5
7A
330
1F
100
AcDbEntity
  8
0
  6
Continuous
 62
     7
100
AcDbHatch
 10
0.0
 20
0.0
 30
0.0
210
0.0
220
0.0
230
1.0
  2
SOLID
 70
     1
 71
     0
 91
        1
 92
        0
 93
        4
 72
     1
 10
302.6973344203136
 20
20.2539775500868
 11
304.8038079156778
 21
20.2539775500868
 72
     4
 94
        3
 73
     1
 74
     0
 95
       17
 96
       13
 40
6.0
 40
6.0
 40
6.0
 40
6.0
 40
7.0
 40
7.0
 40
7.0
 40
8.0
 40
8.0
 40
8.0
 40
9.0
 40
9.0
 40
9.0
 40
10.0
 40
10.0
 40
10.0
 40
10.0
 10
304.8038079156778
 20
20.2539775500868
 42
1.0
 10
304.4578262506061
 20
20.33981031349822
 42
1.0
 10
304.2621822227331
 20
20.55023795748124
 42
1.0
 10
304.2107535961514
 20
20.89393877449616
 42
1.0
 10
304.1922454404932
 20
21.01764883669525
 42
1.0
 10
304.1821011631179
 20
21.14380579453512
 42
1.0
 10
304.1818797663412
 20
21.26887114326077
 42
1.0
 10
304.1797703470369
 20
22.46084295323946
 42
1.0
 10
304.1808527312862
 20
23.65282014439031
 42
1.0
 10
304.1800932173391
 20
24.84479541369365
 42
1.0
 10
304.1800409430993
 20
24.93136078519359
 42
1.0
 10
304.1727133247369
 20
25.01792115989102
 42
1.0
 10
304.1706223551654
 20
25.06377258638473
 42
1.0
 72
     1
 10
304.1706223551654
 20
25.06377258638473
 11
302.7125031745686
 21
24.50968064047992
 72
     4
 94
        3
 73
     1
 74
     0
 95
       17
 96
       13
 40
1.0
 40
1.0
 40
1.0
 40
1.0
 40
2.0
 40
2.0
 40
2.0
 40
3.0
 40
3.0
 40
3.0
 40
4.0
 40
4.0
 40
4.0
 40
5.0
 40
5.0
 40
5.0
 40
5.0
 10
302.7125031745686
 20
24.50968064047994
 42
1.0
 10
302.7604109773859
 20
24.50557288463289
 42
1.0
 10
302.8224697242704
 20
24.49650561033552
 42
1.0
 10
302.8846514693661
 20
24.49557889569631
 42
1.0
 10
303.1332831261333
 20
24.4918735746181
 42
1.0
 10
303.2632153602819
 20
24.35030186610297
 42
1.0
 10
303.2668591822546
 20
24.11891186780057
 42
1.0
 10
303.2829750227277
 20
23.09531768874206
 42
1.0
 10
303.296603224403
 20
22.071496731734
 42
1.0
 10
303.2916556214044
 20
21.04785181591346
 42
1.0
 10
303.2897768237453
 20
20.65853557522151
 42
1.0
 10
303.1321361678242
 20
20.3494649042487
 42
1.0
 10
302.6973344203136
 20
20.2539775500868
 42
1.0
 97
        0
 75
     0
 76
     1
 98
        1
 10
0.0
 20
0.0
  0
HATCH
  5
7B
330
1F
100
AcDbEntity
  8
0
  6
Continuous
 62
     7
100
AcDbHatch
 10
0.0
 20
0.0
 30
0.0
210
0.0
220
0.0
230
1.0
  2
SOLID
 70
     1
 71
     0
 91
        1
 92
        0
 93
        4
 72
     1
 10
308.65963267846
 20
27.88697759989075
 11
307.1608133901539
 21
27.32540717062984
 72
     4
 94
        3
 73
     1
 74
     0
 95
       20
 96
       16
 40
5.0
 40
5.0
 40
5.0
 40
5.0
 40
6.0
 40
6.0
 40
6.0
 40
7.0
 40
7.0
 40
7.0
 40
8.0
 40
8.0
 40
8.0
 40
9.0
 40
9.0
 40
9.0
 40
10.0
 40
10.0
 40
10.0
 40
10.0
 10
307.1608133901539
 20
27.32540717062984
 42
1.0
 10
307.6774858212348
 20
27.28280885460759
 42
1.0
 10
307.7501131893193
 20
27.20350460556406
 42
1.0
 10
307.7547502218385
 20
26.63215658734291
 42
1.0
 10
307.7552944889174
 20
26.56503146731187
 42
1.0
 10
307.7550361926765
 20
26.49789904426262
 42
1.0
 10
307.7550361926765
 20
26.43077008053731
 42
1.0
 10
307.7550484924979
 20
24.69380511724257
 42
1.0
 10
307.7587445887104
 20
22.95682170421714
 42
1.0
 10
307.7500732149022
 20
21.21990094340409
 42
1.0
 10
307.7490584796685
 20
21.01681475508336
 42
1.0
 10
307.7285516030971
 20
20.78446498637255
 42
1.0
 10
307.6283941606454
 20
20.61954360515536
 42
1.0
 10
307.5293898264143
 20
20.45652254628292
 42
1.0
 10
307.3179589782804
 20
20.36177625633667
 42
1.0
 10
307.178408284104
 20
20.25443648715803
 42
1.0
 72
     1
 10
307.178408284104
 20
20.25443648715803
 11
309.3620693061908
 21
20.25443648715802
 72
     4
 94
        3
 73
     1
 74
     0
 95
       14
 96
       10
 40
1.0
 40
1.0
 40
1.0
 40
1.0
 40
2.0
 40
2.0
 40
2.0
 40
3.0
 40
3.0
 40
3.0
 40
4.0
 40
4.0
 40
4.0
 40
4.0
 10
309.3620693061908
 20
20.25443648715802
 42
1.0
 10
308.807415027844
 20
20.43200746554105
 42
1.0
 10
308.6597679764911
 20
20.6374237012035
 42
1.0
 10
308.6597187772069
 20
21.15880542625192
 42
1.0
 10
308.6595035303402
 20
23.32371921490944
 42
1.0
 10
308.65963267846
 20
25.48863300356693
 42
1.0
 10
308.65963267846
 20
27.65354698440997
 42
1.0
 10
308.65963267846
 20
27.74275854708867
 42
1.0
 10
308.65963267846
 20
27.83196991758182
 42
1.0
 10
308.65963267846
 20
27.88697759989075
 42
1.0
 97
        0
 75
     0
 76
     1
 98
        1
 10
0.0
 20
0.0
  0
HATCH
  5
7C
330
1F
100
AcDbEntity
  8
0
  6
Continuous
 62
     7
100
AcDbHatch
 10
0.0
 20
0.0
 30
0.0
210
0.0
220
0.0
230
1.0
  2
SOLID
 70
     1
 71
     0
 91
        1
 92
        0
 93
        4
 72
     1
 10
313.1781318226163
 20
27.87703492426926
 11
311.6691528821608
 21
27.32445797038016
 72
     4
 94
        3
 73
     1
 74
     0
 95
       17
 96
       13
 40
6.0
 40
6.0
 40
6.0
 40
6.0
 40
7.0
 40
7.0
 40
7.0
 40
8.0
 40
8.0
 40
8.0
 40
9.0
 40
9.0
 40
9.0
 40
10.0
 40
10.0
 40
10.0
 40
10.0
 10
311.6691528821608
 20
27.32445797038016
 42
1.0
 10
312.2096131670664
 20
27.27631108979181
 42
1.0
 10
312.2683694120104
 20
27.21300429544448
 42
1.0
 10
312.2823973578678
 20
26.60716642601487
 42
1.0
 10
312.2845313768121
 20
26.51487279724974
 42
1.0
 10
312.2871512386867
 20
26.42255802816857
 42
1.0
 10
312.2871819882395
 20
26.33025248395311
 42
1.0
 10
312.2877662297369
 20
24.60974045310045
 42
1.0
 10
312.2890700107628
 20
22.88922803787955
 42
1.0
 10
312.2876555313485
 20
21.16871754450475
 42
1.0
 10
312.2872188877024
 20
20.63608302071405
 42
1.0
 10
312.1185268426077
 20
20.41647125413319
 42
1.0
 10
311.6156486607861
 20
20.25320881127337
 42
1.0
 72
     1
 10
311.6156486607861
 20
20.25320881127337
 11
313.8867245107604
 21
20.25320881127337
 72
     4
 94
        3
 73
     1
 74
     0
 95
       17
 96
       13
 40
1.0
 40
1.0
 40
1.0
 40
1.0
 40
2.0
 40
2.0
 40
2.0
 40
3.0
 40
3.0
 40
3.0
 40
4.0
 40
4.0
 40
4.0
 40
5.0
 40
5.0
 40
5.0
 40
5.0
 10
313.8867245107604
 20
20.25320881127337
 42
1.0
 10
313.3266152617988
 20
20.4348325806782
 42
1.0
 10
313.1888880160859
 20
20.62648762285203
 42
1.0
 10
313.1786115156352
 20
21.17082388885262
 42
1.0
 10
313.1771847363981
 20
21.24633325874564
 42
1.0
 10
313.1781441224363
 20
21.32188875296783
 42
1.0
 10
313.1781441224363
 20
21.39742349124222
 42
1.0
 10
313.1781256727049
 20
23.48721689184593
 42
1.0
 10
313.1781318226163
 20
25.57700952371036
 42
1.0
 10
313.1781318226163
 20
27.66680273212925
 42
1.0
 10
313.1781318226163
 20
27.75161518695077
 42
1.0
 10
313.1781318226163
 20
27.83642744958889
 42
1.0
 10
313.1781318226163
 20
27.87703492426926
 42
1.0
 97
        0
 75
     0
 76
     1
 98
        1
 10
0.0
 20
0.0
  0
HATCH
  5
7D
330
1F
100
AcDbEntity
  8
0
  6
Continuous
 62
     7
100
AcDbHatch
 10
0.0
 20
0.0
 30
0.0
210
0.0
220
0.0
230
1.0
  2
SOLID
 70
     1
 71
     0
 91
        1
 92
        0
 93
       12
 72
     1
 10
296.2715297073844
 20
27.50458020069891
 11
293.841527870193
 21
27.50458020069891
 72
     4
 94
        3
 73
     1
 74
     0
 95
       17
 96
       13
 40
21.0
 40
21.0
 40
21.0
 40
21.0
 40
22.0
 40
22.0
 40
22.0
 40
23.0
 40
23.0
 40
23.0
 40
24.0
 40
24.0
 40
24.0
 40
25.0
 40
25.0
 40
25.0
 40
25.0
 10
293.841527870193
 20
27.50458020069891
 42
1.0
 10
294.4654639653083
 20
27.35271373418588
 42
1.0
 10
294.541848928711
 20
26.88863860486635
 42
1.0
 10
294.5396718603926
 20
26.35648992400541
 42
1.0
 10
294.5326947869268
 20
24.65236702027423
 42
1.0
 10
294.54232862173
 20
22.9481603240125
 42
1.0
 10
294.5304592944584
 20
21.24409084762873
 42
1.0
 10
294.52894334152
 20
21.02641399663968
 42
1.0
 10
294.4888489999954
 20
20.77588586122133
 42
1.0
 10
294.3739502220706
 20
20.60171040217499
 42
1.0
 10
294.2655211499942
 20
20.43733713173098
 42
1.0
 10
294.0348564567621
 20
20.35359533789035
 42
1.0
 10
293.8906841048422
 20
20.25643828302682
 42
1.0
 72
     1
 10
293.8906841048422
 20
20.25643828302682
 11
296.2880237673525
 21
20.25643828302682
 72
     4
 94
        3
 73
     1
 74
     0
 95
       14
 96
       10
 40
17.0
 40
17.0
 40
17.0
 40
17.0
 40
18.0
 40
18.0
 40
18.0
 40
19.0
 40
19.0
 40
19.0
 40
20.0
 40
20.0
 40
20.0
 40
20.0
 10
296.2880237673525
 20
20.25643828302682
 42
1.0
 10
295.7413366980624
 20
20.4024294709773
 42
1.0
 10
295.5628078711177
 20
20.63015527572819
 42
1.0
 10
295.5619960829322
 20
21.2138824872384
 42
1.0
 10
295.560827599936
 20
22.05336910178782
 42
1.0
 10
295.561359567195
 20
22.89285956003151
 42
1.0
 10
295.5621928800676
 20
23.73234771205876
 42
1.0
 10
295.5622759038603
 20
23.81306182808445
 42
1.0
 10
295.5696219719554
 20
23.89376787235267
 42
1.0
 10
295.5733857171835
 20
23.97022240661697
 42
1.0
 72
     1
 10
295.5733857171835
 20
23.97022240661697
 11
298.4851131190222
 21
23.97022240661697
 72
     4
 94
        3
 73
     1
 74
     0
 95
       11
 96
        7
 40
14.0
 40
14.0
 40
14.0
 40
14.0
 40
15.0
 40
15.0
 40
15.0
 40
16.0
 40
16.0
 40
16.0
 40
16.0
 10
298.4851131190222
 20
23.97022240661697
 42
1.0
 10
298.4851131190222
 20
23.04419117651474
 42
1.0
 10
298.4852207424561
 20
22.13796342697173
 42
1.0
 10
298.485073144605
 20
21.23173567742801
 42
1.0
 10
298.4849747460367
 20
20.62384393007452
 42
1.0
 10
298.3307257657572
 20
20.41986831094703
 42
1.0
 10
297.7632396991476
 20
20.25412130424438
 42
1.0
 72
     1
 10
297.7632396991476
 20
20.25412130424438
 11
300.2193725060648
 21
20.25412130424438
 72
     4
 94
        3
 73
     1
 74
     0
 95
       17
 96
       13
 40
9.0
 40
9.0
 40
9.0
 40
9.0
 40
10.0
 40
10.0
 40
10.0
 40
11.0
 40
11.0
 40
11.0
 40
12.0
 40
12.0
 40
12.0
 40
13.0
 40
13.0
 40
13.0
 40
13.0
 10
300.2193725060648
 20
20.25412130424438
 42
1.0
 10
299.739442715284
 20
20.41422423058344
 42
1.0
 10
299.5427163031618
 20
20.62720562490344
 42
1.0
 10
299.542119761843
 20
21.03839632851544
 42
1.0
 10
299.5393769017586
 20
22.92724217217554
 42
1.0
 10
299.5395583241182
 20
24.8160968563317
 42
1.0
 10
299.5421628112159
 20
26.70494346873036
 42
1.0
 10
299.5426363543262
 20
27.0468754177367
 42
1.0
 10
299.7248336028849
 20
27.28837413924314
 42
1.0
 10
300.049118383702
 20
27.40930924651266
 42
1.0
 10
300.1052670665942
 20
27.43024796211264
 42
1.0
 10
300.1600043450263
 20
27.45496618208605
 42
1.0
 10
300.2549312885929
 20
27.49433829349534
 42
1.0
 72
     1
 10
300.2549312885929
 20
27.49433829349534
 11
297.7186989723292
 21
27.49433829349534
 72
     4
 94
        3
 73
     1
 74
     0
 95
       14
 96
       10
 40
5.0
 40
5.0
 40
5.0
 40
5.0
 40
6.0
 40
6.0
 40
6.0
 40
7.0
 40
7.0
 40
7.0
 40
8.0
 40
8.0
 40
8.0
 40
8.0
 10
297.7186989723292
 20
27.49433829349534
 42
1.0
 10
298.3648823686909
 20
27.26685790861022
 42
1.0
 10
298.4850762195593
 20
27.0944786077999
 42
1.0
 10
298.4851069691121
 20
26.45733654080182
 42
1.0
 10
298.4851377186649
 20
25.7773505457302
 42
1.0
 10
298.4851131190222
 20
25.09736416629037
 42
1.0
 10
298.4851131190222
 20
24.41737817121947
 42
1.0
 10
298.4851131190222
 20
24.32893553953832
 42
1.0
 10
298.4851131190222
 20
24.24049329222682
 42
1.0
 10
298.4851131190222
 20
24.16049564077468
 42
1.0
 72
     1
 10
298.4851131190222
 20
24.16049564077468
 11
295.5632814142282
 21
24.16049564077468
 72
     4
 94
        3
 73
     1
 74
     0
 95
       14
 96
       10
 40
1.0
 40
1.0
 40
1.0
 40
1.0
 40
2.0
 40
2.0
 40
2.0
 40
3.0
 40
3.0
 40
3.0
 40
4.0
 40
4.0
 40
4.0
 40
4.0
 10
295.5632814142282
 20
24.16049564077468
 42
1.0
 10
295.5632814142282
 20
25.01272602299438
 42
1.0
 10
295.5627432970579
 20
25.84365465270932
 42
1.0
 10
295.5644406723573
 20
26.67457866999212
 42
1.0
 10
295.5645605956114
 20
26.73240397223375
 42
1.0
 10
295.5792681065788
 20
26.79059327230427
 42
1.0
 10
295.5906023916358
 20
26.8479388815276
 42
1.0
 10
295.6648994604227
 20
27.22384581892186
 42
1.0
 10
295.9411319155254
 20
27.38780204855992
 42
1.0
 10
296.2715297073844
 20
27.50458020069891
 42
1.0
 97
        0
 75
     0
 76
     1
 98
        1
 10
0.0
 20
0.0
  0
SPLINE
  5
7E
330
1F
100
AcDbEntity
  8
0
  6
Continuous
 62
   179
370
     0
100
AcDbSpline
210
0.0
220
0.0
230
1.0
 70
     8
 71
     3
 72
    14
 73
    10
 74
     0
 42
0.000000001
 43
0.00000001
 40
24.0
 40
24.0
 40
24.0
 40
24.0
 40
25.0
 40
25.0
 40
25.0
 40
26.0
 40
26.0
 40
26.0
 40
27.0
 40
27.0
 40
27.0
 40
27.0
 10
287.7314564875268
 20
22.42648570947681
 30
0.0
 10
288.0996055050067
 20
21.95463920731319
 30
0.0
 10
288.4270667146001
 20
21.47381844824843
 30
0.0
 10
288.8166481701822
 20
21.05011190802389
 30
0.0
 10
289.3841588364346
 20
20.43289382139212
 30
0.0
 10
289.9836367374808
 20
20.49110656799654
 30
0.0
 10
290.4735170834558
 20
21.16713932372222
 30
0.0
 10
290.5884281612034
 20
21.32571784099438
 30
0.0
 10
290.6825002672103
 20
21.49939669476814
 30
0.0
 10
290.8103661314317
 20
21.70506046432864
 30
0.0
  0
SPLINE
  5
7F
330
1F
100
AcDbEntity
  8
0
  6
Continuous
 62
   179
370
     0
100
AcDbSpline
210
0.0
220
0.0
230
1.0
 70
     8
 71
     3
 72
    11
 73
     7
 74
     0
 42
0.000000001
 43
0.00000001
 40
22.0
 40
22.0
 40
22.0
 40
22.0
 40
23.0
 40
23.0
 40
23.0
 40
24.0
 40
24.0
 40
24.0
 40
24.0
 10
290.7742138825406
 20
25.39867403457779
 30
0.0
 10
289.9536528488242
 20
25.26443186627322
 30
0.0
 10
289.4290162836425
 20
24.71923384406366
 30
0.0
 10
288.9612633156569
 20
24.10441845059237
 30
0.0
 10
288.5466855488353
 20
23.55949371503119
 30
0.0
 10
288.1508588591388
 20
23.00030157147279
 30
0.0
 10
287.7314564875268
 20
22.42648570947681
 30
0.0
  0
SPLINE
  5
80
330
1F
100
AcDbEntity
  8
0
  6
Continuous
 62
   179
370
     0
100
AcDbSpline
210
0.0
220
0.0
230
1.0
 70
     8
 71
     3
 72
    11
 73
     7
 74
     0
 42
0.000000001
 43
0.00000001
 40
20.0
 40
20.0
 40
20.0
 40
20.0
 40
21.0
 40
21.0
 40
21.0
 40
22.0
 40
22.0
 40
22.0
 40
22.0
 10
287.7715077796773
 20
25.39867403457779
 30
0.0
 10
288.2706160663608
 20
25.39867403457779
 30
0.0
 10
288.76972127809
 20
25.39867441894744
 30
0.0
 10
289.2688295647749
 20
25.39867441894744
 30
0.0
 10
289.7706253623487
 20
25.39867441894744
 30
0.0
 10
290.2724180849667
 20
25.39867403457779
 30
0.0
 10
290.7742138825406
 20
25.39867403457779
 30
0.0
  0
SPLINE
  5
81
330
1F
100
AcDbEntity
  8
0
  6
Continuous
 62
   179
370
     0
100
AcDbSpline
210
0.0
220
0.0
230
1.0
 70
     8
 71
     3
 72
    17
 73
    13
 74
     0
 42
0.000000001
 43
0.00000001
 40
16.0
 40
16.0
 40
16.0
 40
16.0
 40
17.0
 40
17.0
 40
17.0
 40
18.0
 40
18.0
 40
18.0
 40
19.0
 40
19.0
 40
19.0
 40
20.0
 40
20.0
 40
20.0
 40
20.0
 10
287.7233847299918
 20
22.54303496963325
 30
0.0
 10
288.0735790837579
 20
23.12311989664797
 30
0.0
 10
288.4211781752921
 20
23.692108847638
 30
0.0
 10
288.7595985254019
 20
24.26650702928458
 30
0.0
 10
288.8131334963293
 20
24.3573677289012
 30
0.0
 10
288.8373887433532
 20
24.47070865762303
 30
0.0
 10
288.8543009972361
 20
24.57697987985169
 30
0.0
 10
288.9174636530569
 20
24.97387165717582
 30
0.0
 10
288.7601181928394
 20
25.20759054971102
 30
0.0
 10
288.3670435880915
 20
25.28904726743022
 30
0.0
 10
288.1718392788191
 20
25.32949945687163
 30
0.0
 10
287.9710693005408
 20
25.34310267453518
 30
0.0
 10
287.7715077796773
 20
25.39867403457779
 30
0.0
  0
SPLINE
  5
82
330
1F
100
AcDbEntity
  8
0
  6
Continuous
 62
   179
370
     0
100
AcDbSpline
210
0.0
220
0.0
230
1.0
 70
     8
 71
     3
 72
     8
 73
     4
 74
     0
 42
0.000000001
 43
0.00000001
 40
15.0
 40
15.0
 40
15.0
 40
15.0
 40
16.0
 40
16.0
 40
16.0
 40
16.0
 10
285.8065406500283
 20
24.86455968857225
 30
0.0
 10
286.4380688096612
 20
24.09970377545334
 30
0.0
 10
287.0596648638312
 20
23.34687900912474
 30
0.0
 10
287.7233847299918
 20
22.54303496963325
 30
0.0
  0
SPLINE
  5
83
330
1F
100
AcDbEntity
  8
0
  6
Continuous
 62
   179
370
     0
100
AcDbSpline
210
0.0
220
0.0
230
1.0
 70
     8
 71
     3
 72
    26
 73
    22
 74
     0
 42
0.000000001
 43
0.00000001
 40
8.0
 40
8.0
 40
8.0
 40
8.0
 40
9.0
 40
9.0
 40
9.0
 40
10.0
 40
10.0
 40
10.0
 40
11.0
 40
11.0
 40
11.0
 40
12.0
 40
12.0
 40
12.0
 40
13.0
 40
13.0
 40
13.0
 40
14.0
 40
14.0
 40
14.0
 40
15.0
 40
15.0
 40
15.0
 40
15.0
 10
284.7027239634148
 20
24.4681860412085
 30
0.0
 10
284.5641388051866
 20
24.63003900145511
 30
0.0
 10
284.4323277733789
 20
24.77744812814592
 30
0.0
 10
284.3077767109179
 20
24.93075271279267
 30
0.0
 10
284.0198409761273
 20
25.28515591156022
 30
0.0
 10
283.7707819005811
 20
25.65802498535045
 30
0.0
 10
283.7149530130354
 20
26.1296866058298
 30
0.0
 10
283.6309452355654
 20
26.8393466878164
 30
0.0
 10
283.9109291360762
 20
27.37506654483262
 30
0.0
 10
284.558084218296
 20
27.68711127408746
 30
0.0
 10
285.1912113546599
 20
27.99239110178883
 30
0.0
 10
285.840402057257
 20
27.99583274545402
 30
0.0
 10
286.4793408590448
 20
27.71426216803416
 30
0.0
 10
287.361321048954
 20
27.32558686332681
 30
0.0
 10
287.5614237619422
 20
26.30921056516709
 30
0.0
 10
286.8815726805328
 20
25.62247811827483
 30
0.0
 10
286.6551698752792
 20
25.39378370261948
 30
0.0
 10
286.361711520857
 20
25.23088333574105
 30
0.0
 10
286.0959738880259
 20
25.04203380586477
 30
0.0
 10
286.0025259979348
 20
24.97562130671301
 30
0.0
 10
285.9002991106001
 20
24.9215528310502
 30
0.0
 10
285.8065406500283
 20
24.86455968857225
 30
0.0
  0
SPLINE
  5
84
330
1F
100
AcDbEntity
  8
0
  6
Continuous
 62
   179
370
     0
100
AcDbSpline
210
0.0
220
0.0
230
1.0
 70
     8
 71
     3
 72
    20
 73
    16
 74
     0
 42
0.000000001
 43
0.00000001
 40
3.0
 40
3.0
 40
3.0
 40
3.0
 40
4.0
 40
4.0
 40
4.0
 40
5.0
 40
5.0
 40
5.0
 40
6.0
 40
6.0
 40
6.0
 40
7.0
 40
7.0
 40
7.0
 40
8.0
 40
8.0
 40
8.0
 40
8.0
 10
287.0539854214827
 20
21.61211917311518
 30
0.0
 10
286.8995550188436
 20
21.43851181205056
 30
0.0
 10
286.7443651022574
 20
21.26447318851252
 30
0.0
 10
286.5896302790503
 20
21.09003174583674
 30
0.0
 10
285.9488126796034
 20
20.36759637788917
 30
0.0
 10
285.1515567317372
 20
20.05360962220845
 30
0.0
 10
284.198169930981
 20
20.23446388406056
 30
0.0
 10
282.6109241545095
 20
20.5355588898502
 30
0.0
 10
282.3522343191156
 20
22.37884389028816
 30
0.0
 10
283.1417229300147
 20
23.34576433784628
 30
0.0
 10
283.460866385652
 20
23.7366334309401
 30
0.0
 10
283.8607304915963
 20
24.02105948868025
 30
0.0
 10
284.3005597909425
 20
24.25632085564482
 30
0.0
 10
284.4255536469583
 20
24.32317807019961
 30
0.0
 10
284.5513685160267
 20
24.38851087568819
 30
0.0
 10
284.7027239634148
 20
24.4681860412085
 30
0.0
  0
SPLINE
  5
85
330
1F
100
AcDbEntity
  8
0
  6
Continuous
 62
   179
370
     0
100
AcDbSpline
210
0.0
220
0.0
230
1.0
 70
     8
 71
     3
 72
    14
 73
    10
 74
     0
 42
0.000000001
 43
0.00000001
 40
0.0
 40
0.0
 40
0.0
 40
0.0
 40
1.0
 40
1.0
 40
1.0
 40
2.0
 40
2.0
 40
2.0
 40
3.0
 40
3.0
 40
3.0
 40
3.0
 10
290.8103661314317
 20
21.70506046432864
 30
0.0
 10
290.7160910783766
 20
21.04182259740494
 30
0.0
 10
289.9739444785289
 20
20.32342848939635
 30
0.0
 10
289.3271645408483
 20
20.20870037148624
 30
0.0
 10
288.7048673968812
 20
20.0983148591309
 30
0.0
 10
288.1784811821614
 20
20.26780485511384
 30
0.0
 10
287.7601488949774
 20
20.73592220529573
 30
0.0
 10
287.5152010346028
 20
21.01001756649998
 30
0.0
 10
287.2972697310665
 20
21.30825593886041
 30
0.0
 10
287.0539854214827
 20
21.61211917311518
 30
0.0
  0
SPLINE
  5
86
330
1F
100
AcDbEntity
  8
0
  6
Continuous
 62
   179
370
     0
100
AcDbSpline
210
0.0
220
0.0
230
1.0
 70
     8
 71
     3
 72
    14
 73
    10
 74
     0
 42
0.000000001
 43
0.00000001
 40
1.0
 40
1.0
 40
1.0
 40
1.0
 40
2.0
 40
2.0
 40
2.0
 40
3.0
 40
3.0
 40
3.0
 40
4.0
 40
4.0
 40
4.0
 40
4.0
 10
284.845288113738
 20
24.3712657578988
 30
0.0
 10
284.1054815548355
 20
23.90423117633508
 30
0.0
 10
283.6988925217564
 20
23.08417174469389
 30
0.0
 10
283.7780264951535
 20
22.28619625730053
 30
0.0
 10
283.8665083325146
 20
21.39392726712143
 30
0.0
 10
284.4974276510072
 20
20.83427541775253
 30
0.0
 10
285.3603677179978
 20
20.87638462370452
 30
0.0
 10
286.0339581905155
 20
20.90925282038733
 30
0.0
 10
286.5509442670314
 20
21.22618922689351
 30
0.0
 10
287.0009947176327
 20
21.77781006188367
 30
0.0
  0
SPLINE
  5
87
330
1F
100
AcDbEntity
  8
0
  6
Continuous
 62
   179
370
     0
100
AcDbSpline
210
0.0
220
0.0
230
1.0
 70
     8
 71
     3
 72
     8
 73
     4
 74
     0
 42
0.000000001
 43
0.00000001
 40
0.0
 40
0.0
 40
0.0
 40
0.0
 40
1.0
 40
1.0
 40
1.0
 40
1.0
 10
287.0009947176327
 20
21.77781006188367
 30
0.0
 10
286.2819902310068
 20
22.64282111123716
 30
0.0
 10
285.5612360948443
 20
23.50993158628786
 30
0.0
 10
284.845288113738
 20
24.3712657578988
 30
0.0
  0
SPLINE
  5
88
330
1F
100
AcDbEntity
  8
0
  6
Continuous
 62
   179
370
     0
100
AcDbSpline
210
0.0
220
0.0
230
1.0
 70
     8
 71
     3
 72
    11
 73
     7
 74
     0
 42
0.000000001
 43
0.00000001
 40
3.0
 40
3.0
 40
3.0
 40
3.0
 40
4.0
 40
4.0
 40
4.0
 40
5.0
 40
5.0
 40
5.0
 40
5.0
 10
284.6883823721211
 20
27.15085253116305
 30
0.0
 10
284.5630810205802
 20
26.788679112661
 30
0.0
 10
284.5571094574822
 20
26.41068293535724
 30
0.0
 10
284.7721626029031
 20
26.08712768767229
 30
0.0
 10
285.0380140090768
 20
25.68714980838475
 30
0.0
 10
285.3510444536753
 20
25.31853032275096
 30
0.0
 10
285.6520579731507
 20
24.9254318870995
 30
0.0
  0
SPLINE
  5
89
330
1F
100
AcDbEntity
  8
0
  6
Continuous
 62
   179
370
     0
100
AcDbSpline
210
0.0
220
0.0
230
1.0
 70
     8
 71
     3
 72
    14
 73
    10
 74
     0
 42
0.000000001
 43
0.00000001
 40
0.0
 40
0.0
 40
0.0
 40
0.0
 40
1.0
 40
1.0
 40
1.0
 40
2.0
 40
2.0
 40
2.0
 40
3.0
 40
3.0
 40
3.0
 40
3.0
 10
285.6520579731507
 20
24.9254318870995
 30
0.0
 10
286.3259713159692
 20
25.4295804098103
 30
0.0
 10
286.5713650448558
 20
26.2298440482801
 30
0.0
 10
286.3549927436335
 20
27.06650131962916
 30
0.0
 10
286.2400293916459
 20
27.5110460628537
 30
0.0
 10
285.9916529561654
 20
27.74682017860582
 30
0.0
 10
285.6158934244382
 20
27.76810636414938
 30
0.0
 10
285.1818973152029
 20
27.79269159230804
 30
0.0
 10
284.8337724063213
 20
27.5710895609412
 30
0.0
 10
284.6883823721211
 20
27.15085253116305
 30
0.0
  0
SPLINE
  5
8A
330
1F
100
AcDbEntity
  8
0
  6
Continuous
 62
   179
370
     0
100
AcDbSpline
210
0.0
220
0.0
230
1.0
 70
     8
 71
     3
 72
    17
 73
    13
 74
     0
 42
0.000000001
 43
0.00000001
 40
21.0
 40
21.0
 40
21.0
 40
21.0
 40
22.0
 40
22.0
 40
22.0
 40
23.0
 40
23.0
 40
23.0
 40
24.0
 40
24.0
 40
24.0
 40
25.0
 40
25.0
 40
25.0
 40
25.0
 10
293.8906841048423
 20
20.25643828302682
 30
0.0
 10
294.0348564567621
 20
20.35359533789035
 30
0.0
 10
294.2655211499942
 20
20.43733713173099
 30
0.0
 10
294.3739502220706
 20
20.601710402175
 30
0.0
 10
294.4888489999955
 20
20.77588586122134
 30
0.0
 10
294.5289433415201
 20
21.02641399663968
 30
0.0
 10
294.5304592944584
 20
21.24409084762874
 30
0.0
 10
294.5423286217301
 20
22.94816032401251
 30
0.0
 10
294.5326947869268
 20
24.65236702027423
 30
0.0
 10
294.5396718603926
 20
26.35648992400541
 30
0.0
 10
294.541848928711
 20
26.88863860486636
 30
0.0
 10
294.4654639653083
 20
27.35271373418588
 30
0.0
 10
293.841527870193
 20
27.50458020069892
 30
0.0
  0
SPLINE
  5
8B
330
1F
100
AcDbEntity
  8
0
  6
Continuous
 62
   179
370
     0
100
AcDbSpline
210
0.0
220
0.0
230
1.0
 70
    24
 71
     3
 72
     8
 73
     4
 74
     0
 42
0.000000001
 43
0.00000001
 40
20.0
 40
20.0
 40
20.0
 40
20.0
 40
21.0
 40
21.0
 40
21.0
 40
21.0
 10
296.2880237673526
 20
20.25643828302682
 30
0.0
 10
295.4693261565182
 20
20.25643828302682
 30
0.0
 10
294.6506254707311
 20
20.25643828302682
 30
0.0
 10
293.8906841048423
 20
20.25643828302682
 30
0.0
  0
SPLINE
  5
8C
330
1F
100
AcDbEntity
  8
0
  6
Continuous
 62
   179
370
     0
100
AcDbSpline
210
0.0
220
0.0
230
1.0
 70
     8
 71
     3
 72
    14
 73
    10
 74
     0
 42
0.000000001
 43
0.00000001
 40
17.0
 40
17.0
 40
17.0
 40
17.0
 40
18.0
 40
18.0
 40
18.0
 40
19.0
 40
19.0
 40
19.0
 40
20.0
 40
20.0
 40
20.0
 40
20.0
 10
295.5733857171836
 20
23.97022240661698
 30
0.0
 10
295.5696219719554
 20
23.89376787235267
 30
0.0
 10
295.5622759038603
 20
23.81306182808446
 30
0.0
 10
295.5621928800676
 20
23.73234771205876
 30
0.0
 10
295.561359567195
 20
22.89285956003151
 30
0.0
 10
295.560827599936
 20
22.05336910178782
 30
0.0
 10
295.5619960829322
 20
21.2138824872384
 30
0.0
 10
295.5628078711177
 20
20.63015527572819
 30
0.0
 10
295.7413366980624
 20
20.4024294709773
 30
0.0
 10
296.2880237673526
 20
20.25643828302682
 30
0.0
  0
SPLINE
  5
8D
330
1F
100
AcDbEntity
  8
0
  6
Continuous
 62
   179
370
     0
100
AcDbSpline
210
0.0
220
0.0
230
1.0
 70
    24
 71
     3
 72
     8
 73
     4
 74
     0
 42
0.000000001
 43
0.00000001
 40
16.0
 40
16.0
 40
16.0
 40
16.0
 40
17.0
 40
17.0
 40
17.0
 40
17.0
 10
298.4851131190222
 20
23.97022240661698
 30
0.0
 10
297.5154382802974
 20
23.97022240661698
 30
0.0
 10
296.5557754958725
 20
23.97022240661698
 30
0.0
 10
295.5733857171836
 20
23.97022240661698
 30
0.0
  0
SPLINE
  5
8E
330
1F
100
AcDbEntity
  8
0
  6
Continuous
 62
   179
370
     0
100
AcDbSpline
210
0.0
220
0.0
230
1.0
 70
     8
 71
     3
 72
    11
 73
     7
 74
     0
 42
0.000000001
 43
0.00000001
 40
14.0
 40
14.0
 40
14.0
 40
14.0
 40
15.0
 40
15.0
 40
15.0
 40
16.0
 40
16.0
 40
16.0
 40
16.0
 10
297.7632396991476
 20
20.25412130424438
 30
0.0
 10
298.3307257657572
 20
20.41986831094704
 30
0.0
 10
298.4849747460367
 20
20.62384393007452
 30
0.0
 10
298.485073144605
 20
21.23173567742802
 30
0.0
 10
298.4852207424561
 20
22.13796342697173
 30
0.0
 10
298.4851131190222
 20
23.04419117651474
 30
0.0
 10
298.4851131190222
 20
23.97022240661698
 30
0.0
  0
SPLINE
  5
8F
330
1F
100
AcDbEntity
  8
0
  6
Continuous
 62
   179
370
     0
100
AcDbSpline
210
0.0
220
0.0
230
1.0
 70
    24
 71
     3
 72
     8
 73
     4
 74
     0
 42
0.000000001
 43
0.00000001
 40
13.0
 40
13.0
 40
13.0
 40
13.0
 40
14.0
 40
14.0
 40
14.0
 40
14.0
 10
300.2193725060649
 20
20.25412130424438
 30
0.0
 10
299.4006625954106
 20
20.25412130424438
 30
0.0
 10
298.5819526847563
 20
20.25412130424438
 30
0.0
 10
297.7632396991476
 20
20.25412130424438
 30
0.0
  0
SPLINE
  5
90
330
1F
100
AcDbEntity
  8
0
  6
Continuous
 62
   179
370
     0
100
AcDbSpline
210
0.0
220
0.0
230
1.0
 70
     8
 71
     3
 72
    17
 73
    13
 74
     0
 42
0.000000001
 43
0.00000001
 40
9.0
 40
9.0
 40
9.0
 40
9.0
 40
10.0
 40
10.0
 40
10.0
 40
11.0
 40
11.0
 40
11.0
 40
12.0
 40
12.0
 40
12.0
 40
13.0
 40
13.0
 40
13.0
 40
13.0
 10
300.254931288593
 20
27.49433829349534
 30
0.0
 10
300.1600043450263
 20
27.45496618208605
 30
0.0
 10
300.1052670665943
 20
27.43024796211265
 30
0.0
 10
300.049118383702
 20
27.40930924651266
 30
0.0
 10
299.7248336028849
 20
27.28837413924314
 30
0.0
 10
299.5426363543262
 20
27.0468754177367
 30
0.0
 10
299.5421628112159
 20
26.70494346873036
 30
0.0
 10
299.5395583241182
 20
24.8160968563317
 30
0.0
 10
299.5393769017586
 20
22.92724217217554
 30
0.0
 10
299.542119761843
 20
21.03839632851544
 30
0.0
 10
299.5427163031618
 20
20.62720562490344
 30
0.0
 10
299.739442715284
 20
20.41422423058345
 30
0.0
 10
300.2193725060649
 20
20.25412130424438
 30
0.0
  0
SPLINE
  5
91
330
1F
100
AcDbEntity
  8
0
  6
Continuous
 62
   179
370
     0
100
AcDbSpline
210
0.0
220
0.0
230
1.0
 70
    24
 71
     3
 72
     8
 73
     4
 74
     0
 42
0.000000001
 43
0.00000001
 40
8.0
 40
8.0
 40
8.0
 40
8.0
 40
9.0
 40
9.0
 40
9.0
 40
9.0
 10
297.7186989723292
 20
27.49433829349534
 30
0.0
 10
298.5854396840106
 20
27.49433829349534
 30
0.0
 10
299.3949493285535
 20
27.49433829349534
 30
0.0
 10
300.254931288593
 20
27.49433829349534
 30
0.0
  0
SPLINE
  5
92
330
1F
100
AcDbEntity
  8
0
  6
Continuous
 62
   179
370
     0
100
AcDbSpline
210
0.0
220
0.0
230
1.0
 70
     8
 71
     3
 72
    14
 73
    10
 74
     0
 42
0.000000001
 43
0.00000001
 40
5.0
 40
5.0
 40
5.0
 40
5.0
 40
6.0
 40
6.0
 40
6.0
 40
7.0
 40
7.0
 40
7.0
 40
8.0
 40
8.0
 40
8.0
 40
8.0
 10
298.4851131190222
 20
24.16049564077469
 30
0.0
 10
298.4851131190222
 20
24.24049329222683
 30
0.0
 10
298.4851131190222
 20
24.32893553953833
 30
0.0
 10
298.4851131190222
 20
24.41737817121947
 30
0.0
 10
298.4851131190222
 20
25.09736416629037
 30
0.0
 10
298.4851377186649
 20
25.7773505457302
 30
0.0
 10
298.4851069691121
 20
26.45733654080182
 30
0.0
 10
298.4850762195594
 20
27.0944786077999
 30
0.0
 10
298.3648823686909
 20
27.26685790861022
 30
0.0
 10
297.7186989723292
 20
27.49433829349534
 30
0.0
  0
SPLINE
  5
93
330
1F
100
AcDbEntity
  8
0
  6
Continuous
 62
   179
370
     0
100
AcDbSpline
210
0.0
220
0.0
230
1.0
 70
    24
 71
     3
 72
     8
 73
     4
 74
     0
 42
0.000000001
 43
0.00000001
 40
4.0
 40
4.0
 40
4.0
 40
4.0
 40
5.0
 40
5.0
 40
5.0
 40
5.0
 10
295.5632814142282
 20
24.16049564077469
 30
0.0
 10
296.5292663066504
 20
24.16049564077469
 30
0.0
 10
297.4889290910767
 20
24.16049564077469
 30
0.0
 10
298.4851131190222
 20
24.16049564077469
 30
0.0
  0
SPLINE
  5
94
330
1F
100
AcDbEntity
  8
0
  6
Continuous
 62
   179
370
     0
100
AcDbSpline
210
0.0
220
0.0
230
1.0
 70
     8
 71
     3
 72
    14
 73
    10
 74
     0
 42
0.000000001
 43
0.00000001
 40
1.0
 40
1.0
 40
1.0
 40
1.0
 40
2.0
 40
2.0
 40
2.0
 40
3.0
 40
3.0
 40
3.0
 40
4.0
 40
4.0
 40
4.0
 40
4.0
 10
296.2715297073845
 20
27.50458020069892
 30
0.0
 10
295.9411319155254
 20
27.38780204855992
 30
0.0
 10
295.6648994604227
 20
27.22384581892186
 30
0.0
 10
295.5906023916359
 20
26.8479388815276
 30
0.0
 10
295.5792681065788
 20
26.79059327230428
 30
0.0
 10
295.5645605956114
 20
26.73240397223375
 30
0.0
 10
295.5644406723574
 20
26.67457866999212
 30
0.0
 10
295.562743297058
 20
25.84365465270932
 30
0.0
 10
295.5632814142282
 20
25.01272602299438
 30
0.0
 10
295.5632814142282
 20
24.16049564077469
 30
0.0
  0
SPLINE
  5
95
330
1F
100
AcDbEntity
  8
0
  6
Continuous
 62
   179
370
     0
100
AcDbSpline
210
0.0
220
0.0
230
1.0
 70
    24
 71
     3
 72
     8
 73
     4
 74
     0
 42
0.000000001
 43
0.00000001
 40
0.0
 40
0.0
 40
0.0
 40
0.0
 40
1.0
 40
1.0
 40
1.0
 40
1.0
 10
293.841527870193
 20
27.50458020069892
 30
0.0
 10
294.6515264326192
 20
27.50458020069892
 30
0.0
 10
295.4615280700011
 20
27.50458020069892
 30
0.0
 10
296.2715297073845
 20
27.50458020069892
 30
0.0
  0
SPLINE
  5
96
330
1F
100
AcDbEntity
  8
0
  6
Continuous
 62
   179
370
     0
100
AcDbSpline
210
0.0
220
0.0
230
1.0
 70
     8
 71
     3
 72
    14
 73
    10
 74
     0
 42
0.000000001
 43
0.00000001
 40
17.0
 40
17.0
 40
17.0
 40
17.0
 40
18.0
 40
18.0
 40
18.0
 40
19.0
 40
19.0
 40
19.0
 40
20.0
 40
20.0
 40
20.0
 40
20.0
 10
257.7053577757453
 20
20.25910042553502
 30
0.0
 10
258.2139995287706
 20
20.39587059142628
 30
0.0
 10
258.4104423723632
 20
20.62446660851326
 30
0.0
 10
258.4124688639662
 20
21.16843695483816
 30
0.0
 10
258.4191609275175
 20
22.96470127704906
 30
0.0
 10
258.4149081683119
 20
24.76100595804667
 30
0.0
 10
258.4151320634913
 20
26.55729487989966
 30
0.0
 10
258.4151924094879
 20
27.04153921726714
 30
0.0
 10
258.2057453879524
 20
27.36893835120057
 30
0.0
 10
257.7192638284546
 20
27.51463645747964
 30
0.0
  0
SPLINE
  5
97
330
1F
100
AcDbEntity
  8
0
  6
Continuous
 62
   179
370
     0
100
AcDbSpline
210
0.0
220
0.0
230
1.0
 70
    24
 71
     3
 72
     8
 73
     4
 74
     0
 42
0.000000001
 43
0.00000001
 40
16.0
 40
16.0
 40
16.0
 40
16.0
 40
17.0
 40
17.0
 40
17.0
 40
17.0
 10
260.1134120717832
 20
20.25910042553502
 30
0.0
 10
259.3107272904223
 20
20.25910042553502
 30
0.0
 10
258.5080426051526
 20
20.25910042553502
 30
0.0
 10
257.7053577757453
 20
20.25910042553502
 30
0.0
  0
SPLINE
  5
98
330
1F
100
AcDbEntity
  8
0
  6
Continuous
 62
   179
370
     0
100
AcDbSpline
210
0.0
220
0.0
230
1.0
 70
     8
 71
     3
 72
    14
 73
    10
 74
     0
 42
0.000000001
 43
0.00000001
 40
13.0
 40
13.0
 40
13.0
 40
13.0
 40
14.0
 40
14.0
 40
14.0
 40
15.0
 40
15.0
 40
15.0
 40
16.0
 40
16.0
 40
16.0
 40
16.0
 10
259.4607286043899
 20
23.57138302951071
 30
0.0
 10
259.4539911852495
 20
23.51939476107442
 30
0.0
 10
259.4406539512153
 20
23.46398560492077
 30
0.0
 10
259.4405559370167
 20
23.40855338660287
 30
0.0
 10
259.4392191002215
 20
22.65310606781493
 30
0.0
 10
259.4366701545022
 20
21.89763799307776
 30
0.0
 10
259.4408326829897
 20
21.14221143023692
 30
0.0
 10
259.4435911100346
 20
20.64162793377142
 30
0.0
 10
259.6377614656041
 20
20.40079128856705
 30
0.0
 10
260.1134120717832
 20
20.25910042553502
 30
0.0
  0
SPLINE
  5
99
330
1F
100
AcDbEntity
  8
0
  6
Continuous
 62
   179
370
     0
100
AcDbSpline
210
0.0
220
0.0
230
1.0
 70
     8
 71
     3
 72
    20
 73
    16
 74
     0
 42
0.000000001
 43
0.00000001
 40
8.0
 40
8.0
 40
8.0
 40
8.0
 40
9.0
 40
9.0
 40
9.0
 40
10.0
 40
10.0
 40
10.0
 40
11.0
 40
11.0
 40
11.0
 40
12.0
 40
12.0
 40
12.0
 40
13.0
 40
13.0
 40
13.0
 40
13.0
 10
263.9554858268652
 20
20.24609336482204
 30
0.0
 10
263.8909540472192
 20
20.24131411562172
 30
0.0
 10
263.8264337986555
 20
20.23257048036439
 30
0.0
 10
263.7618904879275
 20
20.2323936704376
 30
0.0
 10
263.3170171088603
 20
20.2311736819415
 30
0.0
 10
262.8718696744063
 20
20.24067529366942
 30
0.0
 10
262.427398730108
 20
20.22724465786874
 30
0.0
 10
262.2549406335689
 20
20.22203337745712
 30
0.0
 10
262.1765046750147
 20
20.28890135435546
 30
0.0
 10
262.1067370153144
 20
20.43629933433309
 30
0.0
 10
261.7451764738302
 20
21.20016664933901
 30
0.0
 10
261.3780268168071
 20
21.9614848264415
 30
0.0
 10
261.0037355762117
 20
22.71920223094413
 30
0.0
 10
260.6054131759577
 20
23.52556773374194
 30
0.0
 10
260.3725694925604
 20
23.65083910446932
 30
0.0
 10
259.4607286043899
 20
23.57138302951071
 30
0.0
  0
SPLINE
  5
9A
330
1F
100
AcDbEntity
  8
0
  6
Continuous
 62
   179
370
     0
100
AcDbSpline
210
0.0
220
0.0
230
1.0
 70
     8
 71
     3
 72
    14
 73
    10
 74
     0
 42
0.000000001
 43
0.00000001
 40
5.0
 40
5.0
 40
5.0
 40
5.0
 40
6.0
 40
6.0
 40
6.0
 40
7.0
 40
7.0
 40
7.0
 40
8.0
 40
8.0
 40
8.0
 40
8.0
 10
261.0219043336847
 20
23.63056361828031
 30
0.0
 10
261.7521543160346
 20
23.35408286053947
 30
0.0
 10
262.033208300972
 20
22.73079019980925
 30
0.0
 10
262.3739921385617
 20
22.16106556577573
 30
0.0
 10
262.6276890153665
 20
21.7369354504649
 30
0.0
 10
262.8739775562312
 20
21.30835818112305
 30
0.0
 10
263.1292772534608
 20
20.88520667032095
 30
0.0
 10
263.3178377375433
 20
20.57267359973515
 30
0.0
 10
263.5606000734738
 20
20.32757122285868
 30
0.0
 10
263.9554858268652
 20
20.24609336482204
 30
0.0
  0
SPLINE
  5
9B
330
1F
100
AcDbEntity
  8
0
  6
Continuous
 62
   179
370
     0
100
AcDbSpline
210
0.0
220
0.0
230
1.0
 70
     8
 71
     3
 72
    20
 73
    16
 74
     0
 42
0.000000001
 43
0.00000001
 40
0.0
 40
0.0
 40
0.0
 40
0.0
 40
1.0
 40
1.0
 40
1.0
 40
2.0
 40
2.0
 40
2.0
 40
3.0
 40
3.0
 40
3.0
 40
4.0
 40
4.0
 40
4.0
 40
5.0
 40
5.0
 40
5.0
 40
5.0
 10
257.7192638284546
 20
27.51463645747964
 30
0.0
 10
258.1174764912431
 20
27.51463645747964
 30
0.0
 10
258.5159962651877
 20
27.52468175973202
 30
0.0
 10
258.913837050576
 20
27.51251762112626
 30
0.0
 10
259.7094699986222
 20
27.48819126576296
 30
0.0
 10
260.5093946232761
 20
27.49481913962259
 30
0.0
 10
261.2989762515716
 20
27.40941936834727
 30
0.0
 10
262.3071445332423
 20
27.30037799580672
 30
0.0
 10
262.8488620904764
 20
26.74717259793779
 30
0.0
 10
262.9131259646454
 20
25.88395655371281
 30
0.0
 10
262.9966382899504
 20
24.76217905347503
 30
0.0
 10
262.5617362220245
 20
24.08644572151765
 30
0.0
 10
261.5515161764629
 20
23.77337299628438
 30
0.0
 10
261.3945785321864
 20
23.72473719781129
 30
0.0
 10
261.2341319795987
 20
23.68742184709605
 30
0.0
 10
261.0219043336847
 20
23.63056361828031
 30
0.0
  0
SPLINE
  5
9C
330
1F
100
AcDbEntity
  8
0
  6
Continuous
 62
   179
370
     0
100
AcDbSpline
210
0.0
220
0.0
230
1.0
 70
     8
 71
     3
 72
    20
 73
    16
 74
     0
 42
0.000000001
 43
0.00000001
 40
1.0
 40
1.0
 40
1.0
 40
1.0
 40
2.0
 40
2.0
 40
2.0
 40
3.0
 40
3.0
 40
3.0
 40
4.0
 40
4.0
 40
4.0
 40
5.0
 40
5.0
 40
5.0
 40
6.0
 40
6.0
 40
6.0
 40
6.0
 10
259.4558811296203
 20
23.74052094311723
 30
0.0
 10
259.8313410453958
 20
23.74052094311723
 30
0.0
 10
260.1942113256325
 20
23.70804326575078
 30
0.0
 10
260.5489927438957
 20
23.74778168120398
 30
0.0
 10
261.1506181168165
 20
23.81517009427841
 30
0.0
 10
261.6082598631961
 20
24.13857044109259
 30
0.0
 10
261.7413862071132
 20
24.73962656292206
 30
0.0
 10
261.8389787525148
 20
25.18024881635489
 30
0.0
 10
261.8719876284001
 20
25.65810454981779
 30
0.0
 10
261.8164781518313
 20
26.10478869315943
 30
0.0
 10
261.7108519014664
 20
26.95476897687368
 30
0.0
 10
261.3230227860075
 20
27.28690123567825
 30
0.0
 10
260.4792308497364
 20
27.35420547185249
 30
0.0
 10
260.146744010155
 20
27.38072599997261
 30
0.0
 10
259.8103733099057
 20
27.35855230546976
 30
0.0
 10
259.4558811296203
 20
27.35855230546976
 30
0.0
  0
SPLINE
  5
9D
330
1F
100
AcDbEntity
  8
0
  6
Continuous
 62
   179
370
     0
100
AcDbSpline
210
0.0
220
0.0
230
1.0
 70
    24
 71
     3
 72
     8
 73
     4
 74
     0
 42
0.000000001
 43
0.00000001
 40
0.0
 40
0.0
 40
0.0
 40
0.0
 40
1.0
 40
1.0
 40
1.0
 40
1.0
 10
259.4558811296203
 20
27.35855230546976
 30
0.0
 10
259.4558811296203
 20
26.13864548795524
 30
0.0
 10
259.4558811296203
 20
24.94385548148867
 30
0.0
 10
259.4558811296203
 20
23.74052094311723
 30
0.0
  0
SPLINE
  5
9E
330
1F
100
AcDbEntity
  8
0
  6
Continuous
 62
   179
370
     0
100
AcDbSpline
210
0.0
220
0.0
230
1.0
 70
     8
 71
     3
 72
    14
 73
    10
 74
     0
 42
0.000000001
 43
0.00000001
 40
3.0
 40
3.0
 40
3.0
 40
3.0
 40
4.0
 40
4.0
 40
4.0
 40
5.0
 40
5.0
 40
5.0
 40
6.0
 40
6.0
 40
6.0
 40
6.0
 10
267.2336118279071
 20
20.23490821509466
 30
0.0
 10
266.3034040398355
 20
20.48709452013179
 30
0.0
 10
265.5792320909092
 20
21.34541139190241
 30
0.0
 10
265.4837047623288
 20
22.29272284982233
 30
0.0
 10
265.4259332718035
 20
22.86561853145873
 30
0.0
 10
265.4879189885011
 20
23.41465794151554
 30
0.0
 10
265.7739382574312
 20
23.92202056120339
 30
0.0
 10
266.225828300013
 20
24.72361219597301
 30
0.0
 10
266.9062728477855
 20
25.1505801106106
 30
0.0
 10
267.7758432870376
 20
25.16748813643033
 30
0.0
  0
SPLINE
  5
9F
330
1F
100
AcDbEntity
  8
0
  6
Continuous
 62
   179
370
     0
100
AcDbSpline
210
0.0
220
0.0
230
1.0
 70
     8
 71
     3
 72
    14
 73
    10
 74
     0
 42
0.000000001
 43
0.00000001
 40
0.0
 40
0.0
 40
0.0
 40
0.0
 40
1.0
 40
1.0
 40
1.0
 40
2.0
 40
2.0
 40
2.0
 40
3.0
 40
3.0
 40
3.0
 40
3.0
 10
267.7758432870376
 20
25.16748813643033
 30
0.0
 10
268.6216197225536
 20
25.16033694362373
 30
0.0
 10
269.2464106552308
 20
24.83848445240962
 30
0.0
 10
269.7103360726668
 20
24.21398909980579
 30
0.0
 10
270.372934348899
 20
23.32205720159637
 30
0.0
 10
270.3723808569537
 20
22.03321892002499
 30
0.0
 10
269.7215189161772
 20
21.13111084177938
 30
0.0
 10
269.1482911393735
 20
20.33660467264828
 30
0.0
 10
268.1650050112285
 20
19.98240211471103
 30
0.0
 10
267.2336118279071
 20
20.23490821509466
 30
0.0
  0
SPLINE
  5
A0
330
1F
100
AcDbEntity
  8
0
  6
Continuous
 62
   179
370
     0
100
AcDbSpline
210
0.0
220
0.0
230
1.0
 70
     8
 71
     3
 72
    17
 73
    13
 74
     0
 42
0.000000001
 43
0.00000001
 40
4.0
 40
4.0
 40
4.0
 40
4.0
 40
5.0
 40
5.0
 40
5.0
 40
6.0
 40
6.0
 40
6.0
 40
7.0
 40
7.0
 40
7.0
 40
8.0
 40
8.0
 40
8.0
 40
8.0
 10
266.4699528411193
 20
22.82140374989816
 30
0.0
 10
266.4269741915698
 20
22.16270989809668
 30
0.0
 10
266.5287029361534
 20
21.51524885782823
 30
0.0
 10
266.8746830637486
 20
20.93428603108956
 30
0.0
 10
267.1048165584612
 20
20.54785025472892
 30
0.0
 10
267.4153070900211
 20
20.27237193240103
 30
0.0
 10
267.9076604687568
 20
20.30531315927085
 30
0.0
 10
268.3388937306983
 20
20.33416469565678
 30
0.0
 10
268.6078393105943
 20
20.59660136402461
 30
0.0
 10
268.810867074766
 20
20.94311038392242
 30
0.0
 10
269.1208448575376
 20
21.47214721006825
 30
0.0
 10
269.202432645224
 20
22.05765558940843
 30
0.0
 10
269.218762963826
 20
22.6835112253406
 30
0.0
  0
SPLINE
  5
A1
330
1F
100
AcDbEntity
  8
0
  6
Continuous
 62
   179
370
     0
100
AcDbSpline
210
0.0
220
0.0
230
1.0
 70
     8
 71
     3
 72
    17
 73
    13
 74
     0
 42
0.000000001
 43
0.00000001
 40
0.0
 40
0.0
 40
0.0
 40
0.0
 40
1.0
 40
1.0
 40
1.0
 40
2.0
 40
2.0
 40
2.0
 40
3.0
 40
3.0
 40
3.0
 40
4.0
 40
4.0
 40
4.0
 40
4.0
 10
269.218762963826
 20
22.6835112253406
 30
0.0
 10
269.195680043492
 20
23.34551372899321
 30
0.0
 10
269.0963628325642
 20
24.01168817818242
 30
0.0
 10
268.6683621173312
 20
24.58056604641373
 30
0.0
 10
268.2143234497673
 20
25.18405330473933
 30
0.0
 10
267.4640605055332
 20
25.19142205062979
 30
0.0
 10
267.0072628343699
 20
24.59213287496141
 30
0.0
 10
266.882078331128
 20
24.42789874624284
 30
0.0
 10
266.7597204805012
 20
24.2414496033099
 30
0.0
 10
266.7072125446275
 20
24.04607386528146
 30
0.0
 10
266.5993976948625
 20
23.64490674705059
 30
0.0
 10
266.4968487059656
 20
23.23360918874381
 30
0.0
 10
266.4699528411193
 20
22.82140374989816
 30
0.0
  0
SPLINE
  5
A2
330
1F
100
AcDbEntity
  8
0
  6
Continuous
 62
   179
370
     0
100
AcDbSpline
210
0.0
220
0.0
230
1.0
 70
     8
 71
     3
 72
    17
 73
    13
 74
     0
 42
0.000000001
 43
0.00000001
 40
6.0
 40
6.0
 40
6.0
 40
6.0
 40
7.0
 40
7.0
 40
7.0
 40
8.0
 40
8.0
 40
8.0
 40
9.0
 40
9.0
 40
9.0
 40
10.0
 40
10.0
 40
10.0
 40
10.0
 10
311.6156486607862
 20
20.25320881127337
 30
0.0
 10
312.1185268426077
 20
20.41647125413319
 30
0.0
 10
312.2872188877024
 20
20.63608302071405
 30
0.0
 10
312.2876555313485
 20
21.16871754450475
 30
0.0
 10
312.2890700107628
 20
22.88922803787956
 30
0.0
 10
312.287766229737
 20
24.60974045310045
 30
0.0
 10
312.2871819882396
 20
26.33025248395311
 30
0.0
 10
312.2871512386867
 20
26.42255802816858
 30
0.0
 10
312.2845313768121
 20
26.51487279724975
 30
0.0
 10
312.2823973578678
 20
26.60716642601487
 30
0.0
 10
312.2683694120104
 20
27.21300429544448
 30
0.0
 10
312.2096131670664
 20
27.27631108979181
 30
0.0
 10
311.6691528821609
 20
27.32445797038016
 30
0.0
  0
SPLINE
  5
A3
330
1F
100
AcDbEntity
  8
0
  6
Continuous
 62
   179
370
     0
100
AcDbSpline
210
0.0
220
0.0
230
1.0
 70
    24
 71
     3
 72
     8
 73
     4
 74
     0
 42
0.000000001
 43
0.00000001
 40
5.0
 40
5.0
 40
5.0
 40
5.0
 40
6.0
 40
6.0
 40
6.0
 40
6.0
 10
313.8867245107604
 20
20.25320881127337
 30
0.0
 10
313.0865658051385
 20
20.25320881127337
 30
0.0
 10
312.3511103079175
 20
20.25320881127337
 30
0.0
 10
311.6156486607862
 20
20.25320881127337
 30
0.0
  0
SPLINE
  5
A4
330
1F
100
AcDbEntity
  8
0
  6
Continuous
 62
   179
370
     0
100
AcDbSpline
210
0.0
220
0.0
230
1.0
 70
     8
 71
     3
 72
    17
 73
    13
 74
     0
 42
0.000000001
 43
0.00000001
 40
1.0
 40
1.0
 40
1.0
 40
1.0
 40
2.0
 40
2.0
 40
2.0
 40
3.0
 40
3.0
 40
3.0
 40
4.0
 40
4.0
 40
4.0
 40
5.0
 40
5.0
 40
5.0
 40
5.0
 10
313.1781318226163
 20
27.87703492426926
 30
0.0
 10
313.1781318226163
 20
27.83642744958889
 30
0.0
 10
313.1781318226163
 20
27.75161518695077
 30
0.0
 10
313.1781318226163
 20
27.66680273212925
 30
0.0
 10
313.1781318226163
 20
25.57700952371036
 30
0.0
 10
313.1781256727049
 20
23.48721689184594
 30
0.0
 10
313.1781441224363
 20
21.39742349124223
 30
0.0
 10
313.1781441224363
 20
21.32188875296784
 30
0.0
 10
313.1771847363982
 20
21.24633325874564
 30
0.0
 10
313.1786115156352
 20
21.17082388885262
 30
0.0
 10
313.1888880160859
 20
20.62648762285203
 30
0.0
 10
313.3266152617988
 20
20.4348325806782
 30
0.0
 10
313.8867245107604
 20
20.25320881127337
 30
0.0
  0
SPLINE
  5
A5
330
1F
100
AcDbEntity
  8
0
  6
Continuous
 62
   179
370
     0
100
AcDbSpline
210
0.0
220
0.0
230
1.0
 70
     8
 71
     3
 72
     8
 73
     4
 74
     0
 42
0.000000001
 43
0.00000001
 40
0.0
 40
0.0
 40
0.0
 40
0.0
 40
1.0
 40
1.0
 40
1.0
 40
1.0
 10
311.6691528821609
 20
27.32445797038016
 30
0.0
 10
312.1410908642435
 20
27.49727756634619
 30
0.0
 10
312.6458878181427
 20
27.68213176842718
 30
0.0
 10
313.1781318226163
 20
27.87703492426926
 30
0.0
  0
SPLINE
  5
A6
330
1F
100
AcDbEntity
  8
0
  6
Continuous
 62
   179
370
     0
100
AcDbSpline
210
0.0
220
0.0
230
1.0
 70
     8
 71
     3
 72
    14
 73
    10
 74
     0
 42
0.000000001
 43
0.00000001
 40
6.0
 40
6.0
 40
6.0
 40
6.0
 40
7.0
 40
7.0
 40
7.0
 40
8.0
 40
8.0
 40
8.0
 40
9.0
 40
9.0
 40
9.0
 40
9.0
 10
278.4819664915177
 20
27.88441039662488
 30
0.0
 10
278.4819664915177
 20
27.83987735719566
 30
0.0
 10
278.4819649540404
 20
27.75219577693941
 30
0.0
 10
278.4819649540404
 20
27.66451419668386
 30
0.0
 10
278.4819664915177
 20
25.48269219002111
 30
0.0
 10
278.4816605334703
 20
23.30086999117493
 30
0.0
 10
278.4822124879378
 20
21.11904779232805
 30
0.0
 10
278.4823339486704
 20
20.63637283524633
 30
0.0
 10
278.6550987719953
 20
20.40793364087759
 30
0.0
 10
279.1055120673173
 20
20.25491771765491
 30
0.0
  0
SPLINE
  5
A7
330
1F
100
AcDbEntity
  8
0
  6
Continuous
 62
   179
370
     0
100
AcDbSpline
210
0.0
220
0.0
230
1.0
 70
     8
 71
     3
 72
     8
 73
     4
 74
     0
 42
0.000000001
 43
0.00000001
 40
5.0
 40
5.0
 40
5.0
 40
5.0
 40
6.0
 40
6.0
 40
6.0
 40
6.0
 10
276.9846800684063
 20
27.3296354262854
 30
0.0
 10
277.4478728777531
 20
27.5012575193644
 30
0.0
 10
277.9568994326009
 20
27.68986239811422
 30
0.0
 10
278.4819664915177
 20
27.88441039662488
 30
0.0
  0
SPLINE
  5
A8
330
1F
100
AcDbEntity
  8
0
  6
Continuous
 62
   179
370
     0
100
AcDbSpline
210
0.0
220
0.0
230
1.0
 70
     8
 71
     3
 72
    17
 73
    13
 74
     0
 42
0.000000001
 43
0.00000001
 40
1.0
 40
1.0
 40
1.0
 40
1.0
 40
2.0
 40
2.0
 40
2.0
 40
3.0
 40
3.0
 40
3.0
 40
4.0
 40
4.0
 40
4.0
 40
5.0
 40
5.0
 40
5.0
 40
5.0
 10
276.9460186560295
 20
20.25491771765491
 30
0.0
 10
277.4179566381115
 20
20.4199152040148
 30
0.0
 10
277.5770686601204
 20
20.6342380475635
 30
0.0
 10
277.5771993457187
 20
21.13377529050539
 30
0.0
 10
277.5776652014392
 20
22.92958298186009
 30
0.0
 10
277.5773700057348
 20
24.72538990447762
 30
0.0
 10
277.577359243392
 20
26.52119721146338
 30
0.0
 10
277.577359243392
 20
26.53798031722657
 30
0.0
 10
277.5773838430334
 20
26.55476419172763
 30
0.0
 10
277.5772915943764
 20
26.57154691311976
 30
0.0
 10
277.5738092075535
 20
27.20775573119973
 30
0.0
 10
277.5366914227135
 20
27.25167954511983
 30
0.0
 10
276.9846800684063
 20
27.3296354262854
 30
0.0
  0
SPLINE
  5
A9
330
1F
100
AcDbEntity
  8
0
  6
Continuous
 62
   179
370
     0
100
AcDbSpline
210
0.0
220
0.0
230
1.0
 70
    24
 71
     3
 72
     8
 73
     4
 74
     0
 42
0.000000001
 43
0.00000001
 40
0.0
 40
0.0
 40
0.0
 40
0.0
 40
1.0
 40
1.0
 40
1.0
 40
1.0
 10
279.1055120673173
 20
20.25491771765491
 30
0.0
 10
278.3856819552066
 20
20.25491771765491
 30
0.0
 10
277.6658503056181
 20
20.25491771765491
 30
0.0
 10
276.9460186560295
 20
20.25491771765491
 30
0.0
  0
SPLINE
  5
AA
330
1F
100
AcDbEntity
  8
0
  6
Continuous
 62
   179
370
     0
100
AcDbSpline
210
0.0
220
0.0
230
1.0
 70
     8
 71
     3
 72
    20
 73
    16
 74
     0
 42
0.000000001
 43
0.00000001
 40
5.0
 40
5.0
 40
5.0
 40
5.0
 40
6.0
 40
6.0
 40
6.0
 40
7.0
 40
7.0
 40
7.0
 40
8.0
 40
8.0
 40
8.0
 40
9.0
 40
9.0
 40
9.0
 40
10.0
 40
10.0
 40
10.0
 40
10.0
 10
307.178408284104
 20
20.25443648715803
 30
0.0
 10
307.3179589782804
 20
20.36177625633667
 30
0.0
 10
307.5293898264143
 20
20.45652254628292
 30
0.0
 10
307.6283941606455
 20
20.61954360515536
 30
0.0
 10
307.7285516030972
 20
20.78446498637256
 30
0.0
 10
307.7490584796685
 20
21.01681475508337
 30
0.0
 10
307.7500732149022
 20
21.21990094340409
 30
0.0
 10
307.7587445887104
 20
22.95682170421714
 30
0.0
 10
307.7550484924979
 20
24.69380511724258
 30
0.0
 10
307.7550361926766
 20
26.43077008053731
 30
0.0
 10
307.7550361926766
 20
26.49789904426263
 30
0.0
 10
307.7552944889175
 20
26.56503146731187
 30
0.0
 10
307.7547502218385
 20
26.63215658734291
 30
0.0
 10
307.7501131893193
 20
27.20350460556406
 30
0.0
 10
307.6774858212348
 20
27.28280885460759
 30
0.0
 10
307.160813390154
 20
27.32540717062984
 30
0.0
  0
SPLINE
  5
AB
330
1F
100
AcDbEntity
  8
0
  6
Continuous
 62
   179
370
     0
100
AcDbSpline
210
0.0
220
0.0
230
1.0
 70
    24
 71
     3
 72
     8
 73
     4
 74
     0
 42
0.000000001
 43
0.00000001
 40
4.0
 40
4.0
 40
4.0
 40
4.0
 40
5.0
 40
5.0
 40
5.0
 40
5.0
 10
309.3620693061908
 20
20.25443648715802
 30
0.0
 10
308.5715044609525
 20
20.25443648715802
 30
0.0
 10
307.8517004859625
 20
20.25443648715802
 30
0.0
 10
307.178408284104
 20
20.25443648715803
 30
0.0
  0
SPLINE
  5
AC
330
1F
100
AcDbEntity
  8
0
  6
Continuous
 62
   179
370
     0
100
AcDbSpline
210
0.0
220
0.0
230
1.0
 70
     8
 71
     3
 72
    14
 73
    10
 74
     0
 42
0.000000001
 43
0.00000001
 40
1.0
 40
1.0
 40
1.0
 40
1.0
 40
2.0
 40
2.0
 40
2.0
 40
3.0
 40
3.0
 40
3.0
 40
4.0
 40
4.0
 40
4.0
 40
4.0
 10
308.65963267846
 20
27.88697759989075
 30
0.0
 10
308.65963267846
 20
27.83196991758182
 30
0.0
 10
308.65963267846
 20
27.74275854708867
 30
0.0
 10
308.65963267846
 20
27.65354698440997
 30
0.0
 10
308.65963267846
 20
25.48863300356693
 30
0.0
 10
308.6595035303402
 20
23.32371921490945
 30
0.0
 10
308.6597187772069
 20
21.15880542625192
 30
0.0
 10
308.6597679764911
 20
20.6374237012035
 30
0.0
 10
308.807415027844
 20
20.43200746554105
 30
0.0
 10
309.3620693061909
 20
20.25443648715802
 30
0.0
  0
SPLINE
  5
AD
330
1F
100
AcDbEntity
  8
0
  6
Continuous
 62
   179
370
     0
100
AcDbSpline
210
0.0
220
0.0
230
1.0
 70
     8
 71
     3
 72
     8
 73
     4
 74
     0
 42
0.000000001
 43
0.00000001
 40
0.0
 40
0.0
 40
0.0
 40
0.0
 40
1.0
 40
1.0
 40
1.0
 40
1.0
 10
307.160813390154
 20
27.32540717062984
 30
0.0
 10
307.6336123597078
 20
27.50255342081908
 30
0.0
 10
308.1420254609839
 20
27.69304267058278
 30
0.0
 10
308.65963267846
 20
27.88697759989075
 30
0.0
  0
SPLINE
  5
AE
330
1F
100
AcDbEntity
  8
0
  6
Continuous
 62
   179
370
     0
100
AcDbSpline
210
0.0
220
0.0
230
1.0
 70
     8
 71
     3
 72
    14
 73
    10
 74
     0
 42
0.000000001
 43
0.00000001
 40
6.0
 40
6.0
 40
6.0
 40
6.0
 40
7.0
 40
7.0
 40
7.0
 40
8.0
 40
8.0
 40
8.0
 40
9.0
 40
9.0
 40
9.0
 40
9.0
 10
272.426404840594
 20
20.25907966958721
 30
0.0
 10
273.005992393597
 20
20.37668517687365
 30
0.0
 10
273.0805785081768
 20
20.81042375860577
 30
0.0
 10
273.0783845276048
 20
21.29462927466368
 30
0.0
 10
273.0702866329497
 20
23.08209538116095
 30
0.0
 10
273.0685846452182
 20
24.86961337752775
 30
0.0
 10
273.0527409382852
 20
26.65700799131587
 30
0.0
 10
273.0476395875227
 20
27.23250104921648
 30
0.0
 10
272.9826104338649
 20
27.28380667758701
 30
0.0
 10
272.4594267850394
 20
27.32510813123116
 30
0.0
  0
SPLINE
  5
AF
330
1F
100
AcDbEntity
  8
0
  6
Continuous
 62
   179
370
     0
100
AcDbSpline
210
0.0
220
0.0
230
1.0
 70
    24
 71
     3
 72
     8
 73
     4
 74
     0
 42
0.000000001
 43
0.00000001
 40
5.0
 40
5.0
 40
5.0
 40
5.0
 40
6.0
 40
6.0
 40
6.0
 40
6.0
 10
274.6224502449564
 20
20.25907966958721
 30
0.0
 10
273.8904356226618
 20
20.25907966958721
 30
0.0
 10
273.1584194628893
 20
20.25907966958721
 30
0.0
 10
272.426404840594
 20
20.25907966958721
 30
0.0
  0
SPLINE
  5
B0
330
1F
100
AcDbEntity
  8
0
  6
Continuous
 62
   179
370
     0
100
AcDbSpline
210
0.0
220
0.0
230
1.0
 70
     8
 71
     3
 72
    17
 73
    13
 74
     0
 42
0.000000001
 43
0.00000001
 40
1.0
 40
1.0
 40
1.0
 40
1.0
 40
2.0
 40
2.0
 40
2.0
 40
3.0
 40
3.0
 40
3.0
 40
4.0
 40
4.0
 40
4.0
 40
5.0
 40
5.0
 40
5.0
 40
5.0
 10
273.9540333846496
 20
27.87257450949275
 30
0.0
 10
273.9540333846496
 20
27.8074859707617
 30
0.0
 10
273.9540333846496
 20
27.71082379150879
 30
0.0
 10
273.9540333846496
 20
27.61416161225588
 30
0.0
 10
273.9540349221275
 20
25.51596282147274
 30
0.0
 10
273.9539872603212
 20
23.41776441505854
 30
0.0
 10
273.9542086570993
 20
21.31956562427539
 30
0.0
 10
273.954217881965
 20
21.22727776105204
 30
0.0
 10
273.9506540088286
 20
21.13443409966764
 30
0.0
 10
273.9590578615309
 20
21.04279505200227
 30
0.0
 10
274.0006220316647
 20
20.58964274029083
 30
0.0
 10
274.1836818051717
 20
20.38260600321025
 30
0.0
 10
274.6224502449564
 20
20.25907966958721
 30
0.0
  0
SPLINE
  5
B1
330
1F
100
AcDbEntity
  8
0
  6
Continuous
 62
   179
370
     0
100
AcDbSpline
210
0.0
220
0.0
230
1.0
 70
     8
 71
     3
 72
     8
 73
     4
 74
     0
 42
0.000000001
 43
0.00000001
 40
0.0
 40
0.0
 40
0.0
 40
0.0
 40
1.0
 40
1.0
 40
1.0
 40
1.0
 10
272.4594267850394
 20
27.32510813123116
 30
0.0
 10
272.932774634105
 20
27.49849255803981
 30
0.0
 10
273.4351023989377
 20
27.68249307566929
 30
0.0
 10
273.9540333846496
 20
27.87257450949275
 30
0.0
  0
SPLINE
  5
B2
330
1F
100
AcDbEntity
  8
0
  6
Continuous
 62
   179
370
     0
100
AcDbSpline
210
0.0
220
0.0
230
1.0
 70
     8
 71
     3
 72
    17
 73
    13
 74
     0
 42
0.000000001
 43
0.00000001
 40
6.0
 40
6.0
 40
6.0
 40
6.0
 40
7.0
 40
7.0
 40
7.0
 40
8.0
 40
8.0
 40
8.0
 40
9.0
 40
9.0
 40
9.0
 40
10.0
 40
10.0
 40
10.0
 40
10.0
 10
304.1706223551654
 20
25.06377258638473
 30
0.0
 10
304.1727133247369
 20
25.01792115989103
 30
0.0
 10
304.1800409430993
 20
24.93136078519359
 30
0.0
 10
304.1800932173391
 20
24.84479541369365
 30
0.0
 10
304.1808527312862
 20
23.65282014439031
 30
0.0
 10
304.1797703470369
 20
22.46084295323947
 30
0.0
 10
304.1818797663413
 20
21.26887114326077
 30
0.0
 10
304.1821011631179
 20
21.14380579453512
 30
0.0
 10
304.1922454404933
 20
21.01764883669525
 30
0.0
 10
304.2107535961514
 20
20.89393877449616
 30
0.0
 10
304.2621822227331
 20
20.55023795748125
 30
0.0
 10
304.4578262506062
 20
20.33981031349823
 30
0.0
 10
304.8038079156779
 20
20.2539775500868
 30
0.0
  0
SPLINE
  5
B3
330
1F
100
AcDbEntity
  8
0
  6
Continuous
 62
   179
370
     0
100
AcDbSpline
210
0.0
220
0.0
230
1.0
 70
     8
 71
     3
 72
     8
 73
     4
 74
     0
 42
0.000000001
 43
0.00000001
 40
5.0
 40
5.0
 40
5.0
 40
5.0
 40
6.0
 40
6.0
 40
6.0
 40
6.0
 10
302.7125031745686
 20
24.50968064047994
 30
0.0
 10
303.1898069535648
 20
24.6910587978335
 30
0.0
 10
303.6729961969132
 20
24.87467283202501
 30
0.0
 10
304.1706223551654
 20
25.06377258638473
 30
0.0
  0
SPLINE
  5
B4
330
1F
100
AcDbEntity
  8
0
  6
Continuous
 62
   179
370
     0
100
AcDbSpline
210
0.0
220
0.0
230
1.0
 70
     8
 71
     3
 72
    17
 73
    13
 74
     0
 42
0.000000001
 43
0.00000001
 40
1.0
 40
1.0
 40
1.0
 40
1.0
 40
2.0
 40
2.0
 40
2.0
 40
3.0
 40
3.0
 40
3.0
 40
4.0
 40
4.0
 40
4.0
 40
5.0
 40
5.0
 40
5.0
 40
5.0
 10
302.6973344203136
 20
20.2539775500868
 30
0.0
 10
303.1321361678242
 20
20.3494649042487
 30
0.0
 10
303.2897768237453
 20
20.65853557522151
 30
0.0
 10
303.2916556214045
 20
21.04785181591347
 30
0.0
 10
303.2966032244031
 20
22.071496731734
 30
0.0
 10
303.2829750227277
 20
23.09531768874207
 30
0.0
 10
303.2668591822546
 20
24.11891186780057
 30
0.0
 10
303.2632153602819
 20
24.35030186610297
 30
0.0
 10
303.1332831261333
 20
24.4918735746181
 30
0.0
 10
302.8846514693662
 20
24.49557889569631
 30
0.0
 10
302.8224697242705
 20
24.49650561033552
 30
0.0
 10
302.760410977386
 20
24.5055728846329
 30
0.0
 10
302.7125031745686
 20
24.50968064047994
 30
0.0
  0
SPLINE
  5
B5
330
1F
100
AcDbEntity
  8
0
  6
Continuous
 62
   179
370
     0
100
AcDbSpline
210
0.0
220
0.0
230
1.0
 70
    24
 71
     3
 72
     8
 73
     4
 74
     0
 42
0.000000001
 43
0.00000001
 40
0.0
 40
0.0
 40
0.0
 40
0.0
 40
1.0
 40
1.0
 40
1.0
 40
1.0
 10
304.8038079156779
 20
20.2539775500868
 30
0.0
 10
304.101651108875
 20
20.2539775500868
 30
0.0
 10
303.3994912271164
 20
20.2539775500868
 30
0.0
 10
302.6973344203136
 20
20.2539775500868
 30
0.0
  0
SPLINE
  5
B6
330
1F
100
AcDbEntity
  8
0
  6
Continuous
 62
   179
370
     0
100
AcDbSpline
210
0.0
220
0.0
230
1.0
 70
     8
 71
     3
 72
    11
 73
     7
 74
     0
 42
0.000000001
 43
0.00000001
 40
2.0
 40
2.0
 40
2.0
 40
2.0
 40
3.0
 40
3.0
 40
3.0
 40
4.0
 40
4.0
 40
4.0
 40
4.0
 10
303.0570519104932
 20
26.35430478392947
 30
0.0
 10
303.0511172468595
 20
26.75330175249256
 30
0.0
 10
303.3266947364937
 20
27.05519259513757
 30
0.0
 10
303.6924299141011
 20
27.05034857969325
 30
0.0
 10
304.0507636744179
 20
27.04560238626284
 30
0.0
 10
304.3255386007336
 20
26.75299425696746
 30
0.0
 10
304.327448147944
 20
26.37412133304796
 30
0.0
  0
SPLINE
  5
B7
330
1F
100
AcDbEntity
  8
0
  6
Continuous
 62
   179
370
     0
100
AcDbSpline
210
0.0
220
0.0
230
1.0
 70
     8
 71
     3
 72
    11
 73
     7
 74
     0
 42
0.000000001
 43
0.00000001
 40
0.0
 40
0.0
 40
0.0
 40
0.0
 40
1.0
 40
1.0
 40
1.0
 40
2.0
 40
2.0
 40
2.0
 40
2.0
 10
304.327448147944
 20
26.37412133304796
 30
0.0
 10
304.3293945946187
 20
25.98752450590587
 30
0.0
 10
304.068057222753
 20
25.70828897263022
 30
0.0
 10
303.6993639381942
 20
25.70301926806731
 30
0.0
 10
303.3259905717408
 20
25.69768229885988
 30
0.0
 10
303.0628482011429
 20
25.96449808787493
 30
0.0
 10
303.0570519104932
 20
26.35430478392947
 30
0.0
  0
MTEXT
  5
B9
330
1F
100
AcDbEntity
  8
0
  6
Continuous
 62
     7
370
     0
100
AcDbMText
 10
257.9690483454
 20
40.3166048975
 30
0.0
 40
3.7041666667
 41
0.0
 71
     1
 72
     1
  1
BOUN21-W - Bounce Small Shade - Wall Mount
  7
SLDTEXTSTYLE0
 73
     1
 44
1.0
  0
MTEXT
  5
BA
330
1F
100
AcDbEntity
  8
0
  6
Continuous
 62
     7
370
     0
100
AcDbMText
 10
258.6105142387
 20
44.3546043689
 30
0.0
 40
1.5875
 41
0.0
 71
     1
 72
     1
  1
\LDESCRIPTION
  7
SLDTEXTSTYLE0
 73
     1
 44
1.0
  0
INSERT
  5
C1
330
1F
100
AcDbEntity
  8
0
  6
Continuous
 62
     7
370
     0
100
AcDbBlockReference
  2
SW_NOTE_0
 10
317.1049495712
 20
24.1495665419
 30
0.0
  0
MTEXT
  5
C2
330
1F
100
AcDbEntity
  8
0
  6
Continuous
 62
     7
370
     0
100
AcDbMText
 10
273.8048790106
 20
32.371143085
 30
0.0
 40
1.5875
 41
0.0
 71
     2
 72
     1
  1
\LSCALE
  7
SLDTEXTSTYLE0
 73
     1
 44
1.0
  0
MTEXT
  5
C3
330
1F
100
AcDbEntity
  8
0
  6
Continuous
 62
     7
370
     0
100
AcDbMText
 10
278.3960862508
 20
33.4394651033
 30
0.0
 40
2.6458333333
 41
0.0
 71
     1
 72
     1
  1
1:10
  7
SLDTEXTSTYLE0
 73
     1
 44
1.0
  0
MTEXT
  5
C4
330
1F
100
AcDbEntity
  8
0
  6
Continuous
 62
     7
370
     0
100
AcDbMText
 10
261.4913139704
 20
32.371143085
 30
0.0
 40
1.5875
 41
0.0
 71
     2
 72
     1
  1
\LSIZE
  7
SLDTEXTSTYLE0
 73
     1
 44
1.0
  0
MTEXT
  5
C5
330
1F
100
AcDbEntity
  8
0
  6
Continuous
 62
     7
370
     0
100
AcDbMText
 10
264.7495209372
 20
33.4394651033
 30
0.0
 40
2.6458333333
 41
0.0
 71
     1
 72
     1
  1
B
  7
SLDTEXTSTYLE0
 73
     1
 44
1.0
  0
INSERT
  5
CC
330
1F
100
AcDbEntity
  8
0
  6
Continuous
 62
     7
370
     0
100
AcDbBlockReference
  2
SW_NOTE_1
 10
258.0900415808
 20
15.6806800849
 30
0.0
  0
LINE
  5
CD
330
1F
100
AcDbEntity
  8
0
  6
Continuous
 62
     7
370
    15
100
AcDbLine
 10
126.5227979321
 20
92.5100145158
 30
0.0
 11
77.7641767908
 21
114.1263273773
 31
0.0
  0
SPLINE
  5
CE
330
1F
100
AcDbEntity
  8
0
  6
Continuous
 62
     7
370
    15
100
AcDbSpline
210
0.0
220
0.0
230
1.0
 70
     8
 71
     3
 72
    17
 73
    13
 74
     0
 42
0.000000001
 43
0.00000001
 40
0.0
 40
0.0
 40
0.0
 40
0.0
 40
0.2036769944166518
 40
0.3090200712807832
 40
0.3985898981199891
 40
0.4820560091165069
 40
0.5649912634496965
 40
0.6387357272599903
 40
0.7488651667657994
 40
0.9013054785354677
 40
0.9967575897447065
 40
0.9999999999999999
 40
0.9999999999999999
 40
0.9999999999999999
 40
0.9999999999999999
 10
126.5043323199971
 20
92.4683806714677
 30
0.0
 10
126.5125086620637
 20
92.42908506236438
 30
0.0
 10
126.524913861853
 20
92.36946550660203
 30
0.0
 10
126.5430930465414
 20
92.29234619511001
 30
0.0
 10
126.5382215340585
 20
92.23674234921239
 30
0.0
 10
126.5217390391707
 20
92.18857599791767
 30
0.0
 10
126.495651109701
 20
92.14819775024085
 30
0.0
 10
126.4590600334232
 20
92.1111264829014
 30
0.0
 10
126.4065884790234
 20
92.07254112946173
 30
0.0
 10
126.3422970024154
 20
92.04474424807128
 30
0.0
 10
126.2926907115367
 20
92.03316172466481
 30
0.0
 10
126.2732823688599
 20
92.03474076724156
 30
0.0
 10
126.2726447467467
 20
92.0347926435136
 30
0.0
  0
SPLINE
  5
CF
330
1F
100
AcDbEntity
  8
0
  6
Continuous
 62
     7
370
    15
100
AcDbSpline
210
0.0
220
0.0
230
1.0
 70
     8
 71
     3
 72
    25
 73
    21
 74
     0
 42
0.000000001
 43
0.00000001
 40
0.0
 40
0.0
 40
0.0
 40
0.0
 40
0.0135790398339084
 40
0.0281533952260578
 40
0.0403501762683017
 40
0.0501696123033935
 40
0.0580636754725151
 40
0.0658820212735094
 40
0.1040386269764036
 40
0.1727599595758654
 40
0.2954764351690291
 40
0.5146126426814105
 40
0.7636310030922703
 40
0.8881403037976013
 40
0.9192677769993173
 40
0.9504477431530894
 40
0.9670597650580772
 40
0.9849064245155303
 40
0.9932679980541489
 40
1.0
 40
1.0
 40
1.0
 40
1.0
 10
116.8890254843755
 20
133.934595924344
 30
0.0
 10
116.9354450109115
 20
133.747849429848
 30
0.0
 10
117.031686519351
 20
133.3606683087279
 30
0.0
 10
117.1692656824491
 20
132.8056617212243
 30
0.0
 10
117.2938453052894
 20
132.3023228155351
 30
0.0
 10
117.3955298042786
 20
131.8908405307973
 30
0.0
 10
117.4822350112521
 20
131.5395700908624
 30
0.0
 10
117.664985314097
 20
130.7983870864984
 30
0.0
 10
118.0529606187633
 20
129.2200036756343
 30
0.0
 10
118.8242742762893
 20
126.0591545087154
 30
0.0
 10
120.1865538441911
 20
120.4026034154907
 30
0.0
 10
122.1030758061499
 20
112.251551615549
 30
0.0
 10
123.9645477198008
 20
104.0616664359169
 30
0.0
 10
125.2020426183547
 20
98.46238172848906
 30
0.0
 10
125.7669042588229
 20
95.87595420325415
 30
0.0
 10
126.0044295547263
 20
94.78309650573222
 30
0.0
 10
126.2013065563562
 20
93.87400157899428
 30
0.0
 10
126.3293123032906
 20
93.28084842186632
 30
0.0
 10
126.427778521638
 20
92.82455394078714
 30
0.0
 10
126.4727331823483
 20
92.61543958767032
 30
0.0
 10
126.4927837570904
 20
92.52217088314524
 30
0.0
  0
SPLINE
  5
D0
330
1F
100
AcDbEntity
  8
0
  6
Continuous
 62
     7
370
    15
100
AcDbSpline
210
0.0
220
0.0
230
1.0
 70
     8
 71
     3
 72
    33
 73
    29
 74
     0
 42
0.000000001
 43
0.00000001
 40
0.0
 40
0.0
 40
0.0
 40
0.0
 40
0.0017353874847544
 40
0.0032899321411551
 40
0.0045967473453256
 40
0.0064972183742914
 40
0.0080044832360371
 40
0.0103653379057406
 40
0.013304235061889
 40
0.016740682834269
 40
0.0235835618961804
 40
0.0366381700049667
 40
0.0586850764854431
 40
0.0959469550827976
 40
0.1615092194859356
 40
0.2785843685203675
 40
0.4876467404218633
 40
0.7601117613726489
 40
0.8799966292225159
 40
0.8931839884315326
 40
0.9062638241323329
 40
0.918578188729883
 40
0.930072482315965
 40
0.9389371002959642
 40
0.950520764570415
 40
0.9648232466321065
 40
0.9818446110023133
 40
1.0
 40
1.0
 40
1.0
 40
1.0
 10
126.289133719798
 20
92.02133987518779
 30
0.0
 10
126.3130879926347
 20
92.01357676533362
 30
0.0
 10
126.3585002897821
 20
91.9988595307973
 30
0.0
 10
126.4245616583411
 20
92.00896994017744
 30
0.0
 10
126.4867865230397
 20
92.0370503051172
 30
0.0
 10
126.5403920574336
 20
92.08134721784944
 30
0.0
 10
126.5894648579941
 20
92.14906279127052
 30
0.0
 10
126.6242142685356
 20
92.24466526752039
 30
0.0
 10
126.6047747465153
 20
92.3723021102819
 30
0.0
 10
126.5620511527492
 20
92.5573608710142
 30
0.0
 10
126.492854067234
 20
92.88801531789575
 30
0.0
 10
126.3639045922372
 20
93.47972244234046
 30
0.0
 10
126.1437499391038
 20
94.50206311173979
 30
0.0
 10
125.7603396159015
 20
96.26488069519564
 30
0.0
 10
125.0810062358794
 20
99.36866255700471
 30
0.0
 10
123.8537734745903
 20
104.8933524675622
 30
0.0
 10
121.9337678749446
 20
113.326420407244
 30
0.0
 10
119.9385673490028
 20
121.7837556715035
 30
0.0
 10
118.557270053405
 20
127.4779453577
 30
0.0
 10
118.0550892031738
 20
129.5290106472621
 30
0.0
 10
117.9222950069518
 20
130.0703999051821
 30
0.0
 10
117.7951174072291
 20
130.5879797487621
 30
0.0
 10
117.6822954759
 20
131.0463726885195
 30
0.0
 10
117.5718517892536
 20
131.4944785051718
 30
0.0
 10
117.4515425993849
 20
131.981940472309
 30
0.0
 10
117.3027339314642
 20
132.583755853558
 30
0.0
 10
117.1308229824299
 20
133.2776685637173
 30
0.0
 10
117.0082311802555
 20
133.7709059595862
 30
0.0
 10
116.9449592280908
 20
134.025475126233
 30
0.0
  0
LINE
  5
D1
330
1F
100
AcDbEntity
  8
0
  6
Continuous
 62
     7
370
    15
100
AcDbLine
 10
114.2050149191
 20
134.0311852512
 30
0.0
 11
77.5016660142
 21
114.2967310962
 31
0.0
  0
LINE
  5
D2
330
1F
100
AcDbEntity
  8
0
  6
Continuous
 62
     7
370
    15
100
AcDbLine
 10
77.5377536464
 20
114.2296162662
 30
0.0
 11
114.2450275171
 21
133.9661804256
 31
0.0
  0
SPLINE
  5
D3
330
1F
100
AcDbEntity
  8
0
  6
Continuous
 62
     7
370
    15
100
AcDbSpline
210
0.0
220
0.0
230
1.0
 70
     8
 71
     3
 72
    15
 73
    11
 74
     0
 42
0.000000001
 43
0.00000001
 40
0.0
 40
0.0
 40
0.0
 40
0.0
 40
0.1578807886319171
 40
0.2849441303186765
 40
0.4513992424911891
 40
0.5409824053262622
 40
0.6619653869674346
 40
0.8144488902842084
 40
0.903149125500376
 40
1.0
 40
1.0
 40
1.0
 40
1.0
 10
77.55251771693659
 20
113.8535646018647
 30
0.0
 10
77.53089390861996
 20
113.8658518254552
 30
0.0
 10
77.49186713843245
 20
113.8880278753112
 30
0.0
 10
77.44793097574181
 20
113.9447693921483
 30
0.0
 10
77.42716410697255
 20
114.0022711495664
 30
0.0
 10
77.42432523409448
 20
114.0613814135646
 30
0.0
 10
77.43535818176913
 20
114.1176798096658
 30
0.0
 10
77.46335251502181
 20
114.1680075970687
 30
0.0
 10
77.5001358685963
 20
114.2063955817532
 30
0.0
 10
77.52485248112536
 20
114.2216526408798
 30
0.0
 10
77.53775364642573
 20
114.2296162662171
 30
0.0
  0
SPLINE
  5
D4
330
1F
100
AcDbEntity
  8
0
  6
Continuous
 62
     7
370
    15
100
AcDbSpline
210
0.0
220
0.0
230
1.0
 70
     8
 71
     3
 72
    14
 73
    10
 74
     0
 42
0.000000001
 43
0.00000001
 40
0.0
 40
0.0
 40
0.0
 40
0.0
 40
0.1567880981756408
 40
0.2838970128708654
 40
0.4514661939187898
 40
0.5419291983823507
 40
0.6638810895857449
 40
0.8167316411976451
 40
1.0
 40
1.0
 40
1.0
 40
1.0
 10
77.50166601424647
 20
114.2967310962342
 30
0.0
 10
77.47376102538092
 20
114.2780152880998
 30
0.0
 10
77.42323331903522
 20
114.2441264783963
 30
0.0
 10
77.36965597489286
 20
114.162451239684
 30
0.0
 10
77.34769115126194
 20
114.0818210091864
 30
0.0
 10
77.3502665147494
 20
114.0006505352084
 30
0.0
 10
77.37172561142526
 20
113.9254810153353
 30
0.0
 10
77.42522051282889
 20
113.8407781065094
 30
0.0
 10
77.48747102801582
 20
113.8040344483845
 30
0.0
 10
77.52141303306057
 20
113.7840000209474
 30
0.0
  0
LINE
  5
D5
330
1F
100
AcDbEntity
  8
0
  6
Continuous
 62
     7
370
    15
100
AcDbLine
 10
77.5214130331
 20
113.7840000209
 30
0.0
 11
77.5979990411
 21
113.7497571525
 31
0.0
  0
LINE
  5
D6
330
1F
100
AcDbEntity
  8
0
  6
Continuous
 62
     7
370
    15
100
AcDbLine
 10
77.6282394577
 20
113.8197032032
 30
0.0
 11
77.5525177169
 21
113.8535646019
 31
0.0
  0
LINE
  5
D7
330
1F
100
AcDbEntity
  8
0
  6
Continuous
 62
     7
370
    15
100
AcDbLine
 10
44.4377268005
 20
66.0387621489
 30
0.0
 11
43.1677246738
 21
66.0387621489
 31
0.0
  0
LINE
  5
D8
330
1F
100
AcDbEntity
  8
0
  6
Continuous
 62
     7
370
    15
100
AcDbLine
 10
43.1677246738
 20
53.3387621162
 30
0.0
 11
44.4377268005
 21
53.3387621162
 31
0.0
  0
LINE
  5
D9
330
1F
100
AcDbEntity
  8
0
  6
Continuous
 62
     7
370
    15
100
AcDbLine
 10
48.583915298
 20
63.4987619934
 30
0.0
 11
44.4371247936
 21
63.4987619934
 31
0.0
  0
LINE
  5
DA
330
1F
100
AcDbEntity
  8
0
  6
Continuous
 62
     7
370
    15
100
AcDbLine
 10
44.4371247936
 20
55.8787618992
 30
0.0
 11
51.7505491424
 21
55.8787618992
 31
0.0
  0
LINE
  5
DB
330
1F
100
AcDbEntity
  8
0
  6
Continuous
 62
     7
370
    15
100
AcDbLine
 10
51.7299080539
 20
55.8684435901
 30
0.0
 11
59.1490591217
 21
63.28759829
 31
0.0
  0
LINE
  5
DC
330
1F
100
AcDbEntity
  8
0
  6
Continuous
 62
     7
370
    15
100
AcDbLine
 10
53.7609065223
 20
68.6757517275
 30
0.0
 11
48.573597734
 21
63.4884401453
 31
0.0
  0
LINE
  5
DD
330
1F
100
AcDbEntity
  8
0
  6
Continuous
 62
     7
370
    15
100
AcDbLine
 10
77.7188087154
 20
114.0239981231
 30
0.0
 11
126.4774303689
 21
92.4076822815
 31
0.0
  0
LWPOLYLINE
  5
DE
330
1F
100
AcDbEntity
  8
0
  6
Continuous
 62
     7
370
    15
100
AcDbPolyline
 90
       86
 70
   128
 43
0.0
 10
126.4774303689
 20
92.4076822815
 10
126.2502730863
 20
91.9710544166
 10
125.9907699113
 20
91.5497419653
 10
125.6992693797
 20
91.144317132
 10
125.3761631243
 20
90.7553252992
 10
125.0218849901
 20
90.3832820472
 10
124.6369110692
 20
90.0286940155
 10
124.2217581991
 20
89.6920320806
 10
123.776984242
 20
89.3737522182
 10
123.3031865481
 20
89.0742806015
 10
122.8010015834
 20
88.7940195617
 10
122.2711036253
 20
88.5333475885
 10
121.7142047632
 20
88.2926103887
 10
121.1310530353
 20
88.0721357879
 10
120.5224314976
 20
87.8722158489
 10
119.8891574789
 20
87.6931217727
 10
119.2320825804
 20
87.5350949583
 10
118.5520882059
 20
87.3983440218
 10
117.8500877965
 20
87.2830567178
 10
117.1270253408
 20
87.1893865285
 10
116.3838716496
 20
87.1174571333
 10
115.6216243554
 20
87.0673668799
 10
114.8413071681
 20
87.0391843137
 10
114.0439698744
 20
87.0329451975
 10
113.2306808878
 20
87.048658472
 10
112.4025354434
 20
87.0863032756
 10
111.5606436778
 20
87.1458289442
 10
110.7061380792
 20
87.2271565017
 10
109.840164547
 20
87.3301741895
 10
108.963888352
 20
87.4547478971
 10
108.0784851957
 20
87.600704771
 10
107.185145681
 20
87.7678540764
 10
106.2850678611
 20
87.9559663353
 10
105.3794617105
 20
88.1647912082
 10
104.4695431638
 20
88.3940515337
 10
103.5565341163
 20
88.6434343872
 10
102.6416639138
 20
88.9126059827
 10
101.7261574317
 20
89.2012057123
 10
100.8112455059
 20
89.5088461456
 10
99.8981589723
 20
89.8351130304
 10
98.9881241966
 20
90.1795682726
 10
98.0823600936
 20
90.5417499361
 10
97.1820885587
 20
90.9211722431
 10
96.2885136056
 20
91.3173225937
 10
95.402836268
 20
91.7296734867
 10
94.5262486387
 20
92.1576646385
 10
93.6599279094
 20
92.6007268247
 10
92.805039351
 20
93.058263999
 10
91.9627243925
 20
93.5296592531
 10
91.1341214824
 20
94.0142807779
 10
90.3203422475
 20
94.5114759025
 10
89.5224774528
 20
95.0205800352
 10
88.7415999818
 20
95.5409077224
 10
87.9787588764
 20
96.07176159
 10
87.2349763561
 20
96.6124234018
 10
86.5112567592
 20
97.1621719417
 10
85.8085686613
 20
97.7202681121
 10
85.1278538156
 20
98.2859608946
 10
84.470033114
 20
98.8584933099
 10
83.8359827447
 20
99.4370904979
 10
83.2265610147
 20
100.0209805784
 10
82.6425815273
 20
100.60937677
 10
82.0848280836
 20
101.2014922914
 10
81.5540576625
 20
101.7965254602
 10
81.050973599
 20
102.3936835346
 10
80.5762583662
 20
102.9921588716
 10
80.1305437732
 20
103.5911527691
 10
79.7144348074
 20
104.189857584
 10
79.328488772
 20
104.7874686536
 10
78.973218267
 20
105.3831842956
 10
78.6491090704
 20
105.9762058077
 10
78.3565903354
 20
106.5657315073
 10
78.0960584331
 20
107.1509775934
 10
77.8678590704
 20
107.7311513242
 10
77.6723051715
 20
108.3054748592
 10
77.5096530366
 20
108.8731763181
 10
77.3801261831
 20
109.433498722
 10
77.2838944841
 20
109.9856821117
 10
77.2210920501
 20
110.5289873895
 10
77.1917963672
 20
111.0626873788
 10
77.1960521389
 20
111.5860608635
 10
77.2338534046
 20
112.0984074888
 10
77.3051495004
 20
112.599035841
 10
77.4098390985
 20
113.0872813282
 10
77.5477880884
 20
113.5624793586
 10
77.7188087154
 20
114.0239981231
  0
LINE
  5
DF
330
1F
100
AcDbEntity
  8
0
  6
Continuous
 62
     7
370
    15
100
AcDbLine
 10
126.4774303689
 20
92.4076822815
 30
0.0
 11
126.3661998829
 21
92.15678547
 31
0.0
  0
LWPOLYLINE
  5
E0
330
1F
100
AcDbEntity
  8
0
  6
Continuous
 62
     7
370
    15
100
AcDbPolyline
 90
       86
 70
   128
 43
0.0
 10
77.6075804878
 20
113.7730983314
 10
77.4365598608
 20
113.3115855274
 10
77.2986108709
 20
112.8363874969
 10
77.1939182926
 20
112.3481420097
 10
77.1226221967
 20
111.8475106773
 10
77.0848239112
 20
111.335164052
 10
77.0805651594
 20
110.8117905674
 10
77.1098608423
 20
110.278090578
 10
77.1726632762
 20
109.7347853002
 10
77.2688949752
 20
109.1826019106
 10
77.3984218288
 20
108.6222824869
 10
77.5610739637
 20
108.0545780477
 10
77.7566308427
 20
107.4802545128
 10
77.9848272253
 20
106.9000807819
 10
78.2453591276
 20
106.314837676
 10
78.5378778625
 20
105.7253089962
 10
78.8619900394
 20
105.1322874841
 10
79.2172575641
 20
104.5365718422
 10
79.6032035995
 20
103.9389607725
 10
80.0193155456
 20
103.3402559576
 10
80.4650271583
 20
102.7412650404
 10
80.9397423912
 20
102.1427867231
 10
81.4428264547
 20
101.545631629
 10
81.973599856
 20
100.9505954799
 10
82.5313503194
 20
100.3584829387
 10
83.1153298069
 20
99.7700867471
 10
83.7247515369
 20
99.1861966667
 10
84.3588019062
 20
98.6075964985
 10
85.0166226078
 20
98.0350670633
 10
85.6973374534
 20
97.4693713007
 10
86.4000255514
 20
96.9112781105
 10
87.1237451482
 20
96.3615265903
 10
87.8675276685
 20
95.8208647785
 10
88.630368774
 20
95.2900138912
 10
89.411246245
 20
94.7696862039
 10
90.2091110397
 20
94.2605820713
 10
91.0228932548
 20
93.7633839664
 10
91.8514961649
 20
93.2787624416
 10
92.6938081432
 20
92.8073671875
 10
93.5486996818
 20
92.3498329935
 10
94.4150204111
 20
91.9067708072
 10
95.2916050602
 20
91.4787766752
 10
96.1772823978
 20
91.0664287624
 10
97.0708573509
 20
90.6702754316
 10
97.9711288858
 20
90.2908561048
 10
98.8768929887
 20
89.9286744413
 10
99.7869307447
 20
89.5842162189
 10
100.7000172782
 20
89.2579493341
 10
101.6149262238
 20
88.9503089008
 10
102.5304327059
 20
88.6617091713
 10
103.4453043986
 20
88.3925375757
 10
104.358311956
 20
88.1431547222
 10
105.2682305027
 20
87.913897377
 10
106.1738366533
 20
87.7050695238
 10
107.0739144731
 20
87.5169572649
 10
107.967255478
 20
87.3498094496
 10
108.8526586342
 20
87.2038510856
 10
109.7289348293
 20
87.0792788682
 10
110.5949068714
 20
86.9762596903
 10
111.44941396
 20
86.8949336228
 10
112.2913042355
 20
86.8354079542
 10
113.11945117
 20
86.7977631507
 10
113.9327394116
 20
86.7820483861
 10
114.7300767053
 20
86.7882875023
 10
115.5103938926
 20
86.8164715585
 10
116.2726411868
 20
86.8665618119
 10
117.0157948781
 20
86.938489717
 10
117.7388573337
 20
87.0321613965
 10
118.4408577431
 20
87.1474487004
 10
119.1208513725
 20
87.2841996369
 10
119.7779270161
 20
87.4422279415
 10
120.4112006623
 20
87.6213220176
 10
121.0198225725
 20
87.8212389764
 10
121.6029743004
 20
88.0417165575
 10
122.1598731626
 20
88.282450777
 10
122.6897711206
 20
88.5431257305
 10
123.1919560853
 20
88.8233867702
 10
123.6657537792
 20
89.122858387
 10
124.1105277363
 20
89.4411382494
 10
124.5256806064
 20
89.777797204
 10
124.9106545273
 20
90.1323852358
 10
125.2649326149
 20
90.5044284877
 10
125.5880389169
 20
90.8934233007
 10
125.8795394135
 20
91.298848134
 10
126.1390425929
 20
91.7201576051
 10
126.3661998829
 20
92.15678547
  0
LINE
  5
E1
330
1F
100
AcDbEntity
  8
0
  6
Continuous
 62
     7
370
    15
100
AcDbLine
 10
77.7188087154
 20
114.0239981231
 30
0.0
 11
77.6075804878
 21
113.7730983314
 31
0.0
  0
CIRCLE
  5
E2
330
1F
100
AcDbEntity
  8
0
  6
Continuous
 62
     7
370
    15
100
AcDbCircle
 10
115.5765399717
 20
134.8306072279
 30
0.0
 40
1.587499999999977
  0
LWPOLYLINE
  5
E3
330
1F
100
AcDbEntity
  8
0
  6
Continuous
 62
     7
370
    15
100
AcDbPolyline
 90
        6
 70
   128
 43
0.0
 10
77.7641767908
 20
114.1263273773
 10
77.7641767908
 20
114.1263273773
 10
77.7611727167
 20
114.1195503292
 10
77.7524942804
 20
114.0999761638
 10
77.7382934738
 20
114.0679446277
 10
77.7188087154
 20
114.0239981231
  0
SPLINE
  5
E4
330
1F
100
AcDbEntity
  8
0
  6
Continuous
 62
     7
370
    15
100
AcDbSpline
210
0.0
220
0.0
230
1.0
 70
     8
 71
     3
 72
    16
 73
    12
 74
     0
 42
0.000000001
 43
0.00000001
 40
0.0
 40
0.0
 40
0.0
 40
0.0
 40
0.186687849930489
 40
0.3187823998320551
 40
0.4282899057531835
 40
0.4934611289897162
 40
0.595481565819319
 40
0.6972617722449047
 40
0.8045605248927263
 40
0.9321185259856264
 40
1.0
 40
1.0
 40
1.0
 40
1.0
 10
126.5213344983531
 20
92.50671539875499
 30
0.0
 10
126.5158948792445
 20
92.50937455087336
 30
0.0
 10
126.5066063538569
 20
92.51391523680516
 30
0.0
 10
126.4974477710531
 20
92.51893242181602
 30
0.0
 10
126.4935207697855
 20
92.52137241634081
 30
0.0
 10
126.492419271032
 20
92.52242721686918
 30
0.0
 10
126.4938095822292
 20
92.522257385878
 30
0.0
 10
126.4986041356322
 20
92.52046383433645
 30
0.0
 10
126.5063091865465
 20
92.51722947011199
 30
0.0
 10
126.5147949946406
 20
92.51352479236519
 30
0.0
 10
126.5207301208812
 20
92.51091058174765
 30
0.0
 10
126.5227915525211
 20
92.51000259491435
 30
0.0
  0
LWPOLYLINE
  5
E5
330
1F
100
AcDbEntity
  8
0
  6
Continuous
 62
     7
370
    15
100
AcDbPolyline
 90
        9
 70
   128
 43
0.0
 10
126.5213344984
 20
92.5067153988
 10
126.5191539462
 20
92.5017950353
 10
126.516002956
 20
92.4946901617
 10
126.5118907943
 20
92.4854126987
 10
126.5068294519
 20
92.473995429
 10
126.50083383
 20
92.4604741153
 10
126.493921484
 20
92.4448815403
 10
126.4861126935
 20
92.4272683677
 10
126.4774303689
 20
92.4076822815
  0
SPLINE
  5
E6
330
1F
100
AcDbEntity
  8
0
  6
Continuous
 62
     7
370
    15
100
AcDbSpline
210
0.0
220
0.0
230
1.0
 70
    24
 71
     3
 72
    19
 73
    15
 74
     0
 42
0.000000001
 43
0.00000001
 40
0.0
 40
0.0
 40
0.0
 40
0.0
 40
0.0833333266739655
 40
0.1666666777295589
 40
0.249999977376138
 40
0.333333313822981
 40
0.4166666642125064
 40
0.4999999635453532
 40
0.5833333121637958
 40
0.6666667142524514
 40
0.7500000167194874
 40
0.8333333050022287
 40
0.9166666635484971
 40
1.0
 40
1.0
 40
1.0
 40
1.0
 10
44.43772680049372
 20
59.68876194628707
 30
0.0
 10
44.43772680049372
 20
59.41169133287476
 30
0.0
 10
44.43772680049375
 20
58.85755002498493
 30
0.0
 10
44.43772680049369
 20
58.04056126517109
 30
0.0
 10
44.43772680049372
 20
57.25177245435714
 30
0.0
 10
44.43772680049372
 20
56.50468205892173
 30
0.0
 10
44.43772680049371
 20
55.81207013016195
 30
0.0
 10
44.43772680049375
 20
55.18579974366338
 30
0.0
 10
44.43772680049372
 20
54.63653505024983
 30
0.0
 10
44.43772680049372
 20
54.17386771377749
 30
0.0
 10
44.43772680049372
 20
53.80499938329143
 30
0.0
 10
44.43772680049371
 20
53.53889531949545
 30
0.0
 10
44.43772680049369
 20
53.37021656399781
 30
0.0
 10
44.43772680049372
 20
53.34924693117951
 30
0.0
 10
44.43772680049371
 20
53.3387621161603
 30
0.0
  0
SPLINE
  5
E7
330
1F
100
AcDbEntity
  8
0
  6
Continuous
 62
     7
370
    15
100
AcDbSpline
210
0.0
220
0.0
230
1.0
 70
    24
 71
     3
 72
    19
 73
    15
 74
     0
 42
0.000000001
 43
0.00000001
 40
0.0
 40
0.0
 40
0.0
 40
0.0
 40
0.0833333353640493
 40
0.1666667001142842
 40
0.2499999873095728
 40
0.3333332804239653
 40
0.4166667021893636
 40
0.5000000127561525
 40
0.5833333320763379
 40
0.6666666930318489
 40
0.7500000053460486
 40
0.8333333061171216
 40
0.9166666744134879
 40
1.0
 40
1.0
 40
1.0
 40
1.0
 10
44.43772680049372
 20
66.03876214894287
 30
0.0
 10
44.43772680049372
 20
66.02827737220251
 30
0.0
 10
44.43772680049372
 20
66.0073078150245
 30
0.0
 10
44.43772680049371
 20
65.8386284744212
 30
0.0
 10
44.43772680049375
 20
65.57252446572555
 30
0.0
 10
44.43772680049371
 20
65.20365649008632
 30
0.0
 10
44.43772680049371
 20
64.74098853939536
 30
0.0
 10
44.43772680049372
 20
64.1917245683514
 30
0.0
 10
44.43772680049372
 20
63.56545381801018
 30
0.0
 10
44.43772680049372
 20
62.8728418753106
 30
0.0
 10
44.43772680049372
 20
62.12575158659311
 30
0.0
 10
44.43772680049371
 20
61.33696275928173
 30
0.0
 10
44.43772680049372
 20
60.51997392718281
 30
0.0
 10
44.43772680049372
 20
59.96583255925107
 30
0.0
 10
44.43772680049371
 20
59.68876194628707
 30
0.0
  0
SPLINE
  5
E8
330
1F
100
AcDbEntity
  8
0
  6
Continuous
 62
     7
370
    15
100
AcDbSpline
210
0.0
220
0.0
230
1.0
 70
    24
 71
     3
 72
    22
 73
    18
 74
     0
 42
0.000000001
 43
0.00000001
 40
0.0
 40
0.0
 40
0.0
 40
0.0
 40
0.1249999999999999
 40
0.1249999999999999
 40
0.2499999999999997
 40
0.2499999999999997
 40
0.3749999999999996
 40
0.3749999999999996
 40
0.4999999999999997
 40
0.4999999999999997
 40
0.6249999999999998
 40
0.6249999999999998
 40
0.7499999999999998
 40
0.7499999999999998
 40
0.8749999999999999
 40
0.8749999999999999
 40
1.0
 40
1.0
 40
1.0
 40
1.0
 10
43.16772508441255
 20
59.68876200115854
 30
0.0
 10
43.16772508441255
 20
59.27315546964977
 30
0.0
 10
43.16772508441255
 20
58.85755921483184
 30
0.0
 10
43.16772508441255
 20
58.04231767800412
 30
0.0
 10
43.16772508441255
 20
57.64269255444853
 30
0.0
 10
43.16772508441252
 20
56.8747518193858
 30
0.0
 10
43.16772508441252
 20
56.50645519672725
 30
0.0
 10
43.16772508441252
 20
55.81532679568996
 30
0.0
 10
43.16772508441255
 20
55.49251210682342
 30
0.0
 10
43.16772508441255
 20
54.90475571710447
 30
0.0
 10
43.16772508441252
 20
54.63982854968751
 30
0.0
 10
43.16772508441248
 20
54.17803132009217
 30
0.0
 10
43.16772508441248
 20
53.98117267676069
 30
0.0
 10
43.16772508441248
 20
53.66308121613097
 30
0.0
 10
43.1677250844125
 20
53.54185626427118
 30
0.0
 10
43.16772508441248
 20
53.37969464924938
 30
0.0
 10
43.16772508441252
 20
53.33876199585299
 30
0.0
 10
43.16772508441248
 20
53.33876200115853
 30
0.0
  0
LINE
  5
E9
330
1F
100
AcDbEntity
  8
0
  6
Continuous
 62
     7
370
    15
100
AcDbLine
 10
43.1677246738
 20
66.0387621489
 30
0.0
 11
43.1677246738
 21
59.6887619463
 31
0.0
  0
SPLINE
  5
EA
330
1F
100
AcDbEntity
  8
0
  6
Continuous
 62
     7
370
    15
100
AcDbSpline
210
0.0
220
0.0
230
1.0
 70
     8
 71
     3
 72
    26
 73
    22
 74
     0
 42
0.000000001
 43
0.00000001
 40
0.0
 40
0.0
 40
0.0
 40
0.0
 40
0.046247361937459
 40
0.0885510588431
 40
0.1269116875054832
 40
0.1613284786202612
 40
0.1918021620659026
 40
0.2183321831868875
 40
0.2409193808695697
 40
0.3112991979090942
 40
0.3779857005873118
 40
0.4410012369431693
 40
0.5003717680433615
 40
0.5663676939333583
 40
0.6303687342030916
 40
0.6924373082062366
 40
0.7526415276428563
 40
0.8155221105561011
 40
0.8776421657466552
 40
0.9391009048811135
 40
1.0
 40
1.0
 40
1.0
 40
1.0
 10
50.16207343821956
 20
59.68876194628707
 30
0.0
 10
50.12533941452688
 20
59.77754250999821
 30
0.0
 10
50.05500379845532
 20
59.94753302603976
 30
0.0
 10
49.95472593593987
 20
60.19023125850099
 30
0.0
 10
49.86422391008979
 20
60.40867011985457
 30
0.0
 10
49.78354892736772
 20
60.60276959084992
 30
0.0
 10
49.71267807651093
 20
60.77274827169956
 30
0.0
 10
49.65158762675124
 20
60.9190657074034
 30
0.0
 10
49.56131052853966
 20
61.13645367930911
 30
0.0
 10
49.44428268013942
 20
61.42058255932756
 30
0.0
 10
49.30413821113297
 20
61.75994292437486
 30
0.0
 10
49.17893724291294
 20
62.06250576435015
 30
0.0
 10
49.06228554516615
 20
62.34386393200516
 30
0.0
 10
48.95503888235211
 20
62.60321059103124
 30
0.0
 10
48.85792739757752
 20
62.83792820514463
 30
0.0
 10
48.77585226880731
 20
63.03589941271564
 30
0.0
 10
48.70720049990872
 20
63.20133820186757
 30
0.0
 10
48.65268805584012
 20
63.33317589482989
 30
0.0
 10
48.61328000230267
 20
63.42837014953503
 30
0.0
 10
48.58854745732849
 20
63.48778335328695
 30
0.0
 10
48.58545463578687
 20
63.49511362248217
 30
0.0
 10
48.58391529803706
 20
63.49876199337473
 30
0.0
  0
SPLINE
  5
EB
330
1F
100
AcDbEntity
  8
0
  6
Continuous
 62
     7
370
    15
100
AcDbSpline
210
0.0
220
0.0
230
1.0
 70
     8
 71
     3
 72
    56
 73
    52
 74
     0
 42
0.000000001
 43
0.00000001
 40
0.0
 40
0.0
 40
0.0
 40
0.0
 40
0.009336817386471
 40
0.01868504506563
 40
0.0280450677190482
 40
0.0374172685707701
 40
0.0468020293529572
 40
0.056199730267224
 40
0.0656107499468521
 40
0.0750354654198957
 40
0.0844742520731882
 40
0.0939274836172653
 40
0.1033955320522084
 40
0.1128787676344233
 40
0.1223775588443582
 40
0.1318922723551705
 40
0.1414232730023431
 40
0.1509709237542584
 40
0.1605355856837377
 40
0.1701176179405395
 40
0.1797173777248213
 40
0.1893352202615749
 40
0.1989714987760169
 40
0.2086265644699525
 40
0.2183007664990929
 40
0.2279944519513396
 40
0.2377079658260179
 40
0.2474416510140608
 40
0.3076186611494445
 40
0.3696722545374994
 40
0.4336707453754047
 40
0.4996764020424033
 40
0.5590195689190541
 40
0.6220197950952742
 40
0.6887034941863129
 40
0.7590928658838982
 40
0.7691381015669894
 40
0.7800424280561205
 40
0.7918059355326269
 40
0.804428694668038
 40
0.8179107615197898
 40
0.8322521809610016
 40
0.8474529891411997
 40
0.8635132152889339
 40
0.8804328830567301
 40
0.8982120115410731
 40
0.9168506160672737
 40
0.9363487088013973
 40
0.9567062992330394
 40
0.9779233945603278
 40
0.9999999999999999
 40
0.9999999999999999
 40
0.9999999999999999
 40
0.9999999999999999
 10
51.7402250844112
 20
55.87876200115847
 30
0.0
 10
51.74018932802669
 20
55.87884753203782
 30
0.0
 10
51.74011777156065
 20
55.87901869832171
 30
0.0
 10
51.73953559972194
 20
55.88040429872698
 30
0.0
 10
51.73860597045523
 20
55.88261958265805
 30
0.0
 10
51.73729467225509
 20
55.88574829453952
 30
0.0
 10
51.73561088982701
 20
55.88977107920214
 30
0.0
 10
51.7335521575236
 20
55.89469599101993
 30
0.0
 10
51.73111913759837
 20
55.90052345345778
 30
0.0
 10
51.72831165248118
 20
55.90725566402919
 30
0.0
 10
51.72512975011026
 20
55.91489406628022
 30
0.0
 10
51.7215734178745
 20
55.92344002586562
 30
0.0
 10
51.71764265942797
 20
55.93289464632392
 30
0.0
 10
51.71333747406162
 20
55.94325881592975
 30
0.0
 10
51.70865786224289
 20
55.95453319255011
 30
0.0
 10
51.70360382412778
 20
55.96671820521068
 30
0.0
 10
51.698175359959
 20
55.979814051238
 30
0.0
 10
51.69237246996386
 20
55.99382069464704
 30
0.0
 10
51.68619515436163
 20
56.00873786428414
 30
0.0
 10
51.6796434134357
 20
56.02456505200888
 30
0.0
 10
51.67271724723479
 20
56.041301511283
 30
0.0
 10
51.6654166566978
 20
56.05894625441181
 30
0.0
 10
51.6577416394412
 20
56.07749805511208
 30
0.0
 10
51.64969220552457
 20
56.09695543140585
 30
0.0
 10
51.64126831843935
 20
56.1173167024283
 30
0.0
 10
51.63247011599869
 20
56.13857976884144
 30
0.0
 10
51.62329708346246
 20
56.16074292816838
 30
0.0
 10
51.59726793488309
 20
56.22361819967627
 30
0.0
 10
51.54830477179738
 20
56.34160008110309
 30
0.0
 10
51.46624498713309
 20
56.53951840088337
 30
0.0
 10
51.36911956773591
 20
56.77425360742228
 30
0.0
 10
51.26188217020898
 20
57.03360581064469
 30
0.0
 10
51.14523640639955
 20
57.31495000731193
 30
0.0
 10
51.02004447094163
 20
57.61747453181403
 30
0.0
 10
50.87991546282303
 20
57.95686461236267
 30
0.0
 10
50.77198074418445
 20
58.2187077450149
 30
0.0
 10
50.70333078802808
 20
58.3844206577032
 30
0.0
 10
50.67851764715626
 20
58.44403783227305
 30
0.0
 10
50.65157391633766
 20
58.50867099319775
 30
0.0
 10
50.62248947133469
 20
58.57838104514111
 30
0.0
 10
50.59126712440795
 20
58.65322803920164
 30
0.0
 10
50.55790587597636
 20
58.7332654039685
 30
0.0
 10
50.52240589275482
 20
58.81853914319164
 30
0.0
 10
50.48476702693358
 20
58.90908537783439
 30
0.0
 10
50.44498923490345
 20
59.00492819583024
 30
0.0
 10
50.40307249082301
 20
59.1060772597813
 30
0.0
 10
50.35901664392068
 20
59.21252523502478
 30
0.0
 10
50.31282211536487
 20
59.32424544860454
 30
0.0
 10
50.26448706848309
 20
59.44118799100267
 30
0.0
 10
50.21401867501297
 20
59.56328148662972
 30
0.0
 10
50.17961483937315
 20
59.6463852100683
 30
0.0
 10
50.16207141177107
 20
59.68876200115847
 30
0.0
  0
SPLINE
  5
EC
330
1F
100
AcDbEntity
  8
0
  6
Continuous
 62
     7
370
    15
100
AcDbSpline
210
0.0
220
0.0
230
1.0
 70
     8
 71
     3
 72
    19
 73
    15
 74
     0
 42
0.000000001
 43
0.00000001
 40
0.0
 40
0.0
 40
0.0
 40
0.0
 40
0.0833333732429364
 40
0.166666700463933
 40
0.2499997985099058
 40
0.3333333441224357
 40
0.4166665218758629
 40
0.4999999583952212
 40
0.5833332788031697
 40
0.6666664147606965
 40
0.749999670202683
 40
0.8333332482478323
 40
0.9166664548450805
 40
0.9999999999999999
 40
0.9999999999999999
 40
0.9999999999999999
 40
0.9999999999999999
 10
59.14893395190666
 20
63.287473306533
 30
0.0
 10
59.14448830442248
 20
63.29192162460021
 30
0.0
 10
59.13559701190925
 20
63.30081825827796
 30
0.0
 10
59.06402289819627
 20
63.37238248811502
 30
0.0
 10
58.9511328291514
 20
63.48528172918461
 30
0.0
 10
58.79462946030976
 20
63.64177785157116
 30
0.0
 10
58.5983388159683
 20
63.83807266348187
 30
0.0
 10
58.36530201019831
 20
64.07110451576428
 30
0.0
 10
58.0996010810794
 20
64.33680879780799
 30
0.0
 10
57.80575062671901
 20
64.63065973464737
 30
0.0
 10
57.48878789190871
 20
64.94762389215533
 30
0.0
 10
57.15413036589799
 20
65.28227636247055
 30
0.0
 10
56.80751305814337
 20
65.6288979416889
 30
0.0
 10
56.57240961339942
 20
65.86399932678974
 30
0.0
 10
56.45485765223933
 20
65.98155025812618
 30
0.0
  0
SPLINE
  5
ED
330
1F
100
AcDbEntity
  8
0
  6
Continuous
 62
     7
370
    15
100
AcDbSpline
210
0.0
220
0.0
230
1.0
 70
     8
 71
     3
 72
    19
 73
    15
 74
     0
 42
0.000000001
 43
0.00000001
 40
0.0
 40
0.0
 40
0.0
 40
0.0
 40
0.0833328395447771
 40
0.1666667789189097
 40
0.2499997520520466
 40
0.3333330293165783
 40
0.4166662434719413
 40
0.5000001021938886
 40
0.5833331301413384
 40
0.6666663494692882
 40
0.7499999366565241
 40
0.8333333063482743
 40
0.9166665376538646
 40
1.0
 40
1.0
 40
1.0
 40
1.0
 10
56.45485765223933
 20
65.98155025812618
 30
0.0
 10
56.33730839281655
 20
66.09910171799883
 30
0.0
 10
56.10220832255232
 20
66.33420618919189
 30
0.0
 10
55.75558416962235
 20
66.6808196869489
 30
0.0
 10
55.42093433757952
 20
67.01547871622002
 30
0.0
 10
55.10396951115263
 20
67.3324397606529
 30
0.0
 10
54.81012191009462
 20
67.62629329247888
 30
0.0
 10
54.54441081253422
 20
67.89199338963878
 30
0.0
 10
54.31138443162805
 20
68.12502878412691
 30
0.0
 10
54.11509049320405
 20
68.32132225553018
 30
0.0
 10
53.9585912013867
 20
68.47781887219034
 30
0.0
 10
53.84568791409766
 20
68.59071768094415
 30
0.0
 10
53.77412832763634
 20
68.66228221047152
 30
0.0
 10
53.76523034837169
 20
68.67117893461389
 30
0.0
 10
53.76078135257197
 20
68.6756273028516
 30
0.0
  0
ARC
  5
EE
330
1F
100
AcDbEntity
  8
0
  6
Continuous
 62
     8
370
    15
100
AcDbCircle
 10
89.2764605119
 20
120.5847764345
 30
0.0
 40
13.3486066553094
100
AcDbArc
 50
208.1033720918
 51
208.4304510751
  0
LWPOLYLINE
  5
EF
330
1F
100
AcDbEntity
  8
0
  6
Continuous
 62
     8
370
    15
100
AcDbPolyline
 90
        9
 70
   128
 43
0.0
 10
77.5525177169
 20
113.8535646019
 10
77.5513345647
 20
113.8509121952
 10
77.5479639221
 20
113.8433781681
 10
77.5429183889
 20
113.8320890484
 10
77.5369668651
 20
113.8187793312
 10
77.5310153413
 20
113.805469614
 10
77.5259698082
 20
113.7941864547
 10
77.5225961853
 20
113.7866464672
 10
77.5214130331
 20
113.7840000209
  0
LINE
  5
F0
330
1F
100
AcDbEntity
  8
0
  6
Continuous
 62
     7
370
    15
100
AcDbLine
 10
113.9890397239
 20
209.8579048445
 30
0.0
 11
113.9890397239
 21
208.89270597
 31
0.0
  0
LINE
  5
F1
330
1F
100
AcDbEntity
  8
0
  6
Continuous
 62
     7
370
    15
100
AcDbLine
 10
117.1640398253
 20
208.89270597
 30
0.0
 11
117.1640398253
 21
209.8579048445
 31
0.0
  0
LINE
  5
F2
330
1F
100
AcDbEntity
  8
0
  6
Continuous
 62
     7
370
    15
100
AcDbLine
 10
113.9890397239
 20
209.3663125565
 30
0.0
 11
77.5197590042
 21
209.4123139312
 31
0.0
  0
LINE
  5
F3
330
1F
100
AcDbEntity
  8
0
  6
Continuous
 62
     7
370
    15
100
AcDbLine
 10
77.5196606565
 20
209.3361138632
 30
0.0
 11
113.9890397239
 21
209.2901124885
 31
0.0
  0
SPLINE
  5
F4
330
1F
100
AcDbEntity
  8
0
  6
Continuous
 62
     7
370
    15
100
AcDbSpline
210
0.0
220
0.0
230
1.0
 70
     8
 71
     3
 72
    29
 73
    25
 74
     0
 42
0.000000001
 43
0.00000001
 40
0.0
 40
0.0
 40
0.0
 40
0.0
 40
0.0042329826491843
 40
0.0164535343907748
 40
0.0263924001673358
 40
0.0343160166818027
 40
0.0420221850879191
 40
0.0796642477932106
 40
0.1475686094051062
 40
0.2688265324304878
 40
0.4853580085907043
 40
0.7609432139020607
 40
0.8822011747652042
 40
0.908870153242307
 40
0.9344372905282999
 40
0.9419683242108244
 40
0.9515055944375889
 40
0.963272749259791
 40
0.9722631379173025
 40
0.9822205357623061
 40
0.9917817622989568
 40
0.9944201893896405
 40
0.997118921045912
 40
1.0
 40
1.0
 40
1.0
 40
1.0
 10
117.164039825253
 20
209.2873065998529
 30
0.0
 10
117.1782339415463
 20
209.2873806877655
 30
0.0
 10
117.2334062396476
 20
209.2876686662712
 30
0.0
 10
117.3217060004229
 20
209.2881248700346
 30
0.0
 10
117.4222609770552
 20
209.2886475319134
 30
0.0
 10
117.5076241268715
 20
209.2890891358824
 30
0.0
 10
117.6853046406422
 20
209.2900139524551
 30
0.0
 10
118.0619696217274
 20
209.2919657591405
 30
0.0
 10
118.8112934048874
 20
209.2958567313969
 30
0.0
 10
120.1355671096085
 20
209.302726410844
 30
0.0
 10
122.0941599020776
 20
209.3128943196272
 30
0.0
 10
123.9889097234448
 20
209.3227103730554
 30
0.0
 10
125.2610032690877
 20
209.3293379702612
 30
0.0
 10
125.7767897239717
 20
209.3319902036201
 30
0.0
 10
125.953591030197
 20
209.3329433636952
 30
0.0
 10
126.079799452176
 20
209.333544997294
 30
0.0
 10
126.1716266362226
 20
209.3343001965323
 30
0.0
 10
126.2713162831905
 20
209.338110419085
 30
0.0
 10
126.3727662891928
 20
209.3474402765523
 30
0.0
 10
126.4635924326205
 20
209.3606820301237
 30
0.0
 10
126.5306593999133
 20
209.3718905096547
 30
0.0
 10
126.5728575846779
 20
209.3794523981083
 30
0.0
 10
126.5976536448798
 20
209.3838728897726
 30
0.0
 10
126.6084657680521
 20
209.3866976382823
 30
0.0
 10
126.6140484988464
 20
209.3881561686967
 30
0.0
  0
SPLINE
  5
F5
330
1F
100
AcDbEntity
  8
0
  6
Continuous
 62
     7
370
    15
100
AcDbSpline
210
0.0
220
0.0
230
1.0
 70
     8
 71
     3
 72
    10
 73
     6
 74
     0
 42
0.000000001
 43
0.00000001
 40
0.0
 40
0.0
 40
0.0
 40
0.0
 40
0.1984206596376138
 40
0.5991709284360479
 40
1.0
 40
1.0
 40
1.0
 40
1.0
 10
126.5211860455347
 20
209.3371733357881
 30
0.0
 10
126.5284319020485
 20
209.3369607065128
 30
0.0
 10
126.5503122172465
 20
209.3363186298232
 30
0.0
 10
126.5724914244936
 20
209.336314666151
 30
0.0
 10
126.5761925149798
 20
209.3362354377225
 30
0.0
 10
126.5780432421489
 20
209.3361958196138
 30
0.0
  0
SPLINE
  5
F6
330
1F
100
AcDbEntity
  8
0
  6
Continuous
 62
     7
370
    15
100
AcDbSpline
210
0.0
220
0.0
230
1.0
 70
     8
 71
     3
 72
    19
 73
    15
 74
     0
 42
0.000000001
 43
0.00000001
 40
0.0
 40
0.0
 40
0.0
 40
0.0
 40
0.1197277096625497
 40
0.1841796146529233
 40
0.2499964352260205
 40
0.3158122177399384
 40
0.3802704680507735
 40
0.4999970983573576
 40
0.6197245453028833
 40
0.6841761810649033
 40
0.7500020275904234
 40
0.8158223433335264
 40
0.8802725249281168
 40
1.0
 40
1.0
 40
1.0
 40
1.0
 10
126.5785691134407
 20
209.3361913492654
 30
0.0
 10
126.5833616934952
 20
209.3367016784799
 30
0.0
 10
126.5907342186201
 20
209.3374867284765
 30
0.0
 10
126.5996059656368
 20
209.342240556716
 30
0.0
 10
126.6057004036755
 20
209.3471591417874
 30
0.0
 10
126.6106483318111
 20
209.3532643202152
 30
0.0
 10
126.615247800868
 20
209.3621364834259
 30
0.0
 10
126.6175813755522
 20
209.374302788124
 30
0.0
 10
126.6152427094649
 20
209.3864678314885
 30
0.0
 10
126.6106381024666
 20
209.395336798191
 30
0.0
 10
126.6056884367845
 20
209.4014400024568
 30
0.0
 10
126.5995918981264
 20
209.4063557973345
 30
0.0
 10
126.5907179337433
 20
209.4111037111229
 30
0.0
 10
126.5833458772963
 20
209.4118841082748
 30
0.0
 10
126.5785535603536
 20
209.4123914172624
 30
0.0
  0
SPLINE
  5
F7
330
1F
100
AcDbEntity
  8
0
  6
Continuous
 62
     7
370
    15
100
AcDbSpline
210
0.0
220
0.0
230
1.0
 70
     8
 71
     3
 72
    19
 73
    15
 74
     0
 42
0.000000001
 43
0.00000001
 40
0.0
 40
0.0
 40
0.0
 40
0.0
 40
0.1197264916245536
 40
0.1841784933222393
 40
0.2500042705233908
 40
0.3158213039334349
 40
0.3802696873640385
 40
0.4999993641249079
 40
0.6197298489036802
 40
0.6841825748674849
 40
0.7499993231030111
 40
0.8158200128925757
 40
0.8802705224231974
 40
1.0
 40
1.0
 40
1.0
 40
1.0
 10
126.5785767968519
 20
209.3361928393815
 30
0.0
 10
126.5833688539234
 20
209.3367025663815
 30
0.0
 10
126.5907406046477
 20
209.3374866931824
 30
0.0
 10
126.5996117269331
 20
209.3422404931026
 30
0.0
 10
126.6057042656237
 20
209.3471606980207
 30
0.0
 10
126.6106512945649
 20
209.353265471757
 30
0.0
 10
126.6152502023339
 20
209.362136759362
 30
0.0
 10
126.6175812791766
 20
209.3743028971256
 30
0.0
 10
126.6152406969969
 20
209.386467657077
 30
0.0
 10
126.6106352962713
 20
209.3953366534956
 30
0.0
 10
126.6056835923684
 20
209.4014385372193
 30
0.0
 10
126.5995867567373
 20
209.4063543974374
 30
0.0
 10
126.5907114751832
 20
209.4111020219387
 30
0.0
 10
126.583338660039
 20
209.4118834415445
 30
0.0
 10
126.5785458303763
 20
209.4123914172624
 30
0.0
  0
SPLINE
  5
F8
330
1F
100
AcDbEntity
  8
0
  6
Continuous
 62
     7
370
    15
100
AcDbSpline
210
0.0
220
0.0
230
1.0
 70
     8
 71
     3
 72
    27
 73
    23
 74
     0
 42
0.000000001
 43
0.00000001
 40
0.0
 40
0.0
 40
0.0
 40
0.0
 40
0.0048963895554154
 40
0.0153189537256662
 40
0.0235694881828455
 40
0.0308328095030284
 40
0.0420652309022944
 40
0.0530351976991722
 40
0.0915611916554711
 40
0.1601688817177694
 40
0.2826824471370011
 40
0.5014562888358334
 40
0.7798953567080702
 40
0.9024089050949958
 40
0.9158854552500115
 40
0.929183672730728
 40
0.94166478733547
 40
0.9534331988616195
 40
0.9628024508977103
 40
0.9748811882586752
 40
0.9896695524225275
 40
0.9999999999999999
 40
0.9999999999999999
 40
0.9999999999999999
 40
0.9999999999999999
 10
126.459761386901
 20
209.3830912640069
 30
0.0
 10
126.4466050059388
 20
209.3865887591429
 30
0.0
 10
126.4054436586081
 20
209.3975311005428
 30
0.0
 10
126.3504990863205
 20
209.4078276939388
 30
0.0
 10
126.2868517978596
 20
209.4106804186279
 30
0.0
 10
126.2160216142256
 20
209.410537227873
 30
0.0
 10
126.1285736925458
 20
209.4100110386457
 30
0.0
 10
125.9518355906154
 20
209.4091270647716
 30
0.0
 10
125.604924649193
 20
209.4072985528429
 30
0.0
 10
124.9268015475904
 20
209.4037978163296
 30
0.0
 10
123.6989910693807
 20
209.3974156578141
 30
0.0
 10
121.7989162044543
 20
209.3875614056897
 30
0.0
 10
119.8346773464287
 20
209.3773661420263
 30
0.0
 10
118.4869958547299
 20
209.3703742710908
 30
0.0
 10
117.9973694274518
 20
209.36783293199
 30
0.0
 10
117.8684046879108
 20
209.3671623543531
 30
0.0
 10
117.7448533456141
 20
209.3665215862008
 30
0.0
 10
117.6340622937114
 20
209.3659469684718
 30
0.0
 10
117.5244589910469
 20
209.3653781796548
 30
0.0
 10
117.4047190380673
 20
209.3647565370447
 30
0.0
 10
117.2816412813075
 20
209.3641187308767
 30
0.0
 10
117.1983106591195
 20
209.3636860880996
 30
0.0
 10
117.164039825253
 20
209.363508157966
 30
0.0
  0
SPLINE
  5
F9
330
1F
100
AcDbEntity
  8
0
  6
Continuous
 62
     7
370
    15
100
AcDbSpline
210
0.0
220
0.0
230
1.0
 70
     8
 71
     3
 72
    10
 73
     6
 74
     0
 42
0.000000001
 43
0.00000001
 40
0.0
 40
0.0
 40
0.0
 40
0.0
 40
0.3434184465873505
 40
0.70875050099906
 40
0.9999999999999999
 40
0.9999999999999999
 40
0.9999999999999999
 40
0.9999999999999999
 10
126.5786807790173
 20
209.4123914172624
 30
0.0
 10
126.5773534958523
 20
209.412410575431
 30
0.0
 10
126.5746142352868
 20
209.4124501142553
 30
0.0
 10
126.5548630046454
 20
209.4125276572299
 30
0.0
 10
126.5326277904527
 20
209.4118696817047
 30
0.0
 10
126.5227645907326
 20
209.4115778138612
 30
0.0
  0
SPLINE
  5
FA
330
1F
100
AcDbEntity
  8
0
  6
Continuous
 62
     7
370
    15
100
AcDbSpline
210
0.0
220
0.0
230
1.0
 70
     8
 71
     3
 72
    11
 73
     7
 74
     0
 42
0.000000001
 43
0.00000001
 40
0.0
 40
0.0
 40
0.0
 40
0.0
 40
0.2500368864888146
 40
0.500018901723109
 40
0.7501237384964143
 40
1.0
 40
1.0
 40
1.0
 40
1.0
 10
77.53696686511469
 20
209.4128727247689
 30
0.0
 10
77.51657462118466
 20
209.4128707311506
 30
0.0
 10
77.47579460845635
 20
209.4128667443513
 30
0.0
 10
77.42892963139357
 20
209.4128251262383
 30
0.0
 10
77.39628894296186
 20
209.4127650786986
 30
0.0
 10
77.39047596396325
 20
209.4127086841653
 30
0.0
 10
77.38757080321743
 20
209.4126804997896
 30
0.0
  0
SPLINE
  5
FB
330
1F
100
AcDbEntity
  8
0
  6
Continuous
 62
     7
370
    15
100
AcDbSpline
210
0.0
220
0.0
230
1.0
 70
     8
 71
     3
 72
    11
 73
     7
 74
     0
 42
0.000000001
 43
0.00000001
 40
0.0
 40
0.0
 40
0.0
 40
0.0
 40
0.2591263020887468
 40
0.5180829160305244
 40
0.7770691467270968
 40
1.0
 40
1.0
 40
1.0
 40
1.0
 10
77.5197560239358
 20
209.4123139312242
 30
0.0
 10
77.50024990275942
 20
209.4123409133143
 30
0.0
 10
77.46125043393651
 20
209.4123948598254
 30
0.0
 10
77.4187208979418
 20
209.4124907643478
 30
0.0
 10
77.39207497174631
 20
209.4125850305179
 30
0.0
 10
77.38999179643477
 20
209.4126411351884
 30
0.0
 10
77.38902813678217
 20
209.4126670887445
 30
0.0
  0
SPLINE
  5
FC
330
1F
100
AcDbEntity
  8
0
  6
Continuous
 62
     7
370
    15
100
AcDbSpline
210
0.0
220
0.0
230
1.0
 70
     8
 71
     3
 72
    11
 73
     7
 74
     0
 42
0.000000001
 43
0.00000001
 40
0.0
 40
0.0
 40
0.0
 40
0.0
 40
0.2247543094381523
 40
0.4832820091985485
 40
0.7416448516017672
 40
0.9999999999999999
 40
0.9999999999999999
 40
0.9999999999999999
 40
0.9999999999999999
 10
77.38820857291651
 20
209.336472981212
 30
0.0
 10
77.38922489542065
 20
209.3364460002518
 30
0.0
 10
77.39141026122311
 20
209.3363879839553
 30
0.0
 10
77.4182982074116
 20
209.336291760822
 30
0.0
 10
77.46101293789961
 20
209.3361968003501
 30
0.0
 10
77.50011359786227
 20
209.3361415086604
 30
0.0
 10
77.5196636367364
 20
209.3361138632272
 30
0.0
  0
SPLINE
  5
FD
330
1F
100
AcDbEntity
  8
0
  6
Continuous
 62
     7
370
    15
100
AcDbSpline
210
0.0
220
0.0
230
1.0
 70
     8
 71
     3
 72
    19
 73
    15
 74
     0
 42
0.000000001
 43
0.00000001
 40
0.0
 40
0.0
 40
0.0
 40
0.0
 40
0.0795083790517956
 40
0.1561918704396369
 40
0.2273129158681164
 40
0.2908203425529596
 40
0.3907545687867729
 40
0.4591214861457895
 40
0.5407771827606992
 40
0.65968274269259
 40
0.7350958545519444
 40
0.8192411640494461
 40
0.9089704587800824
 40
1.0
 40
1.0
 40
1.0
 40
1.0
 10
77.38790160899592
 20
209.4126819899057
 30
0.0
 10
77.38479079255006
 20
209.4124721843264
 30
0.0
 10
77.37867968520429
 20
209.4120600274411
 30
0.0
 10
77.3702453889491
 20
209.4088105052373
 30
0.0
 10
77.36325478674985
 20
209.4042263740477
 30
0.0
 10
77.35671584364715
 20
209.3975964435611
 30
0.0
 10
77.3520305521188
 20
209.3894875376763
 30
0.0
 10
77.3494567933159
 20
209.3796050854696
 30
0.0
 10
77.34928656669166
 20
209.3686503569372
 30
0.0
 10
77.35270274800423
 20
209.3578024878098
 30
0.0
 10
77.3591965893772
 20
209.3485807046002
 30
0.0
 10
77.36690964335136
 20
209.342061204591
 30
0.0
 10
77.37670933331941
 20
209.337399700469
 30
0.0
 10
77.38398452647569
 20
209.3367873295896
 30
0.0
 10
77.38764828925562
 20
209.3364789416765
 30
0.0
  0
LINE
  5
FE
330
1F
100
AcDbEntity
  8
0
  6
Continuous
 62
     7
370
    15
100
AcDbLine
 10
80.3952718425
 20
224.9233476152
 30
0.0
 11
80.2836234022
 21
224.7654903015
 31
0.0
  0
LINE
  5
FF
330
1F
100
AcDbEntity
  8
0
  6
Continuous
 62
     7
370
    15
100
AcDbLine
 10
80.1757985998
 20
194.2153214743
 30
0.0
 11
80.2870298076
 21
194.055679374
 31
0.0
  0
LINE
  5
100
330
1F
100
AcDbEntity
  8
0
  6
Continuous
 62
     7
370
    15
100
AcDbLine
 10
77.6354963232
 20
209.4128727248
 30
0.0
 11
77.5369668651
 21
209.4128727248
 31
0.0
  0
LINE
  5
101
330
1F
100
AcDbEntity
  8
0
  6
Continuous
 62
     7
370
    15
100
AcDbLine
 10
50.1620734382
 20
204.9451171687
 30
0.0
 11
56.4548576522
 21
204.9451171687
 31
0.0
  0
LINE
  5
102
330
1F
100
AcDbEntity
  8
0
  6
Continuous
 62
     7
370
    15
100
AcDbLine
 10
56.4548576522
 20
212.5651180079
 30
0.0
 11
50.1620734382
 21
212.5651180079
 31
0.0
  0
LINE
  5
103
330
1F
100
AcDbEntity
  8
0
  6
Continuous
 62
     7
370
    15
100
AcDbLine
 10
56.3460970569
 20
210.9141170313
 30
0.0
 11
56.2841857124
 21
210.9141170313
 31
0.0
  0
LINE
  5
104
330
1F
100
AcDbEntity
  8
0
  6
Continuous
 62
     7
370
    15
100
AcDbLine
 10
56.2841857124
 20
206.5961181452
 30
0.0
 11
56.3460970569
 21
206.5961181452
 31
0.0
  0
LINE
  5
105
330
1F
100
AcDbEntity
  8
0
  6
Continuous
 62
     7
370
    15
100
AcDbLine
 10
44.4377268005
 20
215.1051177909
 30
0.0
 11
43.1677246738
 21
215.1051177909
 31
0.0
  0
LINE
  5
106
330
1F
100
AcDbEntity
  8
0
  6
Continuous
 62
     7
370
    15
100
AcDbLine
 10
43.1677246738
 20
202.4051188757
 30
0.0
 11
44.4377268005
 21
202.4051188757
 31
0.0
  0
LINE
  5
107
330
1F
100
AcDbEntity
  8
0
  6
Continuous
 62
     7
370
    15
100
AcDbLine
 10
50.1620734382
 20
212.5651180079
 30
0.0
 11
44.4371247936
 21
212.5651180079
 31
0.0
  0
LINE
  5
108
330
1F
100
AcDbEntity
  8
0
  6
Continuous
 62
     7
370
    15
100
AcDbLine
 10
44.4371247936
 20
204.9451171687
 30
0.0
 11
50.1620734382
 21
204.9451171687
 31
0.0
  0
LINE
  5
109
330
1F
100
AcDbEntity
  8
0
  6
Continuous
 62
     7
370
    15
100
AcDbLine
 10
113.9890397239
 20
208.89270597
 30
0.0
 11
117.1640398253
 21
208.89270597
 31
0.0
  0
LINE
  5
10A
330
1F
100
AcDbEntity
  8
0
  6
Continuous
 62
     7
370
    15
100
AcDbLine
 10
117.1640398253
 20
209.8579048445
 30
0.0
 11
113.9890397239
 21
209.8579048445
 31
0.0
  0
ARC
  5
10B
330
1F
100
AcDbEntity
  8
0
  6
Continuous
 62
     7
370
    15
100
AcDbCircle
 10
75.908572964
 20
209.4228517965
 30
0.0
 40
1.855632545585139
100
AcDbArc
 50
359.6650997194
 51
12.5460104914
  0
ARC
  5
10C
330
1F
100
AcDbEntity
  8
0
  6
Continuous
 62
     7
370
    15
100
AcDbCircle
 10
75.9631514142
 20
209.4003160989
 30
0.0
 40
1.800619662816982
100
AcDbArc
 50
347.1690423635
 51
357.9468756922
  0
ARC
  5
10D
330
1F
100
AcDbEntity
  8
0
  6
Continuous
 62
     7
370
    15
100
AcDbCircle
 10
124.680848481
 20
209.4242678386
 30
0.0
 40
1.841995226188206
100
AcDbArc
 50
359.5688376632
 51
12.5952900473
  0
ARC
  5
10E
330
1F
100
AcDbEntity
  8
0
  6
Continuous
 62
     7
370
    15
100
AcDbCircle
 10
124.7398030254
 20
209.3980119411
 30
0.0
 40
1.782529091681096
100
AcDbArc
 50
347.1125547056
 51
358.0830010497
  0
LINE
  5
10F
330
1F
100
AcDbEntity
  8
0
  6
Continuous
 62
     7
370
    15
100
AcDbLine
 10
77.7188087154
 20
209.0004428556
 30
0.0
 11
77.6075804878
 21
209.1600834658
 31
0.0
  0
ARC
  5
110
330
1F
100
AcDbEntity
  8
0
  6
Continuous
 62
     7
370
    15
100
AcDbCircle
 10
76.5586654044
 20
209.4012254406
 30
0.0
 40
1.076277057380894
100
AcDbArc
 50
347.0528642414
 51
356.5614586281
  0
ARC
  5
111
330
1F
100
AcDbEntity
  8
0
  6
Continuous
 62
     7
370
    15
100
AcDbCircle
 10
76.4890534295
 20
209.4195281502
 30
0.0
 40
1.146462211844082
100
AcDbArc
 50
359.6673855242
 51
12.5211904598
  0
LINE
  5
112
330
1F
100
AcDbEntity
  8
0
  6
Continuous
 62
     7
370
    15
100
AcDbLine
 10
77.6082480598
 20
209.6680819323
 30
0.0
 11
77.7198965002
 21
209.8259388735
 31
0.0
  0
LWPOLYLINE
  5
113
330
1F
100
AcDbEntity
  8
0
  6
Continuous
 62
     7
370
    15
100
AcDbPolyline
 90
       21
 70
   128
 43
0.0
 10
80.2836234022
 20
224.7654903015
 10
80.0587469984
 20
224.4394428363
 10
79.6409214187
 20
223.7859870573
 10
79.2532081056
 20
223.1131612589
 10
78.8961256195
 20
222.421868824
 10
78.5701537777
 20
221.7130384674
 10
78.2757336546
 20
220.9876223733
 10
78.0132556606
 20
220.2465950778
 10
77.7830744434
 20
219.4909512331
 10
77.5854999471
 20
218.7217070987
 10
77.4207974124
 20
217.9398945799
 10
77.2891873766
 20
217.1465642085
 10
77.1908486534
 20
216.3427821627
 10
77.1259093929
 20
215.5296280315
 10
77.0944619823
 20
214.7081940701
 10
77.0965421844
 20
213.8795822194
 10
77.1321529794
 20
213.0449070861
 10
77.2012437034
 20
212.2052892377
 10
77.3037219692
 20
211.3618566921
 10
77.439450686
 20
210.5157419374
 10
77.6082480598
 20
209.6680819323
  0
LWPOLYLINE
  5
114
330
1F
100
AcDbEntity
  8
0
  6
Continuous
 62
     7
370
    15
100
AcDbPolyline
 90
       86
 70
   128
 43
0.0
 10
77.7198965002
 20
209.8259388735
 10
77.5510991264
 20
210.6735988786
 10
77.4153704095
 20
211.5197136333
 10
77.3128921438
 20
212.363146179
 10
77.2438014198
 20
213.2027640274
 10
77.2081906248
 20
214.0374391606
 10
77.2061074424
 20
214.8660510113
 10
77.2375578332
 20
215.6874849727
 10
77.3024970937
 20
216.5006398489
 10
77.4008358169
 20
217.3044218948
 10
77.5324458528
 20
218.0977515211
 10
77.6971483875
 20
218.8795640399
 10
77.8947228838
 20
219.6488089194
 10
78.1249041009
 20
220.404452019
 10
78.3873791147
 20
221.1454800596
 10
78.681802218
 20
221.8708961537
 10
79.0077740598
 20
222.5797261378
 10
79.364856546
 20
223.2710185727
 10
79.7525698591
 20
223.9438443711
 10
80.1703924585
 20
224.59730015
 10
80.6177670408
 20
225.2305078586
 10
81.0940886188
 20
225.8426171994
 10
81.5987224031
 20
226.4328058144
 10
82.1309829402
 20
227.0002811482
 10
82.690160935
 20
227.544280727
 10
83.2755053688
 20
228.0640740214
 10
83.8862264801
 20
228.5589627722
 10
84.5215076852
 20
229.0282822247
 10
85.1804936576
 20
229.47140199
 10
85.8622992683
 20
229.8877269296
 10
86.5660095859
 20
230.2766977144
 10
87.2906768966
 20
230.6377918726
 10
88.0353296447
 20
230.9705245575
 10
88.7989694524
 20
231.2744488274
 10
89.5805681396
 20
231.5491562044
 10
90.3790766645
 20
231.7942776983
 10
91.1934221435
 20
232.0094845524
 10
92.0225108314
 20
232.194486939
 10
92.8652281213
 20
232.34903694
 10
93.7204445053
 20
232.4729270568
 10
94.5870096136
 20
232.5659900238
 10
95.4637611557
 20
232.628101789
 10
96.3495159793
 20
232.6591785332
 10
97.2430909324
 20
232.6591785332
 10
98.1432849813
 20
232.628101789
 10
99.0488851715
 20
232.5659900238
 10
99.9586755682
 20
232.4729270568
 10
100.8714372564
 20
232.34903694
 10
101.7859423805
 20
232.194486939
 10
102.7009630847
 20
232.0094845524
 10
103.6152700234
 20
231.7942776983
 10
104.5276338506
 20
231.5491562044
 10
105.4368311811
 20
231.2744488274
 10
106.3416401196
 20
230.9705245575
 10
107.2408447314
 20
230.6377918726
 10
108.1332380224
 20
230.2766977144
 10
109.0176204491
 20
229.8877269296
 10
109.8928043891
 20
229.47140199
 10
110.7576141406
 20
229.0282822247
 10
111.6108889032
 20
228.5589627722
 10
112.4514812875
 20
228.0640740214
 10
113.2782632757
 20
227.544280727
 10
114.0901239861
 20
227.0002811482
 10
114.8859726537
 20
226.4328058144
 10
115.6647401202
 20
225.8426171994
 10
116.4253810692
 20
225.2305078586
 10
117.1668732811
 20
224.59730015
 10
117.8882213581
 20
223.9438443711
 10
118.5884559799
 20
223.2710185727
 10
119.266636138
 20
222.5797261378
 10
119.921850999
 20
221.8708961537
 10
120.5532213945
 20
221.1454800596
 10
121.1598983306
 20
220.404452019
 10
121.7410670865
 20
219.6488089194
 10
122.2959475863
 20
218.8795640399
 10
122.8237936545
 20
218.0977515211
 10
123.3238967407
 20
217.3044218948
 10
123.7955851752
 20
216.5006398489
 10
124.2382252861
 20
215.6874849727
 10
124.6512225169
 20
214.8660510113
 10
125.034022079
 20
214.0374391606
 10
125.3861097425
 20
213.2027640274
 10
125.7070127215
 20
212.363146179
 10
125.9962998835
 20
211.5197136333
 10
126.2535826924
 20
210.6735988786
 10
126.4785155227
 20
209.8259388735
  0
LWPOLYLINE
  5
115
330
1F
100
AcDbEntity
  8
0
  6
Continuous
 62
     7
370
    15
100
AcDbPolyline
 90
       86
 70
   128
 43
0.0
 10
126.4774303689
 20
209.0004428556
 10
126.2502730863
 20
208.1559508374
 10
125.9907699113
 20
207.3129995992
 10
125.6992693797
 20
206.4727201393
 10
125.3761631243
 20
205.6362404754
 10
125.0218849901
 20
204.8046856453
 10
124.6369110692
 20
203.979171746
 10
124.2217581991
 20
203.1608074238
 10
123.776984242
 20
202.3506938746
 10
123.3031865481
 20
201.549917393
 10
122.8010015834
 20
200.7595508625
 10
122.2711036253
 20
199.9806612065
 10
121.7142047632
 20
199.2142944863
 10
121.1310530353
 20
198.4614759018
 10
120.5224314976
 20
197.7232157519
 10
119.8891574789
 20
197.0005124142
 10
119.2320825804
 20
196.2943314841
 10
118.5520882059
 20
195.6056236556
 10
117.8500877965
 20
194.9353128006
 10
117.1270253408
 20
194.2843019297
 10
116.3838716496
 20
193.6534612706
 10
115.6216243554
 20
193.0436401894
 10
114.8413071681
 20
192.4556552699
 10
114.0439698744
 20
191.8903022339
 10
113.2306808878
 20
191.3483380606
 10
112.4025354434
 20
190.8304869463
 10
111.5606436778
 20
190.3374492457
 10
110.7061380792
 20
189.86988359
 10
109.840164547
 20
189.4284188082
 10
108.963888352
 20
189.0136509469
 10
108.0784851957
 20
188.6261343291
 10
107.185145681
 20
188.2663904955
 10
106.2850678611
 20
187.9349022439
 10
105.3794617105
 20
187.6321136286
 10
104.4695431638
 20
187.3584329417
 10
103.5565341163
 20
187.1142267516
 10
102.6416639138
 20
186.8998258641
 10
101.7261574317
 20
186.7155134013
 10
100.8112455059
 20
186.5615426829
 10
99.8981589723
 20
186.4381163647
 10
98.9881241966
 20
186.3454013398
 10
98.0823600936
 20
186.2835197976
 10
97.1820885587
 20
186.2525611451
 10
96.2885136056
 20
186.2525611451
 10
95.402836268
 20
186.2835197976
 10
94.5262486387
 20
186.3454013398
 10
93.6599279094
 20
186.4381163647
 10
92.805039351
 20
186.5615426829
 10
91.9627243925
 20
186.7155134013
 10
91.1341214824
 20
186.8998258641
 10
90.3203422475
 20
187.1142267516
 10
89.5224774528
 20
187.3584329417
 10
88.7415999818
 20
187.6321136286
 10
87.9787588764
 20
187.9349022439
 10
87.2349763561
 20
188.2663904955
 10
86.5112567592
 20
188.6261343291
 10
85.8085686613
 20
189.0136509469
 10
85.1278538156
 20
189.4284188082
 10
84.470033114
 20
189.86988359
 10
83.8359827447
 20
190.3374492457
 10
83.2265610147
 20
190.8304869463
 10
82.6425815273
 20
191.3483380606
 10
82.0848280836
 20
191.8903022339
 10
81.5540576625
 20
192.4556552699
 10
81.050973599
 20
193.0436401894
 10
80.5762583662
 20
193.6534612706
 10
80.1305437732
 20
194.2843019297
 10
79.7144348074
 20
194.9353128006
 10
79.328488772
 20
195.6056236556
 10
78.973218267
 20
196.2943314841
 10
78.6491090704
 20
197.0005124142
 10
78.3565903354
 20
197.7232157519
 10
78.0960584331
 20
198.4614759018
 10
77.8678590704
 20
199.2142944863
 10
77.6723051715
 20
199.9806612065
 10
77.5096530366
 20
200.7595508625
 10
77.3801261831
 20
201.549917393
 10
77.2838944841
 20
202.3506938746
 10
77.2210920501
 20
203.1608074238
 10
77.1917963672
 20
203.979171746
 10
77.1960521389
 20
204.8046856453
 10
77.2338534046
 20
205.6362404754
 10
77.3051495004
 20
206.4727201393
 10
77.4098390985
 20
207.3129995992
 10
77.5477880884
 20
208.1559508374
 10
77.7188087154
 20
209.0004428556
  0
LWPOLYLINE
  5
116
330
1F
100
AcDbEntity
  8
0
  6
Continuous
 62
     7
370
    15
100
AcDbPolyline
 90
       21
 70
   128
 43
0.0
 10
77.6075804878
 20
209.1600834658
 10
77.4365598608
 20
208.3155929377
 10
77.2986108709
 20
207.4726402094
 10
77.1939182926
 20
206.6323607495
 10
77.1226221967
 20
205.7958825757
 10
77.0848239112
 20
204.9643262556
 10
77.0805651594
 20
204.1388123562
 10
77.1098608423
 20
203.3204495242
 10
77.1726632762
 20
202.5103359749
 10
77.2688949752
 20
201.7095565131
 10
77.3984218288
 20
200.9191929629
 10
77.5610739637
 20
200.1403033068
 10
77.7566308427
 20
199.3739336064
 10
77.9848272253
 20
198.6211150219
 10
78.2453591276
 20
197.8828578522
 10
78.5378778625
 20
197.1601545145
 10
78.8619900394
 20
196.4539735844
 10
79.2172575641
 20
195.7652657559
 10
79.6032035995
 20
195.094954901
 10
80.0193155456
 20
194.4439410498
 10
80.1757985998
 20
194.2153214743
  0
SPLINE
  5
117
330
1F
100
AcDbEntity
  8
0
  6
Continuous
 62
     7
370
    15
100
AcDbSpline
210
0.0
220
0.0
230
1.0
 70
     8
 71
     3
 72
    38
 73
    34
 74
     0
 42
0.000000001
 43
0.00000001
 40
0.0
 40
0.0
 40
0.0
 40
0.0
 40
0.0625
 40
0.0625
 40
0.125
 40
0.125
 40
0.1875
 40
0.1875
 40
0.2499999999999999
 40
0.2499999999999999
 40
0.3124999999999999
 40
0.3124999999999999
 40
0.3749999999999999
 40
0.3749999999999999
 40
0.4374999999999998
 40
0.4374999999999998
 40
0.4999999999999998
 40
0.4999999999999998
 40
0.5624999999999998
 40
0.5624999999999998
 40
0.6249999999999998
 40
0.6249999999999998
 40
0.6874999999999999
 40
0.6874999999999999
 40
0.7499999999999999
 40
0.7499999999999999
 40
0.8124999999999999
 40
0.8124999999999999
 40
0.8749999999999999
 40
0.8749999999999999
 40
0.9375
 40
0.9375
 40
1.0
 40
1.0
 40
1.0
 40
1.0
 10
56.45485954797392
 20
212.5651175072165
 30
0.0
 10
56.63118646458206
 20
212.5651175072165
 30
0.0
 10
56.80750902115975
 20
212.5405579123959
 30
0.0
 10
57.15338670985611
 20
212.4432609387098
 30
0.0
 10
57.32293328946734
 20
212.3705259657036
 30
0.0
 10
57.64874294803752
 20
212.1796710864654
 30
0.0
 10
57.80499797071067
 20
212.0615558994962
 30
0.0
 10
58.09821891669203
 20
211.7844775606822
 30
0.0
 10
58.23517758953457
 20
211.6255212601454
 30
0.0
 10
58.48454150641321
 20
211.2728674269291
 30
0.0
 10
58.59694058443513
 20
211.0791786143106
 30
0.0
 10
58.7928645567304
 20
210.6645015757318
 30
0.0
 10
58.87638460639742
 20
210.4435236034786
 30
0.0
 10
59.01133938572932
 20
209.9827591655764
 30
0.0
 10
59.06277077837137
 20
209.7429840932363
 30
0.0
 10
59.13157012825378
 20
209.2538391749596
 30
0.0
 10
59.1489363842946
 20
209.0044814240952
 30
0.0
 10
59.14893638429462
 20
208.5057535903378
 30
0.0
 10
59.13157012825378
 20
208.2563958394734
 30
0.0
 10
59.06277077837135
 20
207.7672509211967
 30
0.0
 10
59.01133938572935
 20
207.5274758488566
 30
0.0
 10
58.87638460639742
 20
207.0667114109544
 30
0.0
 10
58.7928645567304
 20
206.8457334387012
 30
0.0
 10
58.59694058443515
 20
206.4310564001224
 30
0.0
 10
58.48454150641323
 20
206.2373675875039
 30
0.0
 10
58.23517758953457
 20
205.8847137542876
 30
0.0
 10
58.09821891669201
 20
205.7257574537508
 30
0.0
 10
57.80499797071067
 20
205.4486791149368
 30
0.0
 10
57.64874294803752
 20
205.3305639279676
 30
0.0
 10
57.32293328946732
 20
205.1397090487293
 30
0.0
 10
57.15338670985611
 20
205.0669740757233
 30
0.0
 10
56.8075090211598
 20
204.9696771020371
 30
0.0
 10
56.63118646458208
 20
204.9451175072165
 30
0.0
 10
56.45485954797395
 20
204.9451175072165
 30
0.0
  0
SPLINE
  5
118
330
1F
100
AcDbEntity
  8
0
  6
Continuous
 62
     7
370
    15
100
AcDbSpline
210
0.0
220
0.0
230
1.0
 70
     8
 71
     3
 72
    38
 73
    34
 74
     0
 42
0.000000001
 43
0.00000001
 40
0.0
 40
0.0
 40
0.0
 40
0.0
 40
0.0625
 40
0.0625
 40
0.125
 40
0.125
 40
0.1875
 40
0.1875
 40
0.25
 40
0.25
 40
0.3125
 40
0.3125
 40
0.375
 40
0.375
 40
0.4375
 40
0.4375
 40
0.5
 40
0.5
 40
0.5625
 40
0.5625
 40
0.625
 40
0.625
 40
0.6875
 40
0.6875
 40
0.75
 40
0.75
 40
0.8125
 40
0.8125
 40
0.875
 40
0.875
 40
0.9375
 40
0.9375
 40
1.0
 40
1.0
 40
1.0
 40
1.0
 10
56.45485954797395
 20
204.9451175072165
 30
0.0
 10
56.27853263136581
 20
204.9451175072165
 30
0.0
 10
56.10221007478812
 20
204.9696771020371
 30
0.0
 10
55.75633238609183
 20
205.0669740757233
 30
0.0
 10
55.58678580648059
 20
205.1397090487293
 30
0.0
 10
55.26097614791038
 20
205.3305639279676
 30
0.0
 10
55.10472112523725
 20
205.4486791149368
 30
0.0
 10
54.81150017925588
 20
205.7257574537508
 30
0.0
 10
54.67454150641332
 20
205.8847137542876
 30
0.0
 10
54.42517758953463
 20
206.2373675875039
 30
0.0
 10
54.31277851151274
 20
206.4310564001224
 30
0.0
 10
54.1168545392175
 20
206.8457334387012
 30
0.0
 10
54.03333448955048
 20
207.0667114109544
 30
0.0
 10
53.89837971021853
 20
207.5274758488566
 30
0.0
 10
53.84694831757651
 20
207.7672509211967
 30
0.0
 10
53.77814896769411
 20
208.2563958394734
 30
0.0
 10
53.76078271165324
 20
208.5057535903378
 30
0.0
 10
53.76078271165326
 20
209.0044814240952
 30
0.0
 10
53.77814896769409
 20
209.2538391749596
 30
0.0
 10
53.84694831757649
 20
209.7429840932363
 30
0.0
 10
53.89837971021855
 20
209.9827591655764
 30
0.0
 10
54.03333448955046
 20
210.4435236034786
 30
0.0
 10
54.11685453921748
 20
210.6645015757318
 30
0.0
 10
54.31277851151274
 20
211.0791786143106
 30
0.0
 10
54.42517758953463
 20
211.2728674269291
 30
0.0
 10
54.67454150641334
 20
211.6255212601454
 30
0.0
 10
54.81150017925583
 20
211.7844775606822
 30
0.0
 10
55.10472112523722
 20
212.0615558994962
 30
0.0
 10
55.26097614791036
 20
212.1796710864654
 30
0.0
 10
55.58678580648056
 20
212.3705259657036
 30
0.0
 10
55.75633238609178
 20
212.4432609387098
 30
0.0
 10
56.10221007478812
 20
212.5405579123959
 30
0.0
 10
56.27853263136578
 20
212.5651175072165
 30
0.0
 10
56.45485954797392
 20
212.5651175072165
 30
0.0
  0
SPLINE
  5
119
330
1F
100
AcDbEntity
  8
0
  6
Continuous
 62
     7
370
    15
100
AcDbSpline
210
0.0
220
0.0
230
1.0
 70
     8
 71
     3
 72
    73
 73
    69
 74
     0
 42
0.000000001
 43
0.00000001
 40
0.0
 40
0.0
 40
0.0
 40
0.0
 40
0.005073919509953
 40
0.0100590247882325
 40
0.0149553163008138
 40
0.0197627945449781
 40
0.0244814600515743
 40
0.0291113133874896
 40
0.0336523551583655
 40
0.0381045860115853
 40
0.0424680066395642
 40
0.0467426177833789
 40
0.0509284202367913
 40
0.055025414850692
 40
0.0590336025380529
 40
0.0629529842794318
 40
0.0667835611291126
 40
0.0705253342219839
 40
0.0741783047812426
 40
0.0777424741270636
 40
0.0812178436863752
 40
0.0846044150039136
 40
0.0879021897547685
 40
0.0911111697586627
 40
0.0942313569962614
 40
0.0972627536278689
 40
0.1002053620149492
 40
0.1030591847449869
 40
0.105824224660342
 40
0.1085004848918854
 40
0.1110879688984062
 40
0.1135866805130074
 40
0.115996623998051
 40
0.1183178041105947
 40
0.120550226180832
 40
0.1442368820969063
 40
0.1671003019340329
 40
0.189143536746875
 40
0.2103699946154348
 40
0.2307834960798615
 40
0.2503883403566443
 40
0.315341066604229
 40
0.3764372230777278
 40
0.4388863582610932
 40
0.5000153526020973
 40
0.5611351149587078
 40
0.6235934633517363
 40
0.6846769533184676
 40
0.7496423431351158
 40
0.7793371572378156
 40
0.810861932561759
 40
0.8442298862545531
 40
0.8794521268524773
 40
0.8844786770512512
 40
0.8899351089512452
 40
0.8958214676784273
 40
0.9021377885962283
 40
0.9088840997553094
 40
0.9160604236097972
 40
0.9236667782486052
 40
0.9317031782974496
 40
0.9401696355918537
 40
0.9490661596875348
 40
0.9583927582531473
 40
0.968149437376487
 40
0.9783362018060662
 40
0.9889530551437669
 40
0.9999999999999999
 40
0.9999999999999999
 40
0.9999999999999999
 40
0.9999999999999999
 10
50.16207141177104
 20
204.9451175072165
 30
0.0
 10
50.15401184899891
 20
204.9452034839256
 30
0.0
 10
50.13803379858875
 20
204.9453739324016
 30
0.0
 10
50.11430165998035
 20
204.9467345000262
 30
0.0
 10
50.09100998372279
 20
204.9488504099068
 30
0.0
 10
50.06816035771072
 20
204.9517547887454
 30
0.0
 10
50.04575236740249
 20
204.95538238875
 30
0.0
 10
50.0237861203357
 20
204.9596945134856
 30
0.0
 10
50.0022615879495
 20
204.9646464810469
 30
0.0
 10
49.98117877708853
 20
204.9701961325032
 30
0.0
 10
49.96053768533169
 20
204.976301643045
 30
0.0
 10
49.94033831261483
 20
204.9829221161112
 30
0.0
 10
49.92058065820103
 20
204.9900174505744
 30
0.0
 10
49.9012647214623
 20
204.9975483945284
 30
0.0
 10
49.88239050166852
 20
205.0054765481968
 30
0.0
 10
49.86395799803417
 20
205.0137643778141
 30
0.0
 10
49.8459672096963
 20
205.0223752245318
 30
0.0
 10
49.82841813570943
 20
205.0312733126067
 30
0.0
 10
49.81131077503412
 20
205.0404237558845
 30
0.0
 10
49.79464512652529
 20
205.0497925629464
 30
0.0
 10
49.77842118891865
 20
205.0593466409365
 30
0.0
 10
49.76263896081395
 20
205.0690537981741
 30
0.0
 10
49.74729844065923
 20
205.0788827456312
 30
0.0
 10
49.73239962671939
 20
205.0888030973568
 30
0.0
 10
49.71794251708462
 20
205.0987853699342
 30
0.0
 10
49.70392710951957
 20
205.108800981029
 30
0.0
 10
49.69035340185891
 20
205.1188222471749
 30
0.0
 10
49.6772213904262
 20
205.1288223806202
 30
0.0
 10
49.66453107546673
 20
205.1387754861942
 30
0.0
 10
49.65228244157285
 20
205.1486565551109
 30
0.0
 10
49.64047552694134
 20
205.1584414669734
 30
0.0
 10
49.62911017736139
 20
205.1681069603037
 30
0.0
 10
49.61818691684947
 20
205.1776307124793
 30
0.0
 10
49.60770387031582
 20
205.1869910310647
 30
0.0
 10
49.56538419034548
 20
205.2256870188496
 30
0.0
 10
49.49338755533267
 20
205.2996890931007
 30
0.0
 10
49.39509835917141
 20
205.421424084264
 30
0.0
 10
49.30344095672176
 20
205.5549374452692
 30
0.0
 10
49.21840722777314
 20
205.6981175836243
 30
0.0
 10
49.1399877439512
 20
205.8490058005154
 30
0.0
 10
49.01191238458649
 20
206.1285258482524
 30
0.0
 10
48.85448632186663
 20
206.5775747031867
 30
0.0
 10
48.70001422172046
 20
207.254644834024
 30
0.0
 10
48.60565333220809
 20
207.986846368597
 30
0.0
 10
48.5731664628129
 20
208.7550789432219
 30
0.0
 10
48.60565489918364
 20
209.523350833131
 30
0.0
 10
48.69999703509647
 20
210.2555011441583
 30
0.0
 10
48.85448177924096
 20
210.9326398049056
 30
0.0
 10
49.02277704290413
 20
211.4127120315568
 30
0.0
 10
49.17889827721945
 20
211.742580627609
 30
0.0
 10
49.30410073849924
 20
211.9605224212503
 30
0.0
 10
49.4442266322968
 20
212.1566437130525
 30
0.0
 10
49.55216210325662
 20
212.2731665180269
 30
0.0
 10
49.62081203364589
 20
212.3350653852955
 30
0.0
 10
49.64562517719798
 20
212.3562565834234
 30
0.0
 10
49.67256890732742
 20
212.3779823082295
 30
0.0
 10
49.70165335262887
 20
212.3999848214676
 30
0.0
 10
49.73287569953843
 20
212.4219865466989
 30
0.0
 10
49.76623694802393
 20
212.4436886461714
 30
0.0
 10
49.80173693125664
 20
212.4647712111108
 30
0.0
 10
49.83937579707948
 20
212.4848932416601
 30
0.0
 10
49.87915358909211
 20
212.5036922030867
 30
0.0
 10
49.92107033313865
 20
212.5207863984355
 30
0.0
 10
49.96512617998988
 20
212.5357665538014
 30
0.0
 10
50.0113207084777
 20
212.5482314612142
 30
0.0
 10
50.05965575527439
 20
212.5576485687008
 30
0.0
 10
50.11012414864249
 20
212.5639126401493
 30
0.0
 10
50.14452798420862
 20
212.564710604199
 30
0.0
 10
50.16207141177101
 20
212.5651175072165
 30
0.0
  0
SPLINE
  5
11A
330
1F
100
AcDbEntity
  8
0
  6
Continuous
 62
     7
370
    15
100
AcDbSpline
210
0.0
220
0.0
230
1.0
 70
     8
 71
     3
 72
    50
 73
    46
 74
     0
 42
0.000000001
 43
0.00000001
 40
0.0
 40
0.0
 40
0.0
 40
0.0
 40
0.0052116794497416
 40
0.0104208467190984
 40
0.0156288969255014
 40
0.0208372260840391
 40
0.0260472299855657
 40
0.0312603030757072
 40
0.0468865518477314
 40
0.0625178196151003
 40
0.078144182625703
 40
0.0937753364299528
 40
0.1250234274397116
 40
0.1562715184494705
 40
0.1875196094592298
 40
0.2187677004689884
 40
0.2500157914787478
 40
0.2812638824885058
 40
0.312511973498265
 40
0.3437600645080239
 40
0.3750081555177829
 40
0.4062562465275418
 40
0.4375043375373007
 40
0.4687524285470595
 40
0.5000005195568186
 40
0.5312486105665777
 40
0.5624967015763366
 40
0.5937447925860954
 40
0.6249928835958543
 40
0.6562409746056133
 40
0.6874890656153719
 40
0.7187371566251312
 40
0.7499852476348903
 40
0.7812333386446495
 40
0.8124814296544083
 40
0.8437295206641665
 40
0.874977611673926
 40
0.9062257026836842
 40
0.9218519514559286
 40
0.9374832192230811
 40
0.9531095822345815
 40
0.9687407360379315
 40
0.9791613392968065
 40
0.9895773696333934
 40
1.0
 40
1.0
 40
1.0
 40
1.0
 10
56.45485954797395
 20
212.2476175072165
 30
0.0
 10
56.46833318042247
 20
212.2475276588756
 30
0.0
 10
56.49527395063861
 20
212.2473480055032
 30
0.0
 10
56.53566816578096
 20
212.2458936974941
 30
0.0
 10
56.5760321054864
 20
212.2435718235182
 30
0.0
 10
56.61636568751953
 20
212.240297503998
 30
0.0
 10
56.65666918042373
 20
212.2360932695098
 30
0.0
 10
56.72374250542868
 20
212.227533631906
 30
0.0
 10
56.81736180981071
 20
212.2112101226497
 30
0.0
 10
56.93682880046641
 20
212.1818874687301
 30
0.0
 10
57.05515383784904
 20
212.1443181103864
 30
0.0
 10
57.21094312237894
 20
212.0833430956868
 30
0.0
 10
57.40145008716694
 20
211.9869525513349
 30
0.0
 10
57.62087654944524
 20
211.8401797611165
 30
0.0
 10
57.8290856645964
 20
211.663693541918
 30
0.0
 10
58.02405700651371
 20
211.4591968403105
 30
0.0
 10
58.20391698309747
 20
211.2286581903555
 30
0.0
 10
58.3669323489401
 20
210.9742980413309
 30
0.0
 10
58.51153347049672
 20
210.6985659572691
 30
0.0
 10
58.63632768126553
 20
210.4041174058177
 30
0.0
 10
58.74011316585269
 20
210.0937880829481
 30
0.0
 10
58.8218904076596
 20
209.7705666308995
 30
0.0
 10
58.88087184865688
 20
209.4375658486201
 30
0.0
 10
58.91648946491927
 20
209.0979927157671
 30
0.0
 10
58.92840023944229
 20
208.7551175072165
 30
0.0
 10
58.91648946491931
 20
208.4122422986659
 30
0.0
 10
58.88087184865688
 20
208.0726691658131
 30
0.0
 10
58.82189040765967
 20
207.7396683835328
 30
0.0
 10
58.74011316585247
 20
207.4164469314874
 30
0.0
 10
58.63632768126638
 20
207.1061176086061
 30
0.0
 10
58.51153347049357
 20
206.8116690571983
 30
0.0
 10
58.36693234895193
 20
206.5359369729737
 30
0.0
 10
58.20391698305335
 20
206.2815768245564
 30
0.0
 10
58.02405700667833
 20
206.0510381723355
 30
0.0
 10
57.82908566398205
 20
205.8465414791845
 30
0.0
 10
57.62087655173803
 20
205.6700552284257
 30
0.0
 10
57.40145007861014
 20
205.5232825559919
 30
0.0
 10
57.21095510807557
 20
205.4268976969568
 30
0.0
 10
57.055166108496
 20
205.3659217407284
 30
0.0
 10
56.93685383263699
 20
205.3283531092649
 30
0.0
 10
56.81737378570132
 20
205.2990327873426
 30
0.0
 10
56.71038945991656
 20
205.2803548937126
 30
0.0
 10
56.61641170510988
 20
205.269514166315
 30
0.0
 10
56.53568127696348
 20
205.2636951713701
 30
0.0
 10
56.48180581212431
 20
205.2629768044415
 30
0.0
 10
56.45485954797397
 20
205.2626175072165
 30
0.0
  0
SPLINE
  5
11B
330
1F
100
AcDbEntity
  8
0
  6
Continuous
 62
     7
370
    15
100
AcDbSpline
210
0.0
220
0.0
230
1.0
 70
     8
 71
     3
 72
    50
 73
    46
 74
     0
 42
0.000000001
 43
0.00000001
 40
0.0
 40
0.0
 40
0.0
 40
0.0
 40
0.0052116794510127
 40
0.0104208467217058
 40
0.0156288969295104
 40
0.0208372260895157
 40
0.026047229992576
 40
0.0312603030843172
 40
0.0468865518619205
 40
0.0625178196323244
 40
0.0781440684072369
 40
0.0937753361803295
 40
0.125023427198696
 40
0.1562715182170619
 40
0.187519609235429
 40
0.2187677002537954
 40
0.2500157912721618
 40
0.2812638822905278
 40
0.3125119733088944
 40
0.3437600643272604
 40
0.375008155345627
 40
0.4062562463639932
 40
0.4375043373823596
 40
0.4687524284007259
 40
0.5000005194190924
 40
0.5312486104374585
 40
0.5624967014558248
 40
0.5937447924741912
 40
0.6249928834925574
 40
0.6562409745109239
 40
0.6874890655292901
 40
0.7187371565476565
 40
0.7499852475660226
 40
0.7812333385843895
 40
0.812481429602756
 40
0.8437295206211223
 40
0.8749776116394881
 40
0.9062257026578546
 40
0.9218519514363772
 40
0.9374832192058652
 40
0.9531095822235857
 40
0.9687407360293206
 40
0.9791613392910185
 40
0.9895773696304737
 40
1.0
 40
1.0
 40
1.0
 40
1.0
 10
56.45485954797395
 20
205.2626175072165
 30
0.0
 10
56.44138591552587
 20
205.2627073555576
 30
0.0
 10
56.41444514531045
 20
205.2628870089302
 30
0.0
 10
56.37405093016853
 20
205.2643413169372
 30
0.0
 10
56.33368699046467
 20
205.2666631909211
 30
0.0
 10
56.29335340842636
 20
205.2699375104117
 30
0.0
 10
56.2530499155399
 20
205.2741417450102
 30
0.0
 10
56.1859765904153
 20
205.282701381929
 30
0.0
 10
56.0923572874039
 20
205.2990248992987
 30
0.0
 10
55.97289058198977
 20
205.3283474470996
 30
0.0
 10
55.85456556275575
 20
205.3659169033285
 30
0.0
 10
55.69877624035411
 20
205.4268917202106
 30
0.0
 10
55.50826901255438
 20
205.5232824827773
 30
0.0
 10
55.28884254549163
 20
205.6700552480435
 30
0.0
 10
55.08063343162243
 20
205.8465414739279
 30
0.0
 10
54.88566208936165
 20
206.051038173744
 30
0.0
 10
54.70580211286989
 20
206.281576824179
 30
0.0
 10
54.54278674700262
 20
206.5359369730749
 30
0.0
 10
54.39818562545261
 20
206.8116690571712
 30
0.0
 10
54.27339141468203
 20
207.1061176086134
 30
0.0
 10
54.16960593009536
 20
207.4164469314854
 30
0.0
 10
54.0878286882883
 20
207.7396683835333
 30
0.0
 10
54.02884724729108
 20
208.072669165813
 30
0.0
 10
53.99322963102863
 20
208.4122422986659
 30
0.0
 10
53.98131885650569
 20
208.7551175072165
 30
0.0
 10
53.99322963102863
 20
209.0979927157671
 30
0.0
 10
54.02884724729105
 20
209.4375658486199
 30
0.0
 10
54.08782868828828
 20
209.7705666309002
 30
0.0
 10
54.16960593009544
 20
210.0937880829456
 30
0.0
 10
54.27339141468156
 20
210.4041174058269
 30
0.0
 10
54.39818562545435
 20
210.6985659572346
 30
0.0
 10
54.54278674699601
 20
210.9742980414592
 30
0.0
 10
54.70580211289454
 20
211.2286581898766
 30
0.0
 10
54.88566208926961
 20
211.4591968420975
 30
0.0
 10
55.08063343196586
 20
211.6636935352485
 30
0.0
 10
55.28884254420991
 20
211.8401797860072
 30
0.0
 10
55.50826901733777
 20
211.9869524584414
 30
0.0
 10
55.69876398787731
 20
212.0833373174776
 30
0.0
 10
55.85455298745658
 20
212.144313273708
 30
0.0
 10
55.97286526332081
 20
212.1818819051709
 30
0.0
 10
56.09234531025166
 20
212.2112022270897
 30
0.0
 10
56.19932963603617
 20
212.2298801207212
 30
0.0
 10
56.29330739083775
 20
212.2407208481179
 30
0.0
 10
56.37403781898418
 20
212.2465398430629
 30
0.0
 10
56.42791328382347
 20
212.2472582099915
 30
0.0
 10
56.45485954797392
 20
212.2476175072165
 30
0.0
  0
SPLINE
  5
11C
330
1F
100
AcDbEntity
  8
0
  6
Continuous
 62
     7
370
    15
100
AcDbSpline
210
0.0
220
0.0
230
1.0
 70
     8
 71
     3
 72
    23
 73
    19
 74
     0
 42
0.000000001
 43
0.00000001
 40
0.0
 40
0.0
 40
0.0
 40
0.0
 40
0.036564253177904
 40
0.1027691287892939
 40
0.1689745202013002
 40
0.2351794397914657
 40
0.3013846509968693
 40
0.3675897956095238
 40
0.4337949269401787
 40
0.5000000000000001
 40
0.5662050730598215
 40
0.6324102043904763
 40
0.6986153490031308
 40
0.7648205602085343
 40
0.8310254797986998
 40
0.8972308712107061
 40
0.963435746822096
 40
1.0
 40
1.0
 40
1.0
 40
1.0
 10
56.23915440326167
 20
212.2175722649072
 30
0.0
 10
56.32826569660882
 20
212.2089789202432
 30
0.0
 10
56.57872589165282
 20
212.1848260805776
 30
0.0
 10
56.97434143288179
 20
211.9985717508479
 30
0.0
 10
57.4043878873571
 20
211.678815120357
 30
0.0
 10
57.7809375268322
 20
211.2403201337331
 30
0.0
 10
58.09006664993471
 20
210.7080317144537
 30
0.0
 10
58.31974691764473
 20
210.1002353724269
 30
0.0
 10
58.46118229560798
 20
209.4408674216085
 30
0.0
 10
58.50893974360091
 20
208.7551175882791
 30
0.0
 10
58.46118229560796
 20
208.0693677549497
 30
0.0
 10
58.31974691764471
 20
207.4099998041312
 30
0.0
 10
58.09006664993473
 20
206.8022034621044
 30
0.0
 10
57.7809375268322
 20
206.2699150428251
 30
0.0
 10
57.40438788735715
 20
205.8314200562012
 30
0.0
 10
56.97434143288177
 20
205.5116634257103
 30
0.0
 10
56.57872589165282
 20
205.3254090959806
 30
0.0
 10
56.32826569660882
 20
205.3012562563149
 30
0.0
 10
56.23915440326167
 20
205.292662911651
 30
0.0
  0
SPLINE
  5
11D
330
1F
100
AcDbEntity
  8
0
  6
Continuous
 62
     7
370
    15
100
AcDbSpline
210
0.0
220
0.0
230
1.0
 70
    11
 71
     3
 72
    70
 73
    66
 74
     0
 42
0.000000001
 43
0.00000001
 40
0.0
 40
0.0
 40
0.0
 40
0.0
 40
0.03125
 40
0.03125
 40
0.0625
 40
0.0625
 40
0.09375
 40
0.09375
 40
0.125
 40
0.125
 40
0.1562499999999999
 40
0.1562499999999999
 40
0.1874999999999999
 40
0.1874999999999999
 40
0.2187499999999999
 40
0.2187499999999999
 40
0.2499999999999999
 40
0.2499999999999999
 40
0.2812499999999999
 40
0.2812499999999999
 40
0.3124999999999999
 40
0.3124999999999999
 40
0.3437499999999999
 40
0.3437499999999999
 40
0.3749999999999999
 40
0.3749999999999999
 40
0.4062499999999998
 40
0.4062499999999998
 40
0.4374999999999998
 40
0.4374999999999998
 40
0.4687499999999998
 40
0.4687499999999998
 40
0.4999999999999998
 40
0.4999999999999998
 40
0.5312499999999998
 40
0.5312499999999998
 40
0.5624999999999998
 40
0.5624999999999998
 40
0.5937499999999998
 40
0.5937499999999998
 40
0.6249999999999999
 40
0.6249999999999999
 40
0.65625
 40
0.65625
 40
0.6875
 40
0.6875
 40
0.71875
 40
0.71875
 40
0.75
 40
0.75
 40
0.7812500000000001
 40
0.7812500000000001
 40
0.8125000000000001
 40
0.8125000000000001
 40
0.84375
 40
0.84375
 40
0.875
 40
0.875
 40
0.90625
 40
0.90625
 40
0.9375
 40
0.9375
 40
0.96875
 40
0.96875
 40
1.0
 40
1.0
 40
1.0
 40
1.0
 10
58.03533787531483
 20
208.7551175074269
 30
0.0
 10
58.03533787532361
 20
208.6091883454596
 30
0.0
 10
58.02616474380532
 20
208.457801948862
 30
0.0
 10
57.98604140056677
 20
208.1511700673875
 30
0.0
 10
57.95505602291185
 20
207.9959557580002
 30
0.0
 10
57.86971730255704
 20
207.6911061603642
 30
0.0
 10
57.81534382459356
 20
207.5415326633157
 30
0.0
 10
57.68444132352418
 20
207.2583724429529
 30
0.0
 10
57.60792125573906
 20
207.1248592398323
 30
0.0
 10
57.4369546078841
 20
206.8830758876813
 30
0.0
 10
57.3425465165926
 20
206.7748601700032
 30
0.0
 10
57.14232200463402
 20
206.5897360775942
 30
0.0
 10
57.03655757059448
 20
206.5128403675994
 30
0.0
 10
56.82099635287864
 20
206.3921531918263
 30
0.0
 10
56.71124326217893
 20
206.348333250485
 30
0.0
 10
56.49442177946716
 20
206.2915902742572
 30
0.0
 10
56.38737543185518
 20
206.2786175072289
 30
0.0
 10
56.1810004318552
 20
206.2786175072041
 30
0.0
 10
56.07395408424163
 20
206.2915902742067
 30
0.0
 10
55.85713260152301
 20
206.3483332503824
 30
0.0
 10
55.74737951081804
 20
206.3921531916972
 30
0.0
 10
55.53181829308767
 20
206.5128403674186
 30
0.0
 10
55.42605385903894
 20
206.5897360773879
 30
0.0
 10
55.22582934705812
 20
206.7748601697488
 30
0.0
 10
55.13142125575364
 20
206.8830758874042
 30
0.0
 10
54.96045460786961
 20
207.1248592395142
 30
0.0
 10
54.88393454006838
 20
207.2583724426163
 30
0.0
 10
54.75303203896499
 20
207.5415326629477
 30
0.0
 10
54.69865856098358
 20
207.6911061599831
 30
0.0
 10
54.61331984059213
 20
207.9959557575986
 30
0.0
 10
54.58233446291855
 20
208.1511700669785
 30
0.0
 10
54.54221111964318
 20
208.4578019484433
 30
0.0
 10
54.53303798810668
 20
208.6091883450387
 30
0.0
 10
54.53303798808912
 20
208.9010466689734
 30
0.0
 10
54.54221111960743
 20
209.052433065571
 30
0.0
 10
54.58233446284594
 20
209.3590649470455
 30
0.0
 10
54.61331984050087
 20
209.5142792564328
 30
0.0
 10
54.69865856085568
 20
209.8191288540688
 30
0.0
 10
54.75303203881919
 20
209.9687023511173
 30
0.0
 10
54.88393453988856
 20
210.2518625714801
 30
0.0
 10
54.96045460767366
 20
210.3853757746006
 30
0.0
 10
55.13142125552863
 20
210.6271591267517
 30
0.0
 10
55.22582934682011
 20
210.7353748444298
 30
0.0
 10
55.42605385877867
 20
210.9204989368388
 30
0.0
 10
55.53181829281822
 20
210.9973946468336
 30
0.0
 10
55.74737951053412
 20
211.1180818226067
 30
0.0
 10
55.8571326012338
 20
211.161901763948
 30
0.0
 10
56.07395408394559
 20
211.2186447401758
 30
0.0
 10
56.18100043155759
 20
211.2316175072041
 30
0.0
 10
56.38737543155757
 20
211.2316175072289
 30
0.0
 10
56.49442177917111
 20
211.2186447402263
 30
0.0
 10
56.71124326188968
 20
211.1619017640506
 30
0.0
 10
56.82099635259469
 20
211.1180818227358
 30
0.0
 10
57.03655757032503
 20
210.9973946470144
 30
0.0
 10
57.14232200437382
 20
210.9204989370451
 30
0.0
 10
57.34254651635465
 20
210.7353748446842
 30
0.0
 10
57.43695460765911
 20
210.6271591270288
 30
0.0
 10
57.60792125554313
 20
210.3853757749188
 30
0.0
 10
57.68444132334432
 20
210.2518625718166
 30
0.0
 10
57.81534382444772
 20
209.9687023514853
 30
0.0
 10
57.86971730242914
 20
209.8191288544499
 30
0.0
 10
57.9550560228206
 20
209.5142792568344
 30
0.0
 10
57.98604140049418
 20
209.3590649474545
 30
0.0
 10
58.02616474376955
 20
209.0524330659897
 30
0.0
 10
58.03533787530605
 20
208.9010466693943
 30
0.0
 10
58.03533787531483
 20
208.7551175074269
 30
0.0
  0
SPLINE
  5
11E
330
1F
100
AcDbEntity
  8
0
  6
Continuous
 62
     7
370
    15
100
AcDbSpline
210
0.0
220
0.0
230
1.0
 70
     8
 71
     3
 72
    10
 73
     6
 74
     0
 42
0.000000001
 43
0.00000001
 40
0.0
 40
0.0
 40
0.0
 40
0.0
 40
0.059809608789169
 40
0.5299041956621522
 40
1.0
 40
1.0
 40
1.0
 40
1.0
 10
56.28394729381038
 20
206.6007285644983
 30
0.0
 10
56.27129397400582
 20
206.5992484881353
 30
0.0
 10
56.15918745150509
 20
206.5861352327486
 30
0.0
 10
55.94552992165585
 20
206.6363924686572
 30
0.0
 10
55.75840723429272
 20
206.7333089425134
 30
0.0
 10
55.66484576945733
 20
206.7817672421907
 30
0.0
  0
SPLINE
  5
11F
330
1F
100
AcDbEntity
  8
0
  6
Continuous
 62
     7
370
    15
100
AcDbSpline
210
0.0
220
0.0
230
1.0
 70
     8
 71
     3
 72
    21
 73
    17
 74
     0
 42
0.000000001
 43
0.00000001
 40
0.0
 40
0.0
 40
0.0
 40
0.0
 40
0.0720837230906371
 40
0.144167321081863
 40
0.2162512915225393
 40
0.2883349009797048
 40
0.3604184051199614
 40
0.4325020855929718
 40
0.5045857324345308
 40
0.5766693130073293
 40
0.6487531838371109
 40
0.7208365941134595
 40
0.7929203596875578
 40
0.8650040269076703
 40
0.9370879452912373
 40
1.0
 40
1.0
 40
1.0
 40
1.0
 10
55.66484576945735
 20
206.7817672421907
 30
0.0
 10
55.57582424162253
 20
206.8464371546075
 30
0.0
 10
55.39778134044749
 20
206.9757768672082
 30
0.0
 10
55.17116437842166
 20
207.2584897469998
 30
0.0
 10
54.98560081323986
 20
207.5932667903635
 30
0.0
 10
54.85040694394337
 20
207.9741550115252
 30
0.0
 10
54.77018676132365
 20
208.3846631258508
 30
0.0
 10
54.74818364958981
 20
208.8095122810865
 30
0.0
 10
54.78520282592501
 20
209.2322452828123
 30
0.0
 10
54.87982140757622
 20
209.6366407233578
 30
0.0
 10
55.02841515890787
 20
210.0071969072408
 30
0.0
 10
55.22526295342124
 20
210.3294852189522
 30
0.0
 10
55.46280213495091
 20
210.5918445214689
 30
0.0
 10
55.73193037426386
 20
210.7814749462576
 30
0.0
 10
56.00988795689984
 20
210.8961521661357
 30
0.0
 10
56.19715311425212
 20
210.9052614298815
 30
0.0
 10
56.28442413096858
 20
210.9095066120599
 30
0.0
  0
SPLINE
  5
120
330
1F
100
AcDbEntity
  8
0
  6
Continuous
 62
     7
370
    15
100
AcDbSpline
210
0.0
220
0.0
230
1.0
 70
     8
 71
     3
 72
    24
 73
    20
 74
     0
 42
0.000000001
 43
0.00000001
 40
0.0
 40
0.0
 40
0.0
 40
0.0
 40
0.0623790805323497
 40
0.1284946348456745
 40
0.1973588644734842
 40
0.2676846335175634
 40
0.3380101934729147
 40
0.3727561667517526
 40
0.4069621251602052
 40
0.4730777781852973
 40
0.5354570171625062
 40
0.597836240657489
 40
0.6639514006000786
 40
0.7328158094151117
 40
0.8031413935054723
 40
0.8734671576481855
 40
0.9082132694408713
 40
0.9424193255694713
 40
1.0
 40
1.0
 40
1.0
 40
1.0
 10
58.06839114909602
 20
208.7551175882791
 30
0.0
 10
58.06175832576647
 20
208.5787304955396
 30
0.0
 10
58.04809537651406
 20
208.2153908169225
 30
0.0
 10
57.93432337325509
 20
207.676400687571
 30
0.0
 10
57.74564871329001
 20
207.1580957062196
 30
0.0
 10
57.47971911933107
 20
206.6956438120116
 30
0.0
 10
57.20583193532426
 20
206.3809904852049
 30
0.0
 10
56.96523501295189
 20
206.1825537250951
 30
0.0
 10
56.71942217078595
 20
206.024297882461
 30
0.0
 10
56.40505633526202
 20
205.8964318921348
 30
0.0
 10
56.02346258747354
 20
205.846963334482
 30
0.0
 10
55.6418000462693
 20
205.8964588771385
 30
0.0
 10
55.26069358816333
 20
206.0514168738848
 30
0.0
 10
54.89416243244057
 20
206.3199247233628
 30
0.0
 10
54.56727068089064
 20
206.6955677101714
 30
0.0
 10
54.34443748479679
 20
207.0829102805785
 30
0.0
 10
54.2048011122226
 20
207.423370694016
 30
0.0
 10
54.09748483631117
 20
207.7482504939563
 30
0.0
 10
54.05403588255547
 20
208.0009006654356
 30
0.0
 10
54.02677900081111
 20
208.1593959858392
 30
0.0
  0
SPLINE
  5
121
330
1F
100
AcDbEntity
  8
0
  6
Continuous
 62
     7
370
    15
100
AcDbSpline
210
0.0
220
0.0
230
1.0
 70
     8
 71
     3
 72
    24
 73
    20
 74
     0
 42
0.000000001
 43
0.00000001
 40
0.0
 40
0.0
 40
0.0
 40
0.0
 40
0.0575808367307192
 40
0.126445061863103
 40
0.1967708177632277
 40
0.2670963936110211
 40
0.3018423359590771
 40
0.3360487573372475
 40
0.4021638609252208
 40
0.4645430931795621
 40
0.5269223409161238
 40
0.5930379375869042
 40
0.6619019103834206
 40
0.7322274620962074
 40
0.8025532228976975
 40
0.8372993345351174
 40
0.8715053802146437
 40
0.9376209267788412
 40
1.0
 40
1.0
 40
1.0
 40
1.0
 10
54.02677900081111
 20
209.3508377006028
 30
0.0
 10
54.05439965740192
 20
209.5091535174137
 30
0.0
 10
54.11505344136235
 20
209.8568082995797
 30
0.0
 10
54.3028381062075
 20
210.3517181074015
 30
0.0
 10
54.5667451094389
 20
210.8147080571416
 30
0.0
 10
54.84112443886063
 20
211.1292299841055
 30
0.0
 10
55.0816573318012
 20
211.3276852221735
 30
0.0
 10
55.32749259785367
 20
211.485933759907
 30
0.0
 10
55.6418432441741
 20
211.613801929957
 30
0.0
 10
56.02344160777607
 20
211.6632730987316
 30
0.0
 10
56.40509956926622
 20
211.6137725106784
 30
0.0
 10
56.78622258936939
 20
211.4588227625788
 30
0.0
 10
57.15271189967093
 20
211.1903017729924
 30
0.0
 10
57.47973447343021
 20
210.8146947905089
 30
0.0
 10
57.70216494026895
 20
210.4272451272884
 30
0.0
 10
57.84261059732666
 20
210.0869999836848
 30
0.0
 10
57.95399650797458
 20
209.7393636872825
 30
0.0
 10
58.04818508232474
 20
209.2947912944134
 30
0.0
 10
58.06178764235402
 20
208.9314873388729
 30
0.0
 10
58.06839114909602
 20
208.7551175882791
 30
0.0
  0
SPLINE
  5
122
330
1F
100
AcDbEntity
  8
0
  6
Continuous
 62
     7
370
    15
100
AcDbSpline
210
0.0
220
0.0
230
1.0
 70
     8
 71
     3
 72
    38
 73
    34
 74
     0
 42
0.000000001
 43
0.00000001
 40
0.0
 40
0.0
 40
0.0
 40
0.0
 40
0.0625
 40
0.0625
 40
0.125
 40
0.125
 40
0.1875
 40
0.1875
 40
0.25
 40
0.25
 40
0.3125
 40
0.3125
 40
0.375
 40
0.375
 40
0.4375
 40
0.4375
 40
0.5
 40
0.5
 40
0.5625
 40
0.5625
 40
0.625
 40
0.625
 40
0.6875
 40
0.6875
 40
0.75
 40
0.75
 40
0.8125
 40
0.8125
 40
0.875
 40
0.875
 40
0.9375
 40
0.9375
 40
1.0
 40
1.0
 40
1.0
 40
1.0
 10
56.96543855883359
 20
210.7284672572795
 30
0.0
 10
57.05676524566248
 20
210.6711408215508
 30
0.0
 10
57.14409733417539
 20
210.6010954174255
 30
0.0
 10
57.30742474644094
 20
210.4382516163282
 30
0.0
 10
57.38341603160136
 20
210.3454572459899
 30
0.0
 10
57.52114090161629
 20
210.1406805112047
 30
0.0
 10
57.582871080952
 20
210.0287032102661
 30
0.0
 10
57.68970071919869
 20
209.7898629968708
 30
0.0
 10
57.73479753653638
 20
209.6630059902091
 30
0.0
 10
57.80662653992776
 20
209.3992807936613
 30
0.0
 10
57.83335694986776
 20
209.2624191249004
 30
0.0
 10
57.86742497008566
 20
208.9839437566048
 30
0.0
 10
57.87476173796461
 20
208.8423369429223
 30
0.0
 10
57.86975956009762
 20
208.5598130551114
 30
0.0
 10
57.85742073804038
 20
208.4189029669431
 30
0.0
 10
57.8135405929787
 20
208.1431877941846
 30
0.0
 10
57.78200035499729
 20
208.0083895271954
 30
0.0
 10
57.70092853210734
 20
207.7500786489553
 30
0.0
 10
57.65139895185937
 20
207.62657242495
 30
0.0
 10
57.53625099582923
 20
207.3955925834167
 30
0.0
 10
57.47063546730712
 20
207.2881246773207
 30
0.0
 10
57.32583644951129
 20
207.0933522982695
 30
0.0
 10
57.24665654067859
 20
207.0060526414452
 30
0.0
 10
57.07777100616675
 20
206.8549727181733
 30
0.0
 10
56.98806955651526
 20
206.7911961874745
 30
0.0
 10
56.8015876816666
 20
206.6896146367067
 30
0.0
 10
56.70481186760125
 20
206.6518121284417
 30
0.0
 10
56.50790004628595
 20
206.6036326722064
 30
0.0
 10
56.40776890806879
 20
206.593256915568
 30
0.0
 10
56.20799435115061
 20
206.6003310633489
 30
0.0
 10
56.10835587226918
 20
206.6177807928459
 30
0.0
 10
55.91339580393556
 20
206.6798366891111
 30
0.0
 10
55.81807903525534
 20
206.7244413214249
 30
0.0
 10
55.72675234842644
 20
206.7817677571535
 30
0.0
  0
SPLINE
  5
123
330
1F
100
AcDbEntity
  8
0
  6
Continuous
 62
     7
370
    15
100
AcDbSpline
210
0.0
220
0.0
230
1.0
 70
     8
 71
     3
 72
    38
 73
    34
 74
     0
 42
0.000000001
 43
0.00000001
 40
0.0
 40
0.0
 40
0.0
 40
0.0
 40
0.0625
 40
0.0625
 40
0.125
 40
0.125
 40
0.1875000000000001
 40
0.1875000000000001
 40
0.2500000000000001
 40
0.2500000000000001
 40
0.3125000000000001
 40
0.3125000000000001
 40
0.3750000000000001
 40
0.3750000000000001
 40
0.4375000000000001
 40
0.4375000000000001
 40
0.5000000000000001
 40
0.5000000000000001
 40
0.5625000000000001
 40
0.5625000000000001
 40
0.6250000000000001
 40
0.6250000000000001
 40
0.6875000000000001
 40
0.6875000000000001
 40
0.7500000000000002
 40
0.7500000000000002
 40
0.8125000000000002
 40
0.8125000000000002
 40
0.8750000000000002
 40
0.8750000000000002
 40
0.9375000000000002
 40
0.9375000000000002
 40
1.0
 40
1.0
 40
1.0
 40
1.0
 10
55.72675234842644
 20
206.7817677571535
 30
0.0
 10
55.63542566159753
 20
206.8390941928822
 30
0.0
 10
55.54809357308462
 20
206.9091395970075
 30
0.0
 10
55.38476616081913
 20
207.0719833981049
 30
0.0
 10
55.30877487565865
 20
207.1647777684431
 30
0.0
 10
55.17105000564369
 20
207.3695545032282
 30
0.0
 10
55.10931982630803
 20
207.4815318041669
 30
0.0
 10
55.00249018806134
 20
207.7203720175622
 30
0.0
 10
54.95739337072364
 20
207.8472290242239
 30
0.0
 10
54.88556436733229
 20
208.1109542207716
 30
0.0
 10
54.85883395739225
 20
208.2478158895325
 30
0.0
 10
54.82476593717435
 20
208.5262912578282
 30
0.0
 10
54.81742916929542
 20
208.6678980715108
 30
0.0
 10
54.82243134716239
 20
208.9504219593215
 30
0.0
 10
54.8347701692196
 20
209.0913320474899
 30
0.0
 10
54.87865031428128
 20
209.3670472202485
 30
0.0
 10
54.91019055226273
 20
209.5018454872376
 30
0.0
 10
54.99126237515269
 20
209.7601563654777
 30
0.0
 10
55.04079195540064
 20
209.883662589483
 30
0.0
 10
55.15593991143081
 20
210.1146424310163
 30
0.0
 10
55.22155543995287
 20
210.2221103371123
 30
0.0
 10
55.36635445774875
 20
210.4168827161635
 30
0.0
 10
55.44553436658143
 20
210.5041823729877
 30
0.0
 10
55.61441990109325
 20
210.6552622962597
 30
0.0
 10
55.70412135074475
 20
210.7190388269585
 30
0.0
 10
55.89060322559342
 20
210.8206203777263
 30
0.0
 10
55.98737903965875
 20
210.8584228859913
 30
0.0
 10
56.18429086097404
 20
210.9066023422266
 30
0.0
 10
56.28442199919118
 20
210.916978098865
 30
0.0
 10
56.48419655610935
 20
210.9099039510841
 30
0.0
 10
56.58383503499081
 20
210.8924542215871
 30
0.0
 10
56.77879510332441
 20
210.830398325322
 30
0.0
 10
56.87411187200463
 20
210.7857936930081
 30
0.0
 10
56.96543855883355
 20
210.7284672572795
 30
0.0
  0
LINE
  5
124
330
1F
100
AcDbEntity
  8
0
  6
Continuous
 62
     7
370
    15
100
AcDbLine
 10
44.4377268005
 20
215.1051177909
 30
0.0
 11
44.4377268005
 21
202.4051188757
 31
0.0
  0
LINE
  5
125
330
1F
100
AcDbEntity
  8
0
  6
Continuous
 62
     7
370
    15
100
AcDbLine
 10
43.1677246738
 20
215.1051177909
 30
0.0
 11
43.1677246738
 21
202.4051188757
 31
0.0
  0
LWPOLYLINE
  5
126
330
1F
100
AcDbEntity
  8
0
  6
Continuous
 62
     8
370
    15
100
AcDbPolyline
 90
       10
 70
   128
 43
0.0
 10
77.5197590042
 20
209.4123139312
 10
77.5197470832
 20
209.4123139312
 10
77.5128389049
 20
209.4094141653
 10
77.5069767881
 20
209.4011544516
 10
77.5030548025
 20
209.3887939384
 10
77.5016660142
 20
209.3742131522
 10
77.5030250001
 20
209.3596338561
 10
77.5069261241
 20
209.3472733428
 10
77.5127703596
 20
209.3390136292
 10
77.5196606565
 20
209.3361138632
  0
LINE
  5
127
330
1F
100
AcDbEntity
  8
0
  6
Continuous
 62
     8
370
    15
100
AcDbLine
 10
77.5369728256
 20
209.4128727248
 30
0.0
 11
77.5396788765
 21
209.4122885993
 31
0.0
  0
LINE
  5
128
330
1F
100
AcDbEntity
  8
0
  6
Continuous
 62
     8
370
    15
100
AcDbLine
 10
77.7188087154
 20
209.0004428556
 30
0.0
 11
113.9890397239
 21
209.0004428556
 31
0.0
  0
LINE
  5
129
330
1F
100
AcDbEntity
  8
0
  6
Continuous
 62
     8
370
    15
100
AcDbLine
 10
117.1640398253
 20
209.0004428556
 30
0.0
 11
126.4774303689
 21
209.0004428556
 31
0.0
  0
LINE
  5
12A
330
1F
100
AcDbEntity
  8
0
  6
Continuous
 62
     8
370
    15
100
AcDbLine
 10
126.4785155227
 20
209.8259388735
 30
0.0
 11
117.1640398253
 21
209.8259388735
 31
0.0
  0
LINE
  5
12B
330
1F
100
AcDbEntity
  8
0
  6
Continuous
 62
     8
370
    15
100
AcDbLine
 10
113.9890397239
 20
209.8259388735
 30
0.0
 11
77.7198965002
 21
209.8259388735
 31
0.0
  0
SPLINE
  5
12C
330
1F
100
AcDbEntity
  8
0
  6
Continuous
 62
     7
370
    15
100
AcDbSpline
210
0.0
220
0.0
230
1.0
 70
     8
 71
     3
 72
    19
 73
    15
 74
     0
 42
0.000000001
 43
0.00000001
 40
0.0
 40
0.0
 40
0.0
 40
0.0
 40
0.0282177948708306
 40
0.2335561608748234
 40
0.3283828623403358
 40
0.4172383219215711
 40
0.5000733242795299
 40
0.5796410810036452
 40
0.6405084832005036
 40
0.7293065043203997
 40
0.7855683787543803
 40
0.849842735294695
 40
0.9215121259443286
 40
1.0
 40
1.0
 40
1.0
 40
1.0
 10
209.9828792987894
 20
92.50808630558483
 30
0.0
 10
209.9828862447077
 20
92.50175040105282
 30
0.0
 10
209.9829437354505
 20
92.44930868670428
 30
0.0
 10
209.9830268674593
 20
92.37584204852898
 30
0.0
 10
209.9831261488636
 20
92.28780072337497
 30
0.0
 10
209.9831967545314
 20
92.22612131069347
 30
0.0
 10
209.9833112622937
 20
92.17092489094964
 30
0.0
 10
209.9832643067294
 20
92.1285297034313
 30
0.0
 10
209.9837484960649
 20
92.08444970531282
 30
0.0
 10
209.9879801778033
 20
92.04843846281247
 30
0.0
 10
209.996971227267
 20
92.01927286444503
 30
0.0
 10
210.0080514876577
 20
92.00038965225498
 30
0.0
 10
210.0212470582516
 20
91.98968913630131
 30
0.0
 10
210.0307451701191
 20
91.99373510362705
 30
0.0
 10
210.0357098756861
 20
91.9958499488496
 30
0.0
  0
SPLINE
  5
12D
330
1F
100
AcDbEntity
  8
0
  6
Continuous
 62
     7
370
    15
100
AcDbSpline
210
0.0
220
0.0
230
1.0
 70
     8
 71
     3
 72
    26
 73
    22
 74
     0
 42
0.000000001
 43
0.00000001
 40
0.0
 40
0.0
 40
0.0
 40
0.0
 40
0.01445055732475
 40
0.0290101230341737
 40
0.0411930735191438
 40
0.0509993786027983
 40
0.0588845190955812
 40
0.0666963602343194
 40
0.0855954688093853
 40
0.1048204718493635
 40
0.1734809710641417
 40
0.2960891051847914
 40
0.5150316960362065
 40
0.7638300780746249
 40
0.888229607153865
 40
0.9193294792096555
 40
0.9504907912297723
 40
0.9671096813884217
 40
0.9848973307711518
 40
0.9931262247872897
 40
1.0
 40
1.0
 40
1.0
 40
1.0
 10
209.9329693494868
 20
133.9801994380616
 30
0.0
 10
209.9332263873542
 20
133.7811807828244
 30
0.0
 10
209.9337424020649
 20
133.3816421667851
 30
0.0
 10
209.93447097901
 20
132.8142255087546
 30
0.0
 10
209.935117855656
 20
132.3107345466915
 30
0.0
 10
209.9356461607364
 20
131.8991536243881
 30
0.0
 10
209.9360959261077
 20
131.5477696289335
 30
0.0
 10
209.9367050390288
 20
131.0710758944383
 30
0.0
 10
209.9375144762588
 20
130.4380667260689
 30
0.0
 10
209.9393905368984
 20
128.966330548601
 30
0.0
 10
209.9430635883229
 20
126.0642628567387
 30
0.0
 10
209.9501376743601
 20
120.4045510751479
 30
0.0
 10
209.9600864369074
 20
112.2489390254862
 30
0.0
 10
209.9697527014771
 20
104.0544620645441
 30
0.0
 10
209.9761757431472
 20
98.45203423531748
 30
0.0
 10
209.9791103591046
 20
95.86403038992563
 30
0.0
 10
209.9803424706655
 20
94.7701387636052
 30
0.0
 10
209.9813666271541
 20
93.8607114754689
 30
0.0
 10
209.9820277402049
 20
93.26926060252
 30
0.0
 10
209.9825377542664
 20
92.81300528903743
 30
0.0
 10
209.982772470759
 20
92.60345862825126
 30
0.0
 10
209.9828792987894
 20
92.50808630558483
 30
0.0
  0
SPLINE
  5
12E
330
1F
100
AcDbEntity
  8
0
  6
Continuous
 62
     7
370
    15
100
AcDbSpline
210
0.0
220
0.0
230
1.0
 70
     8
 71
     3
 72
    10
 73
     6
 74
     0
 42
0.000000001
 43
0.00000001
 40
0.0
 40
0.0
 40
0.0
 40
0.0
 40
0.0169276003216773
 40
0.5202900282597942
 40
1.0
 40
1.0
 40
1.0
 40
1.0
 10
209.9889932452273
 20
92.05163989635936
 30
0.0
 10
209.9889198385123
 20
92.05154080136724
 30
0.0
 10
209.9866635953892
 20
92.04849499834323
 30
0.0
 10
209.9844570900837
 20
92.04130048110135
 30
0.0
 10
209.9838804217835
 20
92.03443726118904
 30
0.0
 10
209.9835990248751
 20
92.03108821484079
 30
0.0
  0
SPLINE
  5
12F
330
1F
100
AcDbEntity
  8
0
  6
Continuous
 62
     7
370
    15
100
AcDbSpline
210
0.0
220
0.0
230
1.0
 70
     8
 71
     3
 72
    13
 73
     9
 74
     0
 42
0.000000001
 43
0.00000001
 40
0.0
 40
0.0
 40
0.0
 40
0.0
 40
0.239437064172349
 40
0.368351649037007
 40
0.4999806217837921
 40
0.631641483617793
 40
0.7605256410049878
 40
1.0
 40
1.0
 40
1.0
 40
1.0
 10
209.9835990248751
 20
92.0310107288026
 30
0.0
 10
209.9841192891137
 20
92.02624332767812
 30
0.0
 10
209.984919667246
 20
92.01890912454671
 30
0.0
 10
209.9896899003957
 20
92.01009357380866
 30
0.0
 10
209.9946217064446
 20
92.00403176030254
 30
0.0
 10
210.0007348619873
 20
91.9991510462655
 30
0.0
 10
210.0096186147831
 20
91.99444967192404
 30
0.0
 10
210.0169924260992
 20
91.99368724483281
 30
0.0
 10
210.0217862306666
 20
91.99319158169261
 30
0.0
  0
SPLINE
  5
130
330
1F
100
AcDbEntity
  8
0
  6
Continuous
 62
     7
370
    15
100
AcDbSpline
210
0.0
220
0.0
230
1.0
 70
     8
 71
     3
 72
    26
 73
    22
 74
     0
 42
0.000000001
 43
0.00000001
 40
0.0
 40
0.0
 40
0.0
 40
0.0
 40
0.0018209349289304
 40
0.0082622161668697
 40
0.0213616062568006
 40
0.0447704454052993
 40
0.0638554212941374
 40
0.0827061427786367
 40
0.15003048333391
 40
0.2702524515893662
 40
0.4849340645163886
 40
0.7636077767543921
 40
0.8862245289753782
 40
0.913200209422661
 40
0.9395833408266043
 40
0.9462771707698133
 40
0.9539529159939623
 40
0.9634117020234033
 40
0.974653759284772
 40
0.9876791274971939
 40
1.0
 40
1.0
 40
1.0
 40
1.0
 10
210.0590748964381
 20
92.51112614246837
 30
0.0
 10
210.0590471274174
 20
92.53639203021064
 30
0.0
 10
210.0589211296961
 20
92.65103216526316
 30
0.0
 10
210.0585879458114
 20
92.94735391930637
 30
0.0
 10
210.0579209229192
 20
93.54312919795188
 30
0.0
 10
210.0570570209025
 20
94.31421041671798
 30
0.0
 10
210.05609853363
 20
95.16492068459279
 30
0.0
 10
210.0544515873611
 20
96.62445270756925
 30
0.0
 10
210.051197562112
 20
99.48548426326101
 30
0.0
 10
210.0447746915858
 20
105.0573868084585
 30
0.0
 10
210.0347325857445
 20
113.5468229374161
 30
0.0
 10
210.0243172175478
 20
122.05394580144
 30
0.0
 10
210.0168657200984
 20
127.9596394308719
 30
0.0
 10
210.0137852120689
 20
130.3849031515561
 30
0.0
 10
210.0127231692787
 20
131.2123680536413
 30
0.0
 10
210.0120076345335
 20
131.7738262809867
 30
0.0
 10
210.0115862384305
 20
132.1020970709118
 30
0.0
 10
210.0110836443033
 20
132.4929992732721
 30
0.0
 10
210.0104884871134
 20
132.9575575552086
 30
0.0
 10
210.0098393527278
 20
133.4614974387142
 30
0.0
 10
210.0093885525866
 20
133.8105486112926
 30
0.0
 10
210.0091694174838
 20
133.9802232799195
 30
0.0
  0
SPLINE
  5
131
330
1F
100
AcDbEntity
  8
0
  6
Continuous
 62
     7
370
    15
100
AcDbSpline
210
0.0
220
0.0
230
1.0
 70
     8
 71
     3
 72
    15
 73
    11
 74
     0
 42
0.000000001
 43
0.00000001
 40
0.0
 40
0.0
 40
0.0
 40
0.0
 40
0.0389580420461412
 40
0.1453627080620682
 40
0.2237930413693164
 40
0.3292981754077904
 40
0.4394618755438786
 40
0.5576394946434826
 40
0.8406462295888549
 40
1.0
 40
1.0
 40
1.0
 40
1.0
 10
210.0470705209803
 20
92.07950506779186
 30
0.0
 10
210.0493293603665
 20
92.0799950611346
 30
0.0
 10
210.0577576846099
 20
92.08182335525547
 30
0.0
 10
210.0588315030284
 20
92.09758991038247
 30
0.0
 10
210.0597956209504
 20
92.1269220519994
 30
0.0
 10
210.0594049898384
 20
92.17181672757854
 30
0.0
 10
210.0594273490858
 20
92.22607455761266
 30
0.0
 10
210.0592728305091
 20
92.31535870542845
 30
0.0
 10
210.0591932611242
 20
92.40947124936736
 30
0.0
 10
210.0591062433078
 20
92.48420457662098
 30
0.0
 10
210.0590748964381
 20
92.51112614246837
 30
0.0
  0
LINE
  5
132
330
1F
100
AcDbEntity
  8
0
  6
Continuous
 62
     7
370
    15
100
AcDbLine
 10
232.6097095637
 20
88.9604536113
 30
0.0
 11
232.7675668775
 21
89.2122921762
 31
0.0
  0
LINE
  5
133
330
1F
100
AcDbEntity
  8
0
  6
Continuous
 62
     7
370
    15
100
AcDbLine
 10
187.4478919684
 20
89.0591231403
 30
0.0
 11
187.6075310885
 21
88.8082263288
 31
0.0
  0
LINE
  5
134
330
1F
100
AcDbEntity
  8
0
  6
Continuous
 62
     7
370
    15
100
AcDbLine
 10
209.9836169063
 20
92.1136644897
 30
0.0
 11
209.9836169063
 21
92.0526919183
 31
0.0
  0
LINE
  5
135
330
1F
100
AcDbEntity
  8
0
  6
Continuous
 62
     7
370
    15
100
AcDbLine
 10
210.0598169743
 20
92.0526919183
 30
0.0
 11
210.0598169743
 21
92.2197547969
 31
0.0
  0
LINE
  5
136
330
1F
100
AcDbEntity
  8
0
  6
Continuous
 62
     7
370
    15
100
AcDbLine
 10
210.504849094
 20
136.4181068954
 30
0.0
 11
209.5396502195
 21
136.4181068954
 31
0.0
  0
LINE
  5
137
330
1F
100
AcDbEntity
  8
0
  6
Continuous
 62
     7
370
    15
100
AcDbLine
 10
209.5396502195
 20
133.2431045589
 30
0.0
 11
209.9339200436
 21
133.2431045589
 31
0.0
  0
LINE
  5
138
330
1F
100
AcDbEntity
  8
0
  6
Continuous
 62
     7
370
    15
100
AcDbLine
 10
210.0101201116
 20
133.2431045589
 30
0.0
 11
210.504849094
 21
133.2431045589
 31
0.0
  0
LINE
  5
139
330
1F
100
AcDbEntity
  8
0
  6
Continuous
 62
     7
370
    15
100
AcDbLine
 10
210.0592581807
 20
114.2632630882
 30
0.0
 11
210.014732021
 21
133.2431045589
 31
0.0
  0
SPLINE
  5
13A
330
1F
100
AcDbEntity
  8
0
  6
Continuous
 62
     7
370
    15
100
AcDbSpline
210
0.0
220
0.0
230
1.0
 70
     8
 71
     3
 72
    10
 73
     6
 74
     0
 42
0.000000001
 43
0.00000001
 40
0.0
 40
0.0
 40
0.0
 40
0.0
 40
0.1028972513931153
 40
0.5350343312136421
 40
1.0
 40
1.0
 40
1.0
 40
1.0
 10
210.0595189510417
 20
114.1134289321565
 30
0.0
 10
210.0595095261988
 20
114.1200867399046
 30
0.0
 10
210.0594605198897
 20
114.154705310057
 30
0.0
 10
210.0593670212311
 20
114.2121846891134
 30
0.0
 10
210.0592953353159
 20
114.2458226653519
 30
0.0
 10
210.0592581807208
 20
114.2632571277284
 30
0.0
  0
LINE
  5
13B
330
1F
100
AcDbEntity
  8
0
  6
Continuous
 62
     7
370
    15
100
AcDbLine
 10
213.2120622574
 20
59.6887619463
 30
0.0
 11
213.2120622574
 21
65.9815502581
 31
0.0
  0
LINE
  5
13C
330
1F
100
AcDbEntity
  8
0
  6
Continuous
 62
     7
370
    15
100
AcDbLine
 10
205.5920614182
 20
65.9815502581
 30
0.0
 11
205.5920614182
 21
59.6887619463
 31
0.0
  0
LINE
  5
13D
330
1F
100
AcDbEntity
  8
0
  6
Continuous
 62
     7
370
    15
100
AcDbLine
 10
207.2430623947
 20
65.8727859375
 30
0.0
 11
207.2430623947
 21
65.8108786908
 31
0.0
  0
LINE
  5
13E
330
1F
100
AcDbEntity
  8
0
  6
Continuous
 62
     7
370
    15
100
AcDbLine
 10
211.5610612808
 20
65.8108786908
 30
0.0
 11
211.5610612808
 21
65.8727859375
 31
0.0
  0
SPLINE
  5
13F
330
1F
100
AcDbEntity
  8
0
  6
Continuous
 62
     7
370
    15
100
AcDbSpline
210
0.0
220
0.0
230
1.0
 70
     8
 71
     3
 72
    18
 73
    14
 74
     0
 42
0.000000001
 43
0.00000001
 40
0.0
 40
0.0
 40
0.0
 40
0.0
 40
0.0447407369308263
 40
0.2094331220663633
 40
0.3187338269844173
 40
0.4013032350957202
 40
0.4685684147331056
 40
0.5360773232198327
 40
0.59871201288211
 40
0.6837719219281213
 40
0.8007762817571734
 40
0.9572016868476847
 40
1.0
 40
1.0
 40
1.0
 40
1.0
 10
209.9337442098689
 20
133.9802173194551
 30
0.0
 10
209.9335143555861
 20
133.98202017796
 30
0.0
 10
209.9324383987878
 20
133.9904594284334
 30
0.0
 10
209.9374973107685
 20
134.0034206174088
 30
0.0
 10
209.9465880776501
 20
134.0159284080842
 30
0.0
 10
209.9564337571969
 20
134.0228195374418
 30
0.0
 10
209.9664075346504
 20
134.0259587375148
 30
0.0
 10
209.9761107111133
 20
134.0258467836124
 30
0.0
 10
209.9859151363148
 20
134.0226518957813
 30
0.0
 10
209.9959448096775
 20
134.0155625240789
 30
0.0
 10
210.0048314072814
 20
134.0028293665065
 30
0.0
 10
210.0096396914639
 20
133.9899941186236
 30
0.0
 10
210.0086589001577
 20
133.9819609330744
 30
0.0
 10
210.008448201282
 20
133.9802352008485
 30
0.0
  0
ARC
  5
140
330
1F
100
AcDbEntity
  8
0
  6
Continuous
 62
     7
370
    15
100
AcDbCircle
 10
210.025818388
 20
92.052118791
 30
0.0
 40
0.0340034166443967
100
AcDbArc
 50
0.9657656947
 51
52.1747299804
  0
LINE
  5
141
330
1F
100
AcDbEntity
  8
0
  6
Continuous
 62
     7
370
    15
100
AcDbLine
 10
209.9836169063
 20
92.0526919183
 30
0.0
 11
209.9850191055
 21
92.04334591
 31
0.0
  0
ARC
  5
142
330
1F
100
AcDbEntity
  8
0
  6
Continuous
 62
     7
370
    15
100
AcDbCircle
 10
210.0596131434
 20
91.6795715631
 30
0.0
 40
0.5399375069585464
100
AcDbArc
 50
98.09125137
 51
117.891903935
  0
ARC
  5
143
330
1F
100
AcDbEntity
  8
0
  6
Continuous
 62
     7
370
    15
100
AcDbCircle
 10
210.0632243901
 20
91.6733134214
 30
0.0
 40
0.5464519991775976
100
AcDbArc
 50
62.5616465328
 51
90.3572716601
  0
LINE
  5
144
330
1F
100
AcDbEntity
  8
0
  6
Continuous
 62
     7
370
    15
100
AcDbLine
 10
209.6473871051
 20
92.4076822815
 30
0.0
 11
209.8070277153
 21
92.15678547
 31
0.0
  0
ARC
  5
145
330
1F
100
AcDbEntity
  8
0
  6
Continuous
 62
     7
370
    15
100
AcDbCircle
 10
210.0590103056
 20
91.6291702137
 30
0.0
 40
0.8806331238797475
100
AcDbArc
 50
94.7995602974
 51
117.8667812724
  0
ARC
  5
146
330
1F
100
AcDbEntity
  8
0
  6
Continuous
 62
     7
370
    15
100
AcDbCircle
 10
210.0641607483
 20
91.6239470378
 30
0.0
 40
0.8860817260896293
100
AcDbArc
 50
62.5309508922
 51
90.4403468533
  0
LINE
  5
147
330
1F
100
AcDbEntity
  8
0
  6
Continuous
 62
     7
370
    15
100
AcDbLine
 10
210.3150261818
 20
92.1582934675
 30
0.0
 11
210.472883123
 21
92.4101320324
 31
0.0
  0
LINE
  5
148
330
1F
100
AcDbEntity
  8
0
  6
Continuous
 62
     7
370
    15
100
AcDbLine
 10
209.6473871051
 20
114.0239981231
 30
0.0
 11
209.6473871051
 21
92.4076822815
 31
0.0
  0
ARC
  5
149
330
1F
100
AcDbEntity
  8
0
  6
Continuous
 62
     7
370
    15
100
AcDbCircle
 10
210.0634400837
 20
113.2375734347
 30
0.0
 40
0.8887952967092119
100
AcDbArc
 50
62.5695259718
 51
91.9678255999
  0
ARC
  5
14A
330
1F
100
AcDbEntity
  8
0
  6
Continuous
 62
     7
370
    15
100
AcDbCircle
 10
210.0587280586
 20
113.245961223
 30
0.0
 40
0.8800811314715148
100
AcDbArc
 50
96.6860372693
 51
117.8649964675
  0
LINE
  5
14B
330
1F
100
AcDbEntity
  8
0
  6
Continuous
 62
     7
370
    15
100
AcDbLine
 10
210.472883123
 20
92.4101320324
 30
0.0
 11
210.472883123
 21
114.0264419136
 31
0.0
  0
LWPOLYLINE
  5
14C
330
1F
100
AcDbEntity
  8
0
  6
Continuous
 62
     7
370
    15
100
AcDbPolyline
 90
       38
 70
   128
 43
0.0
 10
210.3150261818
 20
92.1582934675
 10
211.1626861869
 20
91.7266813335
 10
212.0088009416
 20
91.3103786525
 10
212.8522334872
 20
90.9099486885
 10
213.6918513356
 20
90.5259219227
 10
214.5265264689
 20
90.1588228759
 10
215.3551383196
 20
89.8091373262
 10
216.176572281
 20
89.4773391304
 10
216.9897264122
 20
89.163872343
 10
217.793508458
 20
88.8691601572
 10
218.5868388294
 20
88.5935929832
 10
219.3686513482
 20
88.3375493107
 10
220.1378954826
 20
88.1013659057
 10
220.8935393272
 20
87.8853616533
 10
221.6345666228
 20
87.6898315963
 10
222.3599827169
 20
87.5150290546
 10
223.0688130735
 20
87.3611984071
 10
223.7601055084
 20
87.2285408196
 10
224.4329313068
 20
87.117235106
 10
225.0863870858
 20
87.0274317679
 10
225.7195947944
 20
86.9592515049
 10
226.3317041351
 20
86.9127852139
 10
226.9218927501
 20
86.8880954799
 10
227.4893680839
 20
86.8852150855
 10
228.0333676627
 20
86.9041485009
 10
228.5531609571
 20
86.9448703942
 10
229.0480496847
 20
87.0073256311
 10
229.5173691488
 20
87.0914307651
 10
229.9604889257
 20
87.1970725474
 10
230.3768138653
 20
87.3241079268
 10
230.7657846502
 20
87.4723700103
 10
231.1268788083
 20
87.641653162
 10
231.4596114932
 20
87.8317383346
 10
231.7635355769
 20
88.0423632679
 10
232.0382431401
 20
88.2732478199
 10
232.2833646341
 20
88.5240790662
 10
232.4985713019
 20
88.7945262012
 10
232.6097095637
 20
88.9604536113
  0
LWPOLYLINE
  5
14D
330
1F
100
AcDbEntity
  8
0
  6
Continuous
 62
     7
370
    15
100
AcDbPolyline
 90
       86
 70
   128
 43
0.0
 10
210.472883123
 20
114.0264419136
 10
211.3205431281
 20
113.5699478206
 10
212.1666578828
 20
113.0997565803
 10
213.0100904285
 20
112.6165059623
 10
213.8497082769
 20
112.1208426771
 10
214.6843834101
 20
111.6134372768
 10
215.5129952608
 20
111.0949662742
 10
216.3344292222
 20
110.5661300239
 10
217.1475840984
 20
110.0276378212
 10
217.9513661443
 20
109.4802138624
 10
218.7446957706
 20
108.9245883045
 10
219.5265082894
 20
108.361512166
 10
220.2957531689
 20
107.7917424259
 10
221.0513962685
 20
107.2160420236
 10
221.7924243091
 20
106.6351828394
 10
222.5178404032
 20
106.0499486742
 10
223.2266703873
 20
105.4611263094
 10
223.9179628222
 20
104.869499546
 10
224.5907886206
 20
104.2758730468
 10
225.2442443995
 20
103.6810365734
 10
225.8774521081
 20
103.0857918081
 10
226.4895614489
 20
102.4909374532
 10
227.0797500639
 20
101.8972751913
 10
227.6472253977
 20
101.305597764
 10
228.1912249765
 20
100.7167068538
 10
228.7110182709
 20
100.1313862619
 10
229.2059070217
 20
99.5504257497
 10
229.6752264742
 20
98.974603158
 10
230.1183462395
 20
98.4046963272
 10
230.5346711791
 20
97.8414681968
 10
230.9236419639
 20
97.2856727657
 10
231.2847361221
 20
96.7380640325
 10
231.617468807
 20
96.199369174
 10
231.9213930769
 20
95.6703153667
 10
232.1961004539
 20
95.1516148863
 10
232.4412219478
 20
94.6439621267
 10
232.6564288019
 20
94.1480395612
 10
232.8414311884
 20
93.6645117817
 10
232.9959811895
 20
93.1940314588
 10
233.1198713063
 20
92.737230402
 10
233.2129342733
 20
92.2947195587
 10
233.2750460385
 20
91.8670919952
 10
233.3061227827
 20
91.4549288568
 10
233.3061227827
 20
91.058775526
 10
233.2750460385
 20
90.6791714248
 10
233.2129342733
 20
90.3166202125
 10
233.1198713063
 20
89.9716136274
 10
232.9959811895
 20
89.6446136055
 10
232.8414311884
 20
89.3360582409
 10
232.6564288019
 20
89.0463647661
 10
232.4412219478
 20
88.7759176311
 10
232.1961004539
 20
88.5250834045
 10
231.9213930769
 20
88.2941988525
 10
231.617468807
 20
88.0835739193
 10
231.2847361221
 20
87.8934917268
 10
230.9236419639
 20
87.724205595
 10
230.5346711791
 20
87.5759450016
 10
230.1183462395
 20
87.4489096222
 10
229.6752264742
 20
87.3432678399
 10
229.2059070217
 20
87.2591627059
 10
228.7110182709
 20
87.196707469
 10
228.1912249765
 20
87.1559855756
 10
227.6472253977
 20
87.1370521602
 10
227.0797500639
 20
87.1399325547
 10
226.4895614489
 20
87.1646222887
 10
225.8774521081
 20
87.2110885796
 10
225.2442443995
 20
87.2792688427
 10
224.5907886206
 20
87.3690721807
 10
223.9179628222
 20
87.4803778944
 10
223.2266703873
 20
87.613036972
 10
222.5178404032
 20
87.7668676195
 10
221.7924243091
 20
87.941667181
 10
221.0513962685
 20
88.1372002182
 10
220.2957531689
 20
88.3532044706
 10
219.5265082894
 20
88.5893848953
 10
218.7446957706
 20
88.8454315481
 10
217.9513661443
 20
89.1209957418
 10
217.1475840984
 20
89.4157109079
 10
216.3344292222
 20
89.7291776952
 10
215.5129952608
 20
90.0609758911
 10
214.6843834101
 20
90.4106584606
 10
213.8497082769
 20
90.7777604875
 10
213.0100904285
 20
91.1617842731
 10
212.1666578828
 20
91.5622172174
 10
211.3205431281
 20
91.9785169181
 10
210.472883123
 20
92.4101320324
  0
LWPOLYLINE
  5
14E
330
1F
100
AcDbEntity
  8
0
  6
Continuous
 62
     7
370
    15
100
AcDbPolyline
 90
       38
 70
   128
 43
0.0
 10
187.6075310885
 20
88.8082263288
 10
187.7064092337
 20
88.6617091713
 10
187.9208131014
 20
88.3925375757
 10
188.1650192915
 20
88.1431547222
 10
188.4386969982
 20
87.913897377
 10
188.7414856134
 20
87.7050695238
 10
189.0729738651
 20
87.5169572649
 10
189.4327206789
 20
87.3498094496
 10
189.8202372967
 20
87.2038510856
 10
190.2350051581
 20
87.0792788682
 10
190.6764669596
 20
86.9762596903
 10
191.1440326153
 20
86.8949336228
 10
191.6370732962
 20
86.8354079542
 10
192.1549214302
 20
86.7977631507
 10
192.6968885838
 20
86.7820483861
 10
193.2622416197
 20
86.7882875023
 10
193.850223559
 20
86.8164715585
 10
194.4600446402
 20
86.8665618119
 10
195.0908852993
 20
86.938489717
 10
195.7418991505
 20
87.0321613965
 10
196.4122100054
 20
87.1474487004
 10
197.1009178339
 20
87.2841996369
 10
197.807098764
 20
87.4422279415
 10
198.5298021017
 20
87.6213220176
 10
199.2680592714
 20
87.8212389764
 10
200.0208778559
 20
88.0417165575
 10
200.7872475563
 20
88.282450777
 10
201.5661372124
 20
88.5431257305
 10
202.3565007626
 20
88.8233867702
 10
203.1572802244
 20
89.122858387
 10
203.9673937737
 20
89.4411382494
 10
204.7857566057
 20
89.777797204
 10
205.6112705051
 20
90.1323852358
 10
206.4428268252
 20
90.5044284877
 10
207.279304999
 20
90.8934233007
 10
208.1195844589
 20
91.298848134
 10
208.9625371872
 20
91.7201576051
 10
209.8070277153
 20
92.15678547
  0
LWPOLYLINE
  5
14F
330
1F
100
AcDbEntity
  8
0
  6
Continuous
 62
     7
370
    15
100
AcDbPolyline
 90
       86
 70
   128
 43
0.0
 10
209.6473871051
 20
92.4076822815
 10
208.8028950869
 20
91.9710544166
 10
207.9599438487
 20
91.5497419653
 10
207.1196643888
 20
91.144317132
 10
206.2831847249
 20
90.7553252992
 10
205.4516298948
 20
90.3832820472
 10
204.6261159955
 20
90.0286940155
 10
203.8077516733
 20
89.6920320806
 10
202.9976381241
 20
89.3737522182
 10
202.1968616425
 20
89.0742806015
 10
201.406495112
 20
88.7940195617
 10
200.627605456
 20
88.5333475885
 10
199.8612387358
 20
88.2926103887
 10
199.1084201513
 20
88.0721357879
 10
198.3701600014
 20
87.8722158489
 10
197.6474566637
 20
87.6931217727
 10
196.9412757336
 20
87.5350949583
 10
196.2525679051
 20
87.3983440218
 10
195.5822570501
 20
87.2830567178
 10
194.9312461792
 20
87.1893865285
 10
194.3004055201
 20
87.1174571333
 10
193.6905844389
 20
87.0673668799
 10
193.1025995194
 20
87.0391843137
 10
192.5372464834
 20
87.0329451975
 10
191.9952823101
 20
87.048658472
 10
191.4774311958
 20
87.0863032756
 10
190.9843934952
 20
87.1458289442
 10
190.5168278395
 20
87.2271565017
 10
190.0753630577
 20
87.3301741895
 10
189.6605951963
 20
87.4547478971
 10
189.2730785786
 20
87.600704771
 10
188.913334745
 20
87.7678540764
 10
188.5818464933
 20
87.9559663353
 10
188.2790578781
 20
88.1647912082
 10
188.0053771912
 20
88.3940515337
 10
187.7611710011
 20
88.6434343872
 10
187.5467701136
 20
88.9126059827
 10
187.3624576508
 20
89.2012057123
 10
187.2084869324
 20
89.5088461456
 10
187.0850606142
 20
89.8351130304
 10
186.9923455893
 20
90.1795682726
 10
186.9304640471
 20
90.5417499361
 10
186.8995053946
 20
90.9211722431
 10
186.8995053946
 20
91.3173225937
 10
186.9304640471
 20
91.7296734867
 10
186.9923455893
 20
92.1576646385
 10
187.0850606142
 20
92.6007268247
 10
187.2084869324
 20
93.058263999
 10
187.3624576508
 20
93.5296592531
 10
187.5467701136
 20
94.0142807779
 10
187.7611710011
 20
94.5114759025
 10
188.0053771912
 20
95.0205800352
 10
188.2790578781
 20
95.5409077224
 10
188.5818464933
 20
96.07176159
 10
188.913334745
 20
96.6124234018
 10
189.2730785786
 20
97.1621719417
 10
189.6605951963
 20
97.7202681121
 10
190.0753630577
 20
98.2859608946
 10
190.5168278395
 20
98.8584933099
 10
190.9843934952
 20
99.4370904979
 10
191.4774311958
 20
100.0209805784
 10
191.9952823101
 20
100.60937677
 10
192.5372464834
 20
101.2014922914
 10
193.1025995194
 20
101.7965254602
 10
193.6905844389
 20
102.3936835346
 10
194.3004055201
 20
102.9921588716
 10
194.9312461792
 20
103.5911527691
 10
195.5822570501
 20
104.189857584
 10
196.2525679051
 20
104.7874686536
 10
196.9412757336
 20
105.3831842956
 10
197.6474566637
 20
105.9762058077
 10
198.3701600014
 20
106.5657315073
 10
199.1084201513
 20
107.1509775934
 10
199.8612387358
 20
107.7311513242
 10
200.627605456
 20
108.3054748592
 10
201.406495112
 20
108.8731763181
 10
202.1968616425
 20
109.433498722
 10
202.9976381241
 20
109.9856821117
 10
203.8077516733
 20
110.5289873895
 10
204.6261159955
 20
111.0626873788
 10
205.4516298948
 20
111.5860608635
 10
206.2831847249
 20
112.0984074888
 10
207.1196643888
 20
112.599035841
 10
207.9599438487
 20
113.0872813282
 10
208.8028950869
 20
113.5624793586
 10
209.6473871051
 20
114.0239981231
  0
LINE
  5
150
330
1F
100
AcDbEntity
  8
0
  6
Continuous
 62
     7
370
    15
100
AcDbLine
 10
209.5396502195
 20
136.4181068954
 30
0.0
 11
209.5396502195
 21
133.2431045589
 31
0.0
  0
LINE
  5
151
330
1F
100
AcDbEntity
  8
0
  6
Continuous
 62
     7
370
    15
100
AcDbLine
 10
210.504849094
 20
133.2431045589
 30
0.0
 11
210.504849094
 21
136.4181068954
 31
0.0
  0
SPLINE
  5
152
330
1F
100
AcDbEntity
  8
0
  6
Continuous
 62
     7
370
    15
100
AcDbSpline
210
0.0
220
0.0
230
1.0
 70
     8
 71
     3
 72
    38
 73
    34
 74
     0
 42
0.000000001
 43
0.00000001
 40
0.0
 40
0.0
 40
0.0
 40
0.0
 40
0.0625
 40
0.0625
 40
0.125
 40
0.125
 40
0.1875
 40
0.1875
 40
0.2499999999999999
 40
0.2499999999999999
 40
0.3124999999999999
 40
0.3124999999999999
 40
0.3749999999999999
 40
0.3749999999999999
 40
0.4374999999999998
 40
0.4374999999999998
 40
0.4999999999999998
 40
0.4999999999999998
 40
0.5624999999999998
 40
0.5624999999999998
 40
0.6249999999999998
 40
0.6249999999999998
 40
0.6874999999999999
 40
0.6874999999999999
 40
0.7499999999999999
 40
0.7499999999999999
 40
0.8124999999999999
 40
0.8124999999999999
 40
0.8749999999999999
 40
0.8749999999999999
 40
0.9375
 40
0.9375
 40
1.0
 40
1.0
 40
1.0
 40
1.0
 10
213.2120617567131
 20
65.98155013736118
 30
0.0
 10
213.2120617567131
 20
65.80522322075302
 30
0.0
 10
213.1875021618925
 20
65.62890066417535
 30
0.0
 10
213.0902051882063
 20
65.28302297547899
 30
0.0
 10
213.0174702152002
 20
65.11347639586776
 30
0.0
 10
212.8266153359619
 20
64.78766673729756
 30
0.0
 10
212.7085001489928
 20
64.63141171462442
 30
0.0
 10
212.4314218101788
 20
64.33819076864303
 30
0.0
 10
212.272465509642
 20
64.20123209580049
 30
0.0
 10
211.9198116764257
 20
63.95186817892179
 30
0.0
 10
211.7261228638071
 20
63.83946910089988
 30
0.0
 10
211.3114458252284
 20
63.64354512860462
 30
0.0
 10
211.0904678529751
 20
63.5600250789376
 30
0.0
 10
210.629703415073
 20
63.42507029960567
 30
0.0
 10
210.3899283427328
 20
63.37363890696364
 30
0.0
 10
209.9007834244562
 20
63.30483955708124
 30
0.0
 10
209.6514256735918
 20
63.28747330104039
 30
0.0
 10
209.1526978398344
 20
63.28747330104039
 30
0.0
 10
208.90334008897
 20
63.30483955708124
 30
0.0
 10
208.4141951706933
 20
63.37363890696364
 30
0.0
 10
208.1744200983532
 20
63.42507029960567
 30
0.0
 10
207.713655660451
 20
63.5600250789376
 30
0.0
 10
207.4926776881978
 20
63.64354512860464
 30
0.0
 10
207.078000649619
 20
63.8394691008999
 30
0.0
 10
206.8843118370005
 20
63.95186817892181
 30
0.0
 10
206.5316580037842
 20
64.2012320958005
 30
0.0
 10
206.3727017032474
 20
64.33819076864305
 30
0.0
 10
206.0956233644334
 20
64.63141171462443
 30
0.0
 10
205.9775081774642
 20
64.78766673729757
 30
0.0
 10
205.7866532982259
 20
65.11347639586779
 30
0.0
 10
205.7139183252199
 20
65.283022975479
 30
0.0
 10
205.6166213515337
 20
65.62890066417536
 30
0.0
 10
205.5920617567131
 20
65.80522322075305
 30
0.0
 10
205.5920617567131
 20
65.98155013736121
 30
0.0
  0
SPLINE
  5
153
330
1F
100
AcDbEntity
  8
0
  6
Continuous
 62
     7
370
    15
100
AcDbSpline
210
0.0
220
0.0
230
1.0
 70
     8
 71
     3
 72
    38
 73
    34
 74
     0
 42
0.000000001
 43
0.00000001
 40
0.0
 40
0.0
 40
0.0
 40
0.0
 40
0.0625
 40
0.0625
 40
0.125
 40
0.125
 40
0.1875
 40
0.1875
 40
0.25
 40
0.25
 40
0.3125
 40
0.3125
 40
0.375
 40
0.375
 40
0.4375
 40
0.4375
 40
0.5
 40
0.5
 40
0.5625
 40
0.5625
 40
0.625
 40
0.625
 40
0.6875
 40
0.6875
 40
0.75
 40
0.75
 40
0.8125
 40
0.8125
 40
0.875
 40
0.875
 40
0.9375
 40
0.9375
 40
1.0
 40
1.0
 40
1.0
 40
1.0
 10
205.5920617567131
 20
65.98155013736118
 30
0.0
 10
205.5920617567131
 20
66.15787705396934
 30
0.0
 10
205.6166213515337
 20
66.33419961054703
 30
0.0
 10
205.7139183252199
 20
66.68007729924337
 30
0.0
 10
205.7866532982259
 20
66.8496238788546
 30
0.0
 10
205.9775081774642
 20
67.17543353742482
 30
0.0
 10
206.0956233644334
 20
67.33168856009794
 30
0.0
 10
206.3727017032474
 20
67.62490950607933
 30
0.0
 10
206.5316580037842
 20
67.76186817892189
 30
0.0
 10
206.8843118370005
 20
68.01123209580057
 30
0.0
 10
207.078000649619
 20
68.12363117382249
 30
0.0
 10
207.4926776881978
 20
68.31955514611774
 30
0.0
 10
207.713655660451
 20
68.40307519578477
 30
0.0
 10
208.1744200983532
 20
68.5380299751167
 30
0.0
 10
208.4141951706933
 20
68.58946136775873
 30
0.0
 10
208.9033400889699
 20
68.65826071764113
 30
0.0
 10
209.1526978398344
 20
68.67562697368199
 30
0.0
 10
209.6514256735918
 20
68.67562697368199
 30
0.0
 10
209.9007834244562
 20
68.65826071764114
 30
0.0
 10
210.3899283427328
 20
68.58946136775873
 30
0.0
 10
210.629703415073
 20
68.53802997511671
 30
0.0
 10
211.0904678529751
 20
68.40307519578477
 30
0.0
 10
211.3114458252284
 20
68.31955514611774
 30
0.0
 10
211.7261228638071
 20
68.12363117382247
 30
0.0
 10
211.9198116764256
 20
68.01123209580057
 30
0.0
 10
212.272465509642
 20
67.76186817892189
 30
0.0
 10
212.4314218101788
 20
67.62490950607933
 30
0.0
 10
212.7085001489928
 20
67.33168856009794
 30
0.0
 10
212.8266153359619
 20
67.17543353742481
 30
0.0
 10
213.0174702152002
 20
66.8496238788546
 30
0.0
 10
213.0902051882063
 20
66.68007729924337
 30
0.0
 10
213.1875021618924
 20
66.33419961054702
 30
0.0
 10
213.2120617567131
 20
66.15787705396933
 30
0.0
 10
213.2120617567131
 20
65.98155013736118
 30
0.0
  0
SPLINE
  5
154
330
1F
100
AcDbEntity
  8
0
  6
Continuous
 62
     7
370
    15
100
AcDbSpline
210
0.0
220
0.0
230
1.0
 70
     8
 71
     3
 72
    73
 73
    69
 74
     0
 42
0.000000001
 43
0.00000001
 40
0.0
 40
0.0
 40
0.0
 40
0.0
 40
0.0050739195203328
 40
0.0100590248083457
 40
0.0149553163300134
 40
0.0197627945826184
 40
0.024481460097009
 40
0.0291113134400715
 40
0.033652355217449
 40
0.0381045860765237
 40
0.0424680067097108
 40
0.0467426178580882
 40
0.0509284203154161
 40
0.055025414932586
 40
0.0590336026225706
 40
0.0629529843659255
 40
0.0667835612169368
 40
0.0705253343104921
 40
0.0741783048697881
 40
0.0777424742150003
 40
0.0812178437730565
 40
0.0846044150886933
 40
0.0879021898370005
 40
0.0911111698377008
 40
0.0942313570714585
 40
0.0972627536985794
 40
0.1002053620805265
 40
0.1030591848047846
 40
0.105824224713714
 40
0.1085004849381858
 40
0.1110879689369884
 40
0.1135866805432257
 40
0.1159966240192589
 40
0.1183178041221464
 40
0.1205502261820818
 40
0.1442368821245369
 40
0.1671003019775945
 40
0.1891435367959005
 40
0.2103699946594382
 40
0.2307834961083441
 40
0.2503883403590987
 40
0.3153410665845898
 40
0.3764372230814388
 40
0.438884943912302
 40
0.5000153436985437
 40
0.5611337013373215
 40
0.623593463349104
 40
0.684676953625245
 40
0.7496423431326769
 40
0.7793371571909656
 40
0.8108619325003378
 40
0.8442298862083558
 40
0.8794521268512288
 40
0.8844786770250862
 40
0.8899351089037331
 40
0.8958214676131399
 40
0.9021377885167363
 40
0.9088840996651848
 40
0.9160604235126111
 40
0.9236667781479297
 40
0.9317031781968572
 40
0.9401696354949158
 40
0.9490661595978234
 40
0.9583927581742346
 40
0.9681494373119448
 40
0.9783362017594663
 40
0.9889530551186813
 40
1.0
 40
1.0
 40
1.0
 40
1.0
 10
213.2120617567131
 20
59.68876200115849
 30
0.0
 10
213.2119757800037
 20
59.6692995819059
 30
0.0
 10
213.211805331527
 20
59.63071541491079
 30
0.0
 10
213.2104447638969
 20
59.57335389606354
 30
0.0
 10
213.2083288540083
 20
59.51703259564527
 30
0.0
 10
213.205424475159
 20
59.46176148346544
 30
0.0
 10
213.2017968751418
 20
59.40755007862629
 30
0.0
 10
213.1974847503918
 20
59.35440646437331
 30
0.0
 10
213.1925327828147
 20
59.30233761739686
 30
0.0
 10
213.1869831313417
 20
59.2513493936787
 30
0.0
 10
213.1808776207825
 20
59.20144660294115
 30
0.0
 10
213.1742571476988
 20
59.15263305905534
 30
0.0
 10
213.167161813218
 20
59.10491163566457
 30
0.0
 10
213.1596308692469
 20
59.05828431934002
 30
0.0
 10
213.151702715562
 20
59.01275226220512
 30
0.0
 10
213.1434148859292
 20
58.96831583346879
 30
0.0
 10
213.1348040391974
 20
58.92497466996239
 30
0.0
 10
213.1259059511097
 20
58.88272772561054
 30
0.0
 10
213.116755507821
 20
58.8415733198141
 30
0.0
 10
213.1073867007502
 20
58.80150918471567
 30
0.0
 10
213.0978326227535
 20
58.76253251132488
 30
0.0
 10
213.0881254655117
 20
58.72463999448347
 30
0.0
 10
213.0782965180531
 20
58.68782787665231
 30
0.0
 10
213.0683761663288
 20
58.6520919905106
 30
0.0
 10
213.0583938937558
 20
58.61742780034148
 30
0.0
 10
213.0483782826685
 20
58.58383044224966
 30
0.0
 10
213.0383570165336
 20
58.55129476301087
 30
0.0
 10
213.0283568831026
 20
58.51981535824437
 30
0.0
 10
213.0184037775466
 20
58.48938660742932
 30
0.0
 10
213.0085227086516
 20
58.46000271458738
 30
0.0
 10
212.9987377968147
 20
58.43165772326872
 30
0.0
 10
212.9890723035138
 20
58.40434561718003
 30
0.0
 10
212.9795485513717
 20
58.37806011194494
 30
0.0
 10
212.9701882328239
 20
58.35279553337822
 30
0.0
 10
212.9314922450273
 20
58.2505339573874
 30
0.0
 10
212.8574901707176
 20
58.0760847209816
 30
0.0
 10
212.7357551794458
 20
57.83790231548069
 30
0.0
 10
212.6022418183665
 20
57.61594377868732
 30
0.0
 10
212.4590616800558
 20
57.4103683456433
 30
0.0
 10
212.3081734631318
 20
57.22108581813224
 30
0.0
 10
212.0286534163757
 20
56.91204594791903
 30
0.0
 10
211.5796045510299
 20
56.53097555814185
 30
0.0
 10
210.9025395435485
 20
56.15903237852966
 30
0.0
 10
210.1703386731187
 20
55.93049291624419
 30
0.0
 10
209.4021120246251
 20
55.85317706993921
 30
0.0
 10
208.6338342056171
 20
55.93048367884555
 30
0.0
 10
207.9016832295977
 20
56.15898772044518
 30
0.0
 10
207.2245394483757
 20
56.53096527382033
 30
0.0
 10
206.7444672328036
 20
56.93834433550207
 30
0.0
 10
206.4145986363787
 20
57.31493587329167
 30
0.0
 10
206.1966568430658
 20
57.61747867429638
 30
0.0
 10
206.0005355510384
 20
57.95686334736872
 30
0.0
 10
205.884012746005
 20
58.21870778635593
 30
0.0
 10
205.822113878729
 20
58.38442065426116
 30
0.0
 10
205.8009226806772
 20
58.44403783330838
 30
0.0
 10
205.7791969559258
 20
58.50867099288889
 30
0.0
 10
205.7571944427221
 20
58.5783810452326
 30
0.0
 10
205.7351927175066
 20
58.65322803917471
 30
0.0
 10
205.7134906180332
 20
58.73326540397639
 30
0.0
 10
205.6924080530784
 20
58.81853914318934
 30
0.0
 10
205.6722860225017
 20
58.90908537783506
 30
0.0
 10
205.6534870610389
 20
59.00492819583005
 30
0.0
 10
205.636392865648
 20
59.10607725978136
 30
0.0
 10
205.621412710238
 20
59.21252523502477
 30
0.0
 10
205.6089478027829
 20
59.32424544860454
 30
0.0
 10
205.5995306952604
 20
59.44118799100267
 30
0.0
 10
205.5932666237856
 20
59.56328148662972
 30
0.0
 10
205.5924686597324
 20
59.6463852100683
 30
0.0
 10
205.5920617567131
 20
59.68876200115847
 30
0.0
  0
SPLINE
  5
155
330
1F
100
AcDbEntity
  8
0
  6
Continuous
 62
     7
370
    15
100
AcDbSpline
210
0.0
220
0.0
230
1.0
 70
     8
 71
     3
 72
    50
 73
    46
 74
     0
 42
0.000000001
 43
0.00000001
 40
0.0
 40
0.0
 40
0.0
 40
0.0
 40
0.0052116794497416
 40
0.0104208467190984
 40
0.0156288969255014
 40
0.0208372260840391
 40
0.0260472299855657
 40
0.0312603030757072
 40
0.0468865518477314
 40
0.0625178196151003
 40
0.078144182625703
 40
0.0937753364299528
 40
0.1250234274397116
 40
0.1562715184494705
 40
0.1875196094592298
 40
0.2187677004689884
 40
0.2500157914787478
 40
0.2812638824885058
 40
0.312511973498265
 40
0.3437600645080239
 40
0.3750081555177829
 40
0.4062562465275418
 40
0.4375043375373007
 40
0.4687524285470595
 40
0.5000005195568186
 40
0.5312486105665777
 40
0.5624967015763366
 40
0.5937447925860954
 40
0.6249928835958543
 40
0.6562409746056133
 40
0.6874890656153719
 40
0.7187371566251312
 40
0.7499852476348903
 40
0.7812333386446495
 40
0.8124814296544083
 40
0.8437295206641665
 40
0.874977611673926
 40
0.9062257026836842
 40
0.9218519514559286
 40
0.9374832192230811
 40
0.9531095822345815
 40
0.9687407360379315
 40
0.9791613392968065
 40
0.9895773696333934
 40
1.0
 40
1.0
 40
1.0
 40
1.0
 10
212.8945617567131
 20
65.98155013736118
 30
0.0
 10
212.8944719083722
 20
65.96807650491263
 30
0.0
 10
212.8942922549998
 20
65.94113573469649
 30
0.0
 10
212.8928379469907
 20
65.90074151955413
 30
0.0
 10
212.8905160730147
 20
65.8603775798487
 30
0.0
 10
212.8872417534946
 20
65.82004399781557
 30
0.0
 10
212.8830375190063
 20
65.77974050491135
 30
0.0
 10
212.8744778814025
 20
65.71266717990643
 30
0.0
 10
212.8581543721463
 20
65.61904787552439
 30
0.0
 10
212.8288317182267
 20
65.49958088486868
 30
0.0
 10
212.791262359883
 20
65.38125584748606
 30
0.0
 10
212.7302873451835
 20
65.22546656295614
 30
0.0
 10
212.6338968008315
 20
65.03495959816816
 30
0.0
 10
212.4871240106131
 20
64.81553313588985
 30
0.0
 10
212.3106377914146
 20
64.60732402073867
 30
0.0
 10
212.106141089807
 20
64.41235267882136
 30
0.0
 10
211.875602439852
 20
64.2324927022376
 30
0.0
 10
211.6212422908276
 20
64.06947733639495
 30
0.0
 10
211.3455102067657
 20
63.92487621483833
 30
0.0
 10
211.0510616553143
 20
63.80008200406952
 30
0.0
 10
210.7407323324447
 20
63.69629651948236
 30
0.0
 10
210.4175108803961
 20
63.61451927767545
 30
0.0
 10
210.0845100981167
 20
63.55553783667814
 30
0.0
 10
209.7449369652637
 20
63.51992022041575
 30
0.0
 10
209.4020617567131
 20
63.50800944589275
 30
0.0
 10
209.0591865481625
 20
63.51992022041575
 30
0.0
 10
208.7196134153097
 20
63.55553783667817
 30
0.0
 10
208.3866126330294
 20
63.61451927767539
 30
0.0
 10
208.063391180984
 20
63.69629651948258
 30
0.0
 10
207.7530618581027
 20
63.80008200406868
 30
0.0
 10
207.4586133066949
 20
63.9248762148415
 30
0.0
 10
207.1828812224703
 20
64.06947733638314
 30
0.0
 10
206.928521074053
 20
64.2324927022817
 30
0.0
 10
206.6979824218321
 20
64.41235267865676
 30
0.0
 10
206.4934857286811
 20
64.60732402135302
 30
0.0
 10
206.3169994779223
 20
64.81553313359706
 30
0.0
 10
206.1702268054885
 20
65.03495960672498
 30
0.0
 10
206.0738419464534
 20
65.22545457725955
 30
0.0
 10
206.012865990225
 20
65.38124357683911
 30
0.0
 10
205.9752973587615
 20
65.49955585269815
 30
0.0
 10
205.9459770368391
 20
65.61903589963379
 30
0.0
 10
205.9272991432092
 20
65.72602022541857
 30
0.0
 10
205.9164584158117
 20
65.81999798022524
 30
0.0
 10
205.9106394208667
 20
65.90072840837166
 30
0.0
 10
205.9099210539381
 20
65.95460387321084
 30
0.0
 10
205.9095617567131
 20
65.98155013736118
 30
0.0
  0
SPLINE
  5
156
330
1F
100
AcDbEntity
  8
0
  6
Continuous
 62
     7
370
    15
100
AcDbSpline
210
0.0
220
0.0
230
1.0
 70
     8
 71
     3
 72
    50
 73
    46
 74
     0
 42
0.000000001
 43
0.00000001
 40
0.0
 40
0.0
 40
0.0
 40
0.0
 40
0.0052116794510127
 40
0.0104208467217058
 40
0.0156288969295104
 40
0.0208372260895157
 40
0.026047229992576
 40
0.0312603030843172
 40
0.0468865518619205
 40
0.0625178196323244
 40
0.0781440684072369
 40
0.0937753361803295
 40
0.125023427198696
 40
0.1562715182170619
 40
0.187519609235429
 40
0.2187677002537954
 40
0.2500157912721618
 40
0.2812638822905278
 40
0.3125119733088944
 40
0.3437600643272604
 40
0.375008155345627
 40
0.4062562463639932
 40
0.4375043373823596
 40
0.4687524284007259
 40
0.5000005194190924
 40
0.5312486104374585
 40
0.5624967014558248
 40
0.5937447924741912
 40
0.6249928834925574
 40
0.6562409745109239
 40
0.6874890655292901
 40
0.7187371565476565
 40
0.7499852475660226
 40
0.7812333385843895
 40
0.812481429602756
 40
0.8437295206211223
 40
0.8749776116394881
 40
0.9062257026578546
 40
0.9218519514363772
 40
0.9374832192058652
 40
0.9531095822235857
 40
0.9687407360293206
 40
0.9791613392910185
 40
0.9895773696304737
 40
1.0
 40
1.0
 40
1.0
 40
1.0
 10
205.9095617567131
 20
65.98155013736118
 30
0.0
 10
205.9096516050541
 20
65.99502376980926
 30
0.0
 10
205.9098312584268
 20
66.02196454002468
 30
0.0
 10
205.9112855664338
 20
66.06235875516663
 30
0.0
 10
205.9136074404177
 20
66.10272269487047
 30
0.0
 10
205.9168817599083
 20
66.14305627690884
 30
0.0
 10
205.9210859945068
 20
66.18335976979522
 30
0.0
 10
205.9296456314256
 20
66.25043309491987
 30
0.0
 10
205.9459691487953
 20
66.34405239793128
 30
0.0
 10
205.9752916965962
 20
66.46351910334536
 30
0.0
 10
206.0128611528251
 20
66.58184412257943
 30
0.0
 10
206.0738359697072
 20
66.73763344498109
 30
0.0
 10
206.1702267322739
 20
66.92814067278078
 30
0.0
 10
206.3169994975401
 20
67.14756713984357
 30
0.0
 10
206.4934857234245
 20
67.35577625371275
 30
0.0
 10
206.6979824232405
 20
67.55074759597355
 30
0.0
 10
206.9285210736756
 20
67.73060757246529
 30
0.0
 10
207.1828812225715
 20
67.89362293833258
 30
0.0
 10
207.4586133066678
 20
68.03822405988261
 30
0.0
 10
207.75306185811
 20
68.16301827065317
 30
0.0
 10
208.0633911809821
 20
68.26680375523989
 30
0.0
 10
208.3866126330299
 20
68.3485809970469
 30
0.0
 10
208.7196134153095
 20
68.40756243804418
 30
0.0
 10
209.0591865481625
 20
68.44318005430657
 30
0.0
 10
209.4020617567131
 20
68.45509082882958
 30
0.0
 10
209.7449369652637
 20
68.44318005430657
 30
0.0
 10
210.0845100981165
 20
68.40756243804417
 30
0.0
 10
210.4175108803968
 20
68.34858099704692
 30
0.0
 10
210.7407323324422
 20
68.26680375523975
 30
0.0
 10
211.0510616553235
 20
68.16301827065364
 30
0.0
 10
211.3455102067313
 20
68.03822405988083
 30
0.0
 10
211.6212422909558
 20
67.89362293833919
 30
0.0
 10
211.8756024393732
 20
67.73060757244062
 30
0.0
 10
212.1061410915941
 20
67.55074759606556
 30
0.0
 10
212.3106377847451
 20
67.3557762533693
 30
0.0
 10
212.4871240355038
 20
67.14756714112526
 30
0.0
 10
212.633896707938
 20
66.92814066799741
 30
0.0
 10
212.7302815669742
 20
66.73764569745782
 30
0.0
 10
212.7912575232045
 20
66.58185669787856
 30
0.0
 10
212.8288261546675
 20
66.46354442201432
 30
0.0
 10
212.8581464765862
 20
66.34406437508346
 30
0.0
 10
212.8768243702178
 20
66.23708004929897
 30
0.0
 10
212.8876650976144
 20
66.14310229449737
 30
0.0
 10
212.8934840925595
 20
66.06237186635093
 30
0.0
 10
212.894202459488
 20
66.00849640151165
 30
0.0
 10
212.8945617567131
 20
65.98155013736118
 30
0.0
  0
SPLINE
  5
157
330
1F
100
AcDbEntity
  8
0
  6
Continuous
 62
     7
370
    15
100
AcDbSpline
210
0.0
220
0.0
230
1.0
 70
     8
 71
     3
 72
    23
 73
    19
 74
     0
 42
0.000000001
 43
0.00000001
 40
0.0
 40
0.0
 40
0.0
 40
0.0
 40
0.0365642467557654
 40
0.1027691458762574
 40
0.1689745373774389
 40
0.2351794732115387
 40
0.3013846916984629
 40
0.3675896525106904
 40
0.4337949162430043
 40
0.5
 40
0.5662050837569959
 40
0.6324103474893097
 40
0.6986153083015371
 40
0.7648205267884614
 40
0.8310254626225612
 40
0.8972308541237426
 40
0.9634357532442346
 40
1.0
 40
1.0
 40
1.0
 40
1.0
 10
205.9396071611476
 20
65.76584626409044
 30
0.0
 10
205.9482005112482
 20
65.8549566138271
 30
0.0
 10
205.9723533744527
 20
66.10541424234984
 30
0.0
 10
206.1586076192061
 20
66.50103810265912
 30
0.0
 10
206.4783643191799
 20
66.93107415113347
 30
0.0
 10
206.9168594527609
 20
67.3076314826307
 30
0.0
 10
207.4491464266041
 20
67.61675535286948
 30
0.0
 10
208.0569461378345
 20
67.8464344414593
 30
0.0
 10
208.7163110246184
 20
67.98787407092334
 30
0.0
 10
209.4020618377757
 20
68.03563163255433
 30
0.0
 10
210.0878126509329
 20
67.98787407092334
 30
0.0
 10
210.7471775377168
 20
67.8464344414593
 30
0.0
 10
211.3549772489472
 20
67.61675535286948
 30
0.0
 10
211.8872642227905
 20
67.3076314826307
 30
0.0
 10
212.3257593563715
 20
66.93107415113347
 30
0.0
 10
212.6455160563453
 20
66.50103810265912
 30
0.0
 10
212.8317703010987
 20
66.10541424234984
 30
0.0
 10
212.8559231643031
 20
65.8549566138271
 30
0.0
 10
212.8645165144038
 20
65.76584626409044
 30
0.0
  0
SPLINE
  5
158
330
1F
100
AcDbEntity
  8
0
  6
Continuous
 62
     7
370
    15
100
AcDbSpline
210
0.0
220
0.0
230
1.0
 70
    11
 71
     3
 72
    70
 73
    66
 74
     0
 42
0.000000001
 43
0.00000001
 40
0.0
 40
0.0
 40
0.0
 40
0.0
 40
0.03125
 40
0.03125
 40
0.0625
 40
0.0625
 40
0.09375
 40
0.09375
 40
0.125
 40
0.125
 40
0.1562499999999999
 40
0.1562499999999999
 40
0.1874999999999999
 40
0.1874999999999999
 40
0.2187499999999999
 40
0.2187499999999999
 40
0.2499999999999999
 40
0.2499999999999999
 40
0.2812499999999999
 40
0.2812499999999999
 40
0.3124999999999999
 40
0.3124999999999999
 40
0.3437499999999999
 40
0.3437499999999999
 40
0.3749999999999999
 40
0.3749999999999999
 40
0.4062499999999998
 40
0.4062499999999998
 40
0.4374999999999998
 40
0.4374999999999998
 40
0.4687499999999998
 40
0.4687499999999998
 40
0.4999999999999998
 40
0.4999999999999998
 40
0.5312499999999998
 40
0.5312499999999998
 40
0.5624999999999998
 40
0.5624999999999998
 40
0.5937499999999998
 40
0.5937499999999998
 40
0.6249999999999999
 40
0.6249999999999999
 40
0.65625
 40
0.65625
 40
0.6875
 40
0.6875
 40
0.71875
 40
0.71875
 40
0.75
 40
0.75
 40
0.7812500000000001
 40
0.7812500000000001
 40
0.8125000000000001
 40
0.8125000000000001
 40
0.84375
 40
0.84375
 40
0.875
 40
0.875
 40
0.90625
 40
0.90625
 40
0.9375
 40
0.9375
 40
0.96875
 40
0.96875
 40
1.0
 40
1.0
 40
1.0
 40
1.0
 10
209.4020617569235
 20
64.05972857748509
 30
0.0
 10
209.2561325949561
 20
64.0597285774763
 30
0.0
 10
209.1047461983586
 20
64.06890170899463
 30
0.0
 10
208.7981143168841
 20
64.10902505223315
 30
0.0
 10
208.6429000074967
 20
64.14001042988808
 30
0.0
 10
208.3380504098608
 20
64.22534915024292
 30
0.0
 10
208.1884769128123
 20
64.27972262820636
 30
0.0
 10
207.9053166924495
 20
64.41062512927573
 30
0.0
 10
207.7718034893289
 20
64.48714519706088
 30
0.0
 10
207.5300201371779
 20
64.65811184491585
 30
0.0
 10
207.4218044194997
 20
64.75251993620734
 30
0.0
 10
207.2366803270907
 20
64.95274444816593
 30
0.0
 10
207.159784617096
 20
65.05850888220544
 30
0.0
 10
207.0390974413228
 20
65.27407009992132
 30
0.0
 10
206.9952774999816
 20
65.38382319062104
 30
0.0
 10
206.9385345237538
 20
65.60064467333281
 30
0.0
 10
206.9255617567255
 20
65.7076910209448
 30
0.0
 10
206.9255617567007
 20
65.91406602094482
 30
0.0
 10
206.9385345237033
 20
66.02111236855836
 30
0.0
 10
206.9952774998789
 20
66.23793385127694
 30
0.0
 10
207.0390974411938
 20
66.34768694198193
 30
0.0
 10
207.1597846169152
 20
66.5632481597123
 30
0.0
 10
207.2366803268845
 20
66.66901259376107
 30
0.0
 10
207.4218044192453
 20
66.8692371057419
 30
0.0
 10
207.5300201369008
 20
66.96364519704639
 30
0.0
 10
207.7718034890108
 20
67.13461184493043
 30
0.0
 10
207.905316692113
 20
67.21113191273162
 30
0.0
 10
208.1884769124443
 20
67.34203441383502
 30
0.0
 10
208.3380504094797
 20
67.39640789181645
 30
0.0
 10
208.6429000070951
 20
67.4817466122079
 30
0.0
 10
208.7981143164751
 20
67.51273198988149
 30
0.0
 10
209.1047461979399
 20
67.55285533315686
 30
0.0
 10
209.2561325945353
 20
67.56202846469337
 30
0.0
 10
209.54799091847
 20
67.5620284647109
 30
0.0
 10
209.6993773150676
 20
67.5528553331926
 30
0.0
 10
210.0060091965421
 20
67.51273198995408
 30
0.0
 10
210.1612235059294
 20
67.48174661229913
 30
0.0
 10
210.4660731035653
 20
67.39640789194432
 30
0.0
 10
210.6156466006138
 20
67.34203441398085
 30
0.0
 10
210.8988068209767
 20
67.21113191291147
 30
0.0
 10
211.0323200240973
 20
67.13461184512634
 30
0.0
 10
211.2741033762483
 20
66.96364519727138
 30
0.0
 10
211.3823190939264
 20
66.86923710597988
 30
0.0
 10
211.5674431863354
 20
66.66901259402131
 30
0.0
 10
211.6443388963302
 20
66.56324815998177
 30
0.0
 10
211.7650260721034
 20
66.34768694226591
 30
0.0
 10
211.8088460134446
 20
66.23793385156618
 30
0.0
 10
211.8655889896723
 20
66.02111236885442
 30
0.0
 10
211.8785617567007
 20
65.91406602124242
 30
0.0
 10
211.8785617567255
 20
65.70769102124241
 30
0.0
 10
211.8655889897229
 20
65.60064467362886
 30
0.0
 10
211.8088460135472
 20
65.38382319091028
 30
0.0
 10
211.7650260722324
 20
65.27407010020528
 30
0.0
 10
211.644338896511
 20
65.05850888247491
 30
0.0
 10
211.5674431865417
 20
64.95274444842615
 30
0.0
 10
211.3823190941808
 20
64.75251993644532
 30
0.0
 10
211.2741033765253
 20
64.65811184514081
 30
0.0
 10
211.0323200244154
 20
64.4871451972568
 30
0.0
 10
210.8988068213132
 20
64.41062512945561
 30
0.0
 10
210.6156466009819
 20
64.2797226283522
 30
0.0
 10
210.4660731039465
 20
64.22534915037077
 30
0.0
 10
210.1612235063311
 20
64.14001042997931
 30
0.0
 10
210.0060091969511
 20
64.10902505230573
 30
0.0
 10
209.6993773154863
 20
64.06890170903034
 30
0.0
 10
209.5479909188909
 20
64.05972857749386
 30
0.0
 10
209.4020617569235
 20
64.05972857748509
 30
0.0
  0
SPLINE
  5
159
330
1F
100
AcDbEntity
  8
0
  6
Continuous
 62
     7
370
    15
100
AcDbSpline
210
0.0
220
0.0
230
1.0
 70
     8
 71
     3
 72
    21
 73
    17
 74
     0
 42
0.000000001
 43
0.00000001
 40
0.0
 40
0.0
 40
0.0
 40
0.0
 40
0.0720838610292518
 40
0.1441673058961414
 40
0.2162508477234504
 40
0.2883344598430294
 40
0.3604182273223833
 40
0.4325016674234923
 40
0.504585241543955
 40
0.5766690603596595
 40
0.648752578746228
 40
0.72083648555135
 40
0.7929202284819391
 40
0.8650032871487012
 40
0.937087218270593
 40
1.0
 40
1.0
 40
1.0
 40
1.0
 10
211.3754121838641
 20
65.19153539511196
 30
0.0
 10
211.3107415314363
 20
65.10251457661448
 30
0.0
 10
211.1814005999444
 20
64.92447345356418
 30
0.0
 10
210.8986911798719
 20
64.69785113893334
 30
0.0
 10
210.5639110574155
 20
64.51229447924851
 30
0.0
 10
210.1830241987073
 20
64.37709898921827
 30
0.0
 10
209.772515599426
 20
64.29688067551827
 30
0.0
 10
209.3476672092587
 20
64.27487677281955
 30
0.0
 10
208.92493266873
 20
64.31189219934875
 30
0.0
 10
208.5205411504573
 20
64.40651456528002
 30
0.0
 10
208.1499795747091
 20
64.55510606665722
 30
0.0
 10
207.8276958016305
 20
64.75195672742485
 30
0.0
 10
207.5653358288049
 20
64.98949383361554
 30
0.0
 10
207.375703559645
 20
65.25862419194318
 30
0.0
 10
207.2610269913929
 20
65.53657817433006
 30
0.0
 10
207.2519179284074
 20
65.72384510738324
 30
0.0
 10
207.2476728139948
 20
65.81111748191348
 30
0.0
  0
SPLINE
  5
15A
330
1F
100
AcDbEntity
  8
0
  6
Continuous
 62
     7
370
    15
100
AcDbSpline
210
0.0
220
0.0
230
1.0
 70
     8
 71
     3
 72
    10
 73
     6
 74
     0
 42
0.000000001
 43
0.00000001
 40
0.0
 40
0.0
 40
0.0
 40
0.0
 40
0.0598139984568818
 40
0.5299063904988507
 40
1.0
 40
1.0
 40
1.0
 40
1.0
 10
211.5564508615565
 20
65.81063952716819
 30
0.0
 10
211.5579309561001
 20
65.79798601292845
 30
0.0
 10
211.5710434644993
 20
65.68588553091949
 30
0.0
 10
211.5207873359071
 20
65.47221661801298
 30
0.0
 10
211.4238706097113
 20
65.285095883514
 30
0.0
 10
211.3754121838641
 20
65.19153539511196
 30
0.0
  0
SPLINE
  5
15B
330
1F
100
AcDbEntity
  8
0
  6
Continuous
 62
     7
370
    15
100
AcDbSpline
210
0.0
220
0.0
230
1.0
 70
     8
 71
     3
 72
    41
 73
    37
 74
     0
 42
0.000000001
 43
0.00000001
 40
0.0
 40
0.0
 40
0.0
 40
0.0
 40
0.0287903383220118
 40
0.0632224544595433
 40
0.0983853403333014
 40
0.1335481216626915
 40
0.1509211089699564
 40
0.1680240888316491
 40
0.2010819166149918
 40
0.232271537302576
 40
0.2634611502490468
 40
0.2965187314911288
 40
0.3309509372222754
 40
0.3661137306191707
 40
0.4012766140422457
 40
0.4186496706064372
 40
0.4357526993282054
 40
0.4688104057965067
 40
0.499999970698542
 40
0.5311895356005772
 40
0.5642472420688786
 40
0.5986793599943413
 40
0.6338422434174164
 40
0.6690050368143117
 40
0.6863780106923985
 40
0.703481224043555
 40
0.7365387809828656
 40
0.7677284019646209
 40
0.7989180306874873
 40
0.83197583416824
 40
0.8664078259257495
 40
0.9015706072551395
 40
0.9367334931288976
 40
0.9541065516516797
 40
0.971209577153485
 40
1.0
 40
1.0
 40
1.0
 40
1.0
 10
208.8063402353358
 20
63.55346806767216
 30
0.0
 10
208.6480249393928
 20
63.58109057511537
 30
0.0
 10
208.3003707549905
 20
63.64174851874052
 30
0.0
 10
207.8054612244427
 20
63.82952912971078
 30
0.0
 10
207.3424716200432
 20
64.09343526830484
 30
0.0
 10
207.0279489735281
 20
64.36781384028453
 30
0.0
 10
206.8294954121539
 20
64.60835055603813
 30
0.0
 10
206.6712435456789
 20
64.85418034148327
 30
0.0
 10
206.5433757276444
 20
65.16853722356417
 30
0.0
 10
206.4939075840962
 20
65.5501323626253
 30
0.0
 10
206.5434035401366
 20
65.9317869577823
 30
0.0
 10
206.6983593221738
 20
66.31291146146293
 30
0.0
 10
206.9668760912225
 20
66.67940581459905
 30
0.0
 10
207.3424847970128
 20
67.0064109333389
 30
0.0
 10
207.7299341604089
 20
67.22890284704334
 30
0.0
 10
208.0701796511603
 20
67.36921975290156
 30
0.0
 10
208.4178145045479
 20
67.48112261395848
 30
0.0
 10
208.8623935675392
 20
67.5715370775209
 30
0.0
 10
209.4020468465671
 20
67.6065184885854
 30
0.0
 10
209.9417918686841
 20
67.57151714047674
 30
0.0
 10
210.4807783905277
 20
67.46194953281689
 30
0.0
 10
210.9990838410834
 20
67.27207710772201
 30
0.0
 10
211.4615358055716
 20
67.00648364947097
 30
0.0
 10
211.7761884796923
 20
66.73251521624907
 30
0.0
 10
211.974626907883
 20
66.49192407317861
 30
0.0
 10
212.1328794238406
 20
66.24611240967357
 30
0.0
 10
212.2607457652766
 20
65.9317427714955
 30
0.0
 10
212.3102173482711
 20
65.55015360194533
 30
0.0
 10
212.2607171741764
 20
65.16849390835687
 30
0.0
 10
212.1057652087737
 20
64.78738188225533
 30
0.0
 10
211.8372531490192
 20
64.42085383752591
 30
0.0
 10
211.4616118459978
 20
64.09395915527054
 30
0.0
 10
211.0742690990534
 20
63.87113127312197
 30
0.0
 10
210.7338087846435
 20
63.73148939595484
 30
0.0
 10
210.4089284563345
 20
63.62418059399702
 30
0.0
 10
210.1562777749274
 20
63.58072754821151
 30
0.0
 10
209.9977819500994
 20
63.55346806767216
 30
0.0
  0
SPLINE
  5
15C
330
1F
100
AcDbEntity
  8
0
  6
Continuous
 62
     7
370
    15
100
AcDbSpline
210
0.0
220
0.0
230
1.0
 70
     8
 71
     3
 72
    38
 73
    34
 74
     0
 42
0.000000001
 43
0.00000001
 40
0.0
 40
0.0
 40
0.0
 40
0.0
 40
0.0625
 40
0.0625
 40
0.125
 40
0.125
 40
0.1875
 40
0.1875
 40
0.25
 40
0.25
 40
0.3125
 40
0.3125
 40
0.375
 40
0.375
 40
0.4375
 40
0.4375
 40
0.5
 40
0.5
 40
0.5625
 40
0.5625
 40
0.625
 40
0.625
 40
0.6875
 40
0.6875
 40
0.75
 40
0.75
 40
0.8125
 40
0.8125
 40
0.875
 40
0.875
 40
0.9375
 40
0.9375
 40
1.0
 40
1.0
 40
1.0
 40
1.0
 10
211.3754115067761
 20
65.25344293781363
 30
0.0
 10
211.3180850710474
 20
65.16211625098474
 30
0.0
 10
211.2480396669221
 20
65.07478416247181
 30
0.0
 10
211.0851958658247
 20
64.9114567502063
 30
0.0
 10
210.9924014954865
 20
64.83546546504583
 30
0.0
 10
210.7876247607013
 20
64.6977405950309
 30
0.0
 10
210.6756474597627
 20
64.63601041569522
 30
0.0
 10
210.4368072463674
 20
64.52918077744852
 30
0.0
 10
210.3099502397057
 20
64.48408396011082
 30
0.0
 10
210.046225043158
 20
64.41225495671944
 30
0.0
 10
209.9093633743971
 20
64.38552454677942
 30
0.0
 10
209.6308880061014
 20
64.35145652656153
 30
0.0
 10
209.4892811924188
 20
64.3441197586826
 30
0.0
 10
209.2067573046081
 20
64.34912193654958
 30
0.0
 10
209.0658472164397
 20
64.3614607586068
 30
0.0
 10
208.7901320436811
 20
64.4053409036685
 30
0.0
 10
208.6553337766919
 20
64.43688114164993
 30
0.0
 10
208.3970228984519
 20
64.5179529645399
 30
0.0
 10
208.2735166744465
 20
64.56748254478785
 30
0.0
 10
208.0425368329134
 20
64.68263050081802
 30
0.0
 10
207.9350689268173
 20
64.7482460293401
 30
0.0
 10
207.7402965477661
 20
64.89304504713594
 30
0.0
 10
207.6529968909418
 20
64.97222495596864
 30
0.0
 10
207.50191696767
 20
65.1411104904805
 30
0.0
 10
207.4381404369711
 20
65.230811940132
 30
0.0
 10
207.3365588862033
 20
65.41729381498068
 30
0.0
 10
207.2987563779383
 20
65.51406962904602
 30
0.0
 10
207.250576921703
 20
65.7109814503613
 30
0.0
 10
207.2402011650646
 20
65.81111258857845
 30
0.0
 10
207.2472753128455
 20
66.01088714549665
 30
0.0
 10
207.2647250423425
 20
66.11052562437811
 30
0.0
 10
207.3267809386077
 20
66.30548569271168
 30
0.0
 10
207.3713855709215
 20
66.40080246139195
 30
0.0
 10
207.4287120066501
 20
66.49212914822084
 30
0.0
  0
SPLINE
  5
15D
330
1F
100
AcDbEntity
  8
0
  6
Continuous
 62
     7
370
    15
100
AcDbSpline
210
0.0
220
0.0
230
1.0
 70
     8
 71
     3
 72
    38
 73
    34
 74
     0
 42
0.000000001
 43
0.00000001
 40
0.0
 40
0.0
 40
0.0
 40
0.0
 40
0.0625
 40
0.0625
 40
0.125
 40
0.125
 40
0.1875000000000001
 40
0.1875000000000001
 40
0.2500000000000001
 40
0.2500000000000001
 40
0.3125000000000001
 40
0.3125000000000001
 40
0.3750000000000001
 40
0.3750000000000001
 40
0.4375000000000001
 40
0.4375000000000001
 40
0.5000000000000001
 40
0.5000000000000001
 40
0.5625000000000001
 40
0.5625000000000001
 40
0.6250000000000001
 40
0.6250000000000001
 40
0.6875000000000001
 40
0.6875000000000001
 40
0.7500000000000002
 40
0.7500000000000002
 40
0.8125000000000002
 40
0.8125000000000002
 40
0.8750000000000002
 40
0.8750000000000002
 40
0.9375000000000002
 40
0.9375000000000002
 40
1.0
 40
1.0
 40
1.0
 40
1.0
 10
207.4287120066501
 20
66.49212914822084
 30
0.0
 10
207.4860384423787
 20
66.58345583504973
 30
0.0
 10
207.5560838465041
 20
66.67078792356267
 30
0.0
 10
207.7189276476015
 20
66.83411533582819
 30
0.0
 10
207.8117220179397
 20
66.91010662098864
 30
0.0
 10
208.0164987527249
 20
67.04783149100359
 30
0.0
 10
208.1284760536635
 20
67.10956167033926
 30
0.0
 10
208.3673162670588
 20
67.21639130858595
 30
0.0
 10
208.4941732737205
 20
67.26148812592365
 30
0.0
 10
208.7578984702682
 20
67.33331712931503
 30
0.0
 10
208.8947601390291
 20
67.36004753925505
 30
0.0
 10
209.1732355073248
 20
67.39411555947295
 30
0.0
 10
209.3148423210073
 20
67.40145232735189
 30
0.0
 10
209.5973662088181
 20
67.39645014948489
 30
0.0
 10
209.7382762969865
 20
67.38411132742768
 30
0.0
 10
210.013991469745
 20
67.34023118236598
 30
0.0
 10
210.1487897367342
 20
67.30869094438457
 30
0.0
 10
210.4071006149743
 20
67.2276191214946
 30
0.0
 10
210.5306068389796
 20
67.17808954124662
 30
0.0
 10
210.7615866805128
 20
67.06294158521648
 30
0.0
 10
210.8690545866089
 20
66.99732605669439
 30
0.0
 10
211.0638269656601
 20
66.85252703889854
 30
0.0
 10
211.1511266224843
 20
66.77334713006586
 30
0.0
 10
211.3022065457562
 20
66.604461595554
 30
0.0
 10
211.3659830764551
 20
66.51476014590249
 30
0.0
 10
211.4675646272229
 20
66.32827827105383
 30
0.0
 10
211.5053671354879
 20
66.2315024569885
 30
0.0
 10
211.5535465917232
 20
66.0345906356732
 30
0.0
 10
211.5639223483616
 20
65.93445949745605
 30
0.0
 10
211.5568482005807
 20
65.73468494053786
 30
0.0
 10
211.5393984710837
 20
65.63504646165642
 30
0.0
 10
211.4773425748186
 20
65.44008639332282
 30
0.0
 10
211.4327379425047
 20
65.34476962464255
 30
0.0
 10
211.3754115067761
 20
65.25344293781367
 30
0.0
  0
SPLINE
  5
15E
330
1F
100
AcDbEntity
  8
0
  6
Continuous
 62
     7
370
    15
100
AcDbSpline
210
0.0
220
0.0
230
1.0
 70
     8
 71
     3
 72
    39
 73
    35
 74
     0
 42
0.000000001
 43
0.00000001
 40
0.0
 40
0.0
 40
0.0
 40
0.0
 40
0.0321744532562388
 40
0.064348915926065
 40
0.0965233587472065
 40
0.1286978157766895
 40
0.1608722781893511
 40
0.1930467208893626
 40
0.2252211826182207
 40
0.2573956649915789
 40
0.2895701089016803
 40
0.3217445473353182
 40
0.3539190128972451
 40
0.3860934699285272
 40
0.4182679269598094
 40
0.4504423925217363
 40
0.4826168309553742
 40
0.5147912748654756
 40
0.5469657572388339
 40
0.579140218967692
 40
0.6113146616677034
 40
0.6434891240803652
 40
0.6756635811098481
 40
0.707838042484584
 40
0.7400124938936885
 40
0.7721869509249708
 40
0.804361407956253
 40
0.8365358664417686
 40
0.8687103286705224
 40
0.900884776802408
 40
0.9330592437143865
 40
0.9652336945512375
 40
0.9974081420084592
 40
1.0
 40
1.0
 40
1.0
 40
1.0
 10
203.052063125236
 20
59.68876194628707
 30
0.0
 10
203.0625471275249
 20
59.41169133574699
 30
0.0
 10
203.08351513517
 20
58.85755003360164
 30
0.0
 10
203.2521971586167
 20
58.04056123070425
 30
0.0
 10
203.5182996504697
 20
57.25177258360772
 30
0.0
 10
203.8871664847471
 20
56.50468157638596
 30
0.0
 10
204.349835853355
 20
55.81207193105423
 30
0.0
 10
204.8990994365739
 20
55.18579302263296
 30
0.0
 10
205.5253693027541
 20
54.63656013350386
 30
0.0
 10
206.2179828435242
 20
54.17377410178033
 30
0.0
 10
206.9650723099757
 20
53.80534874752325
 30
0.0
 10
207.7538606967715
 20
53.53759147416453
 30
0.0
 10
208.5708500594187
 20
53.3750825850812
 30
0.0
 10
209.4020618402676
 20
53.32060188410586
 30
0.0
 10
210.2332736061648
 20
53.37508258508712
 30
0.0
 10
211.0502630136669
 20
53.53759147414083
 30
0.0
 10
211.839051235995
 20
53.80534874761213
 30
0.0
 10
212.586141315463
 20
54.17377410144849
 30
0.0
 10
213.2787525686326
 20
54.63656013474231
 30
0.0
 10
213.9050309721929
 20
55.18579301801099
 30
0.0
 10
214.4542626935068
 20
55.81207194830363
 30
0.0
 10
214.9170509724087
 20
56.50468151201027
 30
0.0
 10
215.2854740983244
 20
57.25177296746585
 30
0.0
 10
215.5532327873953
 20
58.04056054929161
 30
0.0
 10
215.715741934726
 20
58.8575509182946
 30
0.0
 10
215.7702207635605
 20
59.68875973518433
 30
0.0
 10
215.7157472559731
 20
60.51998187962909
 30
0.0
 10
215.5532114572028
 20
61.33693251433961
 30
0.0
 10
215.2855542100598
 20
62.12586607100742
 30
0.0
 10
214.9167520468113
 20
62.87241339305524
 30
0.0
 10
214.45537790068
 20
63.5670531197652
 30
0.0
 10
213.9008690015997
 20
64.18575584747559
 30
0.0
 10
213.4801924935594
 20
64.58626853028952
 30
0.0
 10
213.2306647643516
 20
64.75141791989857
 30
0.0
 10
213.2120622573924
 20
64.76372994902363
 30
0.0
  0
SPLINE
  5
15F
330
1F
100
AcDbEntity
  8
0
  6
Continuous
 62
     7
370
    15
100
AcDbSpline
210
0.0
220
0.0
230
1.0
 70
     8
 71
     3
 72
    15
 73
    11
 74
     0
 42
0.000000001
 43
0.00000001
 40
0.0
 40
0.0
 40
0.0
 40
0.0
 40
0.0113771275525497
 40
0.1526089364897425
 40
0.2938407602620353
 40
0.4350726545971357
 40
0.576304466495809
 40
0.7175362588313974
 40
0.8587681656076485
 40
1.0
 40
1.0
 40
1.0
 40
1.0
 10
205.592061418159
 20
64.76372994902363
 30
0.0
 10
205.5734589040588
 20
64.75141791990173
 30
0.0
 10
205.3239310790647
 20
64.58626853033515
 30
0.0
 10
204.9032618083062
 20
64.18575584431181
 30
0.0
 10
204.3487205386859
 20
63.56705313095635
 30
0.0
 10
203.8874654391535
 20
62.87241335145438
 30
0.0
 10
203.5182195311754
 20
62.12586636971991
 30
0.0
 10
203.2522184910505
 20
61.33693215042149
 30
0.0
 10
203.0835098121828
 20
60.51998157939588
 30
0.0
 10
203.0625453524275
 20
59.96583510998832
 30
0.0
 10
203.052063125236
 20
59.68876194628707
 30
0.0
  0
ARC
  5
160
330
1F
100
AcDbEntity
  8
0
  6
Continuous
 62
     8
370
    15
100
AcDbCircle
 10
210.0239784414
 20
114.2648173674
 30
0.0
 40
0.0353139602407554
100
AcDbArc
 50
265.418070386
 51
357.4774164817
  0
ENDSEC
  0
SECTION
  2
OBJECTS
  0
DICTIONARY
  5
C
330
0
100
AcDbDictionary
281
     1
  3
ACAD_GROUP
350
D
  3
ACAD_LAYOUT
350
1A
  3
ACAD_MLINESTYLE
350
17
  3
ACAD_PLOTSETTINGS
350
19
  3
ACAD_PLOTSTYLENAME
350
E
  3
ACAD_SCALELIST
350
47
  0
DICTIONARY
  5
D
102
{ACAD_REACTORS
330
C
102
}
330
C
100
AcDbDictionary
281
     1
  0
DICTIONARY
  5
1A
102
{ACAD_REACTORS
330
C
102
}
330
C
100
AcDbDictionary
281
     1
  3
Layout1
350
1E
  3
Layout2
350
26
  3
Model
350
22
  0
DICTIONARY
  5
17
102
{ACAD_REACTORS
330
C
102
}
330
C
100
AcDbDictionary
281
     1
  3
Standard
350
18
  0
DICTIONARY
  5
19
102
{ACAD_REACTORS
330
C
102
}
330
C
100
AcDbDictionary
281
     1
  0
ACDBDICTIONARYWDFLT
  5
E
102
{ACAD_REACTORS
330
C
102
}
330
C
100
AcDbDictionary
281
     1
  3
Normal
350
F
100
AcDbDictionaryWithDefault
340
F
  0
DICTIONARY
  5
47
102
{ACAD_REACTORS
330
C
102
}
330
C
100
AcDbDictionary
281
     1
  3
A0
350
48
  3
A1
350
49
  3
A2
350
4A
  3
A3
350
4B
  3
A4
350
4C
  3
A5
350
4D
  3
A6
350
4E
  3
A7
350
4F
  3
A8
350
50
  3
A9
350
51
  3
B0
350
52
  3
B1
350
53
  3
B2
350
54
  3
B3
350
55
  3
B4
350
56
  3
B5
350
57
  3
B6
350
58
  3
B7
350
59
  3
B8
350
5A
  3
B9
350
5B
  3
C0
350
5C
  3
C1
350
5D
  3
C2
350
5E
  3
C3
350
5F
  3
C4
350
60
  3
C5
350
61
  3
C6
350
62
  3
C7
350
63
  3
C8
350
64
  3
C9
350
65
  3
D0
350
66
  3
D1
350
67
  3
D2
350
68
  0
LAYOUT
  5
1E
102
{ACAD_REACTORS
330
1A
102
}
330
1A
100
AcDbPlotSettings
  1

  2
none_device
  4

  6

 40
0.0
 41
0.0
 42
0.0
 43
0.0
 44
0.0
 45
0.0
 46
0.0
 47
0.0
 48
0.0
 49
0.0
140
0.0
141
0.0
142
1.0
143
1.0
 70
   688
 72
     1
 73
     0
 74
     5
  7

 75
    16
147
1.0
148
0.0
149
0.0
100
AcDbLayout
  1
Layout1
 70
     1
 71
     1
 10
0.0
 20
0.0
 11
420.0
 21
297.0
 12
0.0
 22
0.0
 32
0.0
 14
1.0000000000E+20
 24
1.0000000000E+20
 34
1.0000000000E+20
 15
-1.0000000000E+20
 25
-1.0000000000E+20
 35
-1.0000000000E+20
146
0.0
 13
0.0
 23
0.0
 33
0.0
 16
1.0
 26
0.0
 36
0.0
 17
0.0
 27
1.0
 37
0.0
 76
     0
330
1B
  0
LAYOUT
  5
26
102
{ACAD_REACTORS
330
1A
102
}
330
1A
100
AcDbPlotSettings
  1

  2
none_device
  4

  6

 40
0.0
 41
0.0
 42
0.0
 43
0.0
 44
0.0
 45
0.0
 46
0.0
 47
0.0
 48
0.0
 49
0.0
140
0.0
141
0.0
142
1.0
143
1.0
 70
   688
 72
     1
 73
     0
 74
     5
  7

 75
    16
147
1.0
148
0.0
149
0.0
100
AcDbLayout
  1
Layout2
 70
     1
 71
     2
 10
0.0
 20
0.0
 11
0.0
 21
0.0
 12
0.0
 22
0.0
 32
0.0
 14
0.0
 24
0.0
 34
0.0
 15
0.0
 25
0.0
 35
0.0
146
0.0
 13
0.0
 23
0.0
 33
0.0
 16
1.0
 26
0.0
 36
0.0
 17
0.0
 27
1.0
 37
0.0
 76
     0
330
23
  0
LAYOUT
  5
22
102
{ACAD_REACTORS
330
1A
102
}
330
1A
100
AcDbPlotSettings
  1

  2
none_device
  4
Letter_(8.50_x_11.00_Inches)
  6

 40
6.35
 41
6.35
 42
6.35000508
 43
6.35000508
 44
215.9
 45
279.4
 46
0.0
 47
0.0
 48
0.0
 49
0.0
140
0.0
141
0.0
142
1.0
143
1.0
 70
  1712
 72
     1
 73
     0
 74
     0
  7

 75
     0
147
1.0
148
0.0
149
0.0
100
AcDbLayout
  1
Model
 70
     1
 71
     0
 10
0.0
 20
0.0
 11
431.8
 21
279.4
 12
0.0
 22
0.0
 32
0.0
 14
0.0
 24
0.0
 34
0.0
 15
431.8
 25
279.4
 35
0.0
146
0.0
 13
0.0
 23
0.0
 33
0.0
 16
1.0
 26
0.0
 36
0.0
 17
0.0
 27
1.0
 37
0.0
 76
     0
330
1F
331
29
  0
MLINESTYLE
  5
18
102
{ACAD_REACTORS
330
17
102
}
330
17
100
AcDbMlineStyle
  2
Standard
 70
     0
  3

 62
   256
 51
90.0
 52
90.0
 71
     2
 49
0.5
 62
   256
  6
BYLAYER
 49
-0.5
 62
   256
  6
BYLAYER
  0
ACDBPLACEHOLDER
  5
F
102
{ACAD_REACTORS
330
E
102
}
330
E
  0
SCALE
  5
48
102
{ACAD_REACTORS
330
47
102
}
330
47
100
AcDbScale
 70
     0
300
1:1
140
1.0
141
1.0
290
     1
  0
SCALE
  5
49
102
{ACAD_REACTORS
330
47
102
}
330
47
100
AcDbScale
 70
     0
300
1:2
140
1.0
141
2.0
290
     0
  0
SCALE
  5
4A
102
{ACAD_REACTORS
330
47
102
}
330
47
100
AcDbScale
 70
     0
300
1:4
140
1.0
141
4.0
290
     0
  0
SCALE
  5
4B
102
{ACAD_REACTORS
330
47
102
}
330
47
100
AcDbScale
 70
     0
300
1:5
140
1.0
141
5.0
290
     0
  0
SCALE
  5
4C
102
{ACAD_REACTORS
330
47
102
}
330
47
100
AcDbScale
 70
     0
300
1:8
140
1.0
141
8.0
290
     0
  0
SCALE
  5
4D
102
{ACAD_REACTORS
330
47
102
}
330
47
100
AcDbScale
 70
     0
300
1:10
140
1.0
141
10.0
290
     0
  0
SCALE
  5
4E
102
{ACAD_REACTORS
330
47
102
}
330
47
100
AcDbScale
 70
     0
300
1:16
140
1.0
141
16.0
290
     0
  0
SCALE
  5
4F
102
{ACAD_REACTORS
330
47
102
}
330
47
100
AcDbScale
 70
     0
300
1:20
140
1.0
141
20.0
290
     0
  0
SCALE
  5
50
102
{ACAD_REACTORS
330
47
102
}
330
47
100
AcDbScale
 70
     0
300
1:30
140
1.0
141
30.0
290
     0
  0
SCALE
  5
51
102
{ACAD_REACTORS
330
47
102
}
330
47
100
AcDbScale
 70
     0
300
1:40
140
1.0
141
40.0
290
     0
  0
SCALE
  5
52
102
{ACAD_REACTORS
330
47
102
}
330
47
100
AcDbScale
 70
     0
300
1:50
140
1.0
141
50.0
290
     0
  0
SCALE
  5
53
102
{ACAD_REACTORS
330
47
102
}
330
47
100
AcDbScale
 70
     0
300
1:100
140
1.0
141
100.0
290
     0
  0
SCALE
  5
54
102
{ACAD_REACTORS
330
47
102
}
330
47
100
AcDbScale
 70
     0
300
2:1
140
2.0
141
1.0
290
     0
  0
SCALE
  5
55
102
{ACAD_REACTORS
330
47
102
}
330
47
100
AcDbScale
 70
     0
300
4:1
140
4.0
141
1.0
290
     0
  0
SCALE
  5
56
102
{ACAD_REACTORS
330
47
102
}
330
47
100
AcDbScale
 70
     0
300
8:1
140
8.0
141
1.0
290
     0
  0
SCALE
  5
57
102
{ACAD_REACTORS
330
47
102
}
330
47
100
AcDbScale
 70
     0
300
10:1
140
10.0
141
1.0
290
     0
  0
SCALE
  5
58
102
{ACAD_REACTORS
330
47
102
}
330
47
100
AcDbScale
 70
     0
300
100:1
140
100.0
141
1.0
290
     0
  0
SCALE
  5
59
102
{ACAD_REACTORS
330
47
102
}
330
47
100
AcDbScale
 70
     0
300
1/128" = 1'-0"
140
0.0078125
141
12.0
290
     0
  0
SCALE
  5
5A
102
{ACAD_REACTORS
330
47
102
}
330
47
100
AcDbScale
 70
     0
300
1/64" = 1'-0"
140
0.015625
141
12.0
290
     0
  0
SCALE
  5
5B
102
{ACAD_REACTORS
330
47
102
}
330
47
100
AcDbScale
 70
     0
300
1/32" = 1'-0"
140
0.03125
141
12.0
290
     0
  0
SCALE
  5
5C
102
{ACAD_REACTORS
330
47
102
}
330
47
100
AcDbScale
 70
     0
300
1/16" = 1'-0"
140
0.0625
141
12.0
290
     0
  0
SCALE
  5
5D
102
{ACAD_REACTORS
330
47
102
}
330
47
100
AcDbScale
 70
     0
300
3/32" = 1'-0"
140
0.09375
141
12.0
290
     0
  0
SCALE
  5
5E
102
{ACAD_REACTORS
330
47
102
}
330
47
100
AcDbScale
 70
     0
300
1/8" = 1'-0"
140
0.125
141
12.0
290
     0
  0
SCALE
  5
5F
102
{ACAD_REACTORS
330
47
102
}
330
47
100
AcDbScale
 70
     0
300
3/16" = 1'-0"
140
0.1875
141
12.0
290
     0
  0
SCALE
  5
60
102
{ACAD_REACTORS
330
47
102
}
330
47
100
AcDbScale
 70
     0
300
1/4" = 1'-0"
140
0.25
141
12.0
290
     0
  0
SCALE
  5
61
102
{ACAD_REACTORS
330
47
102
}
330
47
100
AcDbScale
 70
     0
300
3/8" = 1'-0"
140
0.375
141
12.0
290
     0
  0
SCALE
  5
62
102
{ACAD_REACTORS
330
47
102
}
330
47
100
AcDbScale
 70
     0
300
1/2" = 1'-0"
140
0.5
141
12.0
290
     0
  0
SCALE
  5
63
102
{ACAD_REACTORS
330
47
102
}
330
47
100
AcDbScale
 70
     0
300
3/4" = 1'-0"
140
0.75
141
12.0
290
     0
  0
SCALE
  5
64
102
{ACAD_REACTORS
330
47
102
}
330
47
100
AcDbScale
 70
     0
300
1" = 1'-0"
140
1.0
141
12.0
290
     0
  0
SCALE
  5
65
102
{ACAD_REACTORS
330
47
102
}
330
47
100
AcDbScale
 70
     0
300
1-1/2" = 1'-0"
140
1.5
141
12.0
290
     0
  0
SCALE
  5
66
102
{ACAD_REACTORS
330
47
102
}
330
47
100
AcDbScale
 70
     0
300
3" = 1'-0"
140
3.0
141
12.0
290
     0
  0
SCALE
  5
67
102
{ACAD_REACTORS
330
47
102
}
330
47
100
AcDbScale
 70
     0
300
6" = 1'-0"
140
6.0
141
12.0
290
     0
  0
SCALE
  5
68
102
{ACAD_REACTORS
330
47
102
}
330
47
100
AcDbScale
 70
     0
300
1'-0" = 1'-0"
140
12.0
141
12.0
290
     0
  0
ENDSEC
  0
EOF
