  0
SECTION
  2
HEADER
  9
$ACADVER
  1
AC1015
  9
$ACADMAINTVER
 70
     6
  9
$DWGCODEPAGE
  3
ANSI_1252
  9
$INSBASE
 10
0.0
 20
0.0
 30
0.0
  9
$EXTMIN
 10
0.0
 20
0.0
 30
0.0
  9
$EXTMAX
 10
431.8
 20
279.4
 30
0.0
  9
$LIMMIN
 10
0.0
 20
0.0
  9
$LIMMAX
 10
431.8
 20
279.4
  9
$ORTHOMODE
 70
     0
  9
$REGENMODE
 70
     1
  9
$FILLMODE
 70
     1
  9
$QTEXTMODE
 70
     0
  9
$MIRRTEXT
 70
     1
  9
$LTSCALE
 40
1.0
  9
$ATTMODE
 70
     1
  9
$TEXTSIZE
 40
3.175
  9
$TRACEWID
 40
1.0
  9
$TEXTSTYLE
  7
Standard
  9
$CLAYER
  8
0
  9
$CELTYPE
  6
ByLayer
  9
$CECOLOR
 62
   256
  9
$CELTSCALE
 40
1.0
  9
$DISPSILH
 70
     0
  9
$DIMSCALE
 40
1.0
  9
$DIMASZ
 40
3.302
  9
$DIMEXO
 40
1.27
  9
$DIMDLI
 40
3.75
  9
$DIMRND
 40
0.0
  9
$DIMDLE
 40
0.0
  9
$DIMEXE
 40
3.175
  9
$DIMTP
 40
0.0
  9
$DIMTM
 40
0.0
  9
$DIMTXT
 40
3.175
  9
$DIMCEN
 40
2.5
  9
$DIMTSZ
 40
0.0
  9
$DIMTOL
 70
     0
  9
$DIMLIM
 70
     0
  9
$DIMTIH
 70
     1
  9
$DIMTOH
 70
     1
  9
$DIMSE1
 70
     0
  9
$DIMSE2
 70
     0
  9
$DIMTAD
 70
     0
  9
$DIMZIN
 70
     0
  9
$DIMBLK
  1

  9
$DIMASO
 70
     1
  9
$DIMSHO
 70
     1
  9
$DIMPOST
  1

  9
$DIMAPOST
  1

  9
$DIMALT
 70
     0
  9
$DIMALTD
 70
     3
  9
$DIMALTF
 40
0.0393700787
  9
$DIMLFAC
 40
10.0
  9
$DIMTOFL
 70
     1
  9
$DIMTVP
 40
0.0
  9
$DIMTIX
 70
     0
  9
$DIMSOXD
 70
     0
  9
$DIMSAH
 70
     0
  9
$DIMBLK1
  1

  9
$DIMBLK2
  1

  9
$DIMSTYLE
  2
ISO-25
  9
$DIMCLRD
 70
     0
  9
$DIMCLRE
 70
     0
  9
$DIMCLRT
 70
     0
  9
$DIMTFAC
 40
1.0
  9
$DIMGAP
 40
1.524
  9
$DIMJUST
 70
     0
  9
$DIMSD1
 70
     0
  9
$DIMSD2
 70
     0
  9
$DIMTOLJ
 70
     0
  9
$DIMTZIN
 70
     0
  9
$DIMALTZ
 70
     0
  9
$DIMALTTZ
 70
     0
  9
$DIMUPT
 70
     0
  9
$DIMDEC
 70
     0
  9
$DIMTDEC
 70
     0
  9
$DIMALTU
 70
     2
  9
$DIMALTTD
 70
     3
  9
$DIMTXSTY
  7
Standard
  9
$DIMAUNIT
 70
     0
  9
$DIMADEC
 70
     0
  9
$DIMALTRND
 40
0.0
  9
$DIMAZIN
 70
     0
  9
$DIMDSEP
 70
    44
  9
$DIMATFIT
 70
     3
  9
$DIMFRAC
 70
     0
  9
$DIMLDRBLK
  1

  9
$DIMLUNIT
 70
     2
  9
$DIMLWD
 70
    -2
  9
$DIMLWE
 70
    -2
  9
$DIMTMOVE
 70
     0
  9
$LUNITS
 70
     2
  9
$LUPREC
 70
     2
  9
$SKETCHINC
 40
1.0
  9
$FILLETRAD
 40
10.0
  9
$AUNITS
 70
     0
  9
$AUPREC
 70
     2
  9
$MENU
  1
.
  9
$ELEVATION
 40
0.0
  9
$PELEVATION
 40
0.0
  9
$THICKNESS
 40
0.0
  9
$LIMCHECK
 70
     0
  9
$CHAMFERA
 40
0.0
  9
$CHAMFERB
 40
0.0
  9
$CHAMFERC
 40
0.0
  9
$CHAMFERD
 40
0.0
  9
$SKPOLY
 70
     0
  9
$TDCREATE
 40
2458681.61348235
  9
$TDUCREATE
 40
2458681.780149016
  9
$TDUPDATE
 40
2458681.613483229
  9
$TDUUPDATE
 40
2458681.780149896
  9
$TDINDWG
 40
0.0000000116
  9
$TDUSRTIMER
 40
0.0000000116
  9
$USRTIMER
 70
     1
  9
$ANGBASE
 50
0.0
  9
$ANGDIR
 70
     0
  9
$PDMODE
 70
     0
  9
$PDSIZE
 40
-1.0
  9
$PLINEWID
 40
0.0
  9
$SPLFRAME
 70
     0
  9
$SPLINETYPE
 70
     6
  9
$SPLINESEGS
 70
     8
  9
$HANDSEED
  5
163
  9
$SURFTAB1
 70
     6
  9
$SURFTAB2
 70
     6
  9
$SURFTYPE
 70
     6
  9
$SURFU
 70
     6
  9
$SURFV
 70
     6
  9
$UCSBASE
  2

  9
$UCSNAME
  2

  9
$UCSORG
 10
0.0
 20
0.0
 30
0.0
  9
$UCSXDIR
 10
1.0
 20
0.0
 30
0.0
  9
$UCSYDIR
 10
0.0
 20
1.0
 30
0.0
  9
$UCSORTHOREF
  2

  9
$UCSORTHOVIEW
 70
     0
  9
$UCSORGTOP
 10
0.0
 20
0.0
 30
0.0
  9
$UCSORGBOTTOM
 10
0.0
 20
0.0
 30
0.0
  9
$UCSORGLEFT
 10
0.0
 20
0.0
 30
0.0
  9
$UCSORGRIGHT
 10
0.0
 20
0.0
 30
0.0
  9
$UCSORGFRONT
 10
0.0
 20
0.0
 30
0.0
  9
$UCSORGBACK
 10
0.0
 20
0.0
 30
0.0
  9
$PUCSBASE
  2

  9
$PUCSNAME
  2

  9
$PUCSORG
 10
0.0
 20
0.0
 30
0.0
  9
$PUCSXDIR
 10
1.0
 20
0.0
 30
0.0
  9
$PUCSYDIR
 10
0.0
 20
1.0
 30
0.0
  9
$PUCSORTHOREF
  2

  9
$PUCSORTHOVIEW
 70
     0
  9
$PUCSORGTOP
 10
0.0
 20
0.0
 30
0.0
  9
$PUCSORGBOTTOM
 10
0.0
 20
0.0
 30
0.0
  9
$PUCSORGLEFT
 10
0.0
 20
0.0
 30
0.0
  9
$PUCSORGRIGHT
 10
0.0
 20
0.0
 30
0.0
  9
$PUCSORGFRONT
 10
0.0
 20
0.0
 30
0.0
  9
$PUCSORGBACK
 10
0.0
 20
0.0
 30
0.0
  9
$USERI1
 70
     0
  9
$USERI2
 70
     0
  9
$USERI3
 70
     0
  9
$USERI4
 70
     0
  9
$USERI5
 70
     0
  9
$USERR1
 40
0.0
  9
$USERR2
 40
0.0
  9
$USERR3
 40
0.0
  9
$USERR4
 40
0.0
  9
$USERR5
 40
0.0
  9
$WORLDVIEW
 70
     1
  9
$SHADEDGE
 70
     3
  9
$SHADEDIF
 70
    70
  9
$TILEMODE
 70
     1
  9
$MAXACTVP
 70
    64
  9
$PINSBASE
 10
0.0
 20
0.0
 30
0.0
  9
$PLIMCHECK
 70
     0
  9
$PEXTMIN
 10
1.0000000000E+20
 20
1.0000000000E+20
 30
1.0000000000E+20
  9
$PEXTMAX
 10
-1.0000000000E+20
 20
-1.0000000000E+20
 30
-1.0000000000E+20
  9
$PLIMMIN
 10
0.0
 20
0.0
  9
$PLIMMAX
 10
420.0
 20
297.0
  9
$UNITMODE
 70
     0
  9
$VISRETAIN
 70
     1
  9
$PLINEGEN
 70
     0
  9
$PSLTSCALE
 70
     1
  9
$TREEDEPTH
 70
  3020
  9
$CMLSTYLE
  2
Standard
  9
$CMLJUST
 70
     0
  9
$CMLSCALE
 40
20.0
  9
$PROXYGRAPHICS
 70
     1
  9
$MEASUREMENT
 70
     1
  9
$CELWEIGHT
370
    -1
  9
$ENDCAPS
280
     0
  9
$JOINSTYLE
280
     0
  9
$LWDISPLAY
290
     1
  9
$INSUNITS
 70
     4
  9
$HYPERLINKBASE
  1

  9
$STYLESHEET
  1

  9
$XEDIT
290
     1
  9
$CEPSNTYPE
380
     0
  9
$PSTYLEMODE
290
     1
  9
$FINGERPRINTGUID
  2
{3C5580F0-1850-4C87-B1A7-FDD1674A1D8F}
  9
$VERSIONGUID
  2
{FAEB1C32-E019-11D5-929B-00C0DF256EC4}
  9
$EXTNAMES
290
     1
  9
$PSVPSCALE
 40
0.0
  9
$OLESTARTUP
290
     0
  0
ENDSEC
  0
SECTION
  2
CLASSES
  0
CLASS
  1
ACDBDICTIONARYWDFLT
  2
AcDbDictionaryWithDefault
  3
ObjectDBX Classes
 90
        0
280
     0
281
     0
  0
CLASS
  1
VISUALSTYLE
  2
AcDbVisualStyle
  3
ObjectDBX Classes
 90
     4095
280
     0
281
     0
  0
CLASS
  1
MATERIAL
  2
AcDbMaterial
  3
ObjectDBX Classes
 90
     1153
280
     0
281
     0
  0
CLASS
  1
SCALE
  2
AcDbScale
  3
ObjectDBX Classes
 90
     1153
280
     0
281
     0
  0
CLASS
  1
TABLESTYLE
  2
AcDbTableStyle
  3
ObjectDBX Classes
 90
     4095
280
     0
281
     0
  0
CLASS
  1
MLEADERSTYLE
  2
AcDbMLeaderStyle
  3
ACDB_MLEADERSTYLE_CLASS
 90
     4095
280
     0
281
     0
  0
CLASS
  1
SUN
  2
AcDbSun
  3
SCENEOE
 90
     1153
280
     0
281
     0
  0
CLASS
  1
ACDBPLACEHOLDER
  2
AcDbPlaceHolder
  3
ObjectDBX Classes
 90
        0
280
     0
281
     0
  0
CLASS
  1
LAYOUT
  2
AcDbLayout
  3
ObjectDBX Classes
 90
        0
280
     0
281
     0
  0
ENDSEC
  0
SECTION
  2
TABLES
  0
TABLE
  2
VPORT
  5
8
330
0
100
AcDbSymbolTable
 70
     1
  0
VPORT
  5
29
330
8
100
AcDbSymbolTableRecord
100
AcDbViewportTableRecord
  2
*Active
 70
     0
 10
0.0
 20
0.0
 11
1.0
 21
1.0
 12
215.9
 22
139.7
 13
0.0
 23
0.0
 14
10.0
 24
10.0
 15
10.0
 25
10.0
 16
0.0
 26
0.0
 36
1.0
 17
0.0
 27
0.0
 37
0.0
 40
279.4
 41
1.5454545455
 42
50.0
 43
0.0
 44
0.0
 50
0.0
 51
0.0
 71
     0
 72
  2000
 73
     1
 74
     3
 75
     0
 76
     0
 77
     0
 78
     0
281
     0
 65
     1
110
0.0
120
0.0
130
0.0
111
1.0
121
0.0
131
0.0
112
0.0
122
1.0
132
0.0
 79
     0
146
0.0
  0
ENDTAB
  0
TABLE
  2
LTYPE
  5
5
330
0
100
AcDbSymbolTable
 70
     6
  0
LTYPE
  5
14
330
5
100
AcDbSymbolTableRecord
100
AcDbLinetypeTableRecord
  2
ByBlock
 70
     0
  3

 72
    65
 73
     0
 40
0.0
  0
LTYPE
  5
15
330
5
100
AcDbSymbolTableRecord
100
AcDbLinetypeTableRecord
  2
ByLayer
 70
     0
  3

 72
    65
 73
     0
 40
0.0
  0
LTYPE
  5
16
330
5
100
AcDbSymbolTableRecord
100
AcDbLinetypeTableRecord
  2
Continuous
 70
     0
  3
Solid line
 72
    65
 73
     0
 40
0.0
  0
LTYPE
  5
6E
330
5
100
AcDbSymbolTableRecord
100
AcDbLinetypeTableRecord
  2
HIDDEN
 70
     0
  3
Hidden __ __ __ __ __ __ __ __ __ __ __ __ __ __
 72
    65
 73
     2
 40
1.905
 49
1.27
 74
     0
 49
-0.635
 74
     0
  0
LTYPE
  5
6F
330
5
100
AcDbSymbolTableRecord
100
AcDbLinetypeTableRecord
  2
PHANTOM
 70
     0
  3
Phantom ______  __  __  ______  __  __  ______
 72
    65
 73
     6
 40
12.7
 49
6.35
 74
     0
 49
-1.27
 74
     0
 49
1.27
 74
     0
 49
-1.27
 74
     0
 49
1.27
 74
     0
 49
-1.27
 74
     0
  0
LTYPE
  5
70
330
5
100
AcDbSymbolTableRecord
100
AcDbLinetypeTableRecord
  2
CENTER
 70
     0
  3
Center ____ _ ____ _ ____ _ ____ _ ____ _ ____
 72
    65
 73
     4
 40
10.16
 49
6.35
 74
     0
 49
-1.27
 74
     0
 49
1.27
 74
     0
 49
-1.27
 74
     0
  0
LTYPE
  5
71
330
5
100
AcDbSymbolTableRecord
100
AcDbLinetypeTableRecord
  2
CENTERX2
 70
     0
  3
Center (2x) ________  __  ________  __  _____
 72
    65
 73
     4
 40
20.32
 49
12.7
 74
     0
 49
-2.54
 74
     0
 49
2.54
 74
     0
 49
-2.54
 74
     0
  0
LTYPE
  5
72
330
5
100
AcDbSymbolTableRecord
100
AcDbLinetypeTableRecord
  2
DOT2
 70
     0
  3
Dot (.5x) ........................................
 72
    65
 73
     2
 40
0.635
 49
0.0
 74
     0
 49
-0.635
 74
     0
  0
ENDTAB
  0
TABLE
  2
LAYER
  5
2
330
0
100
AcDbSymbolTable
 70
     2
  0
LAYER
  5
10
330
2
100
AcDbSymbolTableRecord
100
AcDbLayerTableRecord
  2
0
 70
     0
 62
     7
  6
Continuous
370
    -3
390
F
  0
LAYER
  5
73
330
2
100
AcDbSymbolTableRecord
100
AcDbLayerTableRecord
  2
FORMAT
 70
     0
 62
     7
  6
Continuous
370
    -3
390
F
  0
ENDTAB
  0
TABLE
  2
STYLE
  5
3
330
0
100
AcDbSymbolTable
 70
     2
  0
STYLE
  5
11
330
3
100
AcDbSymbolTableRecord
100
AcDbTextStyleTableRecord
  2
Standard
 70
     0
 40
0.0
 41
1.0
 50
0.0
 71
     0
 42
3.175
  3
txt
  4

  0
STYLE
  5
B8
330
3
100
AcDbSymbolTableRecord
100
AcDbTextStyleTableRecord
  2
SLDTEXTSTYLE0
 70
     0
 40
0.0
 41
0.7
 50
0.0
 71
     0
 42
3.175
  3
TXT
  4

  0
ENDTAB
  0
TABLE
  2
VIEW
  5
6
330
0
100
AcDbSymbolTable
 70
     0
  0
ENDTAB
  0
TABLE
  2
UCS
  5
7
330
0
100
AcDbSymbolTable
 70
     0
  0
ENDTAB
  0
TABLE
  2
APPID
  5
9
330
0
100
AcDbSymbolTable
 70
     1
  0
APPID
  5
12
330
9
100
AcDbSymbolTableRecord
100
AcDbRegAppTableRecord
  2
ACAD
 70
     0
  0
ENDTAB
  0
TABLE
  2
DIMSTYLE
  5
A
330
0
100
AcDbSymbolTable
 70
     1
100
AcDbDimStyleTable
  0
DIMSTYLE
105
27
330
A
100
AcDbSymbolTableRecord
100
AcDbDimStyleTableRecord
  2
ISO-25
 70
     0
 41
2.5
 42
0.625
 43
3.75
 44
1.25
 73
     0
 74
     0
 77
     1
 78
     8
140
2.5
141
2.5
143
0.0393700787
147
0.625
171
     3
172
     1
178
     0
271
     2
272
     2
274
     3
278
    44
283
     0
284
     8
340
11
  0
ENDTAB
  0
TABLE
  2
BLOCK_RECORD
  5
1
330
0
100
AcDbSymbolTable
 70
     5
  0
BLOCK_RECORD
  5
1F
330
1
100
AcDbSymbolTableRecord
100
AcDbBlockTableRecord
  2
*Model_Space
340
22
  0
BLOCK_RECORD
  5
1B
330
1
100
AcDbSymbolTableRecord
100
AcDbBlockTableRecord
  2
*Paper_Space
340
1E
  0
BLOCK_RECORD
  5
23
330
1
100
AcDbSymbolTableRecord
100
AcDbBlockTableRecord
  2
*Paper_Space0
340
26
  0
BLOCK_RECORD
  5
BB
330
1
100
AcDbSymbolTableRecord
100
AcDbBlockTableRecord
  2
SW_NOTE_0
340
0
102
{BLKREFS
331
C1
102
}
  0
BLOCK_RECORD
  5
C6
330
1
100
AcDbSymbolTableRecord
100
AcDbBlockTableRecord
  2
SW_NOTE_1
340
0
102
{BLKREFS
331
CC
102
}
  0
BLOCK_RECORD
  5
E9
330
1
100
AcDbSymbolTableRecord
100
AcDbBlockTableRecord
  2
SW_CENTERMARKSYMBOL_0
340
0
102
{BLKREFS
331
F4
102
}
  0
BLOCK_RECORD
  5
128
330
1
100
AcDbSymbolTableRecord
100
AcDbBlockTableRecord
  2
SW_CENTERMARKSYMBOL_1
340
0
102
{BLKREFS
331
133
102
}
  0
ENDTAB
  0
ENDSEC
  0
SECTION
  2
BLOCKS
  0
BLOCK
  5
20
330
1F
100
AcDbEntity
  8
0
100
AcDbBlockBegin
  2
*Model_Space
 70
     0
 10
0.0
 20
0.0
 30
0.0
  3
*Model_Space
  1

  0
ENDBLK
  5
21
330
1F
100
AcDbEntity
  8
0
100
AcDbBlockEnd
  0
BLOCK
  5
1C
330
1B
100
AcDbEntity
 67
     1
  8
0
100
AcDbBlockBegin
  2
*Paper_Space
 70
     0
 10
0.0
 20
0.0
 30
0.0
  3
*Paper_Space
  1

  0
ENDBLK
  5
1D
330
1B
100
AcDbEntity
 67
     1
  8
0
100
AcDbBlockEnd
  0
BLOCK
  5
24
330
23
100
AcDbEntity
  8
0
100
AcDbBlockBegin
  2
*Paper_Space0
 70
     0
 10
0.0
 20
0.0
 30
0.0
  3
*Paper_Space0
  1

  0
ENDBLK
  5
25
330
23
100
AcDbEntity
  8
0
100
AcDbBlockEnd
  0
BLOCK
  5
BC
330
BB
100
AcDbEntity
  8
0
100
AcDbBlockBegin
  2
SW_NOTE_0
 70
     0
 10
0.0
 20
0.0
 30
0.0
  3
SW_NOTE_0
  1

  0
MTEXT
  5
BE
330
BB
100
AcDbEntity
  8
0
  6
Continuous
 62
     0
370
     0
100
AcDbMText
 10
0.0
 20
2.0463950369
 30
0.0
 40
1.5875
 41
0.0
 71
     1
 72
     1
  1
87 34th Street, Unit 11, Brooklyn, NY 11232
  7
SLDTEXTSTYLE0
 73
     1
 44
1.0
  0
MTEXT
  5
BF
330
BB
100
AcDbEntity
  8
0
  6
Continuous
 62
     0
370
     0
100
AcDbMText
 10
0.0
 20
-0.0702716042
 30
0.0
 40
1.5875
 41
0.0
 71
     1
 72
     1
  1
T +1 718-387-6132
  7
SLDTEXTSTYLE0
 73
     1
 44
1.0
  0
MTEXT
  5
C0
330
BB
100
AcDbEntity
  8
0
  6
Continuous
 62
     0
370
     0
100
AcDbMText
 10
0.0
 20
-2.1869382453
 30
0.0
 40
1.5875
 41
0.0
 71
     1
 72
     1
  1
www.rollandhill.com
  7
SLDTEXTSTYLE0
 73
     1
 44
1.0
  0
ENDBLK
  5
BD
330
BB
100
AcDbEntity
  8
0
100
AcDbBlockEnd
  0
BLOCK
  5
C7
330
C6
100
AcDbEntity
  8
0
100
AcDbBlockBegin
  2
SW_NOTE_1
 70
     0
 10
0.0
 20
0.0
 30
0.0
  3
SW_NOTE_1
  1

  0
MTEXT
  5
C9
330
C6
100
AcDbEntity
  8
0
  6
Continuous
 62
     0
370
     0
100
AcDbMText
 10
0.0
 20
2.0463950369
 30
0.0
 40
1.5875
 41
0.0
 71
     1
 72
     1
  1
\LPROPRIETARY AND CONFIDENTIAL
  7
SLDTEXTSTYLE0
 73
     1
 44
1.0
  0
MTEXT
  5
CA
330
C6
100
AcDbEntity
  8
0
  6
Continuous
 62
     0
370
     0
100
AcDbMText
 10
37.3117625713
 20
2.0463950369
 30
0.0
 40
1.5875
 41
0.0
 71
     1
 72
     1
  1
THE INFORMATION CONTAINED IN THIS DRAWING IS THE SOLE PROPERTY OF ROLL & HILL LLC. ANY REPRODUCTION IN
  7
SLDTEXTSTYLE0
 73
     1
 44
1.0
  0
MTEXT
  5
CB
330
C6
100
AcDbEntity
  8
0
  6
Continuous
 62
     0
370
     0
100
AcDbMText
 10
0.0
 20
-0.0702716042
 30
0.0
 40
1.5875
 41
0.0
 71
     1
 72
     1
  1
PART OR AS A WHOLE WITHOUT THE WRITTEN PERMISSION OF ROLL & HILL LLC. IS PROHIBITED.
  7
SLDTEXTSTYLE0
 73
     1
 44
1.0
  0
ENDBLK
  5
C8
330
C6
100
AcDbEntity
  8
0
100
AcDbBlockEnd
  0
BLOCK
  5
EA
330
E9
100
AcDbEntity
  8
0
100
AcDbBlockBegin
  2
SW_CENTERMARKSYMBOL_0
 70
     0
 10
0.0
 20
0.0
 30
0.0
  3
SW_CENTERMARKSYMBOL_0
  1

  0
LINE
  5
EC
330
E9
100
AcDbEntity
  8
0
  6
Continuous
 62
     0
370
     0
100
AcDbLine
 10
0.0
 20
0.0
 30
0.0
 11
0.0
 21
0.254
 31
0.0
  0
LINE
  5
ED
330
E9
100
AcDbEntity
  8
0
  6
Continuous
 62
     0
370
     0
100
AcDbLine
 10
0.0
 20
0.0
 30
0.0
 11
-0.254
 21
0.0
 31
0.0
  0
LINE
  5
EE
330
E9
100
AcDbEntity
  8
0
  6
Continuous
 62
     0
370
     0
100
AcDbLine
 10
0.0
 20
0.0
 30
0.0
 11
0.0
 21
-0.254
 31
0.0
  0
LINE
  5
EF
330
E9
100
AcDbEntity
  8
0
  6
Continuous
 62
     0
370
     0
100
AcDbLine
 10
0.0
 20
0.0
 30
0.0
 11
0.254
 21
0.0
 31
0.0
  0
LINE
  5
F0
330
E9
100
AcDbEntity
  8
0
  6
Continuous
 62
     0
370
     0
100
AcDbLine
 10
0.0
 20
0.508
 30
0.0
 11
0.0
 21
1.8415
 31
0.0
  0
LINE
  5
F1
330
E9
100
AcDbEntity
  8
0
  6
Continuous
 62
     0
370
     0
100
AcDbLine
 10
-0.508
 20
0.0
 30
0.0
 11
-1.8415
 21
0.0
 31
0.0
  0
LINE
  5
F2
330
E9
100
AcDbEntity
  8
0
  6
Continuous
 62
     0
370
     0
100
AcDbLine
 10
0.0
 20
-0.508
 30
0.0
 11
0.0
 21
-1.8415
 31
0.0
  0
LINE
  5
F3
330
E9
100
AcDbEntity
  8
0
  6
Continuous
 62
     0
370
     0
100
AcDbLine
 10
0.508
 20
0.0
 30
0.0
 11
1.8415
 21
0.0
 31
0.0
  0
ENDBLK
  5
EB
330
E9
100
AcDbEntity
  8
0
100
AcDbBlockEnd
  0
BLOCK
  5
129
330
128
100
AcDbEntity
  8
0
100
AcDbBlockBegin
  2
SW_CENTERMARKSYMBOL_1
 70
     0
 10
0.0
 20
0.0
 30
0.0
  3
SW_CENTERMARKSYMBOL_1
  1

  0
LINE
  5
12B
330
128
100
AcDbEntity
  8
0
  6
Continuous
 62
     0
370
     0
100
AcDbLine
 10
0.0
 20
0.0
 30
0.0
 11
0.0
 21
0.254
 31
0.0
  0
LINE
  5
12C
330
128
100
AcDbEntity
  8
0
  6
Continuous
 62
     0
370
     0
100
AcDbLine
 10
0.0
 20
0.0
 30
0.0
 11
-0.254
 21
0.0
 31
0.0
  0
LINE
  5
12D
330
128
100
AcDbEntity
  8
0
  6
Continuous
 62
     0
370
     0
100
AcDbLine
 10
0.0
 20
0.0
 30
0.0
 11
0.0
 21
-0.254
 31
0.0
  0
LINE
  5
12E
330
128
100
AcDbEntity
  8
0
  6
Continuous
 62
     0
370
     0
100
AcDbLine
 10
0.0
 20
0.0
 30
0.0
 11
0.254
 21
0.0
 31
0.0
  0
LINE
  5
12F
330
128
100
AcDbEntity
  8
0
  6
Continuous
 62
     0
370
     0
100
AcDbLine
 10
0.0
 20
0.508
 30
0.0
 11
0.0
 21
4.064
 31
0.0
  0
LINE
  5
130
330
128
100
AcDbEntity
  8
0
  6
Continuous
 62
     0
370
     0
100
AcDbLine
 10
-0.508
 20
0.0
 30
0.0
 11
-4.064
 21
0.0
 31
0.0
  0
LINE
  5
131
330
128
100
AcDbEntity
  8
0
  6
Continuous
 62
     0
370
     0
100
AcDbLine
 10
0.0
 20
-0.508
 30
0.0
 11
0.0
 21
-4.064
 31
0.0
  0
LINE
  5
132
330
128
100
AcDbEntity
  8
0
  6
Continuous
 62
     0
370
     0
100
AcDbLine
 10
0.508
 20
0.0
 30
0.0
 11
4.064
 21
0.0
 31
0.0
  0
ENDBLK
  5
12A
330
128
100
AcDbEntity
  8
0
100
AcDbBlockEnd
  0
ENDSEC
  0
SECTION
  2
ENTITIES
  0
HATCH
  5
74
330
1F
100
AcDbEntity
  8
0
  6
Continuous
 62
     7
100
AcDbHatch
 10
0.0
 20
0.0
 30
0.0
210
0.0
220
0.0
230
1.0
  2
SOLID
 70
     1
 71
     0
 91
        2
 92
        0
 93
        6
 72
     4
 94
        3
 73
     1
 74
     0
 95
       20
 96
       16
 40
0.0
 40
0.0
 40
0.0
 40
0.0
 40
1.0
 40
1.0
 40
1.0
 40
2.0
 40
2.0
 40
2.0
 40
3.0
 40
3.0
 40
3.0
 40
4.0
 40
4.0
 40
4.0
 40
5.0
 40
5.0
 40
5.0
 40
5.0
 10
261.0219043336847
 20
23.63056361828031
 42
1.0
 10
261.2341319795987
 20
23.68742184709604
 42
1.0
 10
261.3945785321864
 20
23.72473719781129
 42
1.0
 10
261.5515161764629
 20
23.77337299628437
 42
1.0
 10
262.5617362220245
 20
24.08644572151765
 42
1.0
 10
262.9966382899503
 20
24.76217905347502
 42
1.0
 10
262.9131259646454
 20
25.88395655371281
 42
1.0
 10
262.8488620904764
 20
26.74717259793779
 42
1.0
 10
262.3071445332423
 20
27.30037799580671
 42
1.0
 10
261.2989762515715
 20
27.40941936834727
 42
1.0
 10
260.5093946232761
 20
27.49481913962259
 42
1.0
 10
259.7094699986221
 20
27.48819126576296
 42
1.0
 10
258.913837050576
 20
27.51251762112626
 42
1.0
 10
258.5159962651877
 20
27.52468175973202
 42
1.0
 10
258.1174764912431
 20
27.51463645747964
 42
1.0
 10
257.7192638284546
 20
27.51463645747964
 42
1.0
 72
     4
 94
        3
 73
     1
 74
     0
 95
       14
 96
       10
 40
17.0
 40
17.0
 40
17.0
 40
17.0
 40
18.0
 40
18.0
 40
18.0
 40
19.0
 40
19.0
 40
19.0
 40
20.0
 40
20.0
 40
20.0
 40
20.0
 10
257.7192638284546
 20
27.51463645747964
 42
1.0
 10
258.2057453879524
 20
27.36893835120056
 42
1.0
 10
258.4151924094879
 20
27.04153921726714
 42
1.0
 10
258.4151320634913
 20
26.55729487989966
 42
1.0
 10
258.4149081683119
 20
24.76100595804667
 42
1.0
 10
258.4191609275175
 20
22.96470127704905
 42
1.0
 10
258.4124688639662
 20
21.16843695483816
 42
1.0
 10
258.4104423723632
 20
20.62446660851326
 42
1.0
 10
258.2139995287706
 20
20.39587059142628
 42
1.0
 10
257.7053577757453
 20
20.25910042553502
 42
1.0
 72
     1
 10
257.7053577757453
 20
20.25910042553502
 11
260.1134120717832
 21
20.25910042553502
 72
     4
 94
        3
 73
     1
 74
     0
 95
       14
 96
       10
 40
13.0
 40
13.0
 40
13.0
 40
13.0
 40
14.0
 40
14.0
 40
14.0
 40
15.0
 40
15.0
 40
15.0
 40
16.0
 40
16.0
 40
16.0
 40
16.0
 10
260.1134120717832
 20
20.25910042553502
 42
1.0
 10
259.6377614656041
 20
20.40079128856704
 42
1.0
 10
259.4435911100346
 20
20.64162793377141
 42
1.0
 10
259.4408326829897
 20
21.14221143023692
 42
1.0
 10
259.4366701545022
 20
21.89763799307775
 42
1.0
 10
259.4392191002215
 20
22.65310606781492
 42
1.0
 10
259.4405559370167
 20
23.40855338660287
 42
1.0
 10
259.4406539512153
 20
23.46398560492077
 42
1.0
 10
259.4539911852495
 20
23.51939476107442
 42
1.0
 10
259.4607286043899
 20
23.57138302951071
 42
1.0
 72
     4
 94
        3
 73
     1
 74
     0
 95
       20
 96
       16
 40
8.0
 40
8.0
 40
8.0
 40
8.0
 40
9.0
 40
9.0
 40
9.0
 40
10.0
 40
10.0
 40
10.0
 40
11.0
 40
11.0
 40
11.0
 40
12.0
 40
12.0
 40
12.0
 40
13.0
 40
13.0
 40
13.0
 40
13.0
 10
259.4607286043899
 20
23.57138302951071
 42
1.0
 10
260.3725694925604
 20
23.65083910446931
 42
1.0
 10
260.6054131759577
 20
23.52556773374194
 42
1.0
 10
261.0037355762117
 20
22.71920223094413
 42
1.0
 10
261.378026816807
 20
21.9614848264415
 42
1.0
 10
261.7451764738302
 20
21.200166649339
 42
1.0
 10
262.1067370153144
 20
20.43629933433309
 42
1.0
 10
262.1765046750147
 20
20.28890135435546
 42
1.0
 10
262.2549406335689
 20
20.22203337745712
 42
1.0
 10
262.427398730108
 20
20.22724465786873
 42
1.0
 10
262.8718696744063
 20
20.24067529366942
 42
1.0
 10
263.3170171088603
 20
20.2311736819415
 42
1.0
 10
263.7618904879274
 20
20.2323936704376
 42
1.0
 10
263.8264337986554
 20
20.23257048036439
 42
1.0
 10
263.8909540472192
 20
20.24131411562171
 42
1.0
 10
263.9554858268652
 20
20.24609336482204
 42
1.0
 72
     4
 94
        3
 73
     1
 74
     0
 95
       14
 96
       10
 40
5.0
 40
5.0
 40
5.0
 40
5.0
 40
6.0
 40
6.0
 40
6.0
 40
7.0
 40
7.0
 40
7.0
 40
8.0
 40
8.0
 40
8.0
 40
8.0
 10
263.9554858268652
 20
20.24609336482204
 42
1.0
 10
263.5606000734738
 20
20.32757122285868
 42
1.0
 10
263.3178377375433
 20
20.57267359973515
 42
1.0
 10
263.1292772534607
 20
20.88520667032095
 42
1.0
 10
262.8739775562312
 20
21.30835818112304
 42
1.0
 10
262.6276890153665
 20
21.7369354504649
 42
1.0
 10
262.3739921385617
 20
22.16106556577572
 42
1.0
 10
262.033208300972
 20
22.73079019980925
 42
1.0
 10
261.7521543160346
 20
23.35408286053947
 42
1.0
 10
261.0219043336847
 20
23.63056361828031
 42
1.0
 97
        0
 92
        0
 93
        2
 72
     1
 10
259.4558811296203
 20
23.74052094311722
 11
259.4558811296203
 21
27.35855230546976
 72
     4
 94
        3
 73
     1
 74
     0
 95
       20
 96
       16
 40
1.0
 40
1.0
 40
1.0
 40
1.0
 40
2.0
 40
2.0
 40
2.0
 40
3.0
 40
3.0
 40
3.0
 40
4.0
 40
4.0
 40
4.0
 40
5.0
 40
5.0
 40
5.0
 40
6.0
 40
6.0
 40
6.0
 40
6.0
 10
259.4558811296203
 20
27.35855230546976
 42
1.0
 10
259.8103733099057
 20
27.35855230546976
 42
1.0
 10
260.1467440101549
 20
27.38072599997261
 42
1.0
 10
260.4792308497364
 20
27.35420547185249
 42
1.0
 10
261.3230227860075
 20
27.28690123567825
 42
1.0
 10
261.7108519014664
 20
26.95476897687368
 42
1.0
 10
261.8164781518313
 20
26.10478869315943
 42
1.0
 10
261.8719876284001
 20
25.65810454981779
 42
1.0
 10
261.8389787525148
 20
25.18024881635489
 42
1.0
 10
261.7413862071132
 20
24.73962656292206
 42
1.0
 10
261.608259863196
 20
24.13857044109259
 42
1.0
 10
261.1506181168165
 20
23.81517009427841
 42
1.0
 10
260.5489927438957
 20
23.74778168120397
 42
1.0
 10
260.1942113256325
 20
23.70804326575078
 42
1.0
 10
259.8313410453958
 20
23.74052094311722
 42
1.0
 10
259.4558811296203
 20
23.74052094311722
 42
1.0
 97
        0
 75
     0
 76
     1
 98
        1
 10
0.0
 20
0.0
  0
HATCH
  5
75
330
1F
100
AcDbEntity
  8
0
  6
Continuous
 62
     7
100
AcDbHatch
 10
0.0
 20
0.0
 30
0.0
210
0.0
220
0.0
230
1.0
  2
SOLID
 70
     1
 71
     0
 91
        2
 92
        0
 93
        2
 72
     4
 94
        3
 73
     1
 74
     0
 95
       14
 96
       10
 40
0.0
 40
0.0
 40
0.0
 40
0.0
 40
1.0
 40
1.0
 40
1.0
 40
2.0
 40
2.0
 40
2.0
 40
3.0
 40
3.0
 40
3.0
 40
3.0
 10
267.2336118279071
 20
20.23490821509466
 42
1.0
 10
268.1650050112285
 20
19.98240211471103
 42
1.0
 10
269.1482911393735
 20
20.33660467264827
 42
1.0
 10
269.7215189161771
 20
21.13111084177937
 42
1.0
 10
270.3723808569537
 20
22.03321892002499
 42
1.0
 10
270.372934348899
 20
23.32205720159637
 42
1.0
 10
269.7103360726668
 20
24.21398909980579
 42
1.0
 10
269.2464106552308
 20
24.83848445240961
 42
1.0
 10
268.6216197225536
 20
25.16033694362372
 42
1.0
 10
267.7758432870376
 20
25.16748813643033
 42
1.0
 72
     4
 94
        3
 73
     1
 74
     0
 95
       14
 96
       10
 40
3.0
 40
3.0
 40
3.0
 40
3.0
 40
4.0
 40
4.0
 40
4.0
 40
5.0
 40
5.0
 40
5.0
 40
6.0
 40
6.0
 40
6.0
 40
6.0
 10
267.7758432870376
 20
25.16748813643033
 42
1.0
 10
266.9062728477855
 20
25.1505801106106
 42
1.0
 10
266.225828300013
 20
24.723612195973
 42
1.0
 10
265.7739382574312
 20
23.92202056120339
 42
1.0
 10
265.4879189885011
 20
23.41465794151554
 42
1.0
 10
265.4259332718035
 20
22.86561853145873
 42
1.0
 10
265.4837047623288
 20
22.29272284982232
 42
1.0
 10
265.5792320909092
 20
21.34541139190241
 42
1.0
 10
266.3034040398354
 20
20.48709452013179
 42
1.0
 10
267.2336118279071
 20
20.23490821509466
 42
1.0
 97
        0
 92
        0
 93
        2
 72
     4
 94
        3
 73
     1
 74
     0
 95
       17
 96
       13
 40
0.0
 40
0.0
 40
0.0
 40
0.0
 40
1.0
 40
1.0
 40
1.0
 40
2.0
 40
2.0
 40
2.0
 40
3.0
 40
3.0
 40
3.0
 40
4.0
 40
4.0
 40
4.0
 40
4.0
 10
266.4699528411193
 20
22.82140374989816
 42
1.0
 10
266.4968487059656
 20
23.23360918874381
 42
1.0
 10
266.5993976948625
 20
23.64490674705059
 42
1.0
 10
266.7072125446274
 20
24.04607386528146
 42
1.0
 10
266.7597204805012
 20
24.2414496033099
 42
1.0
 10
266.882078331128
 20
24.42789874624283
 42
1.0
 10
267.0072628343699
 20
24.59213287496141
 42
1.0
 10
267.4640605055332
 20
25.19142205062979
 42
1.0
 10
268.2143234497673
 20
25.18405330473933
 42
1.0
 10
268.6683621173312
 20
24.58056604641373
 42
1.0
 10
269.0963628325642
 20
24.01168817818241
 42
1.0
 10
269.195680043492
 20
23.34551372899321
 42
1.0
 10
269.218762963826
 20
22.68351122534059
 42
1.0
 72
     4
 94
        3
 73
     1
 74
     0
 95
       17
 96
       13
 40
4.0
 40
4.0
 40
4.0
 40
4.0
 40
5.0
 40
5.0
 40
5.0
 40
6.0
 40
6.0
 40
6.0
 40
7.0
 40
7.0
 40
7.0
 40
8.0
 40
8.0
 40
8.0
 40
8.0
 10
269.218762963826
 20
22.68351122534059
 42
1.0
 10
269.202432645224
 20
22.05765558940843
 42
1.0
 10
269.1208448575376
 20
21.47214721006825
 42
1.0
 10
268.810867074766
 20
20.94311038392242
 42
1.0
 10
268.6078393105943
 20
20.5966013640246
 42
1.0
 10
268.3388937306983
 20
20.33416469565678
 42
1.0
 10
267.9076604687568
 20
20.30531315927085
 42
1.0
 10
267.4153070900211
 20
20.27237193240103
 42
1.0
 10
267.1048165584612
 20
20.54785025472892
 42
1.0
 10
266.8746830637486
 20
20.93428603108956
 42
1.0
 10
266.5287029361534
 20
21.51524885782822
 42
1.0
 10
266.4269741915698
 20
22.16270989809668
 42
1.0
 10
266.4699528411193
 20
22.82140374989816
 42
1.0
 97
        0
 75
     0
 76
     1
 98
        1
 10
0.0
 20
0.0
  0
HATCH
  5
76
330
1F
100
AcDbEntity
  8
0
  6
Continuous
 62
     7
100
AcDbHatch
 10
0.0
 20
0.0
 30
0.0
210
0.0
220
0.0
230
1.0
  2
SOLID
 70
     1
 71
     0
 91
        1
 92
        0
 93
        4
 72
     1
 10
273.9540333846496
 20
27.87257450949275
 11
272.4594267850394
 21
27.32510813123116
 72
     4
 94
        3
 73
     1
 74
     0
 95
       14
 96
       10
 40
6.0
 40
6.0
 40
6.0
 40
6.0
 40
7.0
 40
7.0
 40
7.0
 40
8.0
 40
8.0
 40
8.0
 40
9.0
 40
9.0
 40
9.0
 40
9.0
 10
272.4594267850394
 20
27.32510813123116
 42
1.0
 10
272.9826104338649
 20
27.28380667758701
 42
1.0
 10
273.0476395875227
 20
27.23250104921648
 42
1.0
 10
273.0527409382852
 20
26.65700799131587
 42
1.0
 10
273.0685846452182
 20
24.86961337752774
 42
1.0
 10
273.0702866329497
 20
23.08209538116094
 42
1.0
 10
273.0783845276048
 20
21.29462927466367
 42
1.0
 10
273.0805785081768
 20
20.81042375860576
 42
1.0
 10
273.0059923935969
 20
20.37668517687364
 42
1.0
 10
272.426404840594
 20
20.2590796695872
 42
1.0
 72
     1
 10
272.426404840594
 20
20.2590796695872
 11
274.6224502449564
 21
20.2590796695872
 72
     4
 94
        3
 73
     1
 74
     0
 95
       17
 96
       13
 40
1.0
 40
1.0
 40
1.0
 40
1.0
 40
2.0
 40
2.0
 40
2.0
 40
3.0
 40
3.0
 40
3.0
 40
4.0
 40
4.0
 40
4.0
 40
5.0
 40
5.0
 40
5.0
 40
5.0
 10
274.6224502449564
 20
20.2590796695872
 42
1.0
 10
274.1836818051716
 20
20.38260600321025
 42
1.0
 10
274.0006220316647
 20
20.58964274029083
 42
1.0
 10
273.9590578615309
 20
21.04279505200226
 42
1.0
 10
273.9506540088286
 20
21.13443409966764
 42
1.0
 10
273.954217881965
 20
21.22727776105204
 42
1.0
 10
273.9542086570993
 20
21.31956562427539
 42
1.0
 10
273.9539872603212
 20
23.41776441505853
 42
1.0
 10
273.9540349221275
 20
25.51596282147274
 42
1.0
 10
273.9540333846496
 20
27.61416161225588
 42
1.0
 10
273.9540333846496
 20
27.71082379150879
 42
1.0
 10
273.9540333846496
 20
27.8074859707617
 42
1.0
 10
273.9540333846496
 20
27.87257450949275
 42
1.0
 97
        0
 75
     0
 76
     1
 98
        1
 10
0.0
 20
0.0
  0
HATCH
  5
77
330
1F
100
AcDbEntity
  8
0
  6
Continuous
 62
     7
100
AcDbHatch
 10
0.0
 20
0.0
 30
0.0
210
0.0
220
0.0
230
1.0
  2
SOLID
 70
     1
 71
     0
 91
        1
 92
        0
 93
        4
 72
     1
 10
276.9460186560295
 20
20.2549177176549
 11
279.1055120673172
 21
20.2549177176549
 72
     4
 94
        3
 73
     1
 74
     0
 95
       14
 96
       10
 40
6.0
 40
6.0
 40
6.0
 40
6.0
 40
7.0
 40
7.0
 40
7.0
 40
8.0
 40
8.0
 40
8.0
 40
9.0
 40
9.0
 40
9.0
 40
9.0
 10
279.1055120673172
 20
20.2549177176549
 42
1.0
 10
278.6550987719953
 20
20.40793364087759
 42
1.0
 10
278.4823339486704
 20
20.63637283524633
 42
1.0
 10
278.4822124879378
 20
21.11904779232805
 42
1.0
 10
278.4816605334703
 20
23.30086999117493
 42
1.0
 10
278.4819664915176
 20
25.48269219002111
 42
1.0
 10
278.4819649540404
 20
27.66451419668386
 42
1.0
 10
278.4819649540404
 20
27.75219577693941
 42
1.0
 10
278.4819664915176
 20
27.83987735719566
 42
1.0
 10
278.4819664915176
 20
27.88441039662488
 42
1.0
 72
     1
 10
278.4819664915176
 20
27.88441039662488
 11
276.9846800684063
 21
27.3296354262854
 72
     4
 94
        3
 73
     1
 74
     0
 95
       17
 96
       13
 40
1.0
 40
1.0
 40
1.0
 40
1.0
 40
2.0
 40
2.0
 40
2.0
 40
3.0
 40
3.0
 40
3.0
 40
4.0
 40
4.0
 40
4.0
 40
5.0
 40
5.0
 40
5.0
 40
5.0
 10
276.9846800684063
 20
27.3296354262854
 42
1.0
 10
277.5366914227135
 20
27.25167954511983
 42
1.0
 10
277.5738092075535
 20
27.20775573119973
 42
1.0
 10
277.5772915943764
 20
26.57154691311976
 42
1.0
 10
277.5773838430334
 20
26.55476419172763
 42
1.0
 10
277.577359243392
 20
26.53798031722657
 42
1.0
 10
277.577359243392
 20
26.52119721146337
 42
1.0
 10
277.5773700057348
 20
24.72538990447762
 42
1.0
 10
277.5776652014392
 20
22.92958298186009
 42
1.0
 10
277.5771993457187
 20
21.13377529050539
 42
1.0
 10
277.5770686601204
 20
20.6342380475635
 42
1.0
 10
277.4179566381115
 20
20.4199152040148
 42
1.0
 10
276.9460186560295
 20
20.2549177176549
 42
1.0
 97
        0
 75
     0
 76
     1
 98
        1
 10
0.0
 20
0.0
  0
HATCH
  5
78
330
1F
100
AcDbEntity
  8
0
  6
Continuous
 62
     7
100
AcDbHatch
 10
0.0
 20
0.0
 30
0.0
210
0.0
220
0.0
230
1.0
  2
SOLID
 70
     1
 71
     0
 91
        3
 92
        0
 93
        9
 72
     4
 94
        3
 73
     1
 74
     0
 95
       14
 96
       10
 40
0.0
 40
0.0
 40
0.0
 40
0.0
 40
1.0
 40
1.0
 40
1.0
 40
2.0
 40
2.0
 40
2.0
 40
3.0
 40
3.0
 40
3.0
 40
3.0
 10
287.0539854214827
 20
21.61211917311517
 42
1.0
 10
287.2972697310664
 20
21.3082559388604
 42
1.0
 10
287.5152010346028
 20
21.01001756649998
 42
1.0
 10
287.7601488949774
 20
20.73592220529573
 42
1.0
 10
288.1784811821614
 20
20.26780485511384
 42
1.0
 10
288.7048673968812
 20
20.09831485913089
 42
1.0
 10
289.3271645408483
 20
20.20870037148624
 42
1.0
 10
289.9739444785289
 20
20.32342848939635
 42
1.0
 10
290.7160910783766
 20
21.04182259740494
 42
1.0
 10
290.8103661314317
 20
21.70506046432864
 42
1.0
 72
     4
 94
        3
 73
     1
 74
     0
 95
       14
 96
       10
 40
24.0
 40
24.0
 40
24.0
 40
24.0
 40
25.0
 40
25.0
 40
25.0
 40
26.0
 40
26.0
 40
26.0
 40
27.0
 40
27.0
 40
27.0
 40
27.0
 10
290.8103661314317
 20
21.70506046432864
 42
1.0
 10
290.6825002672103
 20
21.49939669476813
 42
1.0
 10
290.5884281612034
 20
21.32571784099438
 42
1.0
 10
290.4735170834558
 20
21.16713932372221
 42
1.0
 10
289.9836367374808
 20
20.49110656799653
 42
1.0
 10
289.3841588364346
 20
20.43289382139212
 42
1.0
 10
288.8166481701822
 20
21.05011190802389
 42
1.0
 10
288.4270667146001
 20
21.47381844824843
 42
1.0
 10
288.0996055050067
 20
21.95463920731319
 42
1.0
 10
287.7314564875268
 20
22.4264857094768
 42
1.0
 72
     4
 94
        3
 73
     1
 74
     0
 95
       11
 96
        7
 40
22.0
 40
22.0
 40
22.0
 40
22.0
 40
23.0
 40
23.0
 40
23.0
 40
24.0
 40
24.0
 40
24.0
 40
24.0
 10
287.7314564875268
 20
22.4264857094768
 42
1.0
 10
288.1508588591387
 20
23.00030157147278
 42
1.0
 10
288.5466855488353
 20
23.55949371503118
 42
1.0
 10
288.9612633156569
 20
24.10441845059237
 42
1.0
 10
289.4290162836425
 20
24.71923384406366
 42
1.0
 10
289.9536528488242
 20
25.26443186627322
 42
1.0
 10
290.7742138825406
 20
25.39867403457779
 42
1.0
 72
     1
 10
290.7742138825406
 20
25.39867403457779
 11
287.7715077796773
 21
25.39867403457779
 72
     4
 94
        3
 73
     1
 74
     0
 95
       17
 96
       13
 40
16.0
 40
16.0
 40
16.0
 40
16.0
 40
17.0
 40
17.0
 40
17.0
 40
18.0
 40
18.0
 40
18.0
 40
19.0
 40
19.0
 40
19.0
 40
20.0
 40
20.0
 40
20.0
 40
20.0
 10
287.7715077796773
 20
25.39867403457779
 42
1.0
 10
287.9710693005408
 20
25.34310267453518
 42
1.0
 10
288.1718392788191
 20
25.32949945687163
 42
1.0
 10
288.3670435880915
 20
25.28904726743022
 42
1.0
 10
288.7601181928394
 20
25.20759054971102
 42
1.0
 10
288.9174636530569
 20
24.97387165717582
 42
1.0
 10
288.8543009972361
 20
24.57697987985169
 42
1.0
 10
288.8373887433532
 20
24.47070865762303
 42
1.0
 10
288.8131334963293
 20
24.35736772890119
 42
1.0
 10
288.7595985254019
 20
24.26650702928458
 42
1.0
 10
288.4211781752921
 20
23.692108847638
 42
1.0
 10
288.0735790837579
 20
23.12311989664797
 42
1.0
 10
287.7233847299918
 20
22.54303496963325
 42
1.0
 72
     1
 10
287.7233847299918
 20
22.54303496963325
 11
285.8065406500284
 21
24.86455968857224
 72
     4
 94
        3
 73
     1
 74
     0
 95
       20
 96
       16
 40
10.0
 40
10.0
 40
10.0
 40
10.0
 40
11.0
 40
11.0
 40
11.0
 40
12.0
 40
12.0
 40
12.0
 40
13.0
 40
13.0
 40
13.0
 40
14.0
 40
14.0
 40
14.0
 40
15.0
 40
15.0
 40
15.0
 40
15.0
 10
285.8065406500283
 20
24.86455968857225
 42
1.0
 10
285.9002991106001
 20
24.9215528310502
 42
1.0
 10
286.0025259979348
 20
24.975621306713
 42
1.0
 10
286.0959738880259
 20
25.04203380586477
 42
1.0
 10
286.361711520857
 20
25.23088333574105
 42
1.0
 10
286.6551698752792
 20
25.39378370261948
 42
1.0
 10
286.8815726805328
 20
25.62247811827483
 42
1.0
 10
287.5614237619422
 20
26.30921056516709
 42
1.0
 10
287.361321048954
 20
27.32558686332681
 42
1.0
 10
286.4793408590448
 20
27.71426216803416
 42
1.0
 10
285.840402057257
 20
27.99583274545401
 42
1.0
 10
285.1912113546599
 20
27.99239110178883
 42
1.0
 10
284.558084218296
 20
27.68711127408746
 42
1.0
 10
283.9109291360762
 20
27.37506654483262
 42
1.0
 10
283.6309452355653
 20
26.8393466878164
 42
1.0
 10
283.7149530130354
 20
26.1296866058298
 42
1.0
 72
     4
 94
        3
 73
     1
 74
     0
 95
       11
 96
        7
 40
8.0
 40
8.0
 40
8.0
 40
8.0
 40
9.0
 40
9.0
 40
9.0
 40
10.0
 40
10.0
 40
10.0
 40
10.0
 10
283.7149530130354
 20
26.1296866058298
 42
1.0
 10
283.7707819005811
 20
25.65802498535045
 42
1.0
 10
284.0198409761273
 20
25.28515591156022
 42
1.0
 10
284.3077767109179
 20
24.93075271279267
 42
1.0
 10
284.4323277733789
 20
24.77744812814591
 42
1.0
 10
284.5641388051866
 20
24.6300390014551
 42
1.0
 10
284.7027239634148
 20
24.46818604120849
 42
1.0
 72
     4
 94
        3
 73
     1
 74
     0
 95
       20
 96
       16
 40
3.0
 40
3.0
 40
3.0
 40
3.0
 40
4.0
 40
4.0
 40
4.0
 40
5.0
 40
5.0
 40
5.0
 40
6.0
 40
6.0
 40
6.0
 40
7.0
 40
7.0
 40
7.0
 40
8.0
 40
8.0
 40
8.0
 40
8.0
 10
284.7027239634148
 20
24.46818604120849
 42
1.0
 10
284.5513685160267
 20
24.38851087568819
 42
1.0
 10
284.4255536469583
 20
24.32317807019961
 42
1.0
 10
284.3005597909425
 20
24.25632085564481
 42
1.0
 10
283.8607304915963
 20
24.02105948868024
 42
1.0
 10
283.460866385652
 20
23.73663343094009
 42
1.0
 10
283.1417229300147
 20
23.34576433784628
 42
1.0
 10
282.3522343191156
 20
22.37884389028816
 42
1.0
 10
282.6109241545095
 20
20.5355588898502
 42
1.0
 10
284.198169930981
 20
20.23446388406056
 42
1.0
 10
285.1515567317372
 20
20.05360962220845
 42
1.0
 10
285.9488126796034
 20
20.36759637788916
 42
1.0
 10
286.5896302790503
 20
21.09003174583673
 42
1.0
 10
286.7443651022574
 20
21.26447318851251
 42
1.0
 10
286.8995550188436
 20
21.43851181205056
 42
1.0
 10
287.0539854214827
 20
21.61211917311517
 42
1.0
 97
        0
 92
        0
 93
        2
 72
     4
 94
        3
 73
     1
 74
     0
 95
       14
 96
       10
 40
0.0
 40
0.0
 40
0.0
 40
0.0
 40
1.0
 40
1.0
 40
1.0
 40
2.0
 40
2.0
 40
2.0
 40
3.0
 40
3.0
 40
3.0
 40
3.0
 10
284.688382372121
 20
27.15085253116304
 42
1.0
 10
284.8337724063213
 20
27.5710895609412
 42
1.0
 10
285.1818973152029
 20
27.79269159230804
 42
1.0
 10
285.6158934244382
 20
27.76810636414938
 42
1.0
 10
285.9916529561654
 20
27.74682017860581
 42
1.0
 10
286.2400293916459
 20
27.5110460628537
 42
1.0
 10
286.3549927436335
 20
27.06650131962916
 42
1.0
 10
286.5713650448558
 20
26.2298440482801
 42
1.0
 10
286.3259713159692
 20
25.4295804098103
 42
1.0
 10
285.6520579731507
 20
24.9254318870995
 42
1.0
 72
     4
 94
        3
 73
     1
 74
     0
 95
       11
 96
        7
 40
3.0
 40
3.0
 40
3.0
 40
3.0
 40
4.0
 40
4.0
 40
4.0
 40
5.0
 40
5.0
 40
5.0
 40
5.0
 10
285.6520579731507
 20
24.9254318870995
 42
1.0
 10
285.3510444536752
 20
25.31853032275095
 42
1.0
 10
285.0380140090768
 20
25.68714980838475
 42
1.0
 10
284.7721626029031
 20
26.08712768767229
 42
1.0
 10
284.5571094574822
 20
26.41068293535724
 42
1.0
 10
284.5630810205802
 20
26.788679112661
 42
1.0
 10
284.688382372121
 20
27.15085253116304
 42
1.0
 97
        0
 92
        0
 93
        2
 72
     1
 10
284.845288113738
 20
24.3712657578988
 11
287.0009947176327
 21
21.77781006188367
 72
     4
 94
        3
 73
     1
 74
     0
 95
       14
 96
       10
 40
1.0
 40
1.0
 40
1.0
 40
1.0
 40
2.0
 40
2.0
 40
2.0
 40
3.0
 40
3.0
 40
3.0
 40
4.0
 40
4.0
 40
4.0
 40
4.0
 10
287.0009947176327
 20
21.77781006188367
 42
1.0
 10
286.5509442670314
 20
21.22618922689351
 42
1.0
 10
286.0339581905155
 20
20.90925282038733
 42
1.0
 10
285.3603677179978
 20
20.87638462370451
 42
1.0
 10
284.4974276510072
 20
20.83427541775252
 42
1.0
 10
283.8665083325146
 20
21.39392726712143
 42
1.0
 10
283.7780264951535
 20
22.28619625730053
 42
1.0
 10
283.6988925217564
 20
23.08417174469389
 42
1.0
 10
284.1054815548355
 20
23.90423117633508
 42
1.0
 10
284.845288113738
 20
24.3712657578988
 42
1.0
 97
        0
 75
     0
 76
     1
 98
        1
 10
0.0
 20
0.0
  0
HATCH
  5
79
330
1F
100
AcDbEntity
  8
0
  6
Continuous
 62
     7
100
AcDbHatch
 10
0.0
 20
0.0
 30
0.0
210
0.0
220
0.0
230
1.0
  2
SOLID
 70
     1
 71
     0
 91
        1
 92
        0
 93
        2
 72
     4
 94
        3
 73
     1
 74
     0
 95
       11
 96
        7
 40
0.0
 40
0.0
 40
0.0
 40
0.0
 40
1.0
 40
1.0
 40
1.0
 40
2.0
 40
2.0
 40
2.0
 40
2.0
 10
303.0570519104932
 20
26.35430478392947
 42
1.0
 10
303.0628482011429
 20
25.96449808787493
 42
1.0
 10
303.3259905717408
 20
25.69768229885988
 42
1.0
 10
303.6993639381942
 20
25.70301926806731
 42
1.0
 10
304.0680572227529
 20
25.70828897263022
 42
1.0
 10
304.3293945946187
 20
25.98752450590587
 42
1.0
 10
304.327448147944
 20
26.37412133304796
 42
1.0
 72
     4
 94
        3
 73
     1
 74
     0
 95
       11
 96
        7
 40
2.0
 40
2.0
 40
2.0
 40
2.0
 40
3.0
 40
3.0
 40
3.0
 40
4.0
 40
4.0
 40
4.0
 40
4.0
 10
304.327448147944
 20
26.37412133304796
 42
1.0
 10
304.3255386007336
 20
26.75299425696746
 42
1.0
 10
304.0507636744179
 20
27.04560238626284
 42
1.0
 10
303.6924299141011
 20
27.05034857969325
 42
1.0
 10
303.3266947364936
 20
27.05519259513757
 42
1.0
 10
303.0511172468595
 20
26.75330175249256
 42
1.0
 10
303.0570519104932
 20
26.35430478392947
 42
1.0
 97
        0
 75
     0
 76
     1
 98
        1
 10
0.0
 20
0.0
  0
HATCH
  5
7A
330
1F
100
AcDbEntity
  8
0
  6
Continuous
 62
     7
100
AcDbHatch
 10
0.0
 20
0.0
 30
0.0
210
0.0
220
0.0
230
1.0
  2
SOLID
 70
     1
 71
     0
 91
        1
 92
        0
 93
        4
 72
     1
 10
302.6973344203136
 20
20.2539775500868
 11
304.8038079156778
 21
20.2539775500868
 72
     4
 94
        3
 73
     1
 74
     0
 95
       17
 96
       13
 40
6.0
 40
6.0
 40
6.0
 40
6.0
 40
7.0
 40
7.0
 40
7.0
 40
8.0
 40
8.0
 40
8.0
 40
9.0
 40
9.0
 40
9.0
 40
10.0
 40
10.0
 40
10.0
 40
10.0
 10
304.8038079156778
 20
20.2539775500868
 42
1.0
 10
304.4578262506061
 20
20.33981031349822
 42
1.0
 10
304.2621822227331
 20
20.55023795748124
 42
1.0
 10
304.2107535961514
 20
20.89393877449616
 42
1.0
 10
304.1922454404932
 20
21.01764883669525
 42
1.0
 10
304.1821011631179
 20
21.14380579453512
 42
1.0
 10
304.1818797663412
 20
21.26887114326077
 42
1.0
 10
304.1797703470369
 20
22.46084295323946
 42
1.0
 10
304.1808527312862
 20
23.65282014439031
 42
1.0
 10
304.1800932173391
 20
24.84479541369365
 42
1.0
 10
304.1800409430993
 20
24.93136078519359
 42
1.0
 10
304.1727133247369
 20
25.01792115989102
 42
1.0
 10
304.1706223551654
 20
25.06377258638473
 42
1.0
 72
     1
 10
304.1706223551654
 20
25.06377258638473
 11
302.7125031745686
 21
24.50968064047992
 72
     4
 94
        3
 73
     1
 74
     0
 95
       17
 96
       13
 40
1.0
 40
1.0
 40
1.0
 40
1.0
 40
2.0
 40
2.0
 40
2.0
 40
3.0
 40
3.0
 40
3.0
 40
4.0
 40
4.0
 40
4.0
 40
5.0
 40
5.0
 40
5.0
 40
5.0
 10
302.7125031745686
 20
24.50968064047994
 42
1.0
 10
302.7604109773859
 20
24.50557288463289
 42
1.0
 10
302.8224697242704
 20
24.49650561033552
 42
1.0
 10
302.8846514693661
 20
24.49557889569631
 42
1.0
 10
303.1332831261333
 20
24.4918735746181
 42
1.0
 10
303.2632153602819
 20
24.35030186610297
 42
1.0
 10
303.2668591822546
 20
24.11891186780057
 42
1.0
 10
303.2829750227277
 20
23.09531768874206
 42
1.0
 10
303.296603224403
 20
22.071496731734
 42
1.0
 10
303.2916556214044
 20
21.04785181591346
 42
1.0
 10
303.2897768237453
 20
20.65853557522151
 42
1.0
 10
303.1321361678242
 20
20.3494649042487
 42
1.0
 10
302.6973344203136
 20
20.2539775500868
 42
1.0
 97
        0
 75
     0
 76
     1
 98
        1
 10
0.0
 20
0.0
  0
HATCH
  5
7B
330
1F
100
AcDbEntity
  8
0
  6
Continuous
 62
     7
100
AcDbHatch
 10
0.0
 20
0.0
 30
0.0
210
0.0
220
0.0
230
1.0
  2
SOLID
 70
     1
 71
     0
 91
        1
 92
        0
 93
        4
 72
     1
 10
308.65963267846
 20
27.88697759989075
 11
307.1608133901539
 21
27.32540717062984
 72
     4
 94
        3
 73
     1
 74
     0
 95
       20
 96
       16
 40
5.0
 40
5.0
 40
5.0
 40
5.0
 40
6.0
 40
6.0
 40
6.0
 40
7.0
 40
7.0
 40
7.0
 40
8.0
 40
8.0
 40
8.0
 40
9.0
 40
9.0
 40
9.0
 40
10.0
 40
10.0
 40
10.0
 40
10.0
 10
307.1608133901539
 20
27.32540717062984
 42
1.0
 10
307.6774858212348
 20
27.28280885460759
 42
1.0
 10
307.7501131893193
 20
27.20350460556406
 42
1.0
 10
307.7547502218385
 20
26.63215658734291
 42
1.0
 10
307.7552944889174
 20
26.56503146731187
 42
1.0
 10
307.7550361926765
 20
26.49789904426262
 42
1.0
 10
307.7550361926765
 20
26.43077008053731
 42
1.0
 10
307.7550484924979
 20
24.69380511724257
 42
1.0
 10
307.7587445887104
 20
22.95682170421714
 42
1.0
 10
307.7500732149022
 20
21.21990094340409
 42
1.0
 10
307.7490584796685
 20
21.01681475508336
 42
1.0
 10
307.7285516030971
 20
20.78446498637255
 42
1.0
 10
307.6283941606454
 20
20.61954360515536
 42
1.0
 10
307.5293898264143
 20
20.45652254628292
 42
1.0
 10
307.3179589782804
 20
20.36177625633667
 42
1.0
 10
307.178408284104
 20
20.25443648715803
 42
1.0
 72
     1
 10
307.178408284104
 20
20.25443648715803
 11
309.3620693061908
 21
20.25443648715802
 72
     4
 94
        3
 73
     1
 74
     0
 95
       14
 96
       10
 40
1.0
 40
1.0
 40
1.0
 40
1.0
 40
2.0
 40
2.0
 40
2.0
 40
3.0
 40
3.0
 40
3.0
 40
4.0
 40
4.0
 40
4.0
 40
4.0
 10
309.3620693061908
 20
20.25443648715802
 42
1.0
 10
308.807415027844
 20
20.43200746554105
 42
1.0
 10
308.6597679764911
 20
20.6374237012035
 42
1.0
 10
308.6597187772069
 20
21.15880542625192
 42
1.0
 10
308.6595035303402
 20
23.32371921490944
 42
1.0
 10
308.65963267846
 20
25.48863300356693
 42
1.0
 10
308.65963267846
 20
27.65354698440997
 42
1.0
 10
308.65963267846
 20
27.74275854708867
 42
1.0
 10
308.65963267846
 20
27.83196991758182
 42
1.0
 10
308.65963267846
 20
27.88697759989075
 42
1.0
 97
        0
 75
     0
 76
     1
 98
        1
 10
0.0
 20
0.0
  0
HATCH
  5
7C
330
1F
100
AcDbEntity
  8
0
  6
Continuous
 62
     7
100
AcDbHatch
 10
0.0
 20
0.0
 30
0.0
210
0.0
220
0.0
230
1.0
  2
SOLID
 70
     1
 71
     0
 91
        1
 92
        0
 93
        4
 72
     1
 10
313.1781318226163
 20
27.87703492426926
 11
311.6691528821608
 21
27.32445797038016
 72
     4
 94
        3
 73
     1
 74
     0
 95
       17
 96
       13
 40
6.0
 40
6.0
 40
6.0
 40
6.0
 40
7.0
 40
7.0
 40
7.0
 40
8.0
 40
8.0
 40
8.0
 40
9.0
 40
9.0
 40
9.0
 40
10.0
 40
10.0
 40
10.0
 40
10.0
 10
311.6691528821608
 20
27.32445797038016
 42
1.0
 10
312.2096131670664
 20
27.27631108979181
 42
1.0
 10
312.2683694120104
 20
27.21300429544448
 42
1.0
 10
312.2823973578678
 20
26.60716642601487
 42
1.0
 10
312.2845313768121
 20
26.51487279724974
 42
1.0
 10
312.2871512386867
 20
26.42255802816857
 42
1.0
 10
312.2871819882395
 20
26.33025248395311
 42
1.0
 10
312.2877662297369
 20
24.60974045310045
 42
1.0
 10
312.2890700107628
 20
22.88922803787955
 42
1.0
 10
312.2876555313485
 20
21.16871754450475
 42
1.0
 10
312.2872188877024
 20
20.63608302071405
 42
1.0
 10
312.1185268426077
 20
20.41647125413319
 42
1.0
 10
311.6156486607861
 20
20.25320881127337
 42
1.0
 72
     1
 10
311.6156486607861
 20
20.25320881127337
 11
313.8867245107604
 21
20.25320881127337
 72
     4
 94
        3
 73
     1
 74
     0
 95
       17
 96
       13
 40
1.0
 40
1.0
 40
1.0
 40
1.0
 40
2.0
 40
2.0
 40
2.0
 40
3.0
 40
3.0
 40
3.0
 40
4.0
 40
4.0
 40
4.0
 40
5.0
 40
5.0
 40
5.0
 40
5.0
 10
313.8867245107604
 20
20.25320881127337
 42
1.0
 10
313.3266152617988
 20
20.4348325806782
 42
1.0
 10
313.1888880160859
 20
20.62648762285203
 42
1.0
 10
313.1786115156352
 20
21.17082388885262
 42
1.0
 10
313.1771847363981
 20
21.24633325874564
 42
1.0
 10
313.1781441224363
 20
21.32188875296783
 42
1.0
 10
313.1781441224363
 20
21.39742349124222
 42
1.0
 10
313.1781256727049
 20
23.48721689184593
 42
1.0
 10
313.1781318226163
 20
25.57700952371036
 42
1.0
 10
313.1781318226163
 20
27.66680273212925
 42
1.0
 10
313.1781318226163
 20
27.75161518695077
 42
1.0
 10
313.1781318226163
 20
27.83642744958889
 42
1.0
 10
313.1781318226163
 20
27.87703492426926
 42
1.0
 97
        0
 75
     0
 76
     1
 98
        1
 10
0.0
 20
0.0
  0
HATCH
  5
7D
330
1F
100
AcDbEntity
  8
0
  6
Continuous
 62
     7
100
AcDbHatch
 10
0.0
 20
0.0
 30
0.0
210
0.0
220
0.0
230
1.0
  2
SOLID
 70
     1
 71
     0
 91
        1
 92
        0
 93
       12
 72
     1
 10
296.2715297073844
 20
27.50458020069891
 11
293.841527870193
 21
27.50458020069891
 72
     4
 94
        3
 73
     1
 74
     0
 95
       17
 96
       13
 40
21.0
 40
21.0
 40
21.0
 40
21.0
 40
22.0
 40
22.0
 40
22.0
 40
23.0
 40
23.0
 40
23.0
 40
24.0
 40
24.0
 40
24.0
 40
25.0
 40
25.0
 40
25.0
 40
25.0
 10
293.841527870193
 20
27.50458020069891
 42
1.0
 10
294.4654639653083
 20
27.35271373418588
 42
1.0
 10
294.541848928711
 20
26.88863860486635
 42
1.0
 10
294.5396718603926
 20
26.35648992400541
 42
1.0
 10
294.5326947869268
 20
24.65236702027423
 42
1.0
 10
294.54232862173
 20
22.9481603240125
 42
1.0
 10
294.5304592944584
 20
21.24409084762873
 42
1.0
 10
294.52894334152
 20
21.02641399663968
 42
1.0
 10
294.4888489999954
 20
20.77588586122133
 42
1.0
 10
294.3739502220706
 20
20.60171040217499
 42
1.0
 10
294.2655211499942
 20
20.43733713173098
 42
1.0
 10
294.0348564567621
 20
20.35359533789035
 42
1.0
 10
293.8906841048422
 20
20.25643828302682
 42
1.0
 72
     1
 10
293.8906841048422
 20
20.25643828302682
 11
296.2880237673525
 21
20.25643828302682
 72
     4
 94
        3
 73
     1
 74
     0
 95
       14
 96
       10
 40
17.0
 40
17.0
 40
17.0
 40
17.0
 40
18.0
 40
18.0
 40
18.0
 40
19.0
 40
19.0
 40
19.0
 40
20.0
 40
20.0
 40
20.0
 40
20.0
 10
296.2880237673525
 20
20.25643828302682
 42
1.0
 10
295.7413366980624
 20
20.4024294709773
 42
1.0
 10
295.5628078711177
 20
20.63015527572819
 42
1.0
 10
295.5619960829322
 20
21.2138824872384
 42
1.0
 10
295.560827599936
 20
22.05336910178782
 42
1.0
 10
295.561359567195
 20
22.89285956003151
 42
1.0
 10
295.5621928800676
 20
23.73234771205876
 42
1.0
 10
295.5622759038603
 20
23.81306182808445
 42
1.0
 10
295.5696219719554
 20
23.89376787235267
 42
1.0
 10
295.5733857171835
 20
23.97022240661697
 42
1.0
 72
     1
 10
295.5733857171835
 20
23.97022240661697
 11
298.4851131190222
 21
23.97022240661697
 72
     4
 94
        3
 73
     1
 74
     0
 95
       11
 96
        7
 40
14.0
 40
14.0
 40
14.0
 40
14.0
 40
15.0
 40
15.0
 40
15.0
 40
16.0
 40
16.0
 40
16.0
 40
16.0
 10
298.4851131190222
 20
23.97022240661697
 42
1.0
 10
298.4851131190222
 20
23.04419117651474
 42
1.0
 10
298.4852207424561
 20
22.13796342697173
 42
1.0
 10
298.485073144605
 20
21.23173567742801
 42
1.0
 10
298.4849747460367
 20
20.62384393007452
 42
1.0
 10
298.3307257657572
 20
20.41986831094703
 42
1.0
 10
297.7632396991476
 20
20.25412130424438
 42
1.0
 72
     1
 10
297.7632396991476
 20
20.25412130424438
 11
300.2193725060648
 21
20.25412130424438
 72
     4
 94
        3
 73
     1
 74
     0
 95
       17
 96
       13
 40
9.0
 40
9.0
 40
9.0
 40
9.0
 40
10.0
 40
10.0
 40
10.0
 40
11.0
 40
11.0
 40
11.0
 40
12.0
 40
12.0
 40
12.0
 40
13.0
 40
13.0
 40
13.0
 40
13.0
 10
300.2193725060648
 20
20.25412130424438
 42
1.0
 10
299.739442715284
 20
20.41422423058344
 42
1.0
 10
299.5427163031618
 20
20.62720562490344
 42
1.0
 10
299.542119761843
 20
21.03839632851544
 42
1.0
 10
299.5393769017586
 20
22.92724217217554
 42
1.0
 10
299.5395583241182
 20
24.8160968563317
 42
1.0
 10
299.5421628112159
 20
26.70494346873036
 42
1.0
 10
299.5426363543262
 20
27.0468754177367
 42
1.0
 10
299.7248336028849
 20
27.28837413924314
 42
1.0
 10
300.049118383702
 20
27.40930924651266
 42
1.0
 10
300.1052670665942
 20
27.43024796211264
 42
1.0
 10
300.1600043450263
 20
27.45496618208605
 42
1.0
 10
300.2549312885929
 20
27.49433829349534
 42
1.0
 72
     1
 10
300.2549312885929
 20
27.49433829349534
 11
297.7186989723292
 21
27.49433829349534
 72
     4
 94
        3
 73
     1
 74
     0
 95
       14
 96
       10
 40
5.0
 40
5.0
 40
5.0
 40
5.0
 40
6.0
 40
6.0
 40
6.0
 40
7.0
 40
7.0
 40
7.0
 40
8.0
 40
8.0
 40
8.0
 40
8.0
 10
297.7186989723292
 20
27.49433829349534
 42
1.0
 10
298.3648823686909
 20
27.26685790861022
 42
1.0
 10
298.4850762195593
 20
27.0944786077999
 42
1.0
 10
298.4851069691121
 20
26.45733654080182
 42
1.0
 10
298.4851377186649
 20
25.7773505457302
 42
1.0
 10
298.4851131190222
 20
25.09736416629037
 42
1.0
 10
298.4851131190222
 20
24.41737817121947
 42
1.0
 10
298.4851131190222
 20
24.32893553953832
 42
1.0
 10
298.4851131190222
 20
24.24049329222682
 42
1.0
 10
298.4851131190222
 20
24.16049564077468
 42
1.0
 72
     1
 10
298.4851131190222
 20
24.16049564077468
 11
295.5632814142282
 21
24.16049564077468
 72
     4
 94
        3
 73
     1
 74
     0
 95
       14
 96
       10
 40
1.0
 40
1.0
 40
1.0
 40
1.0
 40
2.0
 40
2.0
 40
2.0
 40
3.0
 40
3.0
 40
3.0
 40
4.0
 40
4.0
 40
4.0
 40
4.0
 10
295.5632814142282
 20
24.16049564077468
 42
1.0
 10
295.5632814142282
 20
25.01272602299438
 42
1.0
 10
295.5627432970579
 20
25.84365465270932
 42
1.0
 10
295.5644406723573
 20
26.67457866999212
 42
1.0
 10
295.5645605956114
 20
26.73240397223375
 42
1.0
 10
295.5792681065788
 20
26.79059327230427
 42
1.0
 10
295.5906023916358
 20
26.8479388815276
 42
1.0
 10
295.6648994604227
 20
27.22384581892186
 42
1.0
 10
295.9411319155254
 20
27.38780204855992
 42
1.0
 10
296.2715297073844
 20
27.50458020069891
 42
1.0
 97
        0
 75
     0
 76
     1
 98
        1
 10
0.0
 20
0.0
  0
SPLINE
  5
7E
330
1F
100
AcDbEntity
  8
0
  6
Continuous
 62
   179
370
     0
100
AcDbSpline
210
0.0
220
0.0
230
1.0
 70
     8
 71
     3
 72
    14
 73
    10
 74
     0
 42
0.000000001
 43
0.00000001
 40
24.0
 40
24.0
 40
24.0
 40
24.0
 40
25.0
 40
25.0
 40
25.0
 40
26.0
 40
26.0
 40
26.0
 40
27.0
 40
27.0
 40
27.0
 40
27.0
 10
287.7314564875268
 20
22.42648570947681
 30
0.0
 10
288.0996055050067
 20
21.95463920731319
 30
0.0
 10
288.4270667146001
 20
21.47381844824843
 30
0.0
 10
288.8166481701822
 20
21.05011190802389
 30
0.0
 10
289.3841588364346
 20
20.43289382139212
 30
0.0
 10
289.9836367374808
 20
20.49110656799654
 30
0.0
 10
290.4735170834558
 20
21.16713932372222
 30
0.0
 10
290.5884281612034
 20
21.32571784099438
 30
0.0
 10
290.6825002672103
 20
21.49939669476814
 30
0.0
 10
290.8103661314317
 20
21.70506046432864
 30
0.0
  0
SPLINE
  5
7F
330
1F
100
AcDbEntity
  8
0
  6
Continuous
 62
   179
370
     0
100
AcDbSpline
210
0.0
220
0.0
230
1.0
 70
     8
 71
     3
 72
    11
 73
     7
 74
     0
 42
0.000000001
 43
0.00000001
 40
22.0
 40
22.0
 40
22.0
 40
22.0
 40
23.0
 40
23.0
 40
23.0
 40
24.0
 40
24.0
 40
24.0
 40
24.0
 10
290.7742138825406
 20
25.39867403457779
 30
0.0
 10
289.9536528488242
 20
25.26443186627322
 30
0.0
 10
289.4290162836425
 20
24.71923384406366
 30
0.0
 10
288.9612633156569
 20
24.10441845059237
 30
0.0
 10
288.5466855488353
 20
23.55949371503119
 30
0.0
 10
288.1508588591388
 20
23.00030157147279
 30
0.0
 10
287.7314564875268
 20
22.42648570947681
 30
0.0
  0
SPLINE
  5
80
330
1F
100
AcDbEntity
  8
0
  6
Continuous
 62
   179
370
     0
100
AcDbSpline
210
0.0
220
0.0
230
1.0
 70
     8
 71
     3
 72
    11
 73
     7
 74
     0
 42
0.000000001
 43
0.00000001
 40
20.0
 40
20.0
 40
20.0
 40
20.0
 40
21.0
 40
21.0
 40
21.0
 40
22.0
 40
22.0
 40
22.0
 40
22.0
 10
287.7715077796773
 20
25.39867403457779
 30
0.0
 10
288.2706160663608
 20
25.39867403457779
 30
0.0
 10
288.76972127809
 20
25.39867441894744
 30
0.0
 10
289.2688295647749
 20
25.39867441894744
 30
0.0
 10
289.7706253623487
 20
25.39867441894744
 30
0.0
 10
290.2724180849667
 20
25.39867403457779
 30
0.0
 10
290.7742138825406
 20
25.39867403457779
 30
0.0
  0
SPLINE
  5
81
330
1F
100
AcDbEntity
  8
0
  6
Continuous
 62
   179
370
     0
100
AcDbSpline
210
0.0
220
0.0
230
1.0
 70
     8
 71
     3
 72
    17
 73
    13
 74
     0
 42
0.000000001
 43
0.00000001
 40
16.0
 40
16.0
 40
16.0
 40
16.0
 40
17.0
 40
17.0
 40
17.0
 40
18.0
 40
18.0
 40
18.0
 40
19.0
 40
19.0
 40
19.0
 40
20.0
 40
20.0
 40
20.0
 40
20.0
 10
287.7233847299918
 20
22.54303496963325
 30
0.0
 10
288.0735790837579
 20
23.12311989664797
 30
0.0
 10
288.4211781752921
 20
23.692108847638
 30
0.0
 10
288.7595985254019
 20
24.26650702928458
 30
0.0
 10
288.8131334963293
 20
24.3573677289012
 30
0.0
 10
288.8373887433532
 20
24.47070865762303
 30
0.0
 10
288.8543009972361
 20
24.57697987985169
 30
0.0
 10
288.9174636530569
 20
24.97387165717582
 30
0.0
 10
288.7601181928394
 20
25.20759054971102
 30
0.0
 10
288.3670435880915
 20
25.28904726743022
 30
0.0
 10
288.1718392788191
 20
25.32949945687163
 30
0.0
 10
287.9710693005408
 20
25.34310267453518
 30
0.0
 10
287.7715077796773
 20
25.39867403457779
 30
0.0
  0
SPLINE
  5
82
330
1F
100
AcDbEntity
  8
0
  6
Continuous
 62
   179
370
     0
100
AcDbSpline
210
0.0
220
0.0
230
1.0
 70
     8
 71
     3
 72
     8
 73
     4
 74
     0
 42
0.000000001
 43
0.00000001
 40
15.0
 40
15.0
 40
15.0
 40
15.0
 40
16.0
 40
16.0
 40
16.0
 40
16.0
 10
285.8065406500283
 20
24.86455968857225
 30
0.0
 10
286.4380688096612
 20
24.09970377545334
 30
0.0
 10
287.0596648638312
 20
23.34687900912474
 30
0.0
 10
287.7233847299918
 20
22.54303496963325
 30
0.0
  0
SPLINE
  5
83
330
1F
100
AcDbEntity
  8
0
  6
Continuous
 62
   179
370
     0
100
AcDbSpline
210
0.0
220
0.0
230
1.0
 70
     8
 71
     3
 72
    26
 73
    22
 74
     0
 42
0.000000001
 43
0.00000001
 40
8.0
 40
8.0
 40
8.0
 40
8.0
 40
9.0
 40
9.0
 40
9.0
 40
10.0
 40
10.0
 40
10.0
 40
11.0
 40
11.0
 40
11.0
 40
12.0
 40
12.0
 40
12.0
 40
13.0
 40
13.0
 40
13.0
 40
14.0
 40
14.0
 40
14.0
 40
15.0
 40
15.0
 40
15.0
 40
15.0
 10
284.7027239634148
 20
24.4681860412085
 30
0.0
 10
284.5641388051866
 20
24.63003900145511
 30
0.0
 10
284.4323277733789
 20
24.77744812814592
 30
0.0
 10
284.3077767109179
 20
24.93075271279267
 30
0.0
 10
284.0198409761273
 20
25.28515591156022
 30
0.0
 10
283.7707819005811
 20
25.65802498535045
 30
0.0
 10
283.7149530130354
 20
26.1296866058298
 30
0.0
 10
283.6309452355654
 20
26.8393466878164
 30
0.0
 10
283.9109291360762
 20
27.37506654483262
 30
0.0
 10
284.558084218296
 20
27.68711127408746
 30
0.0
 10
285.1912113546599
 20
27.99239110178883
 30
0.0
 10
285.840402057257
 20
27.99583274545402
 30
0.0
 10
286.4793408590448
 20
27.71426216803416
 30
0.0
 10
287.361321048954
 20
27.32558686332681
 30
0.0
 10
287.5614237619422
 20
26.30921056516709
 30
0.0
 10
286.8815726805328
 20
25.62247811827483
 30
0.0
 10
286.6551698752792
 20
25.39378370261948
 30
0.0
 10
286.361711520857
 20
25.23088333574105
 30
0.0
 10
286.0959738880259
 20
25.04203380586477
 30
0.0
 10
286.0025259979348
 20
24.97562130671301
 30
0.0
 10
285.9002991106001
 20
24.9215528310502
 30
0.0
 10
285.8065406500283
 20
24.86455968857225
 30
0.0
  0
SPLINE
  5
84
330
1F
100
AcDbEntity
  8
0
  6
Continuous
 62
   179
370
     0
100
AcDbSpline
210
0.0
220
0.0
230
1.0
 70
     8
 71
     3
 72
    20
 73
    16
 74
     0
 42
0.000000001
 43
0.00000001
 40
3.0
 40
3.0
 40
3.0
 40
3.0
 40
4.0
 40
4.0
 40
4.0
 40
5.0
 40
5.0
 40
5.0
 40
6.0
 40
6.0
 40
6.0
 40
7.0
 40
7.0
 40
7.0
 40
8.0
 40
8.0
 40
8.0
 40
8.0
 10
287.0539854214827
 20
21.61211917311518
 30
0.0
 10
286.8995550188436
 20
21.43851181205056
 30
0.0
 10
286.7443651022574
 20
21.26447318851252
 30
0.0
 10
286.5896302790503
 20
21.09003174583674
 30
0.0
 10
285.9488126796034
 20
20.36759637788917
 30
0.0
 10
285.1515567317372
 20
20.05360962220845
 30
0.0
 10
284.198169930981
 20
20.23446388406056
 30
0.0
 10
282.6109241545095
 20
20.5355588898502
 30
0.0
 10
282.3522343191156
 20
22.37884389028816
 30
0.0
 10
283.1417229300147
 20
23.34576433784628
 30
0.0
 10
283.460866385652
 20
23.7366334309401
 30
0.0
 10
283.8607304915963
 20
24.02105948868025
 30
0.0
 10
284.3005597909425
 20
24.25632085564482
 30
0.0
 10
284.4255536469583
 20
24.32317807019961
 30
0.0
 10
284.5513685160267
 20
24.38851087568819
 30
0.0
 10
284.7027239634148
 20
24.4681860412085
 30
0.0
  0
SPLINE
  5
85
330
1F
100
AcDbEntity
  8
0
  6
Continuous
 62
   179
370
     0
100
AcDbSpline
210
0.0
220
0.0
230
1.0
 70
     8
 71
     3
 72
    14
 73
    10
 74
     0
 42
0.000000001
 43
0.00000001
 40
0.0
 40
0.0
 40
0.0
 40
0.0
 40
1.0
 40
1.0
 40
1.0
 40
2.0
 40
2.0
 40
2.0
 40
3.0
 40
3.0
 40
3.0
 40
3.0
 10
290.8103661314317
 20
21.70506046432864
 30
0.0
 10
290.7160910783766
 20
21.04182259740494
 30
0.0
 10
289.9739444785289
 20
20.32342848939635
 30
0.0
 10
289.3271645408483
 20
20.20870037148624
 30
0.0
 10
288.7048673968812
 20
20.0983148591309
 30
0.0
 10
288.1784811821614
 20
20.26780485511384
 30
0.0
 10
287.7601488949774
 20
20.73592220529573
 30
0.0
 10
287.5152010346028
 20
21.01001756649998
 30
0.0
 10
287.2972697310665
 20
21.30825593886041
 30
0.0
 10
287.0539854214827
 20
21.61211917311518
 30
0.0
  0
SPLINE
  5
86
330
1F
100
AcDbEntity
  8
0
  6
Continuous
 62
   179
370
     0
100
AcDbSpline
210
0.0
220
0.0
230
1.0
 70
     8
 71
     3
 72
    14
 73
    10
 74
     0
 42
0.000000001
 43
0.00000001
 40
1.0
 40
1.0
 40
1.0
 40
1.0
 40
2.0
 40
2.0
 40
2.0
 40
3.0
 40
3.0
 40
3.0
 40
4.0
 40
4.0
 40
4.0
 40
4.0
 10
284.845288113738
 20
24.3712657578988
 30
0.0
 10
284.1054815548355
 20
23.90423117633508
 30
0.0
 10
283.6988925217564
 20
23.08417174469389
 30
0.0
 10
283.7780264951535
 20
22.28619625730053
 30
0.0
 10
283.8665083325146
 20
21.39392726712143
 30
0.0
 10
284.4974276510072
 20
20.83427541775253
 30
0.0
 10
285.3603677179978
 20
20.87638462370452
 30
0.0
 10
286.0339581905155
 20
20.90925282038733
 30
0.0
 10
286.5509442670314
 20
21.22618922689351
 30
0.0
 10
287.0009947176327
 20
21.77781006188367
 30
0.0
  0
SPLINE
  5
87
330
1F
100
AcDbEntity
  8
0
  6
Continuous
 62
   179
370
     0
100
AcDbSpline
210
0.0
220
0.0
230
1.0
 70
     8
 71
     3
 72
     8
 73
     4
 74
     0
 42
0.000000001
 43
0.00000001
 40
0.0
 40
0.0
 40
0.0
 40
0.0
 40
1.0
 40
1.0
 40
1.0
 40
1.0
 10
287.0009947176327
 20
21.77781006188367
 30
0.0
 10
286.2819902310068
 20
22.64282111123716
 30
0.0
 10
285.5612360948443
 20
23.50993158628786
 30
0.0
 10
284.845288113738
 20
24.3712657578988
 30
0.0
  0
SPLINE
  5
88
330
1F
100
AcDbEntity
  8
0
  6
Continuous
 62
   179
370
     0
100
AcDbSpline
210
0.0
220
0.0
230
1.0
 70
     8
 71
     3
 72
    11
 73
     7
 74
     0
 42
0.000000001
 43
0.00000001
 40
3.0
 40
3.0
 40
3.0
 40
3.0
 40
4.0
 40
4.0
 40
4.0
 40
5.0
 40
5.0
 40
5.0
 40
5.0
 10
284.6883823721211
 20
27.15085253116305
 30
0.0
 10
284.5630810205802
 20
26.788679112661
 30
0.0
 10
284.5571094574822
 20
26.41068293535724
 30
0.0
 10
284.7721626029031
 20
26.08712768767229
 30
0.0
 10
285.0380140090768
 20
25.68714980838475
 30
0.0
 10
285.3510444536753
 20
25.31853032275096
 30
0.0
 10
285.6520579731507
 20
24.9254318870995
 30
0.0
  0
SPLINE
  5
89
330
1F
100
AcDbEntity
  8
0
  6
Continuous
 62
   179
370
     0
100
AcDbSpline
210
0.0
220
0.0
230
1.0
 70
     8
 71
     3
 72
    14
 73
    10
 74
     0
 42
0.000000001
 43
0.00000001
 40
0.0
 40
0.0
 40
0.0
 40
0.0
 40
1.0
 40
1.0
 40
1.0
 40
2.0
 40
2.0
 40
2.0
 40
3.0
 40
3.0
 40
3.0
 40
3.0
 10
285.6520579731507
 20
24.9254318870995
 30
0.0
 10
286.3259713159692
 20
25.4295804098103
 30
0.0
 10
286.5713650448558
 20
26.2298440482801
 30
0.0
 10
286.3549927436335
 20
27.06650131962916
 30
0.0
 10
286.2400293916459
 20
27.5110460628537
 30
0.0
 10
285.9916529561654
 20
27.74682017860582
 30
0.0
 10
285.6158934244382
 20
27.76810636414938
 30
0.0
 10
285.1818973152029
 20
27.79269159230804
 30
0.0
 10
284.8337724063213
 20
27.5710895609412
 30
0.0
 10
284.6883823721211
 20
27.15085253116305
 30
0.0
  0
SPLINE
  5
8A
330
1F
100
AcDbEntity
  8
0
  6
Continuous
 62
   179
370
     0
100
AcDbSpline
210
0.0
220
0.0
230
1.0
 70
     8
 71
     3
 72
    17
 73
    13
 74
     0
 42
0.000000001
 43
0.00000001
 40
21.0
 40
21.0
 40
21.0
 40
21.0
 40
22.0
 40
22.0
 40
22.0
 40
23.0
 40
23.0
 40
23.0
 40
24.0
 40
24.0
 40
24.0
 40
25.0
 40
25.0
 40
25.0
 40
25.0
 10
293.8906841048423
 20
20.25643828302682
 30
0.0
 10
294.0348564567621
 20
20.35359533789035
 30
0.0
 10
294.2655211499942
 20
20.43733713173099
 30
0.0
 10
294.3739502220706
 20
20.601710402175
 30
0.0
 10
294.4888489999955
 20
20.77588586122134
 30
0.0
 10
294.5289433415201
 20
21.02641399663968
 30
0.0
 10
294.5304592944584
 20
21.24409084762874
 30
0.0
 10
294.5423286217301
 20
22.94816032401251
 30
0.0
 10
294.5326947869268
 20
24.65236702027423
 30
0.0
 10
294.5396718603926
 20
26.35648992400541
 30
0.0
 10
294.541848928711
 20
26.88863860486636
 30
0.0
 10
294.4654639653083
 20
27.35271373418588
 30
0.0
 10
293.841527870193
 20
27.50458020069892
 30
0.0
  0
SPLINE
  5
8B
330
1F
100
AcDbEntity
  8
0
  6
Continuous
 62
   179
370
     0
100
AcDbSpline
210
0.0
220
0.0
230
1.0
 70
    24
 71
     3
 72
     8
 73
     4
 74
     0
 42
0.000000001
 43
0.00000001
 40
20.0
 40
20.0
 40
20.0
 40
20.0
 40
21.0
 40
21.0
 40
21.0
 40
21.0
 10
296.2880237673526
 20
20.25643828302682
 30
0.0
 10
295.4693261565182
 20
20.25643828302682
 30
0.0
 10
294.6506254707311
 20
20.25643828302682
 30
0.0
 10
293.8906841048423
 20
20.25643828302682
 30
0.0
  0
SPLINE
  5
8C
330
1F
100
AcDbEntity
  8
0
  6
Continuous
 62
   179
370
     0
100
AcDbSpline
210
0.0
220
0.0
230
1.0
 70
     8
 71
     3
 72
    14
 73
    10
 74
     0
 42
0.000000001
 43
0.00000001
 40
17.0
 40
17.0
 40
17.0
 40
17.0
 40
18.0
 40
18.0
 40
18.0
 40
19.0
 40
19.0
 40
19.0
 40
20.0
 40
20.0
 40
20.0
 40
20.0
 10
295.5733857171836
 20
23.97022240661698
 30
0.0
 10
295.5696219719554
 20
23.89376787235267
 30
0.0
 10
295.5622759038603
 20
23.81306182808446
 30
0.0
 10
295.5621928800676
 20
23.73234771205876
 30
0.0
 10
295.561359567195
 20
22.89285956003151
 30
0.0
 10
295.560827599936
 20
22.05336910178782
 30
0.0
 10
295.5619960829322
 20
21.2138824872384
 30
0.0
 10
295.5628078711177
 20
20.63015527572819
 30
0.0
 10
295.7413366980624
 20
20.4024294709773
 30
0.0
 10
296.2880237673526
 20
20.25643828302682
 30
0.0
  0
SPLINE
  5
8D
330
1F
100
AcDbEntity
  8
0
  6
Continuous
 62
   179
370
     0
100
AcDbSpline
210
0.0
220
0.0
230
1.0
 70
    24
 71
     3
 72
     8
 73
     4
 74
     0
 42
0.000000001
 43
0.00000001
 40
16.0
 40
16.0
 40
16.0
 40
16.0
 40
17.0
 40
17.0
 40
17.0
 40
17.0
 10
298.4851131190222
 20
23.97022240661698
 30
0.0
 10
297.5154382802974
 20
23.97022240661698
 30
0.0
 10
296.5557754958725
 20
23.97022240661698
 30
0.0
 10
295.5733857171836
 20
23.97022240661698
 30
0.0
  0
SPLINE
  5
8E
330
1F
100
AcDbEntity
  8
0
  6
Continuous
 62
   179
370
     0
100
AcDbSpline
210
0.0
220
0.0
230
1.0
 70
     8
 71
     3
 72
    11
 73
     7
 74
     0
 42
0.000000001
 43
0.00000001
 40
14.0
 40
14.0
 40
14.0
 40
14.0
 40
15.0
 40
15.0
 40
15.0
 40
16.0
 40
16.0
 40
16.0
 40
16.0
 10
297.7632396991476
 20
20.25412130424438
 30
0.0
 10
298.3307257657572
 20
20.41986831094704
 30
0.0
 10
298.4849747460367
 20
20.62384393007452
 30
0.0
 10
298.485073144605
 20
21.23173567742802
 30
0.0
 10
298.4852207424561
 20
22.13796342697173
 30
0.0
 10
298.4851131190222
 20
23.04419117651474
 30
0.0
 10
298.4851131190222
 20
23.97022240661698
 30
0.0
  0
SPLINE
  5
8F
330
1F
100
AcDbEntity
  8
0
  6
Continuous
 62
   179
370
     0
100
AcDbSpline
210
0.0
220
0.0
230
1.0
 70
    24
 71
     3
 72
     8
 73
     4
 74
     0
 42
0.000000001
 43
0.00000001
 40
13.0
 40
13.0
 40
13.0
 40
13.0
 40
14.0
 40
14.0
 40
14.0
 40
14.0
 10
300.2193725060649
 20
20.25412130424438
 30
0.0
 10
299.4006625954106
 20
20.25412130424438
 30
0.0
 10
298.5819526847563
 20
20.25412130424438
 30
0.0
 10
297.7632396991476
 20
20.25412130424438
 30
0.0
  0
SPLINE
  5
90
330
1F
100
AcDbEntity
  8
0
  6
Continuous
 62
   179
370
     0
100
AcDbSpline
210
0.0
220
0.0
230
1.0
 70
     8
 71
     3
 72
    17
 73
    13
 74
     0
 42
0.000000001
 43
0.00000001
 40
9.0
 40
9.0
 40
9.0
 40
9.0
 40
10.0
 40
10.0
 40
10.0
 40
11.0
 40
11.0
 40
11.0
 40
12.0
 40
12.0
 40
12.0
 40
13.0
 40
13.0
 40
13.0
 40
13.0
 10
300.254931288593
 20
27.49433829349534
 30
0.0
 10
300.1600043450263
 20
27.45496618208605
 30
0.0
 10
300.1052670665943
 20
27.43024796211265
 30
0.0
 10
300.049118383702
 20
27.40930924651266
 30
0.0
 10
299.7248336028849
 20
27.28837413924314
 30
0.0
 10
299.5426363543262
 20
27.0468754177367
 30
0.0
 10
299.5421628112159
 20
26.70494346873036
 30
0.0
 10
299.5395583241182
 20
24.8160968563317
 30
0.0
 10
299.5393769017586
 20
22.92724217217554
 30
0.0
 10
299.542119761843
 20
21.03839632851544
 30
0.0
 10
299.5427163031618
 20
20.62720562490344
 30
0.0
 10
299.739442715284
 20
20.41422423058345
 30
0.0
 10
300.2193725060649
 20
20.25412130424438
 30
0.0
  0
SPLINE
  5
91
330
1F
100
AcDbEntity
  8
0
  6
Continuous
 62
   179
370
     0
100
AcDbSpline
210
0.0
220
0.0
230
1.0
 70
    24
 71
     3
 72
     8
 73
     4
 74
     0
 42
0.000000001
 43
0.00000001
 40
8.0
 40
8.0
 40
8.0
 40
8.0
 40
9.0
 40
9.0
 40
9.0
 40
9.0
 10
297.7186989723292
 20
27.49433829349534
 30
0.0
 10
298.5854396840106
 20
27.49433829349534
 30
0.0
 10
299.3949493285535
 20
27.49433829349534
 30
0.0
 10
300.254931288593
 20
27.49433829349534
 30
0.0
  0
SPLINE
  5
92
330
1F
100
AcDbEntity
  8
0
  6
Continuous
 62
   179
370
     0
100
AcDbSpline
210
0.0
220
0.0
230
1.0
 70
     8
 71
     3
 72
    14
 73
    10
 74
     0
 42
0.000000001
 43
0.00000001
 40
5.0
 40
5.0
 40
5.0
 40
5.0
 40
6.0
 40
6.0
 40
6.0
 40
7.0
 40
7.0
 40
7.0
 40
8.0
 40
8.0
 40
8.0
 40
8.0
 10
298.4851131190222
 20
24.16049564077469
 30
0.0
 10
298.4851131190222
 20
24.24049329222683
 30
0.0
 10
298.4851131190222
 20
24.32893553953833
 30
0.0
 10
298.4851131190222
 20
24.41737817121947
 30
0.0
 10
298.4851131190222
 20
25.09736416629037
 30
0.0
 10
298.4851377186649
 20
25.7773505457302
 30
0.0
 10
298.4851069691121
 20
26.45733654080182
 30
0.0
 10
298.4850762195594
 20
27.0944786077999
 30
0.0
 10
298.3648823686909
 20
27.26685790861022
 30
0.0
 10
297.7186989723292
 20
27.49433829349534
 30
0.0
  0
SPLINE
  5
93
330
1F
100
AcDbEntity
  8
0
  6
Continuous
 62
   179
370
     0
100
AcDbSpline
210
0.0
220
0.0
230
1.0
 70
    24
 71
     3
 72
     8
 73
     4
 74
     0
 42
0.000000001
 43
0.00000001
 40
4.0
 40
4.0
 40
4.0
 40
4.0
 40
5.0
 40
5.0
 40
5.0
 40
5.0
 10
295.5632814142282
 20
24.16049564077469
 30
0.0
 10
296.5292663066504
 20
24.16049564077469
 30
0.0
 10
297.4889290910767
 20
24.16049564077469
 30
0.0
 10
298.4851131190222
 20
24.16049564077469
 30
0.0
  0
SPLINE
  5
94
330
1F
100
AcDbEntity
  8
0
  6
Continuous
 62
   179
370
     0
100
AcDbSpline
210
0.0
220
0.0
230
1.0
 70
     8
 71
     3
 72
    14
 73
    10
 74
     0
 42
0.000000001
 43
0.00000001
 40
1.0
 40
1.0
 40
1.0
 40
1.0
 40
2.0
 40
2.0
 40
2.0
 40
3.0
 40
3.0
 40
3.0
 40
4.0
 40
4.0
 40
4.0
 40
4.0
 10
296.2715297073845
 20
27.50458020069892
 30
0.0
 10
295.9411319155254
 20
27.38780204855992
 30
0.0
 10
295.6648994604227
 20
27.22384581892186
 30
0.0
 10
295.5906023916359
 20
26.8479388815276
 30
0.0
 10
295.5792681065788
 20
26.79059327230428
 30
0.0
 10
295.5645605956114
 20
26.73240397223375
 30
0.0
 10
295.5644406723574
 20
26.67457866999212
 30
0.0
 10
295.562743297058
 20
25.84365465270932
 30
0.0
 10
295.5632814142282
 20
25.01272602299438
 30
0.0
 10
295.5632814142282
 20
24.16049564077469
 30
0.0
  0
SPLINE
  5
95
330
1F
100
AcDbEntity
  8
0
  6
Continuous
 62
   179
370
     0
100
AcDbSpline
210
0.0
220
0.0
230
1.0
 70
    24
 71
     3
 72
     8
 73
     4
 74
     0
 42
0.000000001
 43
0.00000001
 40
0.0
 40
0.0
 40
0.0
 40
0.0
 40
1.0
 40
1.0
 40
1.0
 40
1.0
 10
293.841527870193
 20
27.50458020069892
 30
0.0
 10
294.6515264326192
 20
27.50458020069892
 30
0.0
 10
295.4615280700011
 20
27.50458020069892
 30
0.0
 10
296.2715297073845
 20
27.50458020069892
 30
0.0
  0
SPLINE
  5
96
330
1F
100
AcDbEntity
  8
0
  6
Continuous
 62
   179
370
     0
100
AcDbSpline
210
0.0
220
0.0
230
1.0
 70
     8
 71
     3
 72
    14
 73
    10
 74
     0
 42
0.000000001
 43
0.00000001
 40
17.0
 40
17.0
 40
17.0
 40
17.0
 40
18.0
 40
18.0
 40
18.0
 40
19.0
 40
19.0
 40
19.0
 40
20.0
 40
20.0
 40
20.0
 40
20.0
 10
257.7053577757453
 20
20.25910042553502
 30
0.0
 10
258.2139995287706
 20
20.39587059142628
 30
0.0
 10
258.4104423723632
 20
20.62446660851326
 30
0.0
 10
258.4124688639662
 20
21.16843695483816
 30
0.0
 10
258.4191609275175
 20
22.96470127704906
 30
0.0
 10
258.4149081683119
 20
24.76100595804667
 30
0.0
 10
258.4151320634913
 20
26.55729487989966
 30
0.0
 10
258.4151924094879
 20
27.04153921726714
 30
0.0
 10
258.2057453879524
 20
27.36893835120057
 30
0.0
 10
257.7192638284546
 20
27.51463645747964
 30
0.0
  0
SPLINE
  5
97
330
1F
100
AcDbEntity
  8
0
  6
Continuous
 62
   179
370
     0
100
AcDbSpline
210
0.0
220
0.0
230
1.0
 70
    24
 71
     3
 72
     8
 73
     4
 74
     0
 42
0.000000001
 43
0.00000001
 40
16.0
 40
16.0
 40
16.0
 40
16.0
 40
17.0
 40
17.0
 40
17.0
 40
17.0
 10
260.1134120717832
 20
20.25910042553502
 30
0.0
 10
259.3107272904223
 20
20.25910042553502
 30
0.0
 10
258.5080426051526
 20
20.25910042553502
 30
0.0
 10
257.7053577757453
 20
20.25910042553502
 30
0.0
  0
SPLINE
  5
98
330
1F
100
AcDbEntity
  8
0
  6
Continuous
 62
   179
370
     0
100
AcDbSpline
210
0.0
220
0.0
230
1.0
 70
     8
 71
     3
 72
    14
 73
    10
 74
     0
 42
0.000000001
 43
0.00000001
 40
13.0
 40
13.0
 40
13.0
 40
13.0
 40
14.0
 40
14.0
 40
14.0
 40
15.0
 40
15.0
 40
15.0
 40
16.0
 40
16.0
 40
16.0
 40
16.0
 10
259.4607286043899
 20
23.57138302951071
 30
0.0
 10
259.4539911852495
 20
23.51939476107442
 30
0.0
 10
259.4406539512153
 20
23.46398560492077
 30
0.0
 10
259.4405559370167
 20
23.40855338660287
 30
0.0
 10
259.4392191002215
 20
22.65310606781493
 30
0.0
 10
259.4366701545022
 20
21.89763799307776
 30
0.0
 10
259.4408326829897
 20
21.14221143023692
 30
0.0
 10
259.4435911100346
 20
20.64162793377142
 30
0.0
 10
259.6377614656041
 20
20.40079128856705
 30
0.0
 10
260.1134120717832
 20
20.25910042553502
 30
0.0
  0
SPLINE
  5
99
330
1F
100
AcDbEntity
  8
0
  6
Continuous
 62
   179
370
     0
100
AcDbSpline
210
0.0
220
0.0
230
1.0
 70
     8
 71
     3
 72
    20
 73
    16
 74
     0
 42
0.000000001
 43
0.00000001
 40
8.0
 40
8.0
 40
8.0
 40
8.0
 40
9.0
 40
9.0
 40
9.0
 40
10.0
 40
10.0
 40
10.0
 40
11.0
 40
11.0
 40
11.0
 40
12.0
 40
12.0
 40
12.0
 40
13.0
 40
13.0
 40
13.0
 40
13.0
 10
263.9554858268652
 20
20.24609336482204
 30
0.0
 10
263.8909540472192
 20
20.24131411562172
 30
0.0
 10
263.8264337986555
 20
20.23257048036439
 30
0.0
 10
263.7618904879275
 20
20.2323936704376
 30
0.0
 10
263.3170171088603
 20
20.2311736819415
 30
0.0
 10
262.8718696744063
 20
20.24067529366942
 30
0.0
 10
262.427398730108
 20
20.22724465786874
 30
0.0
 10
262.2549406335689
 20
20.22203337745712
 30
0.0
 10
262.1765046750147
 20
20.28890135435546
 30
0.0
 10
262.1067370153144
 20
20.43629933433309
 30
0.0
 10
261.7451764738302
 20
21.20016664933901
 30
0.0
 10
261.3780268168071
 20
21.9614848264415
 30
0.0
 10
261.0037355762117
 20
22.71920223094413
 30
0.0
 10
260.6054131759577
 20
23.52556773374194
 30
0.0
 10
260.3725694925604
 20
23.65083910446932
 30
0.0
 10
259.4607286043899
 20
23.57138302951071
 30
0.0
  0
SPLINE
  5
9A
330
1F
100
AcDbEntity
  8
0
  6
Continuous
 62
   179
370
     0
100
AcDbSpline
210
0.0
220
0.0
230
1.0
 70
     8
 71
     3
 72
    14
 73
    10
 74
     0
 42
0.000000001
 43
0.00000001
 40
5.0
 40
5.0
 40
5.0
 40
5.0
 40
6.0
 40
6.0
 40
6.0
 40
7.0
 40
7.0
 40
7.0
 40
8.0
 40
8.0
 40
8.0
 40
8.0
 10
261.0219043336847
 20
23.63056361828031
 30
0.0
 10
261.7521543160346
 20
23.35408286053947
 30
0.0
 10
262.033208300972
 20
22.73079019980925
 30
0.0
 10
262.3739921385617
 20
22.16106556577573
 30
0.0
 10
262.6276890153665
 20
21.7369354504649
 30
0.0
 10
262.8739775562312
 20
21.30835818112305
 30
0.0
 10
263.1292772534608
 20
20.88520667032095
 30
0.0
 10
263.3178377375433
 20
20.57267359973515
 30
0.0
 10
263.5606000734738
 20
20.32757122285868
 30
0.0
 10
263.9554858268652
 20
20.24609336482204
 30
0.0
  0
SPLINE
  5
9B
330
1F
100
AcDbEntity
  8
0
  6
Continuous
 62
   179
370
     0
100
AcDbSpline
210
0.0
220
0.0
230
1.0
 70
     8
 71
     3
 72
    20
 73
    16
 74
     0
 42
0.000000001
 43
0.00000001
 40
0.0
 40
0.0
 40
0.0
 40
0.0
 40
1.0
 40
1.0
 40
1.0
 40
2.0
 40
2.0
 40
2.0
 40
3.0
 40
3.0
 40
3.0
 40
4.0
 40
4.0
 40
4.0
 40
5.0
 40
5.0
 40
5.0
 40
5.0
 10
257.7192638284546
 20
27.51463645747964
 30
0.0
 10
258.1174764912431
 20
27.51463645747964
 30
0.0
 10
258.5159962651877
 20
27.52468175973202
 30
0.0
 10
258.913837050576
 20
27.51251762112626
 30
0.0
 10
259.7094699986222
 20
27.48819126576296
 30
0.0
 10
260.5093946232761
 20
27.49481913962259
 30
0.0
 10
261.2989762515716
 20
27.40941936834727
 30
0.0
 10
262.3071445332423
 20
27.30037799580672
 30
0.0
 10
262.8488620904764
 20
26.74717259793779
 30
0.0
 10
262.9131259646454
 20
25.88395655371281
 30
0.0
 10
262.9966382899504
 20
24.76217905347503
 30
0.0
 10
262.5617362220245
 20
24.08644572151765
 30
0.0
 10
261.5515161764629
 20
23.77337299628438
 30
0.0
 10
261.3945785321864
 20
23.72473719781129
 30
0.0
 10
261.2341319795987
 20
23.68742184709605
 30
0.0
 10
261.0219043336847
 20
23.63056361828031
 30
0.0
  0
SPLINE
  5
9C
330
1F
100
AcDbEntity
  8
0
  6
Continuous
 62
   179
370
     0
100
AcDbSpline
210
0.0
220
0.0
230
1.0
 70
     8
 71
     3
 72
    20
 73
    16
 74
     0
 42
0.000000001
 43
0.00000001
 40
1.0
 40
1.0
 40
1.0
 40
1.0
 40
2.0
 40
2.0
 40
2.0
 40
3.0
 40
3.0
 40
3.0
 40
4.0
 40
4.0
 40
4.0
 40
5.0
 40
5.0
 40
5.0
 40
6.0
 40
6.0
 40
6.0
 40
6.0
 10
259.4558811296203
 20
23.74052094311723
 30
0.0
 10
259.8313410453958
 20
23.74052094311723
 30
0.0
 10
260.1942113256325
 20
23.70804326575078
 30
0.0
 10
260.5489927438957
 20
23.74778168120398
 30
0.0
 10
261.1506181168165
 20
23.81517009427841
 30
0.0
 10
261.6082598631961
 20
24.13857044109259
 30
0.0
 10
261.7413862071132
 20
24.73962656292206
 30
0.0
 10
261.8389787525148
 20
25.18024881635489
 30
0.0
 10
261.8719876284001
 20
25.65810454981779
 30
0.0
 10
261.8164781518313
 20
26.10478869315943
 30
0.0
 10
261.7108519014664
 20
26.95476897687368
 30
0.0
 10
261.3230227860075
 20
27.28690123567825
 30
0.0
 10
260.4792308497364
 20
27.35420547185249
 30
0.0
 10
260.146744010155
 20
27.38072599997261
 30
0.0
 10
259.8103733099057
 20
27.35855230546976
 30
0.0
 10
259.4558811296203
 20
27.35855230546976
 30
0.0
  0
SPLINE
  5
9D
330
1F
100
AcDbEntity
  8
0
  6
Continuous
 62
   179
370
     0
100
AcDbSpline
210
0.0
220
0.0
230
1.0
 70
    24
 71
     3
 72
     8
 73
     4
 74
     0
 42
0.000000001
 43
0.00000001
 40
0.0
 40
0.0
 40
0.0
 40
0.0
 40
1.0
 40
1.0
 40
1.0
 40
1.0
 10
259.4558811296203
 20
27.35855230546976
 30
0.0
 10
259.4558811296203
 20
26.13864548795524
 30
0.0
 10
259.4558811296203
 20
24.94385548148867
 30
0.0
 10
259.4558811296203
 20
23.74052094311723
 30
0.0
  0
SPLINE
  5
9E
330
1F
100
AcDbEntity
  8
0
  6
Continuous
 62
   179
370
     0
100
AcDbSpline
210
0.0
220
0.0
230
1.0
 70
     8
 71
     3
 72
    14
 73
    10
 74
     0
 42
0.000000001
 43
0.00000001
 40
3.0
 40
3.0
 40
3.0
 40
3.0
 40
4.0
 40
4.0
 40
4.0
 40
5.0
 40
5.0
 40
5.0
 40
6.0
 40
6.0
 40
6.0
 40
6.0
 10
267.2336118279071
 20
20.23490821509466
 30
0.0
 10
266.3034040398355
 20
20.48709452013179
 30
0.0
 10
265.5792320909092
 20
21.34541139190241
 30
0.0
 10
265.4837047623288
 20
22.29272284982233
 30
0.0
 10
265.4259332718035
 20
22.86561853145873
 30
0.0
 10
265.4879189885011
 20
23.41465794151554
 30
0.0
 10
265.7739382574312
 20
23.92202056120339
 30
0.0
 10
266.225828300013
 20
24.72361219597301
 30
0.0
 10
266.9062728477855
 20
25.1505801106106
 30
0.0
 10
267.7758432870376
 20
25.16748813643033
 30
0.0
  0
SPLINE
  5
9F
330
1F
100
AcDbEntity
  8
0
  6
Continuous
 62
   179
370
     0
100
AcDbSpline
210
0.0
220
0.0
230
1.0
 70
     8
 71
     3
 72
    14
 73
    10
 74
     0
 42
0.000000001
 43
0.00000001
 40
0.0
 40
0.0
 40
0.0
 40
0.0
 40
1.0
 40
1.0
 40
1.0
 40
2.0
 40
2.0
 40
2.0
 40
3.0
 40
3.0
 40
3.0
 40
3.0
 10
267.7758432870376
 20
25.16748813643033
 30
0.0
 10
268.6216197225536
 20
25.16033694362373
 30
0.0
 10
269.2464106552308
 20
24.83848445240962
 30
0.0
 10
269.7103360726668
 20
24.21398909980579
 30
0.0
 10
270.372934348899
 20
23.32205720159637
 30
0.0
 10
270.3723808569537
 20
22.03321892002499
 30
0.0
 10
269.7215189161772
 20
21.13111084177938
 30
0.0
 10
269.1482911393735
 20
20.33660467264828
 30
0.0
 10
268.1650050112285
 20
19.98240211471103
 30
0.0
 10
267.2336118279071
 20
20.23490821509466
 30
0.0
  0
SPLINE
  5
A0
330
1F
100
AcDbEntity
  8
0
  6
Continuous
 62
   179
370
     0
100
AcDbSpline
210
0.0
220
0.0
230
1.0
 70
     8
 71
     3
 72
    17
 73
    13
 74
     0
 42
0.000000001
 43
0.00000001
 40
4.0
 40
4.0
 40
4.0
 40
4.0
 40
5.0
 40
5.0
 40
5.0
 40
6.0
 40
6.0
 40
6.0
 40
7.0
 40
7.0
 40
7.0
 40
8.0
 40
8.0
 40
8.0
 40
8.0
 10
266.4699528411193
 20
22.82140374989816
 30
0.0
 10
266.4269741915698
 20
22.16270989809668
 30
0.0
 10
266.5287029361534
 20
21.51524885782823
 30
0.0
 10
266.8746830637486
 20
20.93428603108956
 30
0.0
 10
267.1048165584612
 20
20.54785025472892
 30
0.0
 10
267.4153070900211
 20
20.27237193240103
 30
0.0
 10
267.9076604687568
 20
20.30531315927085
 30
0.0
 10
268.3388937306983
 20
20.33416469565678
 30
0.0
 10
268.6078393105943
 20
20.59660136402461
 30
0.0
 10
268.810867074766
 20
20.94311038392242
 30
0.0
 10
269.1208448575376
 20
21.47214721006825
 30
0.0
 10
269.202432645224
 20
22.05765558940843
 30
0.0
 10
269.218762963826
 20
22.6835112253406
 30
0.0
  0
SPLINE
  5
A1
330
1F
100
AcDbEntity
  8
0
  6
Continuous
 62
   179
370
     0
100
AcDbSpline
210
0.0
220
0.0
230
1.0
 70
     8
 71
     3
 72
    17
 73
    13
 74
     0
 42
0.000000001
 43
0.00000001
 40
0.0
 40
0.0
 40
0.0
 40
0.0
 40
1.0
 40
1.0
 40
1.0
 40
2.0
 40
2.0
 40
2.0
 40
3.0
 40
3.0
 40
3.0
 40
4.0
 40
4.0
 40
4.0
 40
4.0
 10
269.218762963826
 20
22.6835112253406
 30
0.0
 10
269.195680043492
 20
23.34551372899321
 30
0.0
 10
269.0963628325642
 20
24.01168817818242
 30
0.0
 10
268.6683621173312
 20
24.58056604641373
 30
0.0
 10
268.2143234497673
 20
25.18405330473933
 30
0.0
 10
267.4640605055332
 20
25.19142205062979
 30
0.0
 10
267.0072628343699
 20
24.59213287496141
 30
0.0
 10
266.882078331128
 20
24.42789874624284
 30
0.0
 10
266.7597204805012
 20
24.2414496033099
 30
0.0
 10
266.7072125446275
 20
24.04607386528146
 30
0.0
 10
266.5993976948625
 20
23.64490674705059
 30
0.0
 10
266.4968487059656
 20
23.23360918874381
 30
0.0
 10
266.4699528411193
 20
22.82140374989816
 30
0.0
  0
SPLINE
  5
A2
330
1F
100
AcDbEntity
  8
0
  6
Continuous
 62
   179
370
     0
100
AcDbSpline
210
0.0
220
0.0
230
1.0
 70
     8
 71
     3
 72
    17
 73
    13
 74
     0
 42
0.000000001
 43
0.00000001
 40
6.0
 40
6.0
 40
6.0
 40
6.0
 40
7.0
 40
7.0
 40
7.0
 40
8.0
 40
8.0
 40
8.0
 40
9.0
 40
9.0
 40
9.0
 40
10.0
 40
10.0
 40
10.0
 40
10.0
 10
311.6156486607862
 20
20.25320881127337
 30
0.0
 10
312.1185268426077
 20
20.41647125413319
 30
0.0
 10
312.2872188877024
 20
20.63608302071405
 30
0.0
 10
312.2876555313485
 20
21.16871754450475
 30
0.0
 10
312.2890700107628
 20
22.88922803787956
 30
0.0
 10
312.287766229737
 20
24.60974045310045
 30
0.0
 10
312.2871819882396
 20
26.33025248395311
 30
0.0
 10
312.2871512386867
 20
26.42255802816858
 30
0.0
 10
312.2845313768121
 20
26.51487279724975
 30
0.0
 10
312.2823973578678
 20
26.60716642601487
 30
0.0
 10
312.2683694120104
 20
27.21300429544448
 30
0.0
 10
312.2096131670664
 20
27.27631108979181
 30
0.0
 10
311.6691528821609
 20
27.32445797038016
 30
0.0
  0
SPLINE
  5
A3
330
1F
100
AcDbEntity
  8
0
  6
Continuous
 62
   179
370
     0
100
AcDbSpline
210
0.0
220
0.0
230
1.0
 70
    24
 71
     3
 72
     8
 73
     4
 74
     0
 42
0.000000001
 43
0.00000001
 40
5.0
 40
5.0
 40
5.0
 40
5.0
 40
6.0
 40
6.0
 40
6.0
 40
6.0
 10
313.8867245107604
 20
20.25320881127337
 30
0.0
 10
313.0865658051385
 20
20.25320881127337
 30
0.0
 10
312.3511103079175
 20
20.25320881127337
 30
0.0
 10
311.6156486607862
 20
20.25320881127337
 30
0.0
  0
SPLINE
  5
A4
330
1F
100
AcDbEntity
  8
0
  6
Continuous
 62
   179
370
     0
100
AcDbSpline
210
0.0
220
0.0
230
1.0
 70
     8
 71
     3
 72
    17
 73
    13
 74
     0
 42
0.000000001
 43
0.00000001
 40
1.0
 40
1.0
 40
1.0
 40
1.0
 40
2.0
 40
2.0
 40
2.0
 40
3.0
 40
3.0
 40
3.0
 40
4.0
 40
4.0
 40
4.0
 40
5.0
 40
5.0
 40
5.0
 40
5.0
 10
313.1781318226163
 20
27.87703492426926
 30
0.0
 10
313.1781318226163
 20
27.83642744958889
 30
0.0
 10
313.1781318226163
 20
27.75161518695077
 30
0.0
 10
313.1781318226163
 20
27.66680273212925
 30
0.0
 10
313.1781318226163
 20
25.57700952371036
 30
0.0
 10
313.1781256727049
 20
23.48721689184594
 30
0.0
 10
313.1781441224363
 20
21.39742349124223
 30
0.0
 10
313.1781441224363
 20
21.32188875296784
 30
0.0
 10
313.1771847363982
 20
21.24633325874564
 30
0.0
 10
313.1786115156352
 20
21.17082388885262
 30
0.0
 10
313.1888880160859
 20
20.62648762285203
 30
0.0
 10
313.3266152617988
 20
20.4348325806782
 30
0.0
 10
313.8867245107604
 20
20.25320881127337
 30
0.0
  0
SPLINE
  5
A5
330
1F
100
AcDbEntity
  8
0
  6
Continuous
 62
   179
370
     0
100
AcDbSpline
210
0.0
220
0.0
230
1.0
 70
     8
 71
     3
 72
     8
 73
     4
 74
     0
 42
0.000000001
 43
0.00000001
 40
0.0
 40
0.0
 40
0.0
 40
0.0
 40
1.0
 40
1.0
 40
1.0
 40
1.0
 10
311.6691528821609
 20
27.32445797038016
 30
0.0
 10
312.1410908642435
 20
27.49727756634619
 30
0.0
 10
312.6458878181427
 20
27.68213176842718
 30
0.0
 10
313.1781318226163
 20
27.87703492426926
 30
0.0
  0
SPLINE
  5
A6
330
1F
100
AcDbEntity
  8
0
  6
Continuous
 62
   179
370
     0
100
AcDbSpline
210
0.0
220
0.0
230
1.0
 70
     8
 71
     3
 72
    14
 73
    10
 74
     0
 42
0.000000001
 43
0.00000001
 40
6.0
 40
6.0
 40
6.0
 40
6.0
 40
7.0
 40
7.0
 40
7.0
 40
8.0
 40
8.0
 40
8.0
 40
9.0
 40
9.0
 40
9.0
 40
9.0
 10
278.4819664915177
 20
27.88441039662488
 30
0.0
 10
278.4819664915177
 20
27.83987735719566
 30
0.0
 10
278.4819649540404
 20
27.75219577693941
 30
0.0
 10
278.4819649540404
 20
27.66451419668386
 30
0.0
 10
278.4819664915177
 20
25.48269219002111
 30
0.0
 10
278.4816605334703
 20
23.30086999117493
 30
0.0
 10
278.4822124879378
 20
21.11904779232805
 30
0.0
 10
278.4823339486704
 20
20.63637283524633
 30
0.0
 10
278.6550987719953
 20
20.40793364087759
 30
0.0
 10
279.1055120673173
 20
20.25491771765491
 30
0.0
  0
SPLINE
  5
A7
330
1F
100
AcDbEntity
  8
0
  6
Continuous
 62
   179
370
     0
100
AcDbSpline
210
0.0
220
0.0
230
1.0
 70
     8
 71
     3
 72
     8
 73
     4
 74
     0
 42
0.000000001
 43
0.00000001
 40
5.0
 40
5.0
 40
5.0
 40
5.0
 40
6.0
 40
6.0
 40
6.0
 40
6.0
 10
276.9846800684063
 20
27.3296354262854
 30
0.0
 10
277.4478728777531
 20
27.5012575193644
 30
0.0
 10
277.9568994326009
 20
27.68986239811422
 30
0.0
 10
278.4819664915177
 20
27.88441039662488
 30
0.0
  0
SPLINE
  5
A8
330
1F
100
AcDbEntity
  8
0
  6
Continuous
 62
   179
370
     0
100
AcDbSpline
210
0.0
220
0.0
230
1.0
 70
     8
 71
     3
 72
    17
 73
    13
 74
     0
 42
0.000000001
 43
0.00000001
 40
1.0
 40
1.0
 40
1.0
 40
1.0
 40
2.0
 40
2.0
 40
2.0
 40
3.0
 40
3.0
 40
3.0
 40
4.0
 40
4.0
 40
4.0
 40
5.0
 40
5.0
 40
5.0
 40
5.0
 10
276.9460186560295
 20
20.25491771765491
 30
0.0
 10
277.4179566381115
 20
20.4199152040148
 30
0.0
 10
277.5770686601204
 20
20.6342380475635
 30
0.0
 10
277.5771993457187
 20
21.13377529050539
 30
0.0
 10
277.5776652014392
 20
22.92958298186009
 30
0.0
 10
277.5773700057348
 20
24.72538990447762
 30
0.0
 10
277.577359243392
 20
26.52119721146338
 30
0.0
 10
277.577359243392
 20
26.53798031722657
 30
0.0
 10
277.5773838430334
 20
26.55476419172763
 30
0.0
 10
277.5772915943764
 20
26.57154691311976
 30
0.0
 10
277.5738092075535
 20
27.20775573119973
 30
0.0
 10
277.5366914227135
 20
27.25167954511983
 30
0.0
 10
276.9846800684063
 20
27.3296354262854
 30
0.0
  0
SPLINE
  5
A9
330
1F
100
AcDbEntity
  8
0
  6
Continuous
 62
   179
370
     0
100
AcDbSpline
210
0.0
220
0.0
230
1.0
 70
    24
 71
     3
 72
     8
 73
     4
 74
     0
 42
0.000000001
 43
0.00000001
 40
0.0
 40
0.0
 40
0.0
 40
0.0
 40
1.0
 40
1.0
 40
1.0
 40
1.0
 10
279.1055120673173
 20
20.25491771765491
 30
0.0
 10
278.3856819552066
 20
20.25491771765491
 30
0.0
 10
277.6658503056181
 20
20.25491771765491
 30
0.0
 10
276.9460186560295
 20
20.25491771765491
 30
0.0
  0
SPLINE
  5
AA
330
1F
100
AcDbEntity
  8
0
  6
Continuous
 62
   179
370
     0
100
AcDbSpline
210
0.0
220
0.0
230
1.0
 70
     8
 71
     3
 72
    20
 73
    16
 74
     0
 42
0.000000001
 43
0.00000001
 40
5.0
 40
5.0
 40
5.0
 40
5.0
 40
6.0
 40
6.0
 40
6.0
 40
7.0
 40
7.0
 40
7.0
 40
8.0
 40
8.0
 40
8.0
 40
9.0
 40
9.0
 40
9.0
 40
10.0
 40
10.0
 40
10.0
 40
10.0
 10
307.178408284104
 20
20.25443648715803
 30
0.0
 10
307.3179589782804
 20
20.36177625633667
 30
0.0
 10
307.5293898264143
 20
20.45652254628292
 30
0.0
 10
307.6283941606455
 20
20.61954360515536
 30
0.0
 10
307.7285516030972
 20
20.78446498637256
 30
0.0
 10
307.7490584796685
 20
21.01681475508337
 30
0.0
 10
307.7500732149022
 20
21.21990094340409
 30
0.0
 10
307.7587445887104
 20
22.95682170421714
 30
0.0
 10
307.7550484924979
 20
24.69380511724258
 30
0.0
 10
307.7550361926766
 20
26.43077008053731
 30
0.0
 10
307.7550361926766
 20
26.49789904426263
 30
0.0
 10
307.7552944889175
 20
26.56503146731187
 30
0.0
 10
307.7547502218385
 20
26.63215658734291
 30
0.0
 10
307.7501131893193
 20
27.20350460556406
 30
0.0
 10
307.6774858212348
 20
27.28280885460759
 30
0.0
 10
307.160813390154
 20
27.32540717062984
 30
0.0
  0
SPLINE
  5
AB
330
1F
100
AcDbEntity
  8
0
  6
Continuous
 62
   179
370
     0
100
AcDbSpline
210
0.0
220
0.0
230
1.0
 70
    24
 71
     3
 72
     8
 73
     4
 74
     0
 42
0.000000001
 43
0.00000001
 40
4.0
 40
4.0
 40
4.0
 40
4.0
 40
5.0
 40
5.0
 40
5.0
 40
5.0
 10
309.3620693061908
 20
20.25443648715802
 30
0.0
 10
308.5715044609525
 20
20.25443648715802
 30
0.0
 10
307.8517004859625
 20
20.25443648715802
 30
0.0
 10
307.178408284104
 20
20.25443648715803
 30
0.0
  0
SPLINE
  5
AC
330
1F
100
AcDbEntity
  8
0
  6
Continuous
 62
   179
370
     0
100
AcDbSpline
210
0.0
220
0.0
230
1.0
 70
     8
 71
     3
 72
    14
 73
    10
 74
     0
 42
0.000000001
 43
0.00000001
 40
1.0
 40
1.0
 40
1.0
 40
1.0
 40
2.0
 40
2.0
 40
2.0
 40
3.0
 40
3.0
 40
3.0
 40
4.0
 40
4.0
 40
4.0
 40
4.0
 10
308.65963267846
 20
27.88697759989075
 30
0.0
 10
308.65963267846
 20
27.83196991758182
 30
0.0
 10
308.65963267846
 20
27.74275854708867
 30
0.0
 10
308.65963267846
 20
27.65354698440997
 30
0.0
 10
308.65963267846
 20
25.48863300356693
 30
0.0
 10
308.6595035303402
 20
23.32371921490945
 30
0.0
 10
308.6597187772069
 20
21.15880542625192
 30
0.0
 10
308.6597679764911
 20
20.6374237012035
 30
0.0
 10
308.807415027844
 20
20.43200746554105
 30
0.0
 10
309.3620693061909
 20
20.25443648715802
 30
0.0
  0
SPLINE
  5
AD
330
1F
100
AcDbEntity
  8
0
  6
Continuous
 62
   179
370
     0
100
AcDbSpline
210
0.0
220
0.0
230
1.0
 70
     8
 71
     3
 72
     8
 73
     4
 74
     0
 42
0.000000001
 43
0.00000001
 40
0.0
 40
0.0
 40
0.0
 40
0.0
 40
1.0
 40
1.0
 40
1.0
 40
1.0
 10
307.160813390154
 20
27.32540717062984
 30
0.0
 10
307.6336123597078
 20
27.50255342081908
 30
0.0
 10
308.1420254609839
 20
27.69304267058278
 30
0.0
 10
308.65963267846
 20
27.88697759989075
 30
0.0
  0
SPLINE
  5
AE
330
1F
100
AcDbEntity
  8
0
  6
Continuous
 62
   179
370
     0
100
AcDbSpline
210
0.0
220
0.0
230
1.0
 70
     8
 71
     3
 72
    14
 73
    10
 74
     0
 42
0.000000001
 43
0.00000001
 40
6.0
 40
6.0
 40
6.0
 40
6.0
 40
7.0
 40
7.0
 40
7.0
 40
8.0
 40
8.0
 40
8.0
 40
9.0
 40
9.0
 40
9.0
 40
9.0
 10
272.426404840594
 20
20.25907966958721
 30
0.0
 10
273.005992393597
 20
20.37668517687365
 30
0.0
 10
273.0805785081768
 20
20.81042375860577
 30
0.0
 10
273.0783845276048
 20
21.29462927466368
 30
0.0
 10
273.0702866329497
 20
23.08209538116095
 30
0.0
 10
273.0685846452182
 20
24.86961337752775
 30
0.0
 10
273.0527409382852
 20
26.65700799131587
 30
0.0
 10
273.0476395875227
 20
27.23250104921648
 30
0.0
 10
272.9826104338649
 20
27.28380667758701
 30
0.0
 10
272.4594267850394
 20
27.32510813123116
 30
0.0
  0
SPLINE
  5
AF
330
1F
100
AcDbEntity
  8
0
  6
Continuous
 62
   179
370
     0
100
AcDbSpline
210
0.0
220
0.0
230
1.0
 70
    24
 71
     3
 72
     8
 73
     4
 74
     0
 42
0.000000001
 43
0.00000001
 40
5.0
 40
5.0
 40
5.0
 40
5.0
 40
6.0
 40
6.0
 40
6.0
 40
6.0
 10
274.6224502449564
 20
20.25907966958721
 30
0.0
 10
273.8904356226618
 20
20.25907966958721
 30
0.0
 10
273.1584194628893
 20
20.25907966958721
 30
0.0
 10
272.426404840594
 20
20.25907966958721
 30
0.0
  0
SPLINE
  5
B0
330
1F
100
AcDbEntity
  8
0
  6
Continuous
 62
   179
370
     0
100
AcDbSpline
210
0.0
220
0.0
230
1.0
 70
     8
 71
     3
 72
    17
 73
    13
 74
     0
 42
0.000000001
 43
0.00000001
 40
1.0
 40
1.0
 40
1.0
 40
1.0
 40
2.0
 40
2.0
 40
2.0
 40
3.0
 40
3.0
 40
3.0
 40
4.0
 40
4.0
 40
4.0
 40
5.0
 40
5.0
 40
5.0
 40
5.0
 10
273.9540333846496
 20
27.87257450949275
 30
0.0
 10
273.9540333846496
 20
27.8074859707617
 30
0.0
 10
273.9540333846496
 20
27.71082379150879
 30
0.0
 10
273.9540333846496
 20
27.61416161225588
 30
0.0
 10
273.9540349221275
 20
25.51596282147274
 30
0.0
 10
273.9539872603212
 20
23.41776441505854
 30
0.0
 10
273.9542086570993
 20
21.31956562427539
 30
0.0
 10
273.954217881965
 20
21.22727776105204
 30
0.0
 10
273.9506540088286
 20
21.13443409966764
 30
0.0
 10
273.9590578615309
 20
21.04279505200227
 30
0.0
 10
274.0006220316647
 20
20.58964274029083
 30
0.0
 10
274.1836818051717
 20
20.38260600321025
 30
0.0
 10
274.6224502449564
 20
20.25907966958721
 30
0.0
  0
SPLINE
  5
B1
330
1F
100
AcDbEntity
  8
0
  6
Continuous
 62
   179
370
     0
100
AcDbSpline
210
0.0
220
0.0
230
1.0
 70
     8
 71
     3
 72
     8
 73
     4
 74
     0
 42
0.000000001
 43
0.00000001
 40
0.0
 40
0.0
 40
0.0
 40
0.0
 40
1.0
 40
1.0
 40
1.0
 40
1.0
 10
272.4594267850394
 20
27.32510813123116
 30
0.0
 10
272.932774634105
 20
27.49849255803981
 30
0.0
 10
273.4351023989377
 20
27.68249307566929
 30
0.0
 10
273.9540333846496
 20
27.87257450949275
 30
0.0
  0
SPLINE
  5
B2
330
1F
100
AcDbEntity
  8
0
  6
Continuous
 62
   179
370
     0
100
AcDbSpline
210
0.0
220
0.0
230
1.0
 70
     8
 71
     3
 72
    17
 73
    13
 74
     0
 42
0.000000001
 43
0.00000001
 40
6.0
 40
6.0
 40
6.0
 40
6.0
 40
7.0
 40
7.0
 40
7.0
 40
8.0
 40
8.0
 40
8.0
 40
9.0
 40
9.0
 40
9.0
 40
10.0
 40
10.0
 40
10.0
 40
10.0
 10
304.1706223551654
 20
25.06377258638473
 30
0.0
 10
304.1727133247369
 20
25.01792115989103
 30
0.0
 10
304.1800409430993
 20
24.93136078519359
 30
0.0
 10
304.1800932173391
 20
24.84479541369365
 30
0.0
 10
304.1808527312862
 20
23.65282014439031
 30
0.0
 10
304.1797703470369
 20
22.46084295323947
 30
0.0
 10
304.1818797663413
 20
21.26887114326077
 30
0.0
 10
304.1821011631179
 20
21.14380579453512
 30
0.0
 10
304.1922454404933
 20
21.01764883669525
 30
0.0
 10
304.2107535961514
 20
20.89393877449616
 30
0.0
 10
304.2621822227331
 20
20.55023795748125
 30
0.0
 10
304.4578262506062
 20
20.33981031349823
 30
0.0
 10
304.8038079156779
 20
20.2539775500868
 30
0.0
  0
SPLINE
  5
B3
330
1F
100
AcDbEntity
  8
0
  6
Continuous
 62
   179
370
     0
100
AcDbSpline
210
0.0
220
0.0
230
1.0
 70
     8
 71
     3
 72
     8
 73
     4
 74
     0
 42
0.000000001
 43
0.00000001
 40
5.0
 40
5.0
 40
5.0
 40
5.0
 40
6.0
 40
6.0
 40
6.0
 40
6.0
 10
302.7125031745686
 20
24.50968064047994
 30
0.0
 10
303.1898069535648
 20
24.6910587978335
 30
0.0
 10
303.6729961969132
 20
24.87467283202501
 30
0.0
 10
304.1706223551654
 20
25.06377258638473
 30
0.0
  0
SPLINE
  5
B4
330
1F
100
AcDbEntity
  8
0
  6
Continuous
 62
   179
370
     0
100
AcDbSpline
210
0.0
220
0.0
230
1.0
 70
     8
 71
     3
 72
    17
 73
    13
 74
     0
 42
0.000000001
 43
0.00000001
 40
1.0
 40
1.0
 40
1.0
 40
1.0
 40
2.0
 40
2.0
 40
2.0
 40
3.0
 40
3.0
 40
3.0
 40
4.0
 40
4.0
 40
4.0
 40
5.0
 40
5.0
 40
5.0
 40
5.0
 10
302.6973344203136
 20
20.2539775500868
 30
0.0
 10
303.1321361678242
 20
20.3494649042487
 30
0.0
 10
303.2897768237453
 20
20.65853557522151
 30
0.0
 10
303.2916556214045
 20
21.04785181591347
 30
0.0
 10
303.2966032244031
 20
22.071496731734
 30
0.0
 10
303.2829750227277
 20
23.09531768874207
 30
0.0
 10
303.2668591822546
 20
24.11891186780057
 30
0.0
 10
303.2632153602819
 20
24.35030186610297
 30
0.0
 10
303.1332831261333
 20
24.4918735746181
 30
0.0
 10
302.8846514693662
 20
24.49557889569631
 30
0.0
 10
302.8224697242705
 20
24.49650561033552
 30
0.0
 10
302.760410977386
 20
24.5055728846329
 30
0.0
 10
302.7125031745686
 20
24.50968064047994
 30
0.0
  0
SPLINE
  5
B5
330
1F
100
AcDbEntity
  8
0
  6
Continuous
 62
   179
370
     0
100
AcDbSpline
210
0.0
220
0.0
230
1.0
 70
    24
 71
     3
 72
     8
 73
     4
 74
     0
 42
0.000000001
 43
0.00000001
 40
0.0
 40
0.0
 40
0.0
 40
0.0
 40
1.0
 40
1.0
 40
1.0
 40
1.0
 10
304.8038079156779
 20
20.2539775500868
 30
0.0
 10
304.101651108875
 20
20.2539775500868
 30
0.0
 10
303.3994912271164
 20
20.2539775500868
 30
0.0
 10
302.6973344203136
 20
20.2539775500868
 30
0.0
  0
SPLINE
  5
B6
330
1F
100
AcDbEntity
  8
0
  6
Continuous
 62
   179
370
     0
100
AcDbSpline
210
0.0
220
0.0
230
1.0
 70
     8
 71
     3
 72
    11
 73
     7
 74
     0
 42
0.000000001
 43
0.00000001
 40
2.0
 40
2.0
 40
2.0
 40
2.0
 40
3.0
 40
3.0
 40
3.0
 40
4.0
 40
4.0
 40
4.0
 40
4.0
 10
303.0570519104932
 20
26.35430478392947
 30
0.0
 10
303.0511172468595
 20
26.75330175249256
 30
0.0
 10
303.3266947364937
 20
27.05519259513757
 30
0.0
 10
303.6924299141011
 20
27.05034857969325
 30
0.0
 10
304.0507636744179
 20
27.04560238626284
 30
0.0
 10
304.3255386007336
 20
26.75299425696746
 30
0.0
 10
304.327448147944
 20
26.37412133304796
 30
0.0
  0
SPLINE
  5
B7
330
1F
100
AcDbEntity
  8
0
  6
Continuous
 62
   179
370
     0
100
AcDbSpline
210
0.0
220
0.0
230
1.0
 70
     8
 71
     3
 72
    11
 73
     7
 74
     0
 42
0.000000001
 43
0.00000001
 40
0.0
 40
0.0
 40
0.0
 40
0.0
 40
1.0
 40
1.0
 40
1.0
 40
2.0
 40
2.0
 40
2.0
 40
2.0
 10
304.327448147944
 20
26.37412133304796
 30
0.0
 10
304.3293945946187
 20
25.98752450590587
 30
0.0
 10
304.068057222753
 20
25.70828897263022
 30
0.0
 10
303.6993639381942
 20
25.70301926806731
 30
0.0
 10
303.3259905717408
 20
25.69768229885988
 30
0.0
 10
303.0628482011429
 20
25.96449808787493
 30
0.0
 10
303.0570519104932
 20
26.35430478392947
 30
0.0
  0
MTEXT
  5
B9
330
1F
100
AcDbEntity
  8
0
  6
Continuous
 62
     7
370
     0
100
AcDbMText
 10
257.9690483454
 20
40.3166048975
 30
0.0
 40
3.7041666667
 41
0.0
 71
     1
 72
     1
  1
BOUN21 - Bounce Small Shade
  7
SLDTEXTSTYLE0
 73
     1
 44
1.0
  0
MTEXT
  5
BA
330
1F
100
AcDbEntity
  8
0
  6
Continuous
 62
     7
370
     0
100
AcDbMText
 10
258.6105142387
 20
44.3546043689
 30
0.0
 40
1.5875
 41
0.0
 71
     1
 72
     1
  1
\LDESCRIPTION
  7
SLDTEXTSTYLE0
 73
     1
 44
1.0
  0
INSERT
  5
C1
330
1F
100
AcDbEntity
  8
0
  6
Continuous
 62
     7
370
     0
100
AcDbBlockReference
  2
SW_NOTE_0
 10
317.1049495712
 20
24.1495665419
 30
0.0
  0
MTEXT
  5
C2
330
1F
100
AcDbEntity
  8
0
  6
Continuous
 62
     7
370
     0
100
AcDbMText
 10
273.8048790106
 20
32.371143085
 30
0.0
 40
1.5875
 41
0.0
 71
     2
 72
     1
  1
\LSCALE
  7
SLDTEXTSTYLE0
 73
     1
 44
1.0
  0
MTEXT
  5
C3
330
1F
100
AcDbEntity
  8
0
  6
Continuous
 62
     7
370
     0
100
AcDbMText
 10
278.3960862508
 20
33.4394651033
 30
0.0
 40
2.6458333333
 41
0.0
 71
     1
 72
     1
  1
1:10
  7
SLDTEXTSTYLE0
 73
     1
 44
1.0
  0
MTEXT
  5
C4
330
1F
100
AcDbEntity
  8
0
  6
Continuous
 62
     7
370
     0
100
AcDbMText
 10
261.4913139704
 20
32.371143085
 30
0.0
 40
1.5875
 41
0.0
 71
     2
 72
     1
  1
\LSIZE
  7
SLDTEXTSTYLE0
 73
     1
 44
1.0
  0
MTEXT
  5
C5
330
1F
100
AcDbEntity
  8
0
  6
Continuous
 62
     7
370
     0
100
AcDbMText
 10
264.7495209372
 20
33.4394651033
 30
0.0
 40
2.6458333333
 41
0.0
 71
     1
 72
     1
  1
B
  7
SLDTEXTSTYLE0
 73
     1
 44
1.0
  0
INSERT
  5
CC
330
1F
100
AcDbEntity
  8
0
  6
Continuous
 62
     7
370
     0
100
AcDbBlockReference
  2
SW_NOTE_1
 10
258.0900415808
 20
15.6806800849
 30
0.0
  0
LINE
  5
CD
330
1F
100
AcDbEntity
  8
0
  6
Continuous
 62
     7
370
    15
100
AcDbLine
 10
107.7059635945
 20
128.0933393825
 30
0.0
 11
58.9473430947
 21
106.4770256999
 31
0.0
  0
SPLINE
  5
CE
330
1F
100
AcDbEntity
  8
0
  6
Continuous
 62
     7
370
    15
100
AcDbSpline
210
0.0
220
0.0
230
1.0
 70
     8
 71
     3
 72
    38
 73
    34
 74
     0
 42
0.000000001
 43
0.00000001
 40
0.0
 40
0.0
 40
0.0
 40
0.0
 40
0.0150809880609969
 40
0.0294020887133629
 40
0.0413788092226042
 40
0.0510111545855241
 40
0.0587635648652145
 40
0.0664532192952989
 40
0.0850576922190182
 40
0.1039783365320319
 40
0.171552054015246
 40
0.2922193542375194
 40
0.5076963748172925
 40
0.7525564646420329
 40
0.8749870935327022
 40
0.8953921621565041
 40
0.9157965055310356
 40
0.936324218371139
 40
0.9471890965054828
 40
0.9586271292675393
 40
0.9702452467486934
 40
0.97802025625618
 40
0.984911878058263
 40
0.9880453689293945
 40
0.9895764615709611
 40
0.9909655561544239
 40
0.9922173861197062
 40
0.993017420599309
 40
0.9941419857132789
 40
0.9955849370436066
 40
0.9973148490883679
 40
0.9992701970567347
 40
0.9999999999999999
 40
0.9999999999999999
 40
0.9999999999999999
 40
0.9999999999999999
 10
68.5251785033398
 20
147.9924833819986
 30
0.0
 10
68.47259715236744
 20
147.7809535576369
 30
0.0
 10
68.37008387275311
 20
147.3685522855019
 30
0.0
 10
68.22618438496607
 20
146.7880701240753
 30
0.0
 10
68.10142269232999
 20
146.2839772636963
 30
0.0
 10
67.99961658728915
 20
145.8720054554632
 30
0.0
 10
67.9127721472187
 20
145.5201616626249
 30
0.0
 10
67.79497138032741
 20
145.0423918960719
 30
0.0
 10
67.63879557261754
 20
144.407834228896
 30
0.0
 10
67.27666157845998
 20
142.93262776801
 30
0.0
 10
66.56688511074174
 20
140.0238405236833
 30
0.0
 10
65.20080388491873
 20
134.3510130141394
 30
0.0
 10
63.2790606088052
 20
126.1764782519857
 30
0.0
 10
61.41269233659206
 20
117.9629551563519
 30
0.0
 10
60.20387180183555
 20
112.4914759684428
 30
0.0
 10
59.70026817866371
 20
110.1865229703707
 30
0.0
 10
59.5116320622502
 20
109.3203146966722
 30
0.0
 10
59.352769410775
 20
108.5887314532087
 30
0.0
 10
59.22184754952475
 20
107.9837125128461
 30
0.0
 10
59.11800083502258
 20
107.5045270878292
 30
0.0
 10
59.02503159351645
 20
107.0688814888065
 30
0.0
 10
58.94244296907367
 20
106.6976723923206
 30
0.0
 10
58.89446358272968
 20
106.4458005029473
 30
0.0
 10
58.84982006947011
 20
106.2830076190724
 30
0.0
 10
58.85567553966456
 20
106.1946840859722
 30
0.0
 10
58.87349029724999
 20
106.1366231021297
 30
0.0
 10
58.89745431137484
 20
106.0926579376271
 30
0.0
 10
58.9254312478477
 20
106.0562080443073
 30
0.0
 10
58.96070493690506
 20
106.0229207381889
 30
0.0
 10
59.01443117896049
 20
105.9914633483627
 30
0.0
 10
59.08659314169306
 20
105.9764946680691
 30
0.0
 10
59.15297189067338
 20
105.9808381361278
 30
0.0
 10
59.18689047344882
 20
106.0000873158157
 30
0.0
 10
59.19610927803583
 20
106.0053190917769
 30
0.0
  0
SPLINE
  5
CF
330
1F
100
AcDbEntity
  8
0
  6
Continuous
 62
     7
370
    15
100
AcDbSpline
210
0.0
220
0.0
230
1.0
 70
     8
 71
     3
 72
    26
 73
    22
 74
     0
 42
0.000000001
 43
0.00000001
 40
0.0
 40
0.0
 40
0.0
 40
0.0
 40
0.000021105499678
 40
0.0073936201141534
 40
0.0209544377968679
 40
0.0436368587338523
 40
0.0819224180059628
 40
0.1493346457023865
 40
0.2697138288297606
 40
0.48467623673649
 40
0.7637143694207753
 40
0.8864914665952539
 40
0.8999969554271309
 40
0.9133845738174503
 40
0.9259828935305128
 40
0.9377544063242836
 40
0.9468727760733012
 40
0.9587684614637899
 40
0.9734424973393739
 40
0.9908949529593574
 40
1.0
 40
1.0
 40
1.0
 40
1.0
 10
58.97734286830337
 20
106.4891832136426
 30
0.0
 10
58.97740505805248
 20
106.4894734259854
 30
0.0
 10
58.99919119848365
 20
106.5911398090411
 30
0.0
 10
59.06130487682196
 20
106.879195759953
 30
0.0
 10
59.19059040147263
 20
107.478771718619
 30
0.0
 10
59.41205327420952
 20
108.5031849439486
 30
0.0
 10
59.79536500731663
 20
110.2674003480255
 30
0.0
 10
60.47552288420209
 20
113.3730544516621
 30
0.0
 10
61.70379794162326
 20
118.9020977729677
 30
0.0
 10
63.62229953826884
 20
127.3263222144144
 30
0.0
 10
65.61414473580764
 20
135.7682200831881
 30
0.0
 10
66.9911042251815
 20
141.4441384020859
 30
0.0
 10
67.49166876587678
 20
143.4885199047547
 30
0.0
 10
67.62397246306037
 20
144.0278876158433
 30
0.0
 10
67.75067449159262
 20
144.5435209495232
 30
0.0
 10
67.86322843550553
 20
145.00081103083
 30
0.0
 10
67.97355132135772
 20
145.4484638738769
 30
0.0
 10
68.09227458344738
 20
145.93601762254
 30
0.0
 10
68.23339324947727
 20
146.5386533141149
 30
0.0
 10
68.35809922310249
 20
147.1048732786314
 30
0.0
 10
68.43769684177684
 20
147.4697652963997
 30
0.0
 10
68.46498630764319
 20
147.5948658764126
 30
0.0
  0
SPLINE
  5
D0
330
1F
100
AcDbEntity
  8
0
  6
Continuous
 62
     7
370
    15
100
AcDbSpline
210
0.0
220
0.0
230
1.0
 70
     8
 71
     3
 72
    16
 73
    12
 74
     0
 42
0.000000001
 43
0.00000001
 40
0.0
 40
0.0
 40
0.0
 40
0.0
 40
0.0573742320590194
 40
0.1599552084455048
 40
0.2653469135248316
 40
0.3410976631840087
 40
0.4533202803577523
 40
0.5317581689803613
 40
0.6036424953816435
 40
0.8087478123398492
 40
1.0
 40
1.0
 40
1.0
 40
1.0
 10
59.16597227135437
 20
106.014174975388
 30
0.0
 10
59.15545182671005
 20
106.0161854958932
 30
0.0
 10
59.12612158810593
 20
106.0217906816178
 30
0.0
 10
59.08211635338701
 20
106.0407646852059
 30
0.0
 10
59.03545119229273
 20
106.0628827656011
 30
0.0
 10
58.99122061622863
 20
106.0958701015326
 30
0.0
 10
58.95935129524791
 20
106.1351536777654
 30
0.0
 10
58.93909501076791
 20
106.1800785482013
 30
0.0
 10
58.92386385326544
 20
106.2454655244085
 30
0.0
 10
58.94430492659419
 20
106.3331596602567
 30
0.0
 10
58.95946849774755
 20
106.4051694380619
 30
0.0
 10
58.96678529160668
 20
106.4399159166266
 30
0.0
  0
SPLINE
  5
D1
330
1F
100
AcDbEntity
  8
0
  6
Continuous
 62
     7
370
    15
100
AcDbSpline
210
0.0
220
0.0
230
1.0
 70
     8
 71
     3
 72
    15
 73
    11
 74
     0
 42
0.000000001
 43
0.00000001
 40
0.0
 40
0.0
 40
0.0
 40
0.0
 40
0.1565213930360811
 40
0.2834066062265158
 40
0.4507078418901956
 40
0.5411000106667486
 40
0.6630058907922496
 40
0.8158306298564734
 40
0.9041116983086519
 40
1.0
 40
1.0
 40
1.0
 40
1.0
 10
107.9487275238246
 20
127.7510100493258
 30
0.0
 10
107.9779073182042
 20
127.7676065041638
 30
0.0
 10
108.0307419265289
 20
127.7976569966222
 30
0.0
 10
108.0903585815274
 20
127.8748838524038
 30
0.0
 10
108.1186607047993
 20
127.9534880440523
 30
0.0
 10
108.1225086207835
 20
128.0345184880259
 30
0.0
 10
108.1073346687767
 20
128.1115826037296
 30
0.0
 10
108.0691990830978
 20
128.1802924600199
 30
0.0
 10
108.019254431015
 20
128.2323789267336
 30
0.0
 10
107.9858604701623
 20
128.2530011841822
 30
0.0
 10
107.9684738103154
 20
128.2637382206516
 30
0.0
  0
SPLINE
  5
D2
330
1F
100
AcDbEntity
  8
0
  6
Continuous
 62
     7
370
    15
100
AcDbSpline
210
0.0
220
0.0
230
1.0
 70
     8
 71
     3
 72
    14
 73
    10
 74
     0
 42
0.000000001
 43
0.00000001
 40
0.0
 40
0.0
 40
0.0
 40
0.0
 40
0.1579587505581756
 40
0.2850013981460821
 40
0.4513962304914555
 40
0.541139957126932
 40
0.662315212403213
 40
0.8150966148135126
 40
1.0
 40
1.0
 40
1.0
 40
1.0
 10
107.932388355421
 20
128.1966242880815
 30
0.0
 10
107.9530438630695
 20
128.1827824865929
 30
0.0
 10
107.9903121279705
 20
128.1578080374841
 30
0.0
 10
108.0297030521646
 20
128.0978601436024
 30
0.0
 10
108.0457784804507
 20
128.0389373699373
 30
0.0
 10
108.0438778897289
 20
127.9797376442936
 30
0.0
 10
108.028184681186
 20
127.9247556012218
 30
0.0
 10
107.9887333651848
 20
127.8624972594425
 30
0.0
 10
107.9427835277365
 20
127.8354065226824
 30
0.0
 10
107.9176231390989
 20
127.8205726624728
 30
0.0
  0
LINE
  5
D3
330
1F
100
AcDbEntity
  8
0
  6
Continuous
 62
     7
370
    15
100
AcDbLine
 10
107.9176231389
 20
127.8205726628
 30
0.0
 11
107.8419007956
 21
127.7867140023
 31
0.0
  0
LINE
  5
D4
330
1F
100
AcDbEntity
  8
0
  6
Continuous
 62
     7
370
    15
100
AcDbLine
 10
107.8720881028
 20
127.7167413243
 30
0.0
 11
107.948727524
 21
127.751010049
 31
0.0
  0
LINE
  5
D5
330
1F
100
AcDbEntity
  8
0
  6
Continuous
 62
     7
370
    15
100
AcDbLine
 10
71.2251138349
 20
147.9331924944
 30
0.0
 11
107.9323883553
 21
128.1966242881
 31
0.0
  0
LINE
  5
D6
330
1F
100
AcDbEntity
  8
0
  6
Continuous
 62
     7
370
    15
100
AcDbLine
 10
107.9684738104
 20
128.2637382206
 30
0.0
 11
71.2651260084
 21
147.9981951303
 31
0.0
  0
LINE
  5
D7
330
1F
100
AcDbEntity
  8
0
  6
Continuous
 62
     7
370
    15
100
AcDbLine
 10
135.4565263233
 20
69.0073828532
 30
0.0
 11
128.0478150234
 21
76.4160941531
 31
0.0
  0
LINE
  5
D8
330
1F
100
AcDbEntity
  8
0
  6
Continuous
 62
     7
370
    15
100
AcDbLine
 10
122.6596613508
 20
71.0279404804
 30
0.0
 11
127.8365263233
 21
65.8510755079
 31
0.0
  0
LINE
  5
D9
330
1F
100
AcDbEntity
  8
0
  6
Continuous
 62
     7
370
    15
100
AcDbLine
 10
135.4565263233
 20
60.4348828532
 30
0.0
 11
135.4565263233
 21
69.0073828532
 31
0.0
  0
LINE
  5
DA
330
1F
100
AcDbEntity
  8
0
  6
Continuous
 62
     7
370
    15
100
AcDbLine
 10
127.8365263233
 20
65.8510755079
 30
0.0
 11
127.8365263233
 21
60.4348828532
 31
0.0
  0
LWPOLYLINE
  5
DB
330
1F
100
AcDbEntity
  8
0
  6
Continuous
 62
     7
370
    15
100
AcDbPolyline
 90
       86
 70
   128
 43
0.0
 10
59.1032733618
 20
106.1253031614
 10
59.328206208
 20
105.6936909403
 10
59.5854890074
 20
105.2773892485
 10
59.8747761746
 20
104.8769572673
 10
60.1956791357
 20
104.4929328619
 10
60.5477668502
 20
104.1258318581
 10
60.9305663895
 20
103.7761473505
 10
61.3435635729
 20
103.4443490394
 10
61.7862036576
 20
103.1308826003
 10
62.2578920843
 20
102.8361690848
 10
62.7579952755
 20
102.5606043558
 10
63.2858414868
 20
102.3045585549
 10
63.8407217087
 20
102.068375606
 10
64.4218906198
 20
101.8523727528
 10
65.028567587
 20
101.6568401328
 10
65.6599377148
 20
101.4820403878
 10
66.3151529392
 20
101.3282083108
 10
66.9933331674
 20
101.1955505309
 10
67.6935674599
 20
101.0842452356
 10
68.4149152536
 20
100.9944419315
 10
69.1564076256
 20
100.9262612435
 10
69.9170485947
 20
100.8797947526
 10
70.6958164589
 20
100.8551048731
 10
71.491665168
 20
100.852224769
 10
72.3035257288
 20
100.8711583086
 10
73.1303076404
 20
100.9118800603
 10
73.9709003597
 20
100.9743353261
 10
74.8241747926
 20
101.0584402153
 10
75.6889848108
 20
101.1640817574
 10
76.5641687913
 20
101.2911180533
 10
77.4485511767
 20
101.4393784664
 10
78.340944054
 20
101.6086638515
 10
79.2401487508
 20
101.7987468225
 10
80.1449574445
 20
102.0093720578
 10
81.0541547856
 20
102.240256643
 10
81.9665195293
 20
102.4910904512
 10
82.8808261766
 20
102.7615365595
 10
83.7958466201
 20
103.0512317015
 10
84.7103517935
 20
103.3597867552
 10
85.6231133225
 20
103.6867872659
 10
86.5329051753
 20
104.0317940027
 10
87.4385053086
 20
104.3943435483
 10
88.3386973097
 20
104.7739489221
 10
89.23227203
 20
105.1701002335
 10
90.1180292094
 20
105.5822653674
 10
90.9947790885
 20
106.0098906988
 10
91.8613440064
 20
106.4524018363
 10
92.716559983
 20
106.9092043938
 10
93.5592782819
 20
107.3796847885
 10
94.3883669542
 20
107.8632110657
 10
95.2027123581
 20
108.3591337473
 10
96.0012206552
 20
108.8667867039
 10
96.7828192798
 20
109.3854880503
 10
97.5464583793
 20
109.9145410605
 10
98.2911122248
 20
110.4532351044
 10
99.0157805884
 20
111.0008466017
 10
99.719490087
 20
111.5566399943
 10
100.4012954897
 20
112.1198687338
 10
101.0602809875
 20
112.6897762849
 10
101.6955614232
 20
113.2655971409
 10
102.3062834807
 20
113.8465578525
 10
102.8916268308
 20
114.4318780665
 10
103.4508052336
 20
115.0207715737
 10
103.983067594
 20
115.6124473655
 10
104.4876989708
 20
116.206110696
 10
104.9640215374
 20
116.8009641495
 10
105.4113954915
 20
117.396208712
 10
105.8292199152
 20
117.9910448439
 10
106.2169335819
 20
118.5846735543
 10
106.5740157099
 20
119.1762974741
 10
106.8999866623
 20
119.765121927
 10
107.1944085911
 20
120.3503559972
 10
107.4568860253
 20
120.9312135912
 10
107.6870664021
 20
121.5069144944
 10
107.8846405405
 20
122.0766854185
 10
108.0493430566
 20
122.6397610405
 10
108.18095272
 20
123.1953850305
 10
108.279292751
 20
123.7428110678
 10
108.3442310583
 20
124.2813038434
 10
108.3756804158
 20
124.8101400474
 10
108.3735985804
 20
125.3286093407
 10
108.3379883485
 20
125.8360153093
 10
108.2688975522
 20
126.3316763995
 10
108.166418995
 20
126.8149268335
 10
108.0306903274
 20
127.2851175036
 10
107.8618938616
 20
127.7416168441
  0
LINE
  5
DC
330
1F
100
AcDbEntity
  8
0
  6
Continuous
 62
     7
370
    15
100
AcDbLine
 10
59.1032733618
 20
106.1253031614
 30
0.0
 11
58.9916254958
 21
106.3771405472
 31
0.0
  0
LWPOLYLINE
  5
DD
330
1F
100
AcDbEntity
  8
0
  6
Continuous
 62
     7
370
    15
100
AcDbPolyline
 90
       86
 70
   128
 43
0.0
 10
107.7502459956
 20
127.9934542298
 10
107.9190424614
 20
127.5369548893
 10
108.054771129
 20
127.0667642192
 10
108.1572496862
 20
126.5835137853
 10
108.2263404825
 20
126.0878526951
 10
108.2619507144
 20
125.5804467264
 10
108.2640325498
 20
125.0619774331
 10
108.2325831923
 20
124.5331412292
 10
108.167644885
 20
123.9946484536
 10
108.069304854
 20
123.4472224162
 10
107.9376951906
 20
122.8915984262
 10
107.7729926745
 20
122.3285228043
 10
107.5754185361
 20
121.7587518802
 10
107.3452381593
 20
121.183050977
 10
107.0827607251
 20
120.6021933829
 10
106.7883387963
 20
120.0169593128
 10
106.4623678439
 20
119.4281348598
 10
106.1052857159
 20
118.83651094
 10
105.7175720492
 20
118.2428822297
 10
105.2997476255
 20
117.6480460978
 10
104.8523736714
 20
117.0528015353
 10
104.3760511048
 20
116.4579480817
 10
103.871419728
 20
115.8642847512
 10
103.3391573676
 20
115.2726089594
 10
102.7799789648
 20
114.6837154522
 10
102.1946356147
 20
114.0983952383
 10
101.5839135572
 20
113.5174345267
 10
100.9486331215
 20
112.9416136706
 10
100.2896476237
 20
112.3717061196
 10
99.607842221
 20
111.80847738
 10
98.9041327224
 20
111.2526839874
 10
98.1794643588
 20
110.7050724901
 10
97.4348105133
 20
110.1663784462
 10
96.6711714138
 20
109.637325436
 10
95.8895727892
 20
109.1186240897
 10
95.0910644921
 20
108.610971133
 10
94.2767190882
 20
108.1150484515
 10
93.447630416
 20
107.6315221742
 10
92.604912117
 20
107.1610417795
 10
91.7496961404
 20
106.7042392221
 10
90.8831312225
 20
106.2617280846
 10
90.0063813434
 20
105.8341027532
 10
89.120624164
 20
105.4219376192
 10
88.2270494437
 20
105.0257863078
 10
87.3268574426
 20
104.6461809341
 10
86.4212573093
 20
104.2836313884
 10
85.5114654566
 20
103.9386246517
 10
84.5987039275
 20
103.611624141
 10
83.6841987541
 20
103.3030690872
 10
82.7691783106
 20
103.0133739452
 10
81.8548716633
 20
102.7429278369
 10
80.9425069196
 20
102.4920940287
 10
80.0333095785
 20
102.2612094435
 10
79.1285008848
 20
102.0505842083
 10
78.229296188
 20
101.8605012373
 10
77.3369033107
 20
101.6912158521
 10
76.4525209253
 20
101.5429554391
 10
75.5773369448
 20
101.4159191432
 10
74.7125269266
 20
101.3102776011
 10
73.8592524937
 20
101.2261727118
 10
73.0186597744
 20
101.163717446
 10
72.1918778628
 20
101.1229956943
 10
71.3800173021
 20
101.1040621547
 10
70.5841685929
 20
101.1069422589
 10
69.8054007287
 20
101.1316321383
 10
69.0447597596
 20
101.1780986292
 10
68.3032673876
 20
101.2462793173
 10
67.5819195939
 20
101.3360826214
 10
66.8816853014
 20
101.4473879167
 10
66.2035050732
 20
101.5800456965
 10
65.5482898488
 20
101.7338777735
 10
64.9169197211
 20
101.9086775186
 10
64.3102427538
 20
102.1042101386
 10
63.7290738428
 20
102.3202129918
 10
63.1741936208
 20
102.5563959407
 10
62.6463474095
 20
102.8124417415
 10
62.1462442183
 20
103.0880064706
 10
61.6745557916
 20
103.382719986
 10
61.2319157069
 20
103.6961864252
 10
60.8189185235
 20
104.0279847363
 10
60.4361189842
 20
104.3776692439
 10
60.0840312698
 20
104.7447702476
 10
59.7631283086
 20
105.1287946531
 10
59.4738411414
 20
105.5292266342
 10
59.216558342
 20
105.945528326
 10
58.9916254958
 20
106.3771405472
  0
LINE
  5
DE
330
1F
100
AcDbEntity
  8
0
  6
Continuous
 62
     7
370
    15
100
AcDbLine
 10
107.8618938616
 20
127.7416168441
 30
0.0
 11
107.7502459956
 21
127.9934542298
 31
0.0
  0
LINE
  5
DF
330
1F
100
AcDbEntity
  8
0
  6
Continuous
 62
     7
370
    15
100
AcDbLine
 10
58.9916254958
 20
106.3771405472
 30
0.0
 11
107.7502459956
 21
127.9934542298
 31
0.0
  0
CIRCLE
  5
E0
330
1F
100
AcDbEntity
  8
0
  6
Continuous
 62
     7
370
    15
100
AcDbCircle
 10
69.893601058
 20
148.7976171468
 30
0.0
 40
1.587499999999977
  0
LINE
  5
E1
330
1F
100
AcDbEntity
  8
0
  6
Continuous
 62
     7
370
    15
100
AcDbLine
 10
58.9916254958
 20
106.3771405472
 30
0.0
 11
58.9473494858
 21
106.4770112838
 31
0.0
  0
LINE
  5
E2
330
1F
100
AcDbEntity
  8
0
  6
Continuous
 62
     7
370
    15
100
AcDbLine
 10
107.7502459956
 20
127.9934542298
 30
0.0
 11
107.7059635945
 21
128.0933393825
 31
0.0
  0
LWPOLYLINE
  5
E3
330
1F
100
AcDbEntity
  8
0
  6
Continuous
 62
     7
370
    15
100
AcDbPolyline
 90
       86
 70
   128
 43
0.0
 10
107.872141412
 20
127.7167651611
 10
108.0335825558
 20
127.2785936776
 10
108.1715316032
 20
126.8033946303
 10
108.2762235021
 20
126.3151516944
 10
108.3475176291
 20
125.8145206835
 10
108.3853182211
 20
125.302174051
 10
108.389574504
 20
124.7787999871
 10
108.3602807605
 20
124.2451014939
 10
108.2974763385
 20
123.7017954416
 10
108.2012455976
 20
123.1496116052
 10
108.071717796
 20
122.5892916846
 10
107.909066917
 20
122.0215883081
 10
107.7135114352
 20
121.4472640216
 10
107.485314023
 20
120.8670902643
 10
107.2247811978
 20
120.2818463324
 10
106.9322629105
 20
119.6923183324
 10
106.6081520751
 20
119.0992981253
 10
106.252884041
 20
118.5035822628
 10
105.8669360085
 20
117.9059709176
 10
105.4508263875
 20
117.3072668082
 10
105.0051141013
 20
116.708274121
 10
104.5303978361
 20
116.1097974302
 10
104.0273152361
 20
115.5126406166
 10
103.4965420481
 20
114.9176057883
 10
102.9387912126
 20
114.3254922032
 10
102.3548119073
 20
113.7370951951
 10
101.7453885401
 20
113.1532051059
 10
101.1113396956
 20
112.5746062237
 10
100.4535170356
 20
112.0020757292
 10
99.7728041554
 20
111.4363826522
 10
99.0701153965
 20
110.8782868384
 10
98.3463946188
 20
110.3285379286
 10
97.6026139325
 20
109.7878743519
 10
96.8397723926
 20
109.2570223342
 10
96.0588946569
 20
108.7366949221
 10
95.2610296096
 20
108.2275910255
 10
94.4472489524
 20
107.7303944788
 10
93.6186457651
 20
107.2457731223
 10
92.7763330373
 20
106.774377905
 10
91.9214421733
 20
106.3168420107
 10
91.0551214728
 20
105.8737800068
 10
90.1785345877
 20
105.4457870196
 10
89.2928589601
 20
105.0334379342
 10
88.3992842398
 20
104.6372866228
 10
87.4990106869
 20
104.2578652005
 10
86.5932475596
 20
103.8956833107
 10
85.6832114895
 20
103.5512274403
 10
84.7701248478
 20
103.2249602665
 10
83.8552141033
 20
102.9173200353
 10
82.9397081748
 20
102.6287199726
 10
82.0248367808
 20
102.3595477294
 10
81.1118287873
 20
102.1101648612
 10
80.2019105574
 20
101.8809063418
 10
79.2963043039
 20
101.672080114
 10
78.396226448
 20
101.4839666757
 10
77.5028859848
 20
101.3168187031
 10
76.6174828597
 20
101.1708607113
 10
75.7412063566
 20
101.0462887528
 10
74.8752335006
 20
100.9432701541
 10
74.0207274766
 20
100.8619432911
 10
73.1788360671
 20
100.8024174028
 10
72.3506901106
 20
100.7647724453
 10
71.5374019825
 20
100.7490589836
 10
70.740064101
 20
100.7552981243
 10
69.9597474599
 20
100.7834814868
 10
69.1975001896
 20
100.833571215
 10
68.4543461495
 20
100.9055000277
 10
67.7312835531
 20
100.9991713093
 10
67.0292836266
 20
101.1144592394
 10
66.3492893044
 20
101.251208962
 10
65.692213963
 20
101.4092367931
 10
65.0589401938
 20
101.588330468
 10
64.4503186175
 20
101.7882494259
 10
63.8671667418
 20
102.0087251333
 10
63.3102678632
 20
102.2494614446
 10
62.7803700149
 20
102.5101349999
 10
62.2781849619
 20
102.7903956595
 10
61.8043872451
 20
103.089866974
 10
61.3596132751
 20
103.40814669
 10
60.9444604777
 20
103.7448072903
 10
60.5594864909
 20
104.0993965685
 10
60.2052084163
 20
104.4714382361
 10
59.8821021245
 20
104.8604325623
 10
59.5906016155
 20
105.2658570453
 10
59.3310984365
 20
105.6871671143
 10
59.1685336003
 20
105.9915116745
  0
LINE
  5
E4
330
1F
100
AcDbEntity
  8
0
  6
Continuous
 62
     7
370
    15
100
AcDbLine
 10
135.4565263233
 20
69.0073828532
 30
0.0
 11
127.8365263233
 21
65.8510755079
 31
0.0
  0
LINE
  5
E5
330
1F
100
AcDbEntity
  8
0
  6
Continuous
 62
     7
370
    15
100
AcDbLine
 10
128.0478150234
 20
76.4160941531
 30
0.0
 11
122.6596613508
 21
71.0279404804
 31
0.0
  0
LINE
  5
E6
330
1F
100
AcDbEntity
  8
0
  6
Continuous
 62
     7
370
    15
100
AcDbLine
 10
135.4565263233
 20
60.4348828532
 30
0.0
 11
127.8365263233
 21
60.4348828532
 31
0.0
  0
LWPOLYLINE
  5
E7
330
1F
100
AcDbEntity
  8
0
  6
Continuous
 62
     8
370
    15
100
AcDbPolyline
 90
       10
 70
   128
 43
0.0
 10
107.9323883553
 20
128.1966242881
 10
107.9337475095
 20
128.1991863309
 10
107.9376465865
 20
128.2064670699
 10
107.9434919871
 20
128.2173580784
 10
107.9503938022
 20
128.2302012992
 10
107.9573012929
 20
128.2430414684
 10
107.9631628564
 20
128.2539237866
 10
107.9670861228
 20
128.2611915195
 10
107.9684738104
 20
128.2637382206
 10
107.968473826
 20
128.2637382074
  0
LINE
  5
E8
330
1F
100
AcDbEntity
  8
0
  6
Continuous
 62
     8
370
    15
100
AcDbLine
 10
107.948727524
 20
127.751010049
 30
0.0
 11
107.917623139
 21
127.8205726628
 31
0.0
  0
INSERT
  5
F4
330
1F
100
AcDbEntity
  8
0
  6
Continuous
 62
     7
370
     0
100
AcDbBlockReference
  2
SW_CENTERMARKSYMBOL_0
 10
69.893601058
 20
148.7976171468
 30
0.0
  0
LINE
  5
F5
330
1F
100
AcDbEntity
  8
0
  6
Continuous
 62
     7
370
    15
100
AcDbLine
 10
71.481101058
 20
216.7679710645
 30
0.0
 11
71.481101058
 21
217.7331710645
 31
0.0
  0
LINE
  5
F6
330
1F
100
AcDbEntity
  8
0
  6
Continuous
 62
     7
370
    15
100
AcDbLine
 10
68.306101058
 20
217.7331710645
 30
0.0
 11
68.306101058
 21
216.7679710645
 31
0.0
  0
LINE
  5
F7
330
1F
100
AcDbEntity
  8
0
  6
Continuous
 62
     7
370
    15
100
AcDbLine
 10
71.481101058
 20
217.2595639606
 30
0.0
 11
107.9503830246
 21
217.2135626213
 31
0.0
  0
LINE
  5
F8
330
1F
100
AcDbEntity
  8
0
  6
Continuous
 62
     7
370
    15
100
AcDbLine
 10
107.9504791411
 20
217.2897625606
 30
0.0
 11
71.481101058
 21
217.3357640212
 31
0.0
  0
SPLINE
  5
F9
330
1F
100
AcDbEntity
  8
0
  6
Continuous
 62
     7
370
    15
100
AcDbSpline
210
0.0
220
0.0
230
1.0
 70
     8
 71
     3
 72
    29
 73
    25
 74
     0
 42
0.000000001
 43
0.00000001
 40
0.0
 40
0.0
 40
0.0
 40
0.0
 40
0.0042330433045607
 40
0.0164535877895737
 40
0.0263923692466667
 40
0.0343159981603501
 40
0.042022233888899
 40
0.0796642580145861
 40
0.1475686593526107
 40
0.2688264696240801
 40
0.4853579897893248
 40
0.7609432345714109
 40
0.882201147176033
 40
0.9088701311678536
 40
0.9344372671678887
 40
0.9419683269775286
 40
0.9515055671775395
 40
0.9632727098522574
 40
0.9722631190798507
 40
0.982220507226664
 40
0.991781734080694
 40
0.9944201441612214
 40
0.9971189363379798
 40
1.0
 40
1.0
 40
1.0
 40
1.0
 10
68.30610105801534
 20
217.3385693340896
 30
0.0
 10
68.29190694987425
 20
217.3384956777212
 30
0.0
 10
68.23673529496998
 20
217.3382093797939
 30
0.0
 10
68.14843593530993
 20
217.3377511748622
 30
0.0
 10
68.04787913413571
 20
217.3372293633326
 30
0.0
 10
67.9625172606265
 20
217.3367864016781
 30
0.0
 10
67.78483609451888
 20
217.3358643744998
 30
0.0
 10
67.40817149437295
 20
217.3339097842043
 30
0.0
 10
66.658847839366
 20
217.3300213192773
 30
0.0
 10
65.3345731899798
 20
217.3231499020678
 30
0.0
 10
63.37598093061567
 20
217.3129820723289
 30
0.0
 10
61.48123222913767
 20
217.3031671922585
 30
0.0
 10
60.2091372337286
 20
217.2965382129659
 30
0.0
 10
59.69335148675204
 20
217.293885861474
 30
0.0
 10
59.5165495414663
 20
217.2929321496221
 30
0.0
 10
59.39034190995597
 20
217.2923317156973
 30
0.0
 10
59.29851423262211
 20
217.2915769304872
 30
0.0
 10
59.19882451728512
 20
217.2877669825102
 30
0.0
 10
59.09737497539758
 20
217.2784349510707
 30
0.0
 10
59.00654834895627
 20
217.2651946028992
 30
0.0
 10
58.93948211769504
 20
217.2539853630885
 30
0.0
 10
58.89728298231734
 20
217.2464242611869
 30
0.0
 10
58.87248780206548
 20
217.2420044330743
 30
0.0
 10
58.86167535016638
 20
217.2391787417981
 30
0.0
 10
58.85609252452287
 20
217.237719744166
 30
0.0
  0
SPLINE
  5
FA
330
1F
100
AcDbEntity
  8
0
  6
Continuous
 62
     7
370
    15
100
AcDbSpline
210
0.0
220
0.0
230
1.0
 70
     8
 71
     3
 72
    10
 73
     6
 74
     0
 42
0.000000001
 43
0.00000001
 40
0.0
 40
0.0
 40
0.0
 40
0.0
 40
0.198421078358448
 40
0.5991663812920693
 40
0.9999999999999999
 40
0.9999999999999999
 40
0.9999999999999999
 40
0.9999999999999999
 10
58.94895498950329
 20
217.2887037655125
 30
0.0
 10
58.94170914412074
 20
217.2889158551422
 30
0.0
 10
58.91982907475923
 20
217.2895562960517
 30
0.0
 10
58.89764934595815
 20
217.2895625394475
 30
0.0
 10
58.89394843238521
 20
217.2896417111595
 30
0.0
 10
58.89209777172047
 20
217.2896813013769
 30
0.0
  0
SPLINE
  5
FB
330
1F
100
AcDbEntity
  8
0
  6
Continuous
 62
     7
370
    15
100
AcDbSpline
210
0.0
220
0.0
230
1.0
 70
     8
 71
     3
 72
    19
 73
    15
 74
     0
 42
0.000000001
 43
0.00000001
 40
0.0
 40
0.0
 40
0.0
 40
0.0
 40
0.1197277718144939
 40
0.1841791359710318
 40
0.2499983007235163
 40
0.3158176390453958
 40
0.3802695175586235
 40
0.4999992506377149
 40
0.6197291202895951
 40
0.6841811595189665
 40
0.7500007067114218
 40
0.8158201113327536
 40
0.8802717289262711
 40
1.0
 40
1.0
 40
1.0
 40
1.0
 10
58.89157193940969
 20
217.2896857113182
 30
0.0
 10
58.88677936364015
 20
217.2891753057745
 30
0.0
 10
58.87940686809519
 20
217.2883901408074
 30
0.0
 10
58.87053492503992
 20
217.2836364223224
 30
0.0
 10
58.86444058247044
 20
217.2787172721172
 30
0.0
 10
58.85949307135155
 20
217.2726118347297
 30
0.0
 10
58.85489284953297
 20
217.2637400039773
 30
0.0
 10
58.85255978325213
 20
217.2515734510584
 30
0.0
 10
58.85489835194279
 20
217.2394082946857
 30
0.0
 10
58.85950262756937
 20
217.230539199415
 30
0.0
 10
58.86445286004434
 20
217.2244366993119
 30
0.0
 10
58.87054926346497
 20
217.2195211663711
 30
0.0
 10
58.87942297061713
 20
217.2147727126227
 30
0.0
 10
58.88679513143723
 20
217.2139919221385
 30
0.0
 10
58.89158749001369
 20
217.2134843602358
 30
0.0
  0
SPLINE
  5
FC
330
1F
100
AcDbEntity
  8
0
  6
Continuous
 62
     7
370
    15
100
AcDbSpline
210
0.0
220
0.0
230
1.0
 70
     8
 71
     3
 72
    19
 73
    15
 74
     0
 42
0.000000001
 43
0.00000001
 40
0.0
 40
0.0
 40
0.0
 40
0.0
 40
0.1197282733207031
 40
0.1841798931535447
 40
0.249999300245795
 40
0.3158188495866222
 40
0.3802708900995425
 40
0.5000007583473727
 40
0.6197304884649409
 40
0.6841823664801532
 40
0.7500017046212872
 40
0.8158208690969602
 40
0.8802722324557596
 40
1.0
 40
1.0
 40
1.0
 40
1.0
 10
58.89156421015163
 20
217.2896842991221
 30
0.0
 10
58.8867721642128
 20
217.2891739882093
 30
0.0
 10
58.8794004842869
 20
217.2883889688751
 30
0.0
 10
58.87052968230044
 20
217.2836354572565
 30
0.0
 10
58.86443628427615
 20
217.2787164798249
 30
0.0
 10
58.85948978120758
 20
217.272611228321
 30
0.0
 10
58.85489092390625
 20
217.2637396537214
 30
0.0
 10
58.85255978388962
 20
217.2515734688211
 30
0.0
 10
58.85490027550183
 20
217.2394086590355
 30
0.0
 10
58.85950590949814
 20
217.2305398101966
 30
0.0
 10
58.86445714387676
 20
217.2244374940262
 30
0.0
 10
58.87055448484102
 20
217.2195221324565
 30
0.0
 10
58.87942932340736
 20
217.2147738851185
 30
0.0
 10
58.8868022937971
 20
217.2139932396319
 30
0.0
 10
58.89159517820591
 20
217.2134857720329
 30
0.0
  0
SPLINE
  5
FD
330
1F
100
AcDbEntity
  8
0
  6
Continuous
 62
     7
370
    15
100
AcDbSpline
210
0.0
220
0.0
230
1.0
 70
     8
 71
     3
 72
    27
 73
    23
 74
     0
 42
0.000000001
 43
0.00000001
 40
0.0
 40
0.0
 40
0.0
 40
0.0
 40
0.0048964029194279
 40
0.0153189527390394
 40
0.0235694886395787
 40
0.0308327888779402
 40
0.0420652498874173
 40
0.0530352247973259
 40
0.0915612086838948
 40
0.160168878532696
 40
0.2826824402536974
 40
0.5014562771751924
 40
0.7798953872798976
 40
0.9024089001438206
 40
0.9158853943581862
 40
0.9291836102282134
 40
0.9416647741305294
 40
0.9534332679245447
 40
0.9628023936453943
 40
0.9748811348637678
 40
0.9896694972308069
 40
0.9999999999999999
 40
0.9999999999999999
 40
0.9999999999999999
 40
0.9999999999999999
 10
59.01037964586502
 20
217.2427846498939
 30
0.0
 10
59.02353601153452
 20
217.239287601378
 30
0.0
 10
59.06469719602546
 20
217.2283466878494
 30
0.0
 10
59.11964207940404
 20
217.2180478876421
 30
0.0
 10
59.18328907166334
 20
217.2151949797159
 30
0.0
 10
59.25411976034091
 20
217.2153407331767
 30
0.0
 10
59.3415671162621
 20
217.2158655680066
 30
0.0
 10
59.51830543795838
 20
217.2167495625951
 30
0.0
 10
59.86521632872224
 20
217.2185785236822
 30
0.0
 10
60.54333957173667
 20
217.2220783988897
 30
0.0
 10
61.77115015723106
 20
217.2284614477592
 30
0.0
 10
63.67122449823206
 20
217.2383149491853
 30
0.0
 10
65.63546565690952
 20
217.2485100408901
 30
0.0
 10
66.98314305826975
 20
217.255503181736
 30
0.0
 10
67.47277151568302
 20
217.2580439766046
 30
0.0
 10
67.60173626294711
 20
217.2587132030241
 30
0.0
 10
67.72528770126443
 20
217.259354338927
 30
0.0
 10
67.83607781776324
 20
217.2599292534007
 30
0.0
 10
67.94568321888342
 20
217.2604980201348
 30
0.0
 10
68.06542189061703
 20
217.2611193706404
 30
0.0
 10
68.18849975294799
 20
217.2617580489363
 30
0.0
 10
68.27183019002977
 20
217.2621904690187
 30
0.0
 10
68.30610105801534
 20
217.2623683081382
 30
0.0
  0
SPLINE
  5
FE
330
1F
100
AcDbEntity
  8
0
  6
Continuous
 62
     7
370
    15
100
AcDbSpline
210
0.0
220
0.0
230
1.0
 70
     8
 71
     3
 72
    10
 73
     6
 74
     0
 42
0.000000001
 43
0.00000001
 40
0.0
 40
0.0
 40
0.0
 40
0.0
 40
0.3434248204554437
 40
0.7087486154491293
 40
0.9999999999999999
 40
0.9999999999999999
 40
0.9999999999999999
 40
0.9999999999999999
 10
58.89146026764119
 20
217.2134846479601
 30
0.0
 10
58.89278744337435
 20
217.2134659434361
 30
0.0
 10
58.89552642409824
 20
217.2134273416676
 30
0.0
 10
58.91527849606304
 20
217.2133494435927
 30
0.0
 10
58.93751326641392
 20
217.2140074105856
 30
0.0
 10
58.94737642885384
 20
217.2142992793671
 30
0.0
  0
SPLINE
  5
FF
330
1F
100
AcDbEntity
  8
0
  6
Continuous
 62
     7
370
    15
100
AcDbSpline
210
0.0
220
0.0
230
1.0
 70
     8
 71
     3
 72
    11
 73
     7
 74
     0
 42
0.000000001
 43
0.00000001
 40
0.0
 40
0.0
 40
0.0
 40
0.0
 40
0.2500323480688698
 40
0.5000113886230954
 40
0.7501150206971796
 40
1.0
 40
1.0
 40
1.0
 40
1.0
 10
107.9331732431544
 20
217.2130032907334
 30
0.0
 10
107.9535660954976
 20
217.2130058007738
 30
0.0
 10
107.9943474523775
 20
217.2130108203194
 30
0.0
 10
108.0412116317918
 20
217.2130511661446
 30
0.0
 10
108.0738527836559
 20
217.2131124570108
 30
0.0
 10
108.079664313967
 20
217.2131682804173
 30
0.0
 10
108.0825688083864
 20
217.2131961799144
 30
0.0
  0
SPLINE
  5
100
330
1F
100
AcDbEntity
  8
0
  6
Continuous
 62
     7
370
    15
100
AcDbSpline
210
0.0
220
0.0
230
1.0
 70
     8
 71
     3
 72
    11
 73
     7
 74
     0
 42
0.000000001
 43
0.00000001
 40
0.0
 40
0.0
 40
0.0
 40
0.0
 40
0.2591267543232734
 40
0.5180922055061503
 40
0.7770687320009602
 40
1.0
 40
1.0
 40
1.0
 40
1.0
 10
107.9503836504537
 20
217.21356262049
 30
0.0
 10
107.9698909181657
 20
217.2135354093388
 30
0.0
 10
108.0088933105612
 20
217.213481003975
 30
0.0
 10
108.0514196747559
 20
217.213385330645
 30
0.0
 10
108.0780653131197
 20
217.2132913885685
 30
0.0
 10
108.0801496464881
 20
217.2132352080191
 30
0.0
 10
108.0811138622282
 20
217.2132092188127
 30
0.0
  0
SPLINE
  5
101
330
1F
100
AcDbEntity
  8
0
  6
Continuous
 62
     7
370
    15
100
AcDbSpline
210
0.0
220
0.0
230
1.0
 70
     8
 71
     3
 72
    11
 73
     7
 74
     0
 42
0.000000001
 43
0.00000001
 40
0.0
 40
0.0
 40
0.0
 40
0.0
 40
0.2247413043071551
 40
0.4832863437469859
 40
0.7416467231808714
 40
1.0
 40
1.0
 40
1.0
 40
1.0
 10
108.0819317003023
 20
217.2894041496542
 30
0.0
 10
108.0809155303465
 20
217.2894309487922
 30
0.0
 10
108.0787303465234
 20
217.2894885779735
 30
0.0
 10
108.0518440998393
 20
217.2895840651073
 30
0.0
 10
108.0091268581603
 20
217.2896806552049
 30
0.0
 10
107.9700277837606
 20
217.2897352595876
 30
0.0
 10
107.9504785152838
 20
217.2897625614037
 30
0.0
  0
SPLINE
  5
102
330
1F
100
AcDbEntity
  8
0
  6
Continuous
 62
     7
370
    15
100
AcDbSpline
210
0.0
220
0.0
230
1.0
 70
     8
 71
     3
 72
    19
 73
    15
 74
     0
 42
0.000000001
 43
0.00000001
 40
0.0
 40
0.0
 40
0.0
 40
0.0
 40
0.0794990862095316
 40
0.1561895392593683
 40
0.2273181203929522
 40
0.29082341278875
 40
0.3907538091322297
 40
0.4591185513387804
 40
0.540767494899769
 40
0.6596840715502672
 40
0.7350936789133239
 40
0.8192401420094416
 40
0.9089704384290622
 40
1.0
 40
1.0
 40
1.0
 40
1.0
 10
108.082239045041
 20
217.2131937568592
 30
0.0
 10
108.085349690409
 20
217.2134039646491
 30
0.0
 10
108.0914610847659
 20
217.2138169537717
 30
0.0
 10
108.0998961432204
 20
217.2170649911451
 30
0.0
 10
108.1068871931183
 20
217.2216493237233
 30
0.0
 10
108.1134236153638
 20
217.2282804587191
 30
0.0
 10
108.1181115257133
 20
217.2363891090814
 30
0.0
 10
108.1206835368235
 20
217.246271035468
 30
0.0
 10
108.1208553382721
 20
217.2572262324822
 30
0.0
 10
108.1174397176951
 20
217.2680740517381
 30
0.0
 10
108.1109454000539
 20
217.2772957309001
 30
0.0
 10
108.1032315161391
 20
217.2838154240202
 30
0.0
 10
108.0934324507317
 20
217.2884756350475
 30
0.0
 10
108.0861571184346
 20
217.2890891513171
 30
0.0
 10
108.0824933054805
 20
217.2893981143671
 30
0.0
  0
LINE
  5
103
330
1F
100
AcDbEntity
  8
0
  6
Continuous
 62
     7
370
    15
100
AcDbLine
 10
105.0748690882
 20
201.7025286617
 30
0.0
 11
105.1865169542
 21
201.860385987
 31
0.0
  0
LINE
  5
104
330
1F
100
AcDbEntity
  8
0
  6
Continuous
 62
     7
370
    15
100
AcDbLine
 10
105.2943428923
 20
232.4105547974
 30
0.0
 11
105.1831123971
 21
232.570195802
 31
0.0
  0
LINE
  5
105
330
1F
100
AcDbEntity
  8
0
  6
Continuous
 62
     7
370
    15
100
AcDbLine
 10
107.8346459257
 20
217.2130032904
 30
0.0
 11
107.9331753315
 21
217.2130032904
 31
0.0
  0
LINE
  5
106
330
1F
100
AcDbEntity
  8
0
  6
Continuous
 62
     7
370
    15
100
AcDbLine
 10
131.6465263233
 20
220.5066021849
 30
0.0
 11
125.3537381871
 21
220.5066021849
 31
0.0
  0
LINE
  5
107
330
1F
100
AcDbEntity
  8
0
  6
Continuous
 62
     7
370
    15
100
AcDbLine
 10
125.3537381871
 20
212.8866021849
 30
0.0
 11
131.6465263233
 21
212.8866021849
 31
0.0
  0
LINE
  5
108
330
1F
100
AcDbEntity
  8
0
  6
Continuous
 62
     7
370
    15
100
AcDbLine
 10
125.4625022814
 20
214.5376021849
 30
0.0
 11
125.5244098034
 21
214.5376021849
 31
0.0
  0
LINE
  5
109
330
1F
100
AcDbEntity
  8
0
  6
Continuous
 62
     7
370
    15
100
AcDbLine
 10
125.5244098034
 20
218.8556021849
 30
0.0
 11
125.4625022814
 21
218.8556021849
 31
0.0
  0
LINE
  5
10A
330
1F
100
AcDbEntity
  8
0
  6
Continuous
 62
     7
370
    15
100
AcDbLine
 10
71.481101058
 20
216.7679710645
 30
0.0
 11
68.306101058
 21
216.7679710645
 31
0.0
  0
LINE
  5
10B
330
1F
100
AcDbEntity
  8
0
  6
Continuous
 62
     7
370
    15
100
AcDbLine
 10
71.481101058
 20
217.7331710645
 30
0.0
 11
68.306101058
 21
217.7331710645
 31
0.0
  0
ARC
  5
10C
330
1F
100
AcDbEntity
  8
0
  6
Continuous
 62
     7
370
    15
100
AcDbCircle
 10
109.5737292147
 20
217.204335055
 30
0.0
 40
1.867786948822665
100
AcDbArc
 50
179.7074788054
 51
192.5042116578
  0
ARC
  5
10D
330
1F
100
AcDbEntity
  8
0
  6
Continuous
 62
     7
370
    15
100
AcDbCircle
 10
109.507108833
 20
217.2255550251
 30
0.0
 40
1.800738210396933
100
AcDbArc
 50
167.1697279349
 51
177.9468584241
  0
LINE
  5
10E
330
1F
100
AcDbEntity
  8
0
  6
Continuous
 62
     7
370
    15
100
AcDbLine
 10
107.7513311595
 20
217.6254335862
 30
0.0
 11
107.8625616548
 21
217.4657925816
 31
0.0
  0
ARC
  5
10F
330
1F
100
AcDbEntity
  8
0
  6
Continuous
 62
     7
370
    15
100
AcDbCircle
 10
108.9110842098
 20
217.2247086487
 30
0.0
 40
1.075881504165079
100
AcDbArc
 50
167.0511930816
 51
176.5632948379
  0
ARC
  5
110
330
1F
100
AcDbEntity
  8
0
  6
Continuous
 62
     7
370
    15
100
AcDbCircle
 10
108.974571567
 20
217.2056517384
 30
0.0
 40
1.139949346627699
100
AcDbArc
 50
179.6304960173
 51
192.5579901002
  0
LINE
  5
111
330
1F
100
AcDbEntity
  8
0
  6
Continuous
 62
     7
370
    15
100
AcDbLine
 10
107.8618938616
 20
216.9577952538
 30
0.0
 11
107.7502459956
 21
216.7999379284
 31
0.0
  0
ARC
  5
112
330
1F
100
AcDbEntity
  8
0
  6
Continuous
 62
     7
370
    15
100
AcDbCircle
 10
60.7892819525
 20
217.2016077206
 30
0.0
 40
1.841984624870745
100
AcDbArc
 50
179.5688219375
 51
192.5953241209
  0
ARC
  5
113
330
1F
100
AcDbEntity
  8
0
  6
Continuous
 62
     7
370
    15
100
AcDbCircle
 10
60.7303445442
 20
217.2278636529
 30
0.0
 40
1.78253565700692
100
AcDbArc
 50
167.1125750347
 51
178.0829639316
  0
LWPOLYLINE
  5
114
330
1F
100
AcDbEntity
  8
0
  6
Continuous
 62
     7
370
    15
100
AcDbPolyline
 90
       21
 70
   128
 43
0.0
 10
105.1865169542
 20
201.860385987
 10
105.4113954915
 20
202.1864337085
 10
105.8292199152
 20
202.8398894219
 10
106.2169335819
 20
203.5127153349
 10
106.5740157099
 20
204.2040076997
 10
106.8999866623
 20
204.9128379644
 10
107.1944085911
 20
205.6382540196
 10
107.4568860253
 20
206.3792814781
 10
107.6870664021
 20
207.134924983
 10
107.8846405405
 20
207.904169545
 10
108.0493430566
 20
208.6859819058
 10
108.18095272
 20
209.4793119257
 10
108.279292751
 20
210.2830939946
 10
108.3442310583
 20
211.0962484628
 10
108.3756804158
 20
211.9176830917
 10
108.3735985804
 20
212.7462945206
 10
108.3379883485
 20
213.5809697489
 10
108.2688975522
 20
214.4205876309
 10
108.166418995
 20
215.264020382
 10
108.0306903274
 20
216.1101350934
 10
107.8618938616
 20
216.9577952538
  0
LWPOLYLINE
  5
115
330
1F
100
AcDbEntity
  8
0
  6
Continuous
 62
     7
370
    15
100
AcDbPolyline
 90
       86
 70
   128
 43
0.0
 10
107.7502459956
 20
216.7999379284
 10
107.9190424614
 20
215.952277768
 10
108.054771129
 20
215.1061630567
 10
108.1572496862
 20
214.2627303055
 10
108.2263404825
 20
213.4231124235
 10
108.2619507144
 20
212.5884371953
 10
108.2640325498
 20
211.7598257664
 10
108.2325831923
 20
210.9383911374
 10
108.167644885
 20
210.1252366692
 10
108.069304854
 20
209.3214546004
 10
107.9376951906
 20
208.5281245805
 10
107.7729926745
 20
207.7463122197
 10
107.5754185361
 20
206.9770676577
 10
107.3452381593
 20
206.2214241528
 10
107.0827607251
 20
205.4803966943
 10
106.7883387963
 20
204.7549806391
 10
106.4623678439
 20
204.0461503744
 10
106.1052857159
 20
203.3548580096
 10
105.7175720492
 20
202.6820320966
 10
105.2997476255
 20
202.0285763831
 10
104.8523736714
 20
201.3953685987
 10
104.3760511048
 20
200.7832592754
 10
103.871419728
 20
200.1930706058
 10
103.3391573676
 20
199.6255953381
 10
102.7799789648
 20
199.0815957119
 10
102.1946356147
 20
198.5618024339
 10
101.5839135572
 20
198.0669136966
 10
100.9486331215
 20
197.5975942403
 10
100.2896476237
 20
197.1544744604
 10
99.607842221
 20
196.7381495608
 10
98.9041327224
 20
196.3491787539
 10
98.1794643588
 20
195.9880845099
 10
97.4348105133
 20
195.6553518548
 10
96.6711714138
 20
195.3514277191
 10
95.8895727892
 20
195.0767203372
 10
95.0910644921
 20
194.8315986994
 10
94.2767190882
 20
194.6163920559
 10
93.447630416
 20
194.4313894748
 10
92.604912117
 20
194.2768394538
 10
91.7496961404
 20
194.1529495862
 10
90.8831312225
 20
194.0598862825
 10
90.0063813434
 20
193.9977745464
 10
89.120624164
 20
193.966697807
 10
88.2270494437
 20
193.966697807
 10
87.3268574426
 20
193.9977745464
 10
86.4212573093
 20
194.0598862825
 10
85.5114654566
 20
194.1529495862
 10
84.5987039275
 20
194.2768394538
 10
83.6841987541
 20
194.4313894748
 10
82.7691783106
 20
194.6163920559
 10
81.8548716633
 20
194.8315986994
 10
80.9425069196
 20
195.0767203372
 10
80.0333095785
 20
195.3514277191
 10
79.1285008848
 20
195.6553518548
 10
78.229296188
 20
195.9880845099
 10
77.3369033107
 20
196.3491787539
 10
76.4525209253
 20
196.7381495608
 10
75.5773369448
 20
197.1544744604
 10
74.7125269266
 20
197.5975942403
 10
73.8592524937
 20
198.0669136966
 10
73.0186597744
 20
198.5618024339
 10
72.1918778628
 20
199.0815957119
 10
71.3800173021
 20
199.6255953381
 10
70.5841685929
 20
200.1930706058
 10
69.8054007287
 20
200.7832592754
 10
69.0447597596
 20
201.3953685987
 10
68.3032673876
 20
202.0285763831
 10
67.5819195939
 20
202.6820320966
 10
66.8816853014
 20
203.3548580096
 10
66.2035050732
 20
204.0461503744
 10
65.5482898488
 20
204.7549806391
 10
64.9169197211
 20
205.4803966943
 10
64.3102427538
 20
206.2214241528
 10
63.7290738428
 20
206.9770676577
 10
63.1741936208
 20
207.7463122197
 10
62.6463474095
 20
208.5281245805
 10
62.1462442183
 20
209.3214546004
 10
61.6745557916
 20
210.1252366692
 10
61.2319157069
 20
210.9383911374
 10
60.8189185235
 20
211.7598257664
 10
60.4361189842
 20
212.5884371953
 10
60.0840312698
 20
213.4231124235
 10
59.7631283086
 20
214.2627303055
 10
59.4738411414
 20
215.1061630567
 10
59.216558342
 20
215.952277768
 10
58.9916254958
 20
216.7999379284
  0
LWPOLYLINE
  5
116
330
1F
100
AcDbEntity
  8
0
  6
Continuous
 62
     7
370
    15
100
AcDbPolyline
 90
       21
 70
   128
 43
0.0
 10
107.8625616548
 20
217.4657925816
 10
108.0335825558
 20
218.3102839531
 10
108.1715316032
 20
219.1532356528
 10
108.2762235021
 20
219.9935154182
 10
108.3475176291
 20
220.8299945755
 10
108.3853182211
 20
221.6615495561
 10
108.389574504
 20
222.4870634055
 10
108.3602807605
 20
223.3054272838
 10
108.2974763385
 20
224.1155419549
 10
108.2012455976
 20
224.9163192632
 10
108.071717796
 20
225.7066835953
 10
107.909066917
 20
226.4855733245
 10
107.7135114352
 20
227.2519422368
 10
107.485314023
 20
228.0047609365
 10
107.2247811978
 20
228.7430182287
 10
106.9322629105
 20
229.4657224774
 10
106.6081520751
 20
230.1719029378
 10
106.252884041
 20
230.8606110599
 10
105.8669360085
 20
231.5309217628
 10
105.4508263875
 20
232.1819346774
 10
105.2943428923
 20
232.4105547974
  0
LWPOLYLINE
  5
117
330
1F
100
AcDbEntity
  8
0
  6
Continuous
 62
     7
370
    15
100
AcDbPolyline
 90
       86
 70
   128
 43
0.0
 10
58.9927106597
 20
217.6254335862
 10
59.2198679412
 20
218.4699249577
 10
59.4793711203
 20
219.3128766574
 10
59.7708716292
 20
220.1531564228
 10
60.093977921
 20
220.9896355801
 10
60.4482559956
 20
221.8211905607
 10
60.8332299824
 20
222.6467044101
 10
61.2483827799
 20
223.4650682883
 10
61.6931567498
 20
224.2751829594
 10
62.1669544667
 20
225.0759602678
 10
62.6691395197
 20
225.8663245999
 10
63.199037368
 20
226.6452143291
 10
63.7559362465
 20
227.4115832414
 10
64.3390881222
 20
228.1644019411
 10
64.9477096985
 20
228.9026592333
 10
65.5809834677
 20
229.625363482
 10
66.2380588091
 20
230.3315439424
 10
66.9180531313
 20
231.0202520645
 10
67.6200530579
 20
231.6905627674
 10
68.3431156543
 20
232.341575682
 10
69.0862696943
 20
232.97241636
 10
69.8485169646
 20
233.5822374487
 10
70.6288336058
 20
234.1702198293
 10
71.4261714872
 20
234.7355737169
 10
72.2394596153
 20
235.2775397215
 10
73.0676055718
 20
235.795389868
 10
73.9094969813
 20
236.2884285739
 10
74.7640030054
 20
236.7559935838
 10
75.6299758614
 20
237.1974568588
 10
76.5062523644
 20
237.6122254204
 10
77.3916554895
 20
237.9997421465
 10
78.2849959527
 20
238.35948652
 10
79.1850738087
 20
238.6909753281
 10
80.0906800621
 20
238.993763311
 10
81.000598292
 20
239.2674437605
 10
81.9136062855
 20
239.5116490656
 10
82.8284776796
 20
239.7260512069
 10
83.743983608
 20
239.910362197
 10
84.6588943525
 20
240.0643344671
 10
85.5719809942
 20
240.1877612
 10
86.4820170643
 20
240.2804766072
 10
87.3877801916
 20
240.3423561525
 10
88.2880537445
 20
240.3733167184
 10
89.1816284648
 20
240.3733167184
 10
90.0673040924
 20
240.3423561525
 10
90.9438909775
 20
240.2804766072
 10
91.8102116781
 20
240.1877612
 10
92.665102542
 20
240.0643344671
 10
93.5074152698
 20
239.910362197
 10
94.3360184571
 20
239.7260512069
 10
95.1497991143
 20
239.5116490656
 10
95.9476641616
 20
239.2674437605
 10
96.7285418973
 20
238.993763311
 10
97.4913834372
 20
238.6909753281
 10
98.2351641235
 20
238.35948652
 10
98.9588849012
 20
237.9997421465
 10
99.6615736601
 20
237.6122254204
 10
100.3422865403
 20
237.1974568588
 10
101.0001092003
 20
236.7559935838
 10
101.6341580448
 20
236.2884285739
 10
102.2435814121
 20
235.795389868
 10
102.8275607173
 20
235.2775397215
 10
103.3853115528
 20
234.7355737169
 10
103.9160847409
 20
234.1702198293
 10
104.4191673408
 20
233.5822374487
 10
104.8938836061
 20
232.97241636
 10
105.3395958922
 20
232.341575682
 10
105.7557055132
 20
231.6905627674
 10
106.1416535457
 20
231.0202520645
 10
106.4969215798
 20
230.3315439424
 10
106.8210324153
 20
229.625363482
 10
107.1135507026
 20
228.9026592333
 10
107.3740835277
 20
228.1644019411
 10
107.6022809399
 20
227.4115832414
 10
107.7978364217
 20
226.6452143291
 10
107.9604873007
 20
225.8663245999
 10
108.0900151023
 20
225.0759602678
 10
108.1862458432
 20
224.2751829594
 10
108.2490502652
 20
223.4650682883
 10
108.2783440087
 20
222.6467044101
 10
108.2740877258
 20
221.8211905607
 10
108.2362871338
 20
220.9896355801
 10
108.1649930068
 20
220.1531564228
 10
108.0603011079
 20
219.3128766574
 10
107.9223520606
 20
218.4699249577
 10
107.7513311595
 20
217.6254335862
  0
LWPOLYLINE
  5
118
330
1F
100
AcDbEntity
  8
0
  6
Continuous
 62
     7
370
    15
100
AcDbPolyline
 90
       66
 70
   128
 43
0.0
 10
128.0478150234
 20
216.6966021849
 10
128.0352380887
 20
216.3288841463
 10
127.9976247118
 20
215.9645993918
 10
127.9353260788
 20
215.6071491502
 10
127.8489238552
 20
215.2598708381
 10
127.7392247554
 20
214.9260068995
 10
127.6072530102
 20
214.6086745319
 10
127.4542408043
 20
214.3108365823
 10
127.2816167713
 20
214.0352738834
 10
127.0909926555
 20
213.7845592897
 10
126.8841482628
 20
213.5610336559
 10
126.6630148436
 20
213.3667839806
 10
126.4296570609
 20
213.2036239208
 10
126.1862537137
 20
213.0730768579
 10
125.9350773933
 20
212.9763616746
 10
125.6784732653
 20
212.9143813746
 10
125.4188371734
 20
212.8877146513
 10
125.1585932698
 20
212.8966104846
 10
124.9001713818
 20
212.9409858166
 10
124.6459843248
 20
213.0204263267
 10
124.3984053749
 20
213.1341903003
 10
124.1597461101
 20
213.2812155539
 10
123.9322348275
 20
213.4601293521
 10
123.7179957389
 20
213.6692612252
 10
123.5190291368
 20
213.9066585652
 10
123.3371927187
 20
214.1701048571
 10
123.1741842424
 20
214.4571403737
 10
123.031525674
 20
214.7650851419
 10
122.9105489781
 20
215.0910639643
 10
122.8123836816
 20
215.4320332645
 10
122.7379463274
 20
215.784809504
 10
122.687931917
 20
216.1460989061
 10
122.6628074214
 20
216.512528209
 10
122.6628074214
 20
216.8806761609
 10
122.687931917
 20
217.2471054638
 10
122.7379463274
 20
217.6083948659
 10
122.8123836816
 20
217.9611711054
 10
122.9105489781
 20
218.3021404056
 10
123.031525674
 20
218.628119228
 10
123.1741842424
 20
218.9360639962
 10
123.3371927187
 20
219.2230995128
 10
123.5190291368
 20
219.4865458047
 10
123.7179957389
 20
219.7239431447
 10
123.9322348275
 20
219.9330750178
 10
124.1597461101
 20
220.111988816
 10
124.3984053749
 20
220.2590140696
 10
124.6459843248
 20
220.3727780432
 10
124.9001713818
 20
220.4522185533
 10
125.1585932698
 20
220.4965938853
 10
125.4188371734
 20
220.5054897186
 10
125.6784732653
 20
220.4788229953
 10
125.9350773933
 20
220.4168426953
 10
126.1862537137
 20
220.320127512
 10
126.4296570609
 20
220.1895804491
 10
126.6630148436
 20
220.0264203893
 10
126.8841482628
 20
219.832170714
 10
127.0909926555
 20
219.6086450802
 10
127.2816167713
 20
219.3579304865
 10
127.4542408043
 20
219.0823677876
 10
127.6072530102
 20
218.784529838
 10
127.7392247554
 20
218.4671974704
 10
127.8489238552
 20
218.1333335318
 10
127.9353260788
 20
217.7860552196
 10
127.9976247118
 20
217.4286049781
 10
128.0352380887
 20
217.0643202236
 10
128.0478150234
 20
216.6966021849
  0
LWPOLYLINE
  5
119
330
1F
100
AcDbEntity
  8
0
  6
Continuous
 62
     7
370
    15
100
AcDbPolyline
 90
       63
 70
   128
 43
0.0
 10
127.8233086204
 20
216.6966021849
 10
127.8106380531
 20
216.3432718204
 10
127.7727563685
 20
215.9935671035
 10
127.710052284
 20
215.651076478
 10
127.6231692281
 20
215.319314361
 10
127.5129987388
 20
215.0016850808
 10
127.3806713142
 20
214.7014479437
 10
127.2275448129
 20
214.421683789
 10
127.05519052
 20
214.1652633756
 10
126.8653770236
 20
213.9348179237
 10
126.6600520673
 20
213.7327121156
 10
126.4413225628
 20
213.5610198305
 10
126.2114329709
 20
213.4215028634
 10
125.9727422698
 20
213.3155928473
 10
125.7276997492
 20
213.2443765622
 10
125.4788198769
 20
213.2085847837
 10
125.2286564973
 20
213.2085847837
 10
124.979776625
 20
213.2443765622
 10
124.7347341044
 20
213.3155928473
 10
124.4960434034
 20
213.4215028634
 10
124.2661538114
 20
213.5610198305
 10
124.0474243069
 20
213.7327121156
 10
123.8420993506
 20
213.9348179237
 10
123.6522858542
 20
214.1652633756
 10
123.4799315613
 20
214.421683789
 10
123.32680506
 20
214.7014479437
 10
123.1944776354
 20
215.0016850808
 10
123.0843071461
 20
215.319314361
 10
122.9974240903
 20
215.651076478
 10
122.9347200057
 20
215.9935671035
 10
122.8968383211
 20
216.3432718204
 10
122.8841677538
 20
216.6966021849
 10
122.8968383211
 20
217.0499325495
 10
122.9347200057
 20
217.3996372664
 10
122.9974240903
 20
217.7421278919
 10
123.0843071461
 20
218.0738900089
 10
123.1944776354
 20
218.3915192891
 10
123.32680506
 20
218.6917564262
 10
123.4799315613
 20
218.9715205809
 10
123.6522858542
 20
219.2279409943
 10
123.8420993506
 20
219.4583864462
 10
124.0474243069
 20
219.6604922542
 10
124.2661538114
 20
219.8321845394
 10
124.4960434034
 20
219.9717015065
 10
124.7347341044
 20
220.0776115226
 10
124.979776625
 20
220.1488278077
 10
125.2286564973
 20
220.1846195862
 10
125.4788198769
 20
220.1846195862
 10
125.7276997492
 20
220.1488278077
 10
125.9727422698
 20
220.0776115226
 10
126.2114329709
 20
219.9717015065
 10
126.4413225628
 20
219.8321845394
 10
126.6600520673
 20
219.6604922542
 10
126.8653770236
 20
219.4583864462
 10
127.05519052
 20
219.2279409943
 10
127.2275448129
 20
218.9715205809
 10
127.3806713142
 20
218.6917564262
 10
127.5129987388
 20
218.3915192891
 10
127.6231692281
 20
218.0738900089
 10
127.710052284
 20
217.7421278919
 10
127.7727563685
 20
217.3996372664
 10
127.8106380531
 20
217.0499325495
 10
127.8233086204
 20
216.6966021849
  0
ARC
  5
11A
330
1F
100
AcDbEntity
  8
0
  6
Continuous
 62
     7
370
    15
100
AcDbCircle
 10
131.6465263233
 20
216.6966021849
 30
0.0
 40
3.810000000000031
100
AcDbArc
 50
270.0
 51
0.0
  0
ARC
  5
11B
330
1F
100
AcDbEntity
  8
0
  6
Continuous
 62
     7
370
    15
100
AcDbCircle
 10
131.6465263233
 20
216.6966021849
 30
0.0
 40
3.810000000000031
100
AcDbArc
 50
360.0
 51
90.0
  0
LWPOLYLINE
  5
11C
330
1F
100
AcDbEntity
  8
0
  6
Continuous
 62
     7
370
    15
100
AcDbPolyline
 90
       31
 70
   128
 43
0.0
 10
125.5694422136
 20
213.2174500187
 10
125.4111846779
 20
213.2443765622
 10
125.1661421573
 20
213.3155928473
 10
124.9274514563
 20
213.4215028634
 10
124.6975618644
 20
213.5610198305
 10
124.4788323599
 20
213.7327121156
 10
124.2735074035
 20
213.9348179237
 10
124.0836939072
 20
214.1652633756
 10
123.9113396142
 20
214.421683789
 10
123.7582131129
 20
214.7014479437
 10
123.6258856884
 20
215.0016850808
 10
123.515715199
 20
215.319314361
 10
123.4288321432
 20
215.651076478
 10
123.3661280586
 20
215.9935671035
 10
123.328246374
 20
216.3432718204
 10
123.3155758068
 20
216.6966021849
 10
123.328246374
 20
217.0499325495
 10
123.3661280586
 20
217.3996372664
 10
123.4288321432
 20
217.7421278919
 10
123.515715199
 20
218.0738900089
 10
123.6258856884
 20
218.3915192891
 10
123.7582131129
 20
218.6917564262
 10
123.9113396142
 20
218.9715205809
 10
124.0836939072
 20
219.2279409943
 10
124.2735074035
 20
219.4583864462
 10
124.4788323599
 20
219.6604922542
 10
124.6975618644
 20
219.8321845394
 10
124.9274514563
 20
219.9717015065
 10
125.1661421573
 20
220.0776115226
 10
125.4111846779
 20
220.1488278077
 10
125.5694422136
 20
220.1757543512
  0
LWPOLYLINE
  5
11D
330
1F
100
AcDbEntity
  8
0
  6
Continuous
 62
     7
370
    15
100
AcDbPolyline
 90
       28
 70
   128
 43
0.0
 10
123.7402053624
 20
216.6966021849
 10
123.7526167685
 20
217.0147441035
 10
123.789700329
 20
217.3290242101
 10
123.8510058997
 20
217.6356275701
 10
123.9357893142
 20
217.9308324339
 10
124.0430214165
 20
218.2110554144
 10
124.1714005542
 20
218.4728949842
 10
124.3193683785
 20
218.7131727657
 10
124.4851287604
 20
218.9289721121
 10
124.6666695936
 20
219.1176735116
 10
124.861787218
 20
219.2769863848
 10
125.0681131702
 20
219.4049768894
 10
125.2831429325
 20
219.5000913939
 10
125.504266335
 20
219.5611753371
 10
125.728799239
 20
219.5874872427
 10
125.9540161193
 20
219.5787077198
 10
126.1771831479
 20
219.5349433399
 10
126.3955913796
 20
219.4567253433
 10
126.6065896343
 20
219.3450031905
 10
126.8076166789
 20
219.2011330371
 10
126.9962323174
 20
219.0268612719
 10
127.1701470115
 20
218.8243033181
 10
127.3272496725
 20
218.5959179548
 10
127.4656332867
 20
218.3444774708
 10
127.5836180647
 20
218.0730340132
 10
127.679771831
 20
217.7848825378
 10
127.7529274091
 20
217.4835208131
 10
127.7912307487
 20
217.257687093
  0
LWPOLYLINE
  5
11E
330
1F
100
AcDbEntity
  8
0
  6
Continuous
 62
     7
370
    15
100
AcDbPolyline
 90
       28
 70
   128
 43
0.0
 10
127.7912307487
 20
216.1355172768
 10
127.7529274091
 20
215.9096835568
 10
127.679771831
 20
215.6083218321
 10
127.5836180647
 20
215.3201703567
 10
127.4656332867
 20
215.048726899
 10
127.3272496725
 20
214.7972864151
 10
127.1701470115
 20
214.5689010518
 10
126.9962323174
 20
214.3663430979
 10
126.8076166789
 20
214.1920713328
 10
126.6065896343
 20
214.0482011794
 10
126.3955913796
 20
213.9364790266
 10
126.1771831479
 20
213.85826103
 10
125.9540161193
 20
213.8144966501
 10
125.728799239
 20
213.8057171272
 10
125.504266335
 20
213.8320290328
 10
125.2831429325
 20
213.893112976
 10
125.0681131702
 20
213.9882274805
 10
124.861787218
 20
214.1162179851
 10
124.6666695936
 20
214.2755308583
 10
124.4851287604
 20
214.4642322578
 10
124.3193683785
 20
214.6800316042
 10
124.1714005542
 20
214.9203093857
 10
124.0430214165
 20
215.1821489555
 10
123.9357893142
 20
215.462371936
 10
123.8510058997
 20
215.7575767998
 10
123.789700329
 20
216.0641801598
 10
123.7526167685
 20
216.3784602664
 10
123.7402053624
 20
216.6966021849
  0
LWPOLYLINE
  5
11F
330
1F
100
AcDbEntity
  8
0
  6
Continuous
 62
     7
370
    15
100
AcDbPolyline
 90
       53
 70
   128
 43
0.0
 10
123.7732598598
 20
216.6966021849
 10
123.7860277145
 20
216.9951112736
 10
123.8241450945
 20
217.2892674276
 10
123.8870561627
 20
217.5747811877
 10
123.973843534
 20
217.8474891205
 10
124.083241653
 20
218.1034145302
 10
124.2136552489
 20
218.3388254481
 10
124.3631825978
 20
218.5502890528
 10
124.5296432542
 20
218.7347217288
 10
124.7106098469
 20
218.8894340325
 10
124.9034434754
 20
219.01216991
 10
125.1053321914
 20
219.1011395958
 10
125.3133320025
 20
219.1550457117
 10
125.5244098034
 20
219.1731021849
 10
125.7354876042
 20
219.1550457117
 10
125.9434874154
 20
219.1011395958
 10
126.1453761313
 20
219.01216991
 10
126.3382097599
 20
218.8894340325
 10
126.5191763526
 20
218.7347217288
 10
126.685637009
 20
218.5502890528
 10
126.8351643578
 20
218.3388254481
 10
126.9655779537
 20
218.1034145302
 10
127.0749760728
 20
217.8474891205
 10
127.161763444
 20
217.5747811877
 10
127.2246745122
 20
217.2892674276
 10
127.2627918923
 20
216.9951112736
 10
127.275559747
 20
216.6966021849
 10
127.2627918923
 20
216.3980930963
 10
127.2246745122
 20
216.1039369423
 10
127.161763444
 20
215.8184231822
 10
127.0749760728
 20
215.5457152494
 10
126.9655779537
 20
215.2897898397
 10
126.8351643578
 20
215.0543789218
 10
126.685637009
 20
214.8429153171
 10
126.5191763526
 20
214.6584826411
 10
126.3382097599
 20
214.5037703374
 10
126.1453761313
 20
214.3810344599
 10
125.9434874154
 20
214.2920647741
 10
125.7354876042
 20
214.2381586582
 10
125.5244098034
 20
214.2201021849
 10
125.3133320025
 20
214.2381586582
 10
125.1053321914
 20
214.2920647741
 10
124.9034434754
 20
214.3810344599
 10
124.7106098469
 20
214.5037703374
 10
124.5296432542
 20
214.6584826411
 10
124.3631825978
 20
214.8429153171
 10
124.2136552489
 20
215.0543789218
 10
124.083241653
 20
215.2897898397
 10
123.973843534
 20
215.5457152494
 10
123.8870561627
 20
215.8184231822
 10
123.8241450945
 20
216.1039369423
 10
123.7860277145
 20
216.3980930963
 10
123.7732598598
 20
216.6966021849
  0
LWPOLYLINE
  5
120
330
1F
100
AcDbEntity
  8
0
  6
Continuous
 62
     7
370
    15
100
AcDbPolyline
 90
       26
 70
   128
 43
0.0
 10
125.5244098034
 20
218.8556021849
 10
125.6710027356
 20
218.8456256898
 10
125.8641199498
 20
218.8014715473
 10
126.0516591328
 20
218.7227555082
 10
126.2305408964
 20
218.6107700874
 10
126.397828007
 20
218.4673540826
 10
126.5507736148
 20
218.2948623806
 10
126.6868663572
 20
218.0961272904
 10
126.8038715951
 20
217.8744120367
 10
126.8998681058
 20
217.6333571777
 10
126.9732796292
 20
217.3769208277
 10
127.0229007501
 20
217.1093136643
 10
127.0479166911
 20
216.8349297899
 10
127.0479166911
 20
216.55827458
 10
127.0229007501
 20
216.2838907056
 10
126.9732796292
 20
216.0162835422
 10
126.8998681058
 20
215.7598471922
 10
126.8038715951
 20
215.5187923332
 10
126.6868663572
 20
215.2970770795
 10
126.5507736148
 20
215.0983419893
 10
126.397828007
 20
214.9258502873
 10
126.2305408964
 20
214.7824342825
 10
126.0516591328
 20
214.6704488617
 10
125.8641199498
 20
214.5917328225
 10
125.6710027356
 20
214.5475786801
 10
125.5244098034
 20
214.5376021849
  0
LWPOLYLINE
  5
121
330
1F
100
AcDbEntity
  8
0
  6
Continuous
 62
     7
370
    15
100
AcDbPolyline
 90
       50
 70
   128
 43
0.0
 10
123.9358587409
 20
216.6966021849
 10
123.9483924632
 20
216.972688977
 10
123.985787827
 20
217.2442424316
 10
124.0474308012
 20
217.5068036485
 10
124.13230921
 20
217.7560613797
 10
124.2390293523
 20
217.9879228203
 10
124.3658388862
 20
218.1985808117
 10
124.5106556028
 20
218.3845763556
 10
124.6711016156
 20
218.5428554103
 10
124.8445424053
 20
218.670819038
 10
125.0281300792
 20
218.7663660797
 10
125.2188501326
 20
218.8279276553
 10
125.4135709476
 20
218.8544929257
 10
125.6090952137
 20
218.8456256898
 10
125.8022124279
 20
218.8014715473
 10
125.9897516109
 20
218.7227555082
 10
126.1686333745
 20
218.6107700874
 10
126.3359204851
 20
218.4673540826
 10
126.4888660929
 20
218.2948623806
 10
126.6249588353
 20
218.0961272904
 10
126.7419640732
 20
217.8744120367
 10
126.8379605839
 20
217.6333571777
 10
126.9113721073
 20
217.3769208277
 10
126.9609932282
 20
217.1093136643
 10
126.9860091691
 20
216.8349297899
 10
126.9860091691
 20
216.55827458
 10
126.9609932282
 20
216.2838907056
 10
126.9113721073
 20
216.0162835422
 10
126.8379605839
 20
215.7598471922
 10
126.7419640732
 20
215.5187923332
 10
126.6249588353
 20
215.2970770795
 10
126.4888660929
 20
215.0983419893
 10
126.3359204851
 20
214.9258502873
 10
126.1686333745
 20
214.7824342825
 10
125.9897516109
 20
214.6704488617
 10
125.8022124279
 20
214.5917328225
 10
125.6090952137
 20
214.5475786801
 10
125.4135709476
 20
214.5387114442
 10
125.2188501326
 20
214.5652767146
 10
125.0281300792
 20
214.6268382902
 10
124.8445424053
 20
214.7223853319
 10
124.6711016156
 20
214.8503489596
 10
124.5106556028
 20
215.0086280143
 10
124.3658388862
 20
215.1946235582
 10
124.2390293523
 20
215.4052815496
 10
124.13230921
 20
215.6371429902
 10
124.0474308012
 20
215.8864007214
 10
123.985787827
 20
216.1489619383
 10
123.9483924632
 20
216.4205153929
 10
123.9358587409
 20
216.6966021849
  0
LWPOLYLINE
  5
122
330
1F
100
AcDbEntity
  8
0
  6
Continuous
 62
     8
370
    15
100
AcDbPolyline
 90
       10
 70
   128
 43
0.0
 10
107.9503830246
 20
217.2135626213
 10
107.9503938022
 20
217.2135626145
 10
107.9573012929
 20
217.2164628025
 10
107.9631628564
 20
217.2247218392
 10
107.9670861228
 20
217.2370823612
 10
107.9684738104
 20
217.2516625909
 10
107.9671146562
 20
217.2662428207
 10
107.9632155792
 20
217.2786033427
 10
107.9573701786
 20
217.2868623794
 10
107.9504791411
 20
217.2897625606
  0
LINE
  5
123
330
1F
100
AcDbEntity
  8
0
  6
Continuous
 62
     8
370
    15
100
AcDbLine
 10
107.9331678341
 20
217.2130032948
 30
0.0
 11
107.9304617102
 21
217.2135877494
 31
0.0
  0
LINE
  5
124
330
1F
100
AcDbEntity
  8
0
  6
Continuous
 62
     8
370
    15
100
AcDbLine
 10
107.7513311595
 20
217.6254335862
 30
0.0
 11
71.481101058
 21
217.6254335862
 31
0.0
  0
LINE
  5
125
330
1F
100
AcDbEntity
  8
0
  6
Continuous
 62
     8
370
    15
100
AcDbLine
 10
68.306101058
 20
217.6254335862
 30
0.0
 11
58.9927106597
 21
217.6254335862
 31
0.0
  0
LINE
  5
126
330
1F
100
AcDbEntity
  8
0
  6
Continuous
 62
     8
370
    15
100
AcDbLine
 10
58.9916254958
 20
216.7999379284
 30
0.0
 11
68.306101058
 21
216.7999379284
 31
0.0
  0
LINE
  5
127
330
1F
100
AcDbEntity
  8
0
  6
Continuous
 62
     8
370
    15
100
AcDbLine
 10
71.481101058
 20
216.7999379284
 30
0.0
 11
107.7502459956
 21
216.7999379284
 31
0.0
  0
INSERT
  5
133
330
1F
100
AcDbEntity
  8
0
  6
Continuous
 62
     7
370
     0
100
AcDbBlockReference
  2
SW_CENTERMARKSYMBOL_1
 10
131.6465263233
 20
216.6966021849
 30
0.0
  0
LINE
  5
134
330
1F
100
AcDbEntity
  8
0
  6
Continuous
 62
     7
370
    15
100
AcDbLine
 10
270.7802890811
 20
102.7752359316
 30
0.0
 11
270.9399300857
 21
103.0261318793
 31
0.0
  0
LINE
  5
135
330
1F
100
AcDbEntity
  8
0
  6
Continuous
 62
     7
370
    15
100
AcDbLine
 10
225.6202539347
 20
103.1793017393
 30
0.0
 11
225.77811126
 21
102.9274643536
 31
0.0
  0
SPLINE
  5
136
330
1F
100
AcDbEntity
  8
0
  6
Continuous
 62
     7
370
    15
100
AcDbSpline
210
0.0
220
0.0
230
1.0
 70
     8
 71
     3
 72
    15
 73
    11
 74
     0
 42
0.000000001
 43
0.00000001
 40
0.0
 40
0.0
 40
0.0
 40
0.0
 40
0.1386405748732667
 40
0.2733337282886331
 40
0.4042133314932911
 40
0.5310116845093031
 40
0.654055708850963
 40
0.7732402376158174
 40
0.8885538035776236
 40
1.0
 40
1.0
 40
1.0
 40
1.0
 10
248.4042032900794
 20
127.7857869157097
 30
0.0
 10
248.4042063806565
 20
127.7982587172226
 30
0.0
 10
248.4042124738149
 20
127.8228472188868
 30
0.0
 10
248.404259882394
 20
127.8815338855882
 30
0.0
 10
248.4043291587361
 20
127.9486147427341
 30
0.0
 10
248.4044150056906
 20
128.0193189600271
 30
0.0
 10
248.4045087871129
 20
128.0871752186094
 30
0.0
 10
248.4046020552399
 20
128.1471189268272
 30
0.0
 10
248.4046894021031
 20
128.1966909719365
 30
0.0
 10
248.4047384091024
 20
128.2190880763676
 30
0.0
 10
248.4047624946968
 20
128.2300956381743
 30
0.0
  0
SPLINE
  5
137
330
1F
100
AcDbEntity
  8
0
  6
Continuous
 62
     7
370
    15
100
AcDbSpline
210
0.0
220
0.0
230
1.0
 70
     8
 71
     3
 72
    15
 73
    11
 74
     0
 42
0.000000001
 43
0.00000001
 40
0.0
 40
0.0
 40
0.0
 40
0.0
 40
0.1386406419164831
 40
0.2733218834042637
 40
0.4041869525863516
 40
0.5309850533199442
 40
0.6540263975429591
 40
0.773226913086534
 40
0.888545915892151
 40
1.0
 40
1.0
 40
1.0
 40
1.0
 10
248.3285626871965
 20
128.230266870544
 30
0.0
 10
248.3285322950758
 20
128.2161669283064
 30
0.0
 10
248.3284723787947
 20
128.1883697202511
 30
0.0
 10
248.3283674994469
 20
128.1260973769276
 30
0.0
 10
248.3282653149664
 20
128.0569023706821
 30
0.0
 10
248.3281727192231
 20
127.9857470672585
 30
0.0
 10
248.3280972370056
 20
127.919047462492
 30
0.0
 10
248.3280426954919
 20
127.8615272360074
 30
0.0
 10
248.3280093670813
 20
127.8152490291254
 30
0.0
 10
248.3280052930157
 20
127.7955013532469
 30
0.0
 10
248.3280032907003
 20
127.7857957962152
 30
0.0
  0
LINE
  5
138
330
1F
100
AcDbEntity
  8
0
  6
Continuous
 62
     7
370
    15
100
AcDbLine
 10
248.3748612047
 20
147.9655482805
 30
0.0
 11
248.3285626958
 21
128.2302706359
 31
0.0
  0
LINE
  5
139
330
1F
100
AcDbEntity
  8
0
  6
Continuous
 62
     7
370
    15
100
AcDbLine
 10
248.4047624861
 20
128.2300918729
 30
0.0
 11
248.4510610891
 21
147.9654096379
 31
0.0
  0
LINE
  5
13A
330
1F
100
AcDbEntity
  8
0
  6
Continuous
 62
     7
370
    15
100
AcDbLine
 10
248.3280032904
 20
127.7857913559
 30
0.0
 11
248.3280032904
 21
106.0197033221
 31
0.0
  0
LINE
  5
13B
330
1F
100
AcDbEntity
  8
0
  6
Continuous
 62
     7
370
    15
100
AcDbLine
 10
248.4042032904
 20
106.0197033221
 30
0.0
 11
248.4042032904
 21
127.7857913559
 31
0.0
  0
LINE
  5
13C
330
1F
100
AcDbEntity
  8
0
  6
Continuous
 62
     7
370
    15
100
AcDbLine
 10
247.8829710645
 20
147.2101171468
 30
0.0
 11
248.3730889806
 21
147.2101171468
 31
0.0
  0
LINE
  5
13D
330
1F
100
AcDbEntity
  8
0
  6
Continuous
 62
     7
370
    15
100
AcDbLine
 10
248.4492891902
 20
147.2101171468
 30
0.0
 11
248.8481710645
 21
147.2101171468
 31
0.0
  0
LINE
  5
13E
330
1F
100
AcDbEntity
  8
0
  6
Continuous
 62
     7
370
    15
100
AcDbLine
 10
248.8481710645
 20
150.3851171468
 30
0.0
 11
247.8829710645
 21
150.3851171468
 31
0.0
  0
SPLINE
  5
13F
330
1F
100
AcDbEntity
  8
0
  6
Continuous
 62
     7
370
    15
100
AcDbSpline
210
0.0
220
0.0
230
1.0
 70
     8
 71
     3
 72
    16
 73
    12
 74
     0
 42
0.000000001
 43
0.00000001
 40
0.0
 40
0.0
 40
0.0
 40
0.0
 40
0.5272507992395081
 40
0.7924805509679107
 40
0.850831130971647
 40
0.90789986113836
 40
0.9223793362549021
 40
0.9389822977675976
 40
0.9594425280140835
 40
0.9837600336610536
 40
1.0
 40
1.0
 40
1.0
 40
1.0
 10
248.4300637805963
 20
128.0729219337738
 30
0.0
 10
248.4341544218139
 20
131.4408549670696
 30
0.0
 10
248.4403028309023
 20
136.5030026768484
 30
0.0
 10
248.4471508524283
 20
141.9265198048301
 30
0.0
 10
248.4502377332604
 20
144.3518110437284
 30
0.0
 10
248.451294972645
 20
145.1792758013375
 30
0.0
 10
248.4520139095592
 20
145.7407347379503
 30
0.0
 10
248.45243465818
 20
146.0690060066499
 30
0.0
 10
248.4529362937446
 20
146.4599073981116
 30
0.0
 10
248.4534354844271
 20
146.8484722033442
 30
0.0
 10
248.4537679600111
 20
147.1067128053048
 30
0.0
 10
248.4539010894205
 20
147.2101171467945
 30
0.0
  0
SPLINE
  5
140
330
1F
100
AcDbEntity
  8
0
  6
Continuous
 62
     7
370
    15
100
AcDbSpline
210
0.0
220
0.0
230
1.0
 70
     8
 71
     3
 72
    10
 73
     6
 74
     0
 42
0.000000001
 43
0.00000001
 40
0.0
 40
0.0
 40
0.0
 40
0.0
 40
0.4730816182388839
 40
0.9050680000882411
 40
1.0
 40
1.0
 40
1.0
 40
1.0
 10
248.3521101653358
 20
105.9628592794149
 30
0.0
 10
248.3570421246178
 20
105.960919249201
 30
0.0
 10
248.3664776180969
 20
105.9572077136053
 30
0.0
 10
248.377017784383
 20
105.9637347375826
 30
0.0
 10
248.3818385556699
 20
105.9726218962963
 30
0.0
 10
248.3827070876385
 20
105.9742230470236
 30
0.0
  0
SPLINE
  5
141
330
1F
100
AcDbEntity
  8
0
  6
Continuous
 62
     7
370
    15
100
AcDbSpline
210
0.0
220
0.0
230
1.0
 70
     8
 71
     3
 72
    10
 73
     6
 74
     0
 42
0.000000001
 43
0.00000001
 40
0.0
 40
0.0
 40
0.0
 40
0.0
 40
0.122652803379191
 40
0.6179439482036896
 40
1.0
 40
1.0
 40
1.0
 40
1.0
 10
248.4042032903897
 20
106.0806740666125
 30
0.0
 10
248.4042962281069
 20
106.0844104940356
 30
0.0
 10
248.4047644628173
 20
106.1032351979997
 30
0.0
 10
248.4044540191644
 20
106.1335930767954
 30
0.0
 10
248.4045512935535
 20
106.1647672482043
 30
0.0
 10
248.4045936533732
 20
106.1783425817693
 30
0.0
  0
LINE
  5
142
330
1F
100
AcDbEntity
  8
0
  6
Continuous
 62
     7
370
    15
100
AcDbLine
 10
251.6216021849
 20
60.4348828532
 30
0.0
 11
251.6216021849
 21
67.4292291806
 31
0.0
  0
LINE
  5
143
330
1F
100
AcDbEntity
  8
0
  6
Continuous
 62
     7
370
    15
100
AcDbLine
 10
244.0016021849
 20
67.4292291806
 30
0.0
 11
244.0016021849
 21
60.4348828532
 31
0.0
  0
LINE
  5
144
330
1F
100
AcDbEntity
  8
0
  6
Continuous
 62
     7
370
    15
100
AcDbLine
 10
251.6216021849
 20
67.4292291806
 30
0.0
 11
251.6216021849
 21
73.7220173168
 31
0.0
  0
LINE
  5
145
330
1F
100
AcDbEntity
  8
0
  6
Continuous
 62
     7
370
    15
100
AcDbLine
 10
244.0016021849
 20
73.7220173168
 30
0.0
 11
244.0016021849
 21
67.4292291806
 31
0.0
  0
LINE
  5
146
330
1F
100
AcDbEntity
  8
0
  6
Continuous
 62
     7
370
    15
100
AcDbLine
 10
248.5807925816
 20
106.1237968605
 30
0.0
 11
248.5807925816
 21
127.7401105432
 31
0.0
  0
LWPOLYLINE
  5
147
330
1F
100
AcDbEntity
  8
0
  6
Continuous
 62
     7
370
    15
100
AcDbPolyline
 90
       86
 70
   128
 43
0.0
 10
248.5807925816
 20
127.7401105432
 10
249.4252839531
 20
127.2785936776
 10
250.2682356528
 20
126.8033946303
 10
251.1085154182
 20
126.3151516944
 10
251.9449945755
 20
125.8145206835
 10
252.7765495561
 20
125.302174051
 10
253.6020634055
 20
124.7787999871
 10
254.4204272838
 20
124.2451014939
 10
255.2305419549
 20
123.7017954416
 10
256.0313192632
 20
123.1496116052
 10
256.8216835953
 20
122.5892916846
 10
257.6005733245
 20
122.0215883081
 10
258.3669422368
 20
121.4472640216
 10
259.1197609365
 20
120.8670902643
 10
259.8580182287
 20
120.2818463324
 10
260.5807224774
 20
119.6923183324
 10
261.2869029378
 20
119.0992981253
 10
261.9756110599
 20
118.5035822628
 10
262.6459217628
 20
117.9059709176
 10
263.2969346774
 20
117.3072668082
 10
263.9277753554
 20
116.708274121
 10
264.5375964441
 20
116.1097974302
 10
265.1255788248
 20
115.5126406166
 10
265.6909327124
 20
114.9176057883
 10
266.2328987169
 20
114.3254922032
 10
266.7507488634
 20
113.7370951951
 10
267.2437875693
 20
113.1532051059
 10
267.7113525792
 20
112.5746062237
 10
268.1528158543
 20
112.0020757292
 10
268.5675844158
 20
111.4363826522
 10
268.9551011419
 20
110.8782868384
 10
269.3148455154
 20
110.3285379286
 10
269.6463343235
 20
109.7878743519
 10
269.9491223064
 20
109.2570223342
 10
270.2228027559
 20
108.7366949221
 10
270.467008061
 20
108.2275910255
 10
270.6814102023
 20
107.7303944788
 10
270.8657211924
 20
107.2457731223
 10
271.0196934625
 20
106.774377905
 10
271.1431201954
 20
106.3168420107
 10
271.2358356026
 20
105.8737800068
 10
271.2977151479
 20
105.4457870196
 10
271.3286757138
 20
105.0334379342
 10
271.3286757138
 20
104.6372866228
 10
271.2977151479
 20
104.2578652005
 10
271.2358356026
 20
103.8956833107
 10
271.1431201954
 20
103.5512274403
 10
271.0196934625
 20
103.2249602665
 10
270.8657211924
 20
102.9173200353
 10
270.6814102023
 20
102.6287199726
 10
270.467008061
 20
102.3595477294
 10
270.2228027559
 20
102.1101648612
 10
269.9491223064
 20
101.8809063418
 10
269.6463343235
 20
101.672080114
 10
269.3148455154
 20
101.4839666757
 10
268.9551011419
 20
101.3168187031
 10
268.5675844158
 20
101.1708607113
 10
268.1528158543
 20
101.0462887528
 10
267.7113525792
 20
100.9432701541
 10
267.2437875693
 20
100.8619432911
 10
266.7507488634
 20
100.8024174028
 10
266.2328987169
 20
100.7647724453
 10
265.6909327124
 20
100.7490589836
 10
265.1255788248
 20
100.7552981243
 10
264.5375964441
 20
100.7834814868
 10
263.9277753554
 20
100.833571215
 10
263.2969346774
 20
100.9055000277
 10
262.6459217628
 20
100.9991713093
 10
261.9756110599
 20
101.1144592394
 10
261.2869029378
 20
101.251208962
 10
260.5807224774
 20
101.4092367931
 10
259.8580182287
 20
101.588330468
 10
259.1197609365
 20
101.7882494259
 10
258.3669422368
 20
102.0087251333
 10
257.6005733245
 20
102.2494614446
 10
256.8216835953
 20
102.5101349999
 10
256.0313192632
 20
102.7903956595
 10
255.2305419549
 20
103.089866974
 10
254.4204272838
 20
103.40814669
 10
253.6020634055
 20
103.7448072903
 10
252.7765495561
 20
104.0993965685
 10
251.9449945755
 20
104.4714382361
 10
251.1085154182
 20
104.8604325623
 10
250.2682356528
 20
105.2658570453
 10
249.4252839531
 20
105.6871671143
 10
248.5807925816
 20
106.1237968605
  0
LINE
  5
148
330
1F
100
AcDbEntity
  8
0
  6
Continuous
 62
     7
370
    15
100
AcDbLine
 10
248.7404335862
 20
127.9910064909
 30
0.0
 11
248.5807925816
 21
127.7401105432
 31
0.0
  0
LWPOLYLINE
  5
149
330
1F
100
AcDbEntity
  8
0
  6
Continuous
 62
     7
370
    15
100
AcDbPolyline
 90
       50
 70
   128
 43
0.0
 10
270.9399300857
 20
103.0261318793
 10
271.025362197
 20
103.168215983
 10
271.1793344671
 20
103.4758562142
 10
271.3027612
 20
103.802123388
 10
271.3954766072
 20
104.1465792584
 10
271.4573561525
 20
104.5087611482
 10
271.4883167184
 20
104.8881825705
 10
271.4883167184
 20
105.2843338819
 10
271.4573561525
 20
105.6966829673
 10
271.3954766072
 20
106.1246759545
 10
271.3027612
 20
106.5677379584
 10
271.1793344671
 20
107.0252738527
 10
271.025362197
 20
107.49666907
 10
270.8410512069
 20
107.9812904265
 10
270.6266490656
 20
108.4784869732
 10
270.3824437605
 20
108.9875908698
 10
270.108763311
 20
109.5079182819
 10
269.8059753281
 20
110.0387702996
 10
269.47448652
 20
110.5794338763
 10
269.1147421465
 20
111.1291827861
 10
268.7272254204
 20
111.6872785999
 10
268.3124568588
 20
112.2529716769
 10
267.8709935838
 20
112.8255021714
 10
267.4034285739
 20
113.4041010536
 10
266.910389868
 20
113.9879911428
 10
266.3925397215
 20
114.5763881509
 10
265.8505737169
 20
115.168501736
 10
265.2852198293
 20
115.7635365643
 10
264.6972374487
 20
116.3606933779
 10
264.08741636
 20
116.9591700687
 10
263.456575682
 20
117.5581627559
 10
262.8055627674
 20
118.1568668653
 10
262.1352520645
 20
118.7544782105
 10
261.4465439424
 20
119.350194073
 10
260.740363482
 20
119.9432142801
 10
260.0176592333
 20
120.5327422801
 10
259.2794019411
 20
121.117986212
 10
258.5265832414
 20
121.6981599693
 10
257.7602143291
 20
122.2724842558
 10
256.9813245999
 20
122.8401876323
 10
256.1909602678
 20
123.4005075529
 10
255.3901829594
 20
123.9526913893
 10
254.5800682883
 20
124.4959974416
 10
253.7617044101
 20
125.0296959348
 10
252.9361905607
 20
125.5530699988
 10
252.1046355801
 20
126.0654166312
 10
251.2681564228
 20
126.5660476421
 10
250.4278766574
 20
127.054290578
 10
249.5849249577
 20
127.5294896253
 10
248.7404335862
 20
127.9910064909
  0
LWPOLYLINE
  5
14A
330
1F
100
AcDbEntity
  8
0
  6
Continuous
 62
     7
370
    15
100
AcDbPolyline
 90
       86
 70
   128
 43
0.0
 10
248.0727952538
 20
106.1253031614
 10
247.2251350934
 20
105.6936909403
 10
246.379020382
 20
105.2773892485
 10
245.5355876309
 20
104.8769572673
 10
244.6959697489
 20
104.4929328619
 10
243.8612945206
 20
104.1258318581
 10
243.0326830917
 20
103.7761473505
 10
242.2112484628
 20
103.4443490394
 10
241.3980939946
 20
103.1308826003
 10
240.5943119257
 20
102.8361690848
 10
239.8009819058
 20
102.5606043558
 10
239.019169545
 20
102.3045585549
 10
238.249924983
 20
102.068375606
 10
237.4942814781
 20
101.8523727528
 10
236.7532540196
 20
101.6568401328
 10
236.0278379644
 20
101.4820403878
 10
235.3190076997
 20
101.3282083108
 10
234.6277153349
 20
101.1955505309
 10
233.9548894219
 20
101.0842452356
 10
233.3014337085
 20
100.9944419315
 10
232.668225924
 20
100.9262612435
 10
232.0561166007
 20
100.8797947526
 10
231.4659279311
 20
100.8551048731
 10
230.8984526634
 20
100.852224769
 10
230.3544530372
 20
100.8711583086
 10
229.8346597592
 20
100.9118800603
 10
229.3397710219
 20
100.9743353261
 10
228.8704515656
 20
101.0584402153
 10
228.4273317858
 20
101.1640817574
 10
228.0110068861
 20
101.2911180533
 10
227.6220360792
 20
101.4393784664
 10
227.2609418352
 20
101.6086638515
 10
226.9282091801
 20
101.7987468225
 10
226.6242850444
 20
102.0093720578
 10
226.3495776625
 20
102.240256643
 10
226.1044560247
 20
102.4910904512
 10
225.8892493812
 20
102.7615365595
 10
225.7042468001
 20
103.0512317015
 10
225.5496967791
 20
103.3597867552
 10
225.4258069116
 20
103.6867872659
 10
225.3327436078
 20
104.0317940027
 10
225.2706318717
 20
104.3943435483
 10
225.2395551323
 20
104.7739489221
 10
225.2395551323
 20
105.1701002335
 10
225.2706318717
 20
105.5822653674
 10
225.3327436078
 20
106.0098906988
 10
225.4258069116
 20
106.4524018363
 10
225.5496967791
 20
106.9092043938
 10
225.7042468001
 20
107.3796847885
 10
225.8892493812
 20
107.8632110657
 10
226.1044560247
 20
108.3591337473
 10
226.3495776625
 20
108.8667867039
 10
226.6242850444
 20
109.3854880503
 10
226.9282091801
 20
109.9145410605
 10
227.2609418352
 20
110.4532351044
 10
227.6220360792
 20
111.0008466017
 10
228.0110068861
 20
111.5566399943
 10
228.4273317858
 20
112.1198687338
 10
228.8704515656
 20
112.6897762849
 10
229.3397710219
 20
113.2655971409
 10
229.8346597592
 20
113.8465578525
 10
230.3544530372
 20
114.4318780665
 10
230.8984526634
 20
115.0207715737
 10
231.4659279311
 20
115.6124473655
 10
232.0561166007
 20
116.206110696
 10
232.668225924
 20
116.8009641495
 10
233.3014337085
 20
117.396208712
 10
233.9548894219
 20
117.9910448439
 10
234.6277153349
 20
118.5846735543
 10
235.3190076997
 20
119.1762974741
 10
236.0278379644
 20
119.765121927
 10
236.7532540196
 20
120.3503559972
 10
237.4942814781
 20
120.9312135912
 10
238.249924983
 20
121.5069144944
 10
239.019169545
 20
122.0766854185
 10
239.8009819058
 20
122.6397610405
 10
240.5943119257
 20
123.1953850305
 10
241.3980939946
 20
123.7428110678
 10
242.2112484628
 20
124.2813038434
 10
243.0326830917
 20
124.8101400474
 10
243.8612945206
 20
125.3286093407
 10
244.6959697489
 20
125.8360153093
 10
245.5355876309
 20
126.3316763995
 10
246.379020382
 20
126.8149268335
 10
247.2251350934
 20
127.2851175036
 10
248.0727952538
 20
127.7416168441
  0
LWPOLYLINE
  5
14B
330
1F
100
AcDbEntity
  8
0
  6
Continuous
 62
     7
370
    15
100
AcDbPolyline
 90
       50
 70
   128
 43
0.0
 10
247.9149379284
 20
127.9934542298
 10
247.067277768
 20
127.5369548893
 10
246.2211630567
 20
127.0667642192
 10
245.3777303055
 20
126.5835137853
 10
244.5381124235
 20
126.0878526951
 10
243.7034371953
 20
125.5804467264
 10
242.8748257664
 20
125.0619774331
 10
242.0533911374
 20
124.5331412292
 10
241.2402366692
 20
123.9946484536
 10
240.4364546004
 20
123.4472224162
 10
239.6431245805
 20
122.8915984262
 10
238.8613122197
 20
122.3285228043
 10
238.0920676577
 20
121.7587518802
 10
237.3364241528
 20
121.183050977
 10
236.5953966943
 20
120.6021933829
 10
235.8699806391
 20
120.0169593128
 10
235.1611503744
 20
119.4281348598
 10
234.4698580096
 20
118.83651094
 10
233.7970320966
 20
118.2428822297
 10
233.1435763831
 20
117.6480460978
 10
232.5103685987
 20
117.0528015353
 10
231.8982592754
 20
116.4579480817
 10
231.3080706058
 20
115.8642847512
 10
230.7405953381
 20
115.2726089594
 10
230.1965957119
 20
114.6837154522
 10
229.6768024339
 20
114.0983952383
 10
229.1819136966
 20
113.5174345267
 10
228.7125942403
 20
112.9416136706
 10
228.2694744604
 20
112.3717061196
 10
227.8531495608
 20
111.80847738
 10
227.4641787539
 20
111.2526839874
 10
227.1030845099
 20
110.7050724901
 10
226.7703518548
 20
110.1663784462
 10
226.4664277191
 20
109.637325436
 10
226.1917203372
 20
109.1186240897
 10
225.9465986994
 20
108.610971133
 10
225.7313920559
 20
108.1150484515
 10
225.5463894748
 20
107.6315221742
 10
225.3918394538
 20
107.1610417795
 10
225.2679495862
 20
106.7042392221
 10
225.1748862825
 20
106.2617280846
 10
225.1127745464
 20
105.8341027532
 10
225.081697807
 20
105.4219376192
 10
225.081697807
 20
105.0257863078
 10
225.1127745464
 20
104.6461809341
 10
225.1748862825
 20
104.2836313884
 10
225.2679495862
 20
103.9386246517
 10
225.3918394538
 20
103.611624141
 10
225.5463894748
 20
103.3030690872
 10
225.6202539347
 20
103.1793017393
  0
LINE
  5
14C
330
1F
100
AcDbEntity
  8
0
  6
Continuous
 62
     7
370
    15
100
AcDbLine
 10
248.0727952538
 20
127.7416168441
 30
0.0
 11
247.9149379284
 21
127.9934542298
 31
0.0
  0
LINE
  5
14D
330
1F
100
AcDbEntity
  8
0
  6
Continuous
 62
     7
370
    15
100
AcDbLine
 10
248.0727952538
 20
127.7416168441
 30
0.0
 11
248.0727952538
 21
106.1253031614
 31
0.0
  0
SPLINE
  5
14E
330
1F
100
AcDbEntity
  8
0
  6
Continuous
 62
     7
370
    15
100
AcDbSpline
210
0.0
220
0.0
230
1.0
 70
     8
 71
     3
 72
    17
 73
    13
 74
     0
 42
0.000000001
 43
0.00000001
 40
0.0
 40
0.0
 40
0.0
 40
0.0
 40
0.0357029056984893
 40
0.1433911500342728
 40
0.2509124796183567
 40
0.3582862377730637
 40
0.4655815311891834
 40
0.5728506584369473
 40
0.6801184469571521
 40
0.7874012712492919
 40
0.8947296333972774
 40
1.0
 40
1.0
 40
1.0
 40
1.0
 10
248.3753421543456
 20
147.9655712247521
 30
0.0
 10
248.3752121609937
 20
147.9667777375986
 30
0.0
 10
248.3746900775425
 20
147.9716233730224
 30
0.0
 10
248.3782197699252
 20
147.9799943399769
 30
0.0
 10
248.3855786611969
 20
147.9891146395637
 30
0.0
 10
248.3963184220869
 20
147.9955820798874
 30
0.0
 10
248.4088496993031
 20
147.9986369940432
 30
0.0
 10
248.4218551985344
 20
147.9979314697566
 30
0.0
 10
248.433874603664
 20
147.9935489887734
 30
0.0
 10
248.4434533632122
 20
147.9860034031247
 30
0.0
 10
248.4498783792749
 20
147.9762310153248
 30
0.0
 10
248.4506411079921
 20
147.9689894107624
 30
0.0
 10
248.4510187806722
 20
147.9654036585259
 30
0.0
  0
LINE
  5
14F
330
1F
100
AcDbEntity
  8
0
  6
Continuous
 62
     7
370
    15
100
AcDbLine
 10
248.3661032904
 20
105.9849220152
 30
0.0
 11
248.3519616247
 21
105.9874066527
 31
0.0
  0
ARC
  5
150
330
1F
100
AcDbEntity
  8
0
  6
Continuous
 62
     7
370
    15
100
AcDbCircle
 10
248.3676903684
 20
106.0214418328
 30
0.0
 40
0.036554286892264
100
AcDbArc
 50
267.5116060675
 51
357.2740019887
  0
ARC
  5
151
330
1F
100
AcDbEntity
  8
0
  6
Continuous
 62
     7
370
    15
100
AcDbCircle
 10
248.3241834883
 20
127.2050764696
 30
0.0
 40
0.8882687775664596
100
AcDbArc
 50
89.6840419065
 51
117.433749696
  0
ARC
  5
152
330
1F
100
AcDbEntity
  8
0
  6
Continuous
 62
     7
370
    15
100
AcDbCircle
 10
248.328364849
 20
127.2109201683
 30
0.0
 40
0.8822331409325365
100
AcDbArc
 50
62.1554272029
 51
84.9575929367
  0
ARC
  5
153
330
1F
100
AcDbEntity
  8
0
  6
Continuous
 62
     7
370
    15
100
AcDbCircle
 10
248.3282007058
 20
127.2628573157
 30
0.0
 40
0.5399752761674543
100
AcDbArc
 50
62.1094431829
 51
81.8248725748
  0
ARC
  5
154
330
1F
100
AcDbEntity
  8
0
  6
Continuous
 62
     7
370
    15
100
AcDbCircle
 10
248.3244357677
 20
127.2573017314
 30
0.0
 40
0.5457875746856341
100
AcDbArc
 50
89.6684165468
 51
117.4554924294
  0
ARC
  5
155
330
1F
100
AcDbEntity
  8
0
  6
Continuous
 62
     7
370
    15
100
AcDbCircle
 10
248.3282084937
 20
105.6465621943
 30
0.0
 40
0.5399552278924455
100
AcDbArc
 50
62.1092522431
 51
81.7818640718
  0
ARC
  5
156
330
1F
100
AcDbEntity
  8
0
  6
Continuous
 62
     7
370
    15
100
AcDbCircle
 10
248.3244400347
 20
105.6409765427
 30
0.0
 40
0.545799752123873
100
AcDbArc
 50
89.6277463915
 51
117.4553330166
  0
LINE
  5
157
330
1F
100
AcDbEntity
  8
0
  6
Continuous
 62
     7
370
    15
100
AcDbLine
 10
248.8481710645
 20
147.2101171468
 30
0.0
 11
248.8481710645
 21
150.3851171468
 31
0.0
  0
LINE
  5
158
330
1F
100
AcDbEntity
  8
0
  6
Continuous
 62
     7
370
    15
100
AcDbLine
 10
247.8829710645
 20
147.2101171468
 30
0.0
 11
247.8829710645
 21
150.3851171468
 31
0.0
  0
ELLIPSE
  5
159
330
1F
100
AcDbEntity
  8
0
  6
Continuous
 62
     7
370
    15
100
AcDbEllipse
 10
247.8116021849
 20
67.4292291806
 30
0.0
 11
3.810000000000002
 21
4.263256414560601E-14
 31
0.0
210
0.0
220
0.0
230
1.0
 40
0.4142135624
 41
1.570796326794892
 42
3.141592653589793
  0
ELLIPSE
  5
15A
330
1F
100
AcDbEntity
  8
0
  6
Continuous
 62
     7
370
    15
100
AcDbEllipse
 10
247.8116021849
 20
67.4292291806
 30
0.0
 11
3.810000000000002
 21
4.263256414560601E-14
 31
0.0
210
0.0
220
0.0
230
1.0
 40
0.4142135624
 41
0.0
 42
1.570796326794922
  0
LINE
  5
15B
330
1F
100
AcDbEntity
  8
0
  6
Continuous
 62
     7
370
    15
100
AcDbLine
 10
247.8116021849
 20
60.4348828532
 30
0.0
 11
244.0016021849
 21
60.4348828532
 31
0.0
  0
LINE
  5
15C
330
1F
100
AcDbEntity
  8
0
  6
Continuous
 62
     7
370
    15
100
AcDbLine
 10
251.6216021849
 20
60.4348828532
 30
0.0
 11
247.8116021849
 21
60.4348828532
 31
0.0
  0
LWPOLYLINE
  5
15D
330
1F
100
AcDbEntity
  8
0
  6
Continuous
 62
     7
370
    15
100
AcDbPolyline
 90
       18
 70
   128
 43
0.0
 10
247.8116021849
 20
76.4160941531
 10
247.4438841463
 20
76.4035172183
 10
247.0795993918
 20
76.3659038415
 10
246.7221491502
 20
76.3036052085
 10
246.3748708381
 20
76.2172029849
 10
246.0410068995
 20
76.1075038851
 10
245.7236745319
 20
75.9755321399
 10
245.4258365823
 20
75.8225199339
 10
245.1502738833
 20
75.649895901
 10
244.8995592897
 20
75.4592717852
 10
244.6760336559
 20
75.2524273925
 10
244.4817839806
 20
75.0312939732
 10
244.3186239208
 20
74.7979361906
 10
244.1880768579
 20
74.5545328433
 10
244.0913616746
 20
74.3033565229
 10
244.0293813746
 20
74.046752395
 10
244.0027146513
 20
73.7871163031
 10
244.0016021849
 20
73.7220173168
  0
LWPOLYLINE
  5
15E
330
1F
100
AcDbEntity
  8
0
  6
Continuous
 62
     7
370
    15
100
AcDbPolyline
 90
       18
 70
   128
 43
0.0
 10
251.6216021849
 20
73.7220173168
 10
251.6204897186
 20
73.7871163031
 10
251.5938229953
 20
74.046752395
 10
251.5318426953
 20
74.3033565229
 10
251.435127512
 20
74.5545328433
 10
251.3045804491
 20
74.7979361906
 10
251.1414203893
 20
75.0312939732
 10
250.947170714
 20
75.2524273925
 10
250.7236450802
 20
75.4592717852
 10
250.4729304865
 20
75.649895901
 10
250.1973677876
 20
75.8225199339
 10
249.899529838
 20
75.9755321399
 10
249.5821974704
 20
76.1075038851
 10
249.2483335318
 20
76.2172029849
 10
248.9010552196
 20
76.3036052085
 10
248.5436049781
 20
76.3659038415
 10
248.1793202236
 20
76.4035172183
 10
247.8116021849
 20
76.4160941531
  0
LWPOLYLINE
  5
15F
330
1F
100
AcDbEntity
  8
0
  6
Continuous
 62
     8
370
    15
100
AcDbPolyline
 90
       10
 70
   128
 43
0.0
 10
248.3285628978
 20
128.2303307088
 10
248.3314628025
 20
128.2430414684
 10
248.3397218392
 20
128.2539237866
 10
248.3520823612
 20
128.2611915195
 10
248.3666625909
 20
128.2637382206
 10
248.3812428207
 20
128.2611761778
 10
248.3936033427
 20
128.2538954389
 10
248.4018623794
 20
128.2430044304
 10
248.4047625674
 20
128.2301612095
 10
248.4047624494
 20
128.2300776727
  0
ARC
  5
160
330
1F
100
AcDbEntity
  8
0
  6
Continuous
 62
     8
370
    15
100
AcDbCircle
 10
248.3639866105
 20
127.7869491852
 30
0.0
 40
0.0360014144958815
100
AcDbArc
 50
181.816848916
 51
273.3706121181
  0
ARC
  5
161
330
1F
100
AcDbEntity
  8
0
  6
Continuous
 62
     8
370
    15
100
AcDbCircle
 10
248.3679467676
 20
127.7872307385
 30
0.0
 40
0.0362675716198604
100
AcDbArc
 50
267.0864054671
 51
358.4085425647
  0
ARC
  5
162
330
1F
100
AcDbEntity
  8
0
  6
Continuous
 62
     8
370
    15
100
AcDbCircle
 10
248.3634556295
 20
106.0209678696
 30
0.0
 40
0.0354748844685221
100
AcDbArc
 50
182.0428138598
 51
251.0947558782
  0
ENDSEC
  0
SECTION
  2
OBJECTS
  0
DICTIONARY
  5
C
330
0
100
AcDbDictionary
281
     1
  3
ACAD_GROUP
350
D
  3
ACAD_LAYOUT
350
1A
  3
ACAD_MLINESTYLE
350
17
  3
ACAD_PLOTSETTINGS
350
19
  3
ACAD_PLOTSTYLENAME
350
E
  3
ACAD_SCALELIST
350
47
  0
DICTIONARY
  5
D
102
{ACAD_REACTORS
330
C
102
}
330
C
100
AcDbDictionary
281
     1
  0
DICTIONARY
  5
1A
102
{ACAD_REACTORS
330
C
102
}
330
C
100
AcDbDictionary
281
     1
  3
Layout1
350
1E
  3
Layout2
350
26
  3
Model
350
22
  0
DICTIONARY
  5
17
102
{ACAD_REACTORS
330
C
102
}
330
C
100
AcDbDictionary
281
     1
  3
Standard
350
18
  0
DICTIONARY
  5
19
102
{ACAD_REACTORS
330
C
102
}
330
C
100
AcDbDictionary
281
     1
  0
ACDBDICTIONARYWDFLT
  5
E
102
{ACAD_REACTORS
330
C
102
}
330
C
100
AcDbDictionary
281
     1
  3
Normal
350
F
100
AcDbDictionaryWithDefault
340
F
  0
DICTIONARY
  5
47
102
{ACAD_REACTORS
330
C
102
}
330
C
100
AcDbDictionary
281
     1
  3
A0
350
48
  3
A1
350
49
  3
A2
350
4A
  3
A3
350
4B
  3
A4
350
4C
  3
A5
350
4D
  3
A6
350
4E
  3
A7
350
4F
  3
A8
350
50
  3
A9
350
51
  3
B0
350
52
  3
B1
350
53
  3
B2
350
54
  3
B3
350
55
  3
B4
350
56
  3
B5
350
57
  3
B6
350
58
  3
B7
350
59
  3
B8
350
5A
  3
B9
350
5B
  3
C0
350
5C
  3
C1
350
5D
  3
C2
350
5E
  3
C3
350
5F
  3
C4
350
60
  3
C5
350
61
  3
C6
350
62
  3
C7
350
63
  3
C8
350
64
  3
C9
350
65
  3
D0
350
66
  3
D1
350
67
  3
D2
350
68
  0
LAYOUT
  5
1E
102
{ACAD_REACTORS
330
1A
102
}
330
1A
100
AcDbPlotSettings
  1

  2
none_device
  4

  6

 40
0.0
 41
0.0
 42
0.0
 43
0.0
 44
0.0
 45
0.0
 46
0.0
 47
0.0
 48
0.0
 49
0.0
140
0.0
141
0.0
142
1.0
143
1.0
 70
   688
 72
     1
 73
     0
 74
     5
  7

 75
    16
147
1.0
148
0.0
149
0.0
100
AcDbLayout
  1
Layout1
 70
     1
 71
     1
 10
0.0
 20
0.0
 11
420.0
 21
297.0
 12
0.0
 22
0.0
 32
0.0
 14
1.0000000000E+20
 24
1.0000000000E+20
 34
1.0000000000E+20
 15
-1.0000000000E+20
 25
-1.0000000000E+20
 35
-1.0000000000E+20
146
0.0
 13
0.0
 23
0.0
 33
0.0
 16
1.0
 26
0.0
 36
0.0
 17
0.0
 27
1.0
 37
0.0
 76
     0
330
1B
  0
LAYOUT
  5
26
102
{ACAD_REACTORS
330
1A
102
}
330
1A
100
AcDbPlotSettings
  1

  2
none_device
  4

  6

 40
0.0
 41
0.0
 42
0.0
 43
0.0
 44
0.0
 45
0.0
 46
0.0
 47
0.0
 48
0.0
 49
0.0
140
0.0
141
0.0
142
1.0
143
1.0
 70
   688
 72
     1
 73
     0
 74
     5
  7

 75
    16
147
1.0
148
0.0
149
0.0
100
AcDbLayout
  1
Layout2
 70
     1
 71
     2
 10
0.0
 20
0.0
 11
0.0
 21
0.0
 12
0.0
 22
0.0
 32
0.0
 14
0.0
 24
0.0
 34
0.0
 15
0.0
 25
0.0
 35
0.0
146
0.0
 13
0.0
 23
0.0
 33
0.0
 16
1.0
 26
0.0
 36
0.0
 17
0.0
 27
1.0
 37
0.0
 76
     0
330
23
  0
LAYOUT
  5
22
102
{ACAD_REACTORS
330
1A
102
}
330
1A
100
AcDbPlotSettings
  1

  2
none_device
  4
Letter_(8.50_x_11.00_Inches)
  6

 40
6.35
 41
6.35
 42
6.35000508
 43
6.35000508
 44
215.9
 45
279.4
 46
0.0
 47
0.0
 48
0.0
 49
0.0
140
0.0
141
0.0
142
1.0
143
1.0
 70
  1712
 72
     1
 73
     0
 74
     0
  7

 75
     0
147
1.0
148
0.0
149
0.0
100
AcDbLayout
  1
Model
 70
     1
 71
     0
 10
0.0
 20
0.0
 11
431.8
 21
279.4
 12
0.0
 22
0.0
 32
0.0
 14
0.0
 24
0.0
 34
0.0
 15
431.8
 25
279.4
 35
0.0
146
0.0
 13
0.0
 23
0.0
 33
0.0
 16
1.0
 26
0.0
 36
0.0
 17
0.0
 27
1.0
 37
0.0
 76
     0
330
1F
331
29
  0
MLINESTYLE
  5
18
102
{ACAD_REACTORS
330
17
102
}
330
17
100
AcDbMlineStyle
  2
Standard
 70
     0
  3

 62
   256
 51
90.0
 52
90.0
 71
     2
 49
0.5
 62
   256
  6
BYLAYER
 49
-0.5
 62
   256
  6
BYLAYER
  0
ACDBPLACEHOLDER
  5
F
102
{ACAD_REACTORS
330
E
102
}
330
E
  0
SCALE
  5
48
102
{ACAD_REACTORS
330
47
102
}
330
47
100
AcDbScale
 70
     0
300
1:1
140
1.0
141
1.0
290
     1
  0
SCALE
  5
49
102
{ACAD_REACTORS
330
47
102
}
330
47
100
AcDbScale
 70
     0
300
1:2
140
1.0
141
2.0
290
     0
  0
SCALE
  5
4A
102
{ACAD_REACTORS
330
47
102
}
330
47
100
AcDbScale
 70
     0
300
1:4
140
1.0
141
4.0
290
     0
  0
SCALE
  5
4B
102
{ACAD_REACTORS
330
47
102
}
330
47
100
AcDbScale
 70
     0
300
1:5
140
1.0
141
5.0
290
     0
  0
SCALE
  5
4C
102
{ACAD_REACTORS
330
47
102
}
330
47
100
AcDbScale
 70
     0
300
1:8
140
1.0
141
8.0
290
     0
  0
SCALE
  5
4D
102
{ACAD_REACTORS
330
47
102
}
330
47
100
AcDbScale
 70
     0
300
1:10
140
1.0
141
10.0
290
     0
  0
SCALE
  5
4E
102
{ACAD_REACTORS
330
47
102
}
330
47
100
AcDbScale
 70
     0
300
1:16
140
1.0
141
16.0
290
     0
  0
SCALE
  5
4F
102
{ACAD_REACTORS
330
47
102
}
330
47
100
AcDbScale
 70
     0
300
1:20
140
1.0
141
20.0
290
     0
  0
SCALE
  5
50
102
{ACAD_REACTORS
330
47
102
}
330
47
100
AcDbScale
 70
     0
300
1:30
140
1.0
141
30.0
290
     0
  0
SCALE
  5
51
102
{ACAD_REACTORS
330
47
102
}
330
47
100
AcDbScale
 70
     0
300
1:40
140
1.0
141
40.0
290
     0
  0
SCALE
  5
52
102
{ACAD_REACTORS
330
47
102
}
330
47
100
AcDbScale
 70
     0
300
1:50
140
1.0
141
50.0
290
     0
  0
SCALE
  5
53
102
{ACAD_REACTORS
330
47
102
}
330
47
100
AcDbScale
 70
     0
300
1:100
140
1.0
141
100.0
290
     0
  0
SCALE
  5
54
102
{ACAD_REACTORS
330
47
102
}
330
47
100
AcDbScale
 70
     0
300
2:1
140
2.0
141
1.0
290
     0
  0
SCALE
  5
55
102
{ACAD_REACTORS
330
47
102
}
330
47
100
AcDbScale
 70
     0
300
4:1
140
4.0
141
1.0
290
     0
  0
SCALE
  5
56
102
{ACAD_REACTORS
330
47
102
}
330
47
100
AcDbScale
 70
     0
300
8:1
140
8.0
141
1.0
290
     0
  0
SCALE
  5
57
102
{ACAD_REACTORS
330
47
102
}
330
47
100
AcDbScale
 70
     0
300
10:1
140
10.0
141
1.0
290
     0
  0
SCALE
  5
58
102
{ACAD_REACTORS
330
47
102
}
330
47
100
AcDbScale
 70
     0
300
100:1
140
100.0
141
1.0
290
     0
  0
SCALE
  5
59
102
{ACAD_REACTORS
330
47
102
}
330
47
100
AcDbScale
 70
     0
300
1/128" = 1'-0"
140
0.0078125
141
12.0
290
     0
  0
SCALE
  5
5A
102
{ACAD_REACTORS
330
47
102
}
330
47
100
AcDbScale
 70
     0
300
1/64" = 1'-0"
140
0.015625
141
12.0
290
     0
  0
SCALE
  5
5B
102
{ACAD_REACTORS
330
47
102
}
330
47
100
AcDbScale
 70
     0
300
1/32" = 1'-0"
140
0.03125
141
12.0
290
     0
  0
SCALE
  5
5C
102
{ACAD_REACTORS
330
47
102
}
330
47
100
AcDbScale
 70
     0
300
1/16" = 1'-0"
140
0.0625
141
12.0
290
     0
  0
SCALE
  5
5D
102
{ACAD_REACTORS
330
47
102
}
330
47
100
AcDbScale
 70
     0
300
3/32" = 1'-0"
140
0.09375
141
12.0
290
     0
  0
SCALE
  5
5E
102
{ACAD_REACTORS
330
47
102
}
330
47
100
AcDbScale
 70
     0
300
1/8" = 1'-0"
140
0.125
141
12.0
290
     0
  0
SCALE
  5
5F
102
{ACAD_REACTORS
330
47
102
}
330
47
100
AcDbScale
 70
     0
300
3/16" = 1'-0"
140
0.1875
141
12.0
290
     0
  0
SCALE
  5
60
102
{ACAD_REACTORS
330
47
102
}
330
47
100
AcDbScale
 70
     0
300
1/4" = 1'-0"
140
0.25
141
12.0
290
     0
  0
SCALE
  5
61
102
{ACAD_REACTORS
330
47
102
}
330
47
100
AcDbScale
 70
     0
300
3/8" = 1'-0"
140
0.375
141
12.0
290
     0
  0
SCALE
  5
62
102
{ACAD_REACTORS
330
47
102
}
330
47
100
AcDbScale
 70
     0
300
1/2" = 1'-0"
140
0.5
141
12.0
290
     0
  0
SCALE
  5
63
102
{ACAD_REACTORS
330
47
102
}
330
47
100
AcDbScale
 70
     0
300
3/4" = 1'-0"
140
0.75
141
12.0
290
     0
  0
SCALE
  5
64
102
{ACAD_REACTORS
330
47
102
}
330
47
100
AcDbScale
 70
     0
300
1" = 1'-0"
140
1.0
141
12.0
290
     0
  0
SCALE
  5
65
102
{ACAD_REACTORS
330
47
102
}
330
47
100
AcDbScale
 70
     0
300
1-1/2" = 1'-0"
140
1.5
141
12.0
290
     0
  0
SCALE
  5
66
102
{ACAD_REACTORS
330
47
102
}
330
47
100
AcDbScale
 70
     0
300
3" = 1'-0"
140
3.0
141
12.0
290
     0
  0
SCALE
  5
67
102
{ACAD_REACTORS
330
47
102
}
330
47
100
AcDbScale
 70
     0
300
6" = 1'-0"
140
6.0
141
12.0
290
     0
  0
SCALE
  5
68
102
{ACAD_REACTORS
330
47
102
}
330
47
100
AcDbScale
 70
     0
300
1'-0" = 1'-0"
140
12.0
141
12.0
290
     0
  0
ENDSEC
  0
EOF
