  0
SECTION
  2
HEADER
  9
$ACADVER
  1
AC1015
  9
$ACADMAINTVER
 70
     6
  9
$DWGCODEPAGE
  3
ANSI_1252
  9
$INSBASE
 10
0.0
 20
0.0
 30
0.0
  9
$EXTMIN
 10
0.0
 20
0.0
 30
0.0
  9
$EXTMAX
 10
431.8
 20
279.4
 30
0.0
  9
$LIMMIN
 10
0.0
 20
0.0
  9
$LIMMAX
 10
431.8
 20
279.4
  9
$ORTHOMODE
 70
     0
  9
$REGENMODE
 70
     1
  9
$FILLMODE
 70
     1
  9
$QTEXTMODE
 70
     0
  9
$MIRRTEXT
 70
     1
  9
$LTSCALE
 40
1.0
  9
$ATTMODE
 70
     1
  9
$TEXTSIZE
 40
3.175
  9
$TRACEWID
 40
1.0
  9
$TEXTSTYLE
  7
Standard
  9
$CLAYER
  8
0
  9
$CELTYPE
  6
ByLayer
  9
$CECOLOR
 62
   256
  9
$CELTSCALE
 40
1.0
  9
$DISPSILH
 70
     0
  9
$DIMSCALE
 40
1.0
  9
$DIMASZ
 40
3.302
  9
$DIMEXO
 40
1.27
  9
$DIMDLI
 40
3.75
  9
$DIMRND
 40
0.0
  9
$DIMDLE
 40
0.0
  9
$DIMEXE
 40
3.175
  9
$DIMTP
 40
0.0
  9
$DIMTM
 40
0.0
  9
$DIMTXT
 40
3.175
  9
$DIMCEN
 40
2.5
  9
$DIMTSZ
 40
0.0
  9
$DIMTOL
 70
     0
  9
$DIMLIM
 70
     0
  9
$DIMTIH
 70
     1
  9
$DIMTOH
 70
     1
  9
$DIMSE1
 70
     0
  9
$DIMSE2
 70
     0
  9
$DIMTAD
 70
     0
  9
$DIMZIN
 70
     0
  9
$DIMBLK
  1

  9
$DIMASO
 70
     1
  9
$DIMSHO
 70
     1
  9
$DIMPOST
  1

  9
$DIMAPOST
  1

  9
$DIMALT
 70
     0
  9
$DIMALTD
 70
     3
  9
$DIMALTF
 40
0.0393700787
  9
$DIMLFAC
 40
5.0
  9
$DIMTOFL
 70
     1
  9
$DIMTVP
 40
0.0
  9
$DIMTIX
 70
     0
  9
$DIMSOXD
 70
     0
  9
$DIMSAH
 70
     0
  9
$DIMBLK1
  1

  9
$DIMBLK2
  1

  9
$DIMSTYLE
  2
ISO-25
  9
$DIMCLRD
 70
     0
  9
$DIMCLRE
 70
     0
  9
$DIMCLRT
 70
     0
  9
$DIMTFAC
 40
1.0
  9
$DIMGAP
 40
1.524
  9
$DIMJUST
 70
     0
  9
$DIMSD1
 70
     0
  9
$DIMSD2
 70
     0
  9
$DIMTOLJ
 70
     0
  9
$DIMTZIN
 70
     0
  9
$DIMALTZ
 70
     0
  9
$DIMALTTZ
 70
     0
  9
$DIMUPT
 70
     0
  9
$DIMDEC
 70
     0
  9
$DIMTDEC
 70
     0
  9
$DIMALTU
 70
     2
  9
$DIMALTTD
 70
     3
  9
$DIMTXSTY
  7
Standard
  9
$DIMAUNIT
 70
     0
  9
$DIMADEC
 70
     0
  9
$DIMALTRND
 40
0.0
  9
$DIMAZIN
 70
     0
  9
$DIMDSEP
 70
    44
  9
$DIMATFIT
 70
     3
  9
$DIMFRAC
 70
     0
  9
$DIMLDRBLK
  1

  9
$DIMLUNIT
 70
     2
  9
$DIMLWD
 70
    -2
  9
$DIMLWE
 70
    -2
  9
$DIMTMOVE
 70
     0
  9
$LUNITS
 70
     2
  9
$LUPREC
 70
     2
  9
$SKETCHINC
 40
1.0
  9
$FILLETRAD
 40
10.0
  9
$AUNITS
 70
     0
  9
$AUPREC
 70
     2
  9
$MENU
  1
.
  9
$ELEVATION
 40
0.0
  9
$PELEVATION
 40
0.0
  9
$THICKNESS
 40
0.0
  9
$LIMCHECK
 70
     0
  9
$CHAMFERA
 40
0.0
  9
$CHAMFERB
 40
0.0
  9
$CHAMFERC
 40
0.0
  9
$CHAMFERD
 40
0.0
  9
$SKPOLY
 70
     0
  9
$TDCREATE
 40
2458677.707632489
  9
$TDUCREATE
 40
2458677.874299155
  9
$TDUPDATE
 40
2458677.7076336
  9
$TDUUPDATE
 40
2458677.874300266
  9
$TDINDWG
 40
0.0000000116
  9
$TDUSRTIMER
 40
0.0000000116
  9
$USRTIMER
 70
     1
  9
$ANGBASE
 50
0.0
  9
$ANGDIR
 70
     0
  9
$PDMODE
 70
     0
  9
$PDSIZE
 40
-1.0
  9
$PLINEWID
 40
0.0
  9
$SPLFRAME
 70
     0
  9
$SPLINETYPE
 70
     6
  9
$SPLINESEGS
 70
     8
  9
$HANDSEED
  5
19A
  9
$SURFTAB1
 70
     6
  9
$SURFTAB2
 70
     6
  9
$SURFTYPE
 70
     6
  9
$SURFU
 70
     6
  9
$SURFV
 70
     6
  9
$UCSBASE
  2

  9
$UCSNAME
  2

  9
$UCSORG
 10
0.0
 20
0.0
 30
0.0
  9
$UCSXDIR
 10
1.0
 20
0.0
 30
0.0
  9
$UCSYDIR
 10
0.0
 20
1.0
 30
0.0
  9
$UCSORTHOREF
  2

  9
$UCSORTHOVIEW
 70
     0
  9
$UCSORGTOP
 10
0.0
 20
0.0
 30
0.0
  9
$UCSORGBOTTOM
 10
0.0
 20
0.0
 30
0.0
  9
$UCSORGLEFT
 10
0.0
 20
0.0
 30
0.0
  9
$UCSORGRIGHT
 10
0.0
 20
0.0
 30
0.0
  9
$UCSORGFRONT
 10
0.0
 20
0.0
 30
0.0
  9
$UCSORGBACK
 10
0.0
 20
0.0
 30
0.0
  9
$PUCSBASE
  2

  9
$PUCSNAME
  2

  9
$PUCSORG
 10
0.0
 20
0.0
 30
0.0
  9
$PUCSXDIR
 10
1.0
 20
0.0
 30
0.0
  9
$PUCSYDIR
 10
0.0
 20
1.0
 30
0.0
  9
$PUCSORTHOREF
  2

  9
$PUCSORTHOVIEW
 70
     0
  9
$PUCSORGTOP
 10
0.0
 20
0.0
 30
0.0
  9
$PUCSORGBOTTOM
 10
0.0
 20
0.0
 30
0.0
  9
$PUCSORGLEFT
 10
0.0
 20
0.0
 30
0.0
  9
$PUCSORGRIGHT
 10
0.0
 20
0.0
 30
0.0
  9
$PUCSORGFRONT
 10
0.0
 20
0.0
 30
0.0
  9
$PUCSORGBACK
 10
0.0
 20
0.0
 30
0.0
  9
$USERI1
 70
     0
  9
$USERI2
 70
     0
  9
$USERI3
 70
     0
  9
$USERI4
 70
     0
  9
$USERI5
 70
     0
  9
$USERR1
 40
0.0
  9
$USERR2
 40
0.0
  9
$USERR3
 40
0.0
  9
$USERR4
 40
0.0
  9
$USERR5
 40
0.0
  9
$WORLDVIEW
 70
     1
  9
$SHADEDGE
 70
     3
  9
$SHADEDIF
 70
    70
  9
$TILEMODE
 70
     1
  9
$MAXACTVP
 70
    64
  9
$PINSBASE
 10
0.0
 20
0.0
 30
0.0
  9
$PLIMCHECK
 70
     0
  9
$PEXTMIN
 10
1.0000000000E+20
 20
1.0000000000E+20
 30
1.0000000000E+20
  9
$PEXTMAX
 10
-1.0000000000E+20
 20
-1.0000000000E+20
 30
-1.0000000000E+20
  9
$PLIMMIN
 10
0.0
 20
0.0
  9
$PLIMMAX
 10
420.0
 20
297.0
  9
$UNITMODE
 70
     0
  9
$VISRETAIN
 70
     1
  9
$PLINEGEN
 70
     0
  9
$PSLTSCALE
 70
     1
  9
$TREEDEPTH
 70
  3020
  9
$CMLSTYLE
  2
Standard
  9
$CMLJUST
 70
     0
  9
$CMLSCALE
 40
20.0
  9
$PROXYGRAPHICS
 70
     1
  9
$MEASUREMENT
 70
     1
  9
$CELWEIGHT
370
    -1
  9
$ENDCAPS
280
     0
  9
$JOINSTYLE
280
     0
  9
$LWDISPLAY
290
     1
  9
$INSUNITS
 70
     4
  9
$HYPERLINKBASE
  1

  9
$STYLESHEET
  1

  9
$XEDIT
290
     1
  9
$CEPSNTYPE
380
     0
  9
$PSTYLEMODE
290
     1
  9
$FINGERPRINTGUID
  2
{053114B0-C1A7-48CD-BBEC-E8FB6F44D27B}
  9
$VERSIONGUID
  2
{FAEB1C32-E019-11D5-929B-00C0DF256EC4}
  9
$EXTNAMES
290
     1
  9
$PSVPSCALE
 40
0.0
  9
$OLESTARTUP
290
     0
  0
ENDSEC
  0
SECTION
  2
CLASSES
  0
CLASS
  1
ACDBDICTIONARYWDFLT
  2
AcDbDictionaryWithDefault
  3
ObjectDBX Classes
 90
        0
280
     0
281
     0
  0
CLASS
  1
VISUALSTYLE
  2
AcDbVisualStyle
  3
ObjectDBX Classes
 90
     4095
280
     0
281
     0
  0
CLASS
  1
MATERIAL
  2
AcDbMaterial
  3
ObjectDBX Classes
 90
     1153
280
     0
281
     0
  0
CLASS
  1
SCALE
  2
AcDbScale
  3
ObjectDBX Classes
 90
     1153
280
     0
281
     0
  0
CLASS
  1
TABLESTYLE
  2
AcDbTableStyle
  3
ObjectDBX Classes
 90
     4095
280
     0
281
     0
  0
CLASS
  1
MLEADERSTYLE
  2
AcDbMLeaderStyle
  3
ACDB_MLEADERSTYLE_CLASS
 90
     4095
280
     0
281
     0
  0
CLASS
  1
SUN
  2
AcDbSun
  3
SCENEOE
 90
     1153
280
     0
281
     0
  0
CLASS
  1
ACDBPLACEHOLDER
  2
AcDbPlaceHolder
  3
ObjectDBX Classes
 90
        0
280
     0
281
     0
  0
CLASS
  1
LAYOUT
  2
AcDbLayout
  3
ObjectDBX Classes
 90
        0
280
     0
281
     0
  0
ENDSEC
  0
SECTION
  2
TABLES
  0
TABLE
  2
VPORT
  5
8
330
0
100
AcDbSymbolTable
 70
     1
  0
VPORT
  5
29
330
8
100
AcDbSymbolTableRecord
100
AcDbViewportTableRecord
  2
*Active
 70
     0
 10
0.0
 20
0.0
 11
1.0
 21
1.0
 12
215.9
 22
139.7
 13
0.0
 23
0.0
 14
10.0
 24
10.0
 15
10.0
 25
10.0
 16
0.0
 26
0.0
 36
1.0
 17
0.0
 27
0.0
 37
0.0
 40
279.4
 41
1.5454545455
 42
50.0
 43
0.0
 44
0.0
 50
0.0
 51
0.0
 71
     0
 72
  2000
 73
     1
 74
     3
 75
     0
 76
     0
 77
     0
 78
     0
281
     0
 65
     1
110
0.0
120
0.0
130
0.0
111
1.0
121
0.0
131
0.0
112
0.0
122
1.0
132
0.0
 79
     0
146
0.0
  0
ENDTAB
  0
TABLE
  2
LTYPE
  5
5
330
0
100
AcDbSymbolTable
 70
     6
  0
LTYPE
  5
14
330
5
100
AcDbSymbolTableRecord
100
AcDbLinetypeTableRecord
  2
ByBlock
 70
     0
  3

 72
    65
 73
     0
 40
0.0
  0
LTYPE
  5
15
330
5
100
AcDbSymbolTableRecord
100
AcDbLinetypeTableRecord
  2
ByLayer
 70
     0
  3

 72
    65
 73
     0
 40
0.0
  0
LTYPE
  5
16
330
5
100
AcDbSymbolTableRecord
100
AcDbLinetypeTableRecord
  2
Continuous
 70
     0
  3
Solid line
 72
    65
 73
     0
 40
0.0
  0
LTYPE
  5
6E
330
5
100
AcDbSymbolTableRecord
100
AcDbLinetypeTableRecord
  2
HIDDEN
 70
     0
  3
Hidden __ __ __ __ __ __ __ __ __ __ __ __ __ __
 72
    65
 73
     2
 40
1.905
 49
1.27
 74
     0
 49
-0.635
 74
     0
  0
LTYPE
  5
6F
330
5
100
AcDbSymbolTableRecord
100
AcDbLinetypeTableRecord
  2
PHANTOM
 70
     0
  3
Phantom ______  __  __  ______  __  __  ______
 72
    65
 73
     6
 40
12.7
 49
6.35
 74
     0
 49
-1.27
 74
     0
 49
1.27
 74
     0
 49
-1.27
 74
     0
 49
1.27
 74
     0
 49
-1.27
 74
     0
  0
LTYPE
  5
70
330
5
100
AcDbSymbolTableRecord
100
AcDbLinetypeTableRecord
  2
CENTER
 70
     0
  3
Center ____ _ ____ _ ____ _ ____ _ ____ _ ____
 72
    65
 73
     4
 40
10.16
 49
6.35
 74
     0
 49
-1.27
 74
     0
 49
1.27
 74
     0
 49
-1.27
 74
     0
  0
LTYPE
  5
71
330
5
100
AcDbSymbolTableRecord
100
AcDbLinetypeTableRecord
  2
CENTERX2
 70
     0
  3
Center (2x) ________  __  ________  __  _____
 72
    65
 73
     4
 40
20.32
 49
12.7
 74
     0
 49
-2.54
 74
     0
 49
2.54
 74
     0
 49
-2.54
 74
     0
  0
LTYPE
  5
72
330
5
100
AcDbSymbolTableRecord
100
AcDbLinetypeTableRecord
  2
DOT2
 70
     0
  3
Dot (.5x) ........................................
 72
    65
 73
     2
 40
0.635
 49
0.0
 74
     0
 49
-0.635
 74
     0
  0
ENDTAB
  0
TABLE
  2
LAYER
  5
2
330
0
100
AcDbSymbolTable
 70
     2
  0
LAYER
  5
10
330
2
100
AcDbSymbolTableRecord
100
AcDbLayerTableRecord
  2
0
 70
     0
 62
     7
  6
Continuous
370
    -3
390
F
  0
LAYER
  5
73
330
2
100
AcDbSymbolTableRecord
100
AcDbLayerTableRecord
  2
FORMAT
 70
     0
 62
     7
  6
Continuous
370
    -3
390
F
  0
ENDTAB
  0
TABLE
  2
STYLE
  5
3
330
0
100
AcDbSymbolTable
 70
     2
  0
STYLE
  5
11
330
3
100
AcDbSymbolTableRecord
100
AcDbTextStyleTableRecord
  2
Standard
 70
     0
 40
0.0
 41
1.0
 50
0.0
 71
     0
 42
3.175
  3
txt
  4

  0
STYLE
  5
B8
330
3
100
AcDbSymbolTableRecord
100
AcDbTextStyleTableRecord
  2
SLDTEXTSTYLE0
 70
     0
 40
0.0
 41
0.7
 50
0.0
 71
     0
 42
3.175
  3
TXT
  4

  0
ENDTAB
  0
TABLE
  2
VIEW
  5
6
330
0
100
AcDbSymbolTable
 70
     0
  0
ENDTAB
  0
TABLE
  2
UCS
  5
7
330
0
100
AcDbSymbolTable
 70
     0
  0
ENDTAB
  0
TABLE
  2
APPID
  5
9
330
0
100
AcDbSymbolTable
 70
     1
  0
APPID
  5
12
330
9
100
AcDbSymbolTableRecord
100
AcDbRegAppTableRecord
  2
ACAD
 70
     0
  0
ENDTAB
  0
TABLE
  2
DIMSTYLE
  5
A
330
0
100
AcDbSymbolTable
 70
     1
100
AcDbDimStyleTable
  0
DIMSTYLE
105
27
330
A
100
AcDbSymbolTableRecord
100
AcDbDimStyleTableRecord
  2
ISO-25
 70
     0
 41
2.5
 42
0.625
 43
3.75
 44
1.25
 73
     0
 74
     0
 77
     1
 78
     8
140
2.5
141
2.5
143
0.0393700787
147
0.625
171
     3
172
     1
178
     0
271
     2
272
     2
274
     3
278
    44
283
     0
284
     8
340
11
  0
ENDTAB
  0
TABLE
  2
BLOCK_RECORD
  5
1
330
0
100
AcDbSymbolTable
 70
     3
  0
BLOCK_RECORD
  5
1F
330
1
100
AcDbSymbolTableRecord
100
AcDbBlockTableRecord
  2
*Model_Space
340
22
  0
BLOCK_RECORD
  5
1B
330
1
100
AcDbSymbolTableRecord
100
AcDbBlockTableRecord
  2
*Paper_Space
340
1E
  0
BLOCK_RECORD
  5
23
330
1
100
AcDbSymbolTableRecord
100
AcDbBlockTableRecord
  2
*Paper_Space0
340
26
  0
BLOCK_RECORD
  5
BB
330
1
100
AcDbSymbolTableRecord
100
AcDbBlockTableRecord
  2
SW_NOTE_0
340
0
102
{BLKREFS
331
C1
102
}
  0
BLOCK_RECORD
  5
C6
330
1
100
AcDbSymbolTableRecord
100
AcDbBlockTableRecord
  2
SW_NOTE_1
340
0
102
{BLKREFS
331
CC
102
}
  0
ENDTAB
  0
ENDSEC
  0
SECTION
  2
BLOCKS
  0
BLOCK
  5
20
330
1F
100
AcDbEntity
  8
0
100
AcDbBlockBegin
  2
*Model_Space
 70
     0
 10
0.0
 20
0.0
 30
0.0
  3
*Model_Space
  1

  0
ENDBLK
  5
21
330
1F
100
AcDbEntity
  8
0
100
AcDbBlockEnd
  0
BLOCK
  5
1C
330
1B
100
AcDbEntity
 67
     1
  8
0
100
AcDbBlockBegin
  2
*Paper_Space
 70
     0
 10
0.0
 20
0.0
 30
0.0
  3
*Paper_Space
  1

  0
ENDBLK
  5
1D
330
1B
100
AcDbEntity
 67
     1
  8
0
100
AcDbBlockEnd
  0
BLOCK
  5
24
330
23
100
AcDbEntity
  8
0
100
AcDbBlockBegin
  2
*Paper_Space0
 70
     0
 10
0.0
 20
0.0
 30
0.0
  3
*Paper_Space0
  1

  0
ENDBLK
  5
25
330
23
100
AcDbEntity
  8
0
100
AcDbBlockEnd
  0
BLOCK
  5
BC
330
BB
100
AcDbEntity
  8
0
100
AcDbBlockBegin
  2
SW_NOTE_0
 70
     0
 10
0.0
 20
0.0
 30
0.0
  3
SW_NOTE_0
  1

  0
MTEXT
  5
BE
330
BB
100
AcDbEntity
  8
0
  6
Continuous
 62
     0
370
     0
100
AcDbMText
 10
0.0
 20
2.0463950369
 30
0.0
 40
1.5875
 41
0.0
 71
     1
 72
     1
  1
87 34th Street, Unit 11, Brooklyn, NY 11232
  7
SLDTEXTSTYLE0
 73
     1
 44
1.0
  0
MTEXT
  5
BF
330
BB
100
AcDbEntity
  8
0
  6
Continuous
 62
     0
370
     0
100
AcDbMText
 10
0.0
 20
-0.0702716042
 30
0.0
 40
1.5875
 41
0.0
 71
     1
 72
     1
  1
T +1 718-387-6132
  7
SLDTEXTSTYLE0
 73
     1
 44
1.0
  0
MTEXT
  5
C0
330
BB
100
AcDbEntity
  8
0
  6
Continuous
 62
     0
370
     0
100
AcDbMText
 10
0.0
 20
-2.1869382453
 30
0.0
 40
1.5875
 41
0.0
 71
     1
 72
     1
  1
www.rollandhill.com
  7
SLDTEXTSTYLE0
 73
     1
 44
1.0
  0
ENDBLK
  5
BD
330
BB
100
AcDbEntity
  8
0
100
AcDbBlockEnd
  0
BLOCK
  5
C7
330
C6
100
AcDbEntity
  8
0
100
AcDbBlockBegin
  2
SW_NOTE_1
 70
     0
 10
0.0
 20
0.0
 30
0.0
  3
SW_NOTE_1
  1

  0
MTEXT
  5
C9
330
C6
100
AcDbEntity
  8
0
  6
Continuous
 62
     0
370
     0
100
AcDbMText
 10
0.0
 20
2.0463950369
 30
0.0
 40
1.5875
 41
0.0
 71
     1
 72
     1
  1
\LPROPRIETARY AND CONFIDENTIAL
  7
SLDTEXTSTYLE0
 73
     1
 44
1.0
  0
MTEXT
  5
CA
330
C6
100
AcDbEntity
  8
0
  6
Continuous
 62
     0
370
     0
100
AcDbMText
 10
37.3117625713
 20
2.0463950369
 30
0.0
 40
1.5875
 41
0.0
 71
     1
 72
     1
  1
THE INFORMATION CONTAINED IN THIS DRAWING IS THE SOLE PROPERTY OF ROLL & HILL LLC. ANY REPRODUCTION IN
  7
SLDTEXTSTYLE0
 73
     1
 44
1.0
  0
MTEXT
  5
CB
330
C6
100
AcDbEntity
  8
0
  6
Continuous
 62
     0
370
     0
100
AcDbMText
 10
0.0
 20
-0.0702716042
 30
0.0
 40
1.5875
 41
0.0
 71
     1
 72
     1
  1
PART OR AS A WHOLE WITHOUT THE WRITTEN PERMISSION OF ROLL & HILL LLC. IS PROHIBITED.
  7
SLDTEXTSTYLE0
 73
     1
 44
1.0
  0
ENDBLK
  5
C8
330
C6
100
AcDbEntity
  8
0
100
AcDbBlockEnd
  0
ENDSEC
  0
SECTION
  2
ENTITIES
  0
HATCH
  5
74
330
1F
100
AcDbEntity
  8
0
  6
Continuous
 62
     7
100
AcDbHatch
 10
0.0
 20
0.0
 30
0.0
210
0.0
220
0.0
230
1.0
  2
SOLID
 70
     1
 71
     0
 91
        2
 92
        0
 93
        6
 72
     4
 94
        3
 73
     1
 74
     0
 95
       20
 96
       16
 40
0.0
 40
0.0
 40
0.0
 40
0.0
 40
1.0
 40
1.0
 40
1.0
 40
2.0
 40
2.0
 40
2.0
 40
3.0
 40
3.0
 40
3.0
 40
4.0
 40
4.0
 40
4.0
 40
5.0
 40
5.0
 40
5.0
 40
5.0
 10
261.0219043336847
 20
23.63056361828031
 42
1.0
 10
261.2341319795987
 20
23.68742184709604
 42
1.0
 10
261.3945785321864
 20
23.72473719781129
 42
1.0
 10
261.5515161764629
 20
23.77337299628437
 42
1.0
 10
262.5617362220245
 20
24.08644572151765
 42
1.0
 10
262.9966382899503
 20
24.76217905347502
 42
1.0
 10
262.9131259646454
 20
25.88395655371281
 42
1.0
 10
262.8488620904764
 20
26.74717259793779
 42
1.0
 10
262.3071445332423
 20
27.30037799580671
 42
1.0
 10
261.2989762515715
 20
27.40941936834727
 42
1.0
 10
260.5093946232761
 20
27.49481913962259
 42
1.0
 10
259.7094699986221
 20
27.48819126576296
 42
1.0
 10
258.913837050576
 20
27.51251762112626
 42
1.0
 10
258.5159962651877
 20
27.52468175973202
 42
1.0
 10
258.1174764912431
 20
27.51463645747964
 42
1.0
 10
257.7192638284546
 20
27.51463645747964
 42
1.0
 72
     4
 94
        3
 73
     1
 74
     0
 95
       14
 96
       10
 40
17.0
 40
17.0
 40
17.0
 40
17.0
 40
18.0
 40
18.0
 40
18.0
 40
19.0
 40
19.0
 40
19.0
 40
20.0
 40
20.0
 40
20.0
 40
20.0
 10
257.7192638284546
 20
27.51463645747964
 42
1.0
 10
258.2057453879524
 20
27.36893835120056
 42
1.0
 10
258.4151924094879
 20
27.04153921726714
 42
1.0
 10
258.4151320634913
 20
26.55729487989966
 42
1.0
 10
258.4149081683119
 20
24.76100595804667
 42
1.0
 10
258.4191609275175
 20
22.96470127704905
 42
1.0
 10
258.4124688639662
 20
21.16843695483816
 42
1.0
 10
258.4104423723632
 20
20.62446660851326
 42
1.0
 10
258.2139995287706
 20
20.39587059142628
 42
1.0
 10
257.7053577757453
 20
20.25910042553502
 42
1.0
 72
     1
 10
257.7053577757453
 20
20.25910042553502
 11
260.1134120717832
 21
20.25910042553502
 72
     4
 94
        3
 73
     1
 74
     0
 95
       14
 96
       10
 40
13.0
 40
13.0
 40
13.0
 40
13.0
 40
14.0
 40
14.0
 40
14.0
 40
15.0
 40
15.0
 40
15.0
 40
16.0
 40
16.0
 40
16.0
 40
16.0
 10
260.1134120717832
 20
20.25910042553502
 42
1.0
 10
259.6377614656041
 20
20.40079128856704
 42
1.0
 10
259.4435911100346
 20
20.64162793377141
 42
1.0
 10
259.4408326829897
 20
21.14221143023692
 42
1.0
 10
259.4366701545022
 20
21.89763799307775
 42
1.0
 10
259.4392191002215
 20
22.65310606781492
 42
1.0
 10
259.4405559370167
 20
23.40855338660287
 42
1.0
 10
259.4406539512153
 20
23.46398560492077
 42
1.0
 10
259.4539911852495
 20
23.51939476107442
 42
1.0
 10
259.4607286043899
 20
23.57138302951071
 42
1.0
 72
     4
 94
        3
 73
     1
 74
     0
 95
       20
 96
       16
 40
8.0
 40
8.0
 40
8.0
 40
8.0
 40
9.0
 40
9.0
 40
9.0
 40
10.0
 40
10.0
 40
10.0
 40
11.0
 40
11.0
 40
11.0
 40
12.0
 40
12.0
 40
12.0
 40
13.0
 40
13.0
 40
13.0
 40
13.0
 10
259.4607286043899
 20
23.57138302951071
 42
1.0
 10
260.3725694925604
 20
23.65083910446931
 42
1.0
 10
260.6054131759577
 20
23.52556773374194
 42
1.0
 10
261.0037355762117
 20
22.71920223094413
 42
1.0
 10
261.378026816807
 20
21.9614848264415
 42
1.0
 10
261.7451764738302
 20
21.200166649339
 42
1.0
 10
262.1067370153144
 20
20.43629933433309
 42
1.0
 10
262.1765046750147
 20
20.28890135435546
 42
1.0
 10
262.2549406335689
 20
20.22203337745712
 42
1.0
 10
262.427398730108
 20
20.22724465786873
 42
1.0
 10
262.8718696744063
 20
20.24067529366942
 42
1.0
 10
263.3170171088603
 20
20.2311736819415
 42
1.0
 10
263.7618904879274
 20
20.2323936704376
 42
1.0
 10
263.8264337986554
 20
20.23257048036439
 42
1.0
 10
263.8909540472192
 20
20.24131411562171
 42
1.0
 10
263.9554858268652
 20
20.24609336482204
 42
1.0
 72
     4
 94
        3
 73
     1
 74
     0
 95
       14
 96
       10
 40
5.0
 40
5.0
 40
5.0
 40
5.0
 40
6.0
 40
6.0
 40
6.0
 40
7.0
 40
7.0
 40
7.0
 40
8.0
 40
8.0
 40
8.0
 40
8.0
 10
263.9554858268652
 20
20.24609336482204
 42
1.0
 10
263.5606000734738
 20
20.32757122285868
 42
1.0
 10
263.3178377375433
 20
20.57267359973515
 42
1.0
 10
263.1292772534607
 20
20.88520667032095
 42
1.0
 10
262.8739775562312
 20
21.30835818112304
 42
1.0
 10
262.6276890153665
 20
21.7369354504649
 42
1.0
 10
262.3739921385617
 20
22.16106556577572
 42
1.0
 10
262.033208300972
 20
22.73079019980925
 42
1.0
 10
261.7521543160346
 20
23.35408286053947
 42
1.0
 10
261.0219043336847
 20
23.63056361828031
 42
1.0
 97
        0
 92
        0
 93
        2
 72
     1
 10
259.4558811296203
 20
23.74052094311722
 11
259.4558811296203
 21
27.35855230546976
 72
     4
 94
        3
 73
     1
 74
     0
 95
       20
 96
       16
 40
1.0
 40
1.0
 40
1.0
 40
1.0
 40
2.0
 40
2.0
 40
2.0
 40
3.0
 40
3.0
 40
3.0
 40
4.0
 40
4.0
 40
4.0
 40
5.0
 40
5.0
 40
5.0
 40
6.0
 40
6.0
 40
6.0
 40
6.0
 10
259.4558811296203
 20
27.35855230546976
 42
1.0
 10
259.8103733099057
 20
27.35855230546976
 42
1.0
 10
260.1467440101549
 20
27.38072599997261
 42
1.0
 10
260.4792308497364
 20
27.35420547185249
 42
1.0
 10
261.3230227860075
 20
27.28690123567825
 42
1.0
 10
261.7108519014664
 20
26.95476897687368
 42
1.0
 10
261.8164781518313
 20
26.10478869315943
 42
1.0
 10
261.8719876284001
 20
25.65810454981779
 42
1.0
 10
261.8389787525148
 20
25.18024881635489
 42
1.0
 10
261.7413862071132
 20
24.73962656292206
 42
1.0
 10
261.608259863196
 20
24.13857044109259
 42
1.0
 10
261.1506181168165
 20
23.81517009427841
 42
1.0
 10
260.5489927438957
 20
23.74778168120397
 42
1.0
 10
260.1942113256325
 20
23.70804326575078
 42
1.0
 10
259.8313410453958
 20
23.74052094311722
 42
1.0
 10
259.4558811296203
 20
23.74052094311722
 42
1.0
 97
        0
 75
     0
 76
     1
 98
        1
 10
0.0
 20
0.0
  0
HATCH
  5
75
330
1F
100
AcDbEntity
  8
0
  6
Continuous
 62
     7
100
AcDbHatch
 10
0.0
 20
0.0
 30
0.0
210
0.0
220
0.0
230
1.0
  2
SOLID
 70
     1
 71
     0
 91
        2
 92
        0
 93
        2
 72
     4
 94
        3
 73
     1
 74
     0
 95
       14
 96
       10
 40
0.0
 40
0.0
 40
0.0
 40
0.0
 40
1.0
 40
1.0
 40
1.0
 40
2.0
 40
2.0
 40
2.0
 40
3.0
 40
3.0
 40
3.0
 40
3.0
 10
267.2336118279071
 20
20.23490821509466
 42
1.0
 10
268.1650050112285
 20
19.98240211471103
 42
1.0
 10
269.1482911393735
 20
20.33660467264827
 42
1.0
 10
269.7215189161771
 20
21.13111084177937
 42
1.0
 10
270.3723808569537
 20
22.03321892002499
 42
1.0
 10
270.372934348899
 20
23.32205720159637
 42
1.0
 10
269.7103360726668
 20
24.21398909980579
 42
1.0
 10
269.2464106552308
 20
24.83848445240961
 42
1.0
 10
268.6216197225536
 20
25.16033694362372
 42
1.0
 10
267.7758432870376
 20
25.16748813643033
 42
1.0
 72
     4
 94
        3
 73
     1
 74
     0
 95
       14
 96
       10
 40
3.0
 40
3.0
 40
3.0
 40
3.0
 40
4.0
 40
4.0
 40
4.0
 40
5.0
 40
5.0
 40
5.0
 40
6.0
 40
6.0
 40
6.0
 40
6.0
 10
267.7758432870376
 20
25.16748813643033
 42
1.0
 10
266.9062728477855
 20
25.1505801106106
 42
1.0
 10
266.225828300013
 20
24.723612195973
 42
1.0
 10
265.7739382574312
 20
23.92202056120339
 42
1.0
 10
265.4879189885011
 20
23.41465794151554
 42
1.0
 10
265.4259332718035
 20
22.86561853145873
 42
1.0
 10
265.4837047623288
 20
22.29272284982232
 42
1.0
 10
265.5792320909092
 20
21.34541139190241
 42
1.0
 10
266.3034040398354
 20
20.48709452013179
 42
1.0
 10
267.2336118279071
 20
20.23490821509466
 42
1.0
 97
        0
 92
        0
 93
        2
 72
     4
 94
        3
 73
     1
 74
     0
 95
       17
 96
       13
 40
0.0
 40
0.0
 40
0.0
 40
0.0
 40
1.0
 40
1.0
 40
1.0
 40
2.0
 40
2.0
 40
2.0
 40
3.0
 40
3.0
 40
3.0
 40
4.0
 40
4.0
 40
4.0
 40
4.0
 10
266.4699528411193
 20
22.82140374989816
 42
1.0
 10
266.4968487059656
 20
23.23360918874381
 42
1.0
 10
266.5993976948625
 20
23.64490674705059
 42
1.0
 10
266.7072125446274
 20
24.04607386528146
 42
1.0
 10
266.7597204805012
 20
24.2414496033099
 42
1.0
 10
266.882078331128
 20
24.42789874624283
 42
1.0
 10
267.0072628343699
 20
24.59213287496141
 42
1.0
 10
267.4640605055332
 20
25.19142205062979
 42
1.0
 10
268.2143234497673
 20
25.18405330473933
 42
1.0
 10
268.6683621173312
 20
24.58056604641373
 42
1.0
 10
269.0963628325642
 20
24.01168817818241
 42
1.0
 10
269.195680043492
 20
23.34551372899321
 42
1.0
 10
269.218762963826
 20
22.68351122534059
 42
1.0
 72
     4
 94
        3
 73
     1
 74
     0
 95
       17
 96
       13
 40
4.0
 40
4.0
 40
4.0
 40
4.0
 40
5.0
 40
5.0
 40
5.0
 40
6.0
 40
6.0
 40
6.0
 40
7.0
 40
7.0
 40
7.0
 40
8.0
 40
8.0
 40
8.0
 40
8.0
 10
269.218762963826
 20
22.68351122534059
 42
1.0
 10
269.202432645224
 20
22.05765558940843
 42
1.0
 10
269.1208448575376
 20
21.47214721006825
 42
1.0
 10
268.810867074766
 20
20.94311038392242
 42
1.0
 10
268.6078393105943
 20
20.5966013640246
 42
1.0
 10
268.3388937306983
 20
20.33416469565678
 42
1.0
 10
267.9076604687568
 20
20.30531315927085
 42
1.0
 10
267.4153070900211
 20
20.27237193240103
 42
1.0
 10
267.1048165584612
 20
20.54785025472892
 42
1.0
 10
266.8746830637486
 20
20.93428603108956
 42
1.0
 10
266.5287029361534
 20
21.51524885782822
 42
1.0
 10
266.4269741915698
 20
22.16270989809668
 42
1.0
 10
266.4699528411193
 20
22.82140374989816
 42
1.0
 97
        0
 75
     0
 76
     1
 98
        1
 10
0.0
 20
0.0
  0
HATCH
  5
76
330
1F
100
AcDbEntity
  8
0
  6
Continuous
 62
     7
100
AcDbHatch
 10
0.0
 20
0.0
 30
0.0
210
0.0
220
0.0
230
1.0
  2
SOLID
 70
     1
 71
     0
 91
        1
 92
        0
 93
        4
 72
     1
 10
273.9540333846496
 20
27.87257450949275
 11
272.4594267850394
 21
27.32510813123116
 72
     4
 94
        3
 73
     1
 74
     0
 95
       14
 96
       10
 40
6.0
 40
6.0
 40
6.0
 40
6.0
 40
7.0
 40
7.0
 40
7.0
 40
8.0
 40
8.0
 40
8.0
 40
9.0
 40
9.0
 40
9.0
 40
9.0
 10
272.4594267850394
 20
27.32510813123116
 42
1.0
 10
272.9826104338649
 20
27.28380667758701
 42
1.0
 10
273.0476395875227
 20
27.23250104921648
 42
1.0
 10
273.0527409382852
 20
26.65700799131587
 42
1.0
 10
273.0685846452182
 20
24.86961337752774
 42
1.0
 10
273.0702866329497
 20
23.08209538116094
 42
1.0
 10
273.0783845276048
 20
21.29462927466367
 42
1.0
 10
273.0805785081768
 20
20.81042375860576
 42
1.0
 10
273.0059923935969
 20
20.37668517687364
 42
1.0
 10
272.426404840594
 20
20.2590796695872
 42
1.0
 72
     1
 10
272.426404840594
 20
20.2590796695872
 11
274.6224502449564
 21
20.2590796695872
 72
     4
 94
        3
 73
     1
 74
     0
 95
       17
 96
       13
 40
1.0
 40
1.0
 40
1.0
 40
1.0
 40
2.0
 40
2.0
 40
2.0
 40
3.0
 40
3.0
 40
3.0
 40
4.0
 40
4.0
 40
4.0
 40
5.0
 40
5.0
 40
5.0
 40
5.0
 10
274.6224502449564
 20
20.2590796695872
 42
1.0
 10
274.1836818051716
 20
20.38260600321025
 42
1.0
 10
274.0006220316647
 20
20.58964274029083
 42
1.0
 10
273.9590578615309
 20
21.04279505200226
 42
1.0
 10
273.9506540088286
 20
21.13443409966764
 42
1.0
 10
273.954217881965
 20
21.22727776105204
 42
1.0
 10
273.9542086570993
 20
21.31956562427539
 42
1.0
 10
273.9539872603212
 20
23.41776441505853
 42
1.0
 10
273.9540349221275
 20
25.51596282147274
 42
1.0
 10
273.9540333846496
 20
27.61416161225588
 42
1.0
 10
273.9540333846496
 20
27.71082379150879
 42
1.0
 10
273.9540333846496
 20
27.8074859707617
 42
1.0
 10
273.9540333846496
 20
27.87257450949275
 42
1.0
 97
        0
 75
     0
 76
     1
 98
        1
 10
0.0
 20
0.0
  0
HATCH
  5
77
330
1F
100
AcDbEntity
  8
0
  6
Continuous
 62
     7
100
AcDbHatch
 10
0.0
 20
0.0
 30
0.0
210
0.0
220
0.0
230
1.0
  2
SOLID
 70
     1
 71
     0
 91
        1
 92
        0
 93
        4
 72
     1
 10
276.9460186560295
 20
20.2549177176549
 11
279.1055120673172
 21
20.2549177176549
 72
     4
 94
        3
 73
     1
 74
     0
 95
       14
 96
       10
 40
6.0
 40
6.0
 40
6.0
 40
6.0
 40
7.0
 40
7.0
 40
7.0
 40
8.0
 40
8.0
 40
8.0
 40
9.0
 40
9.0
 40
9.0
 40
9.0
 10
279.1055120673172
 20
20.2549177176549
 42
1.0
 10
278.6550987719953
 20
20.40793364087759
 42
1.0
 10
278.4823339486704
 20
20.63637283524633
 42
1.0
 10
278.4822124879378
 20
21.11904779232805
 42
1.0
 10
278.4816605334703
 20
23.30086999117493
 42
1.0
 10
278.4819664915176
 20
25.48269219002111
 42
1.0
 10
278.4819649540404
 20
27.66451419668386
 42
1.0
 10
278.4819649540404
 20
27.75219577693941
 42
1.0
 10
278.4819664915176
 20
27.83987735719566
 42
1.0
 10
278.4819664915176
 20
27.88441039662488
 42
1.0
 72
     1
 10
278.4819664915176
 20
27.88441039662488
 11
276.9846800684063
 21
27.3296354262854
 72
     4
 94
        3
 73
     1
 74
     0
 95
       17
 96
       13
 40
1.0
 40
1.0
 40
1.0
 40
1.0
 40
2.0
 40
2.0
 40
2.0
 40
3.0
 40
3.0
 40
3.0
 40
4.0
 40
4.0
 40
4.0
 40
5.0
 40
5.0
 40
5.0
 40
5.0
 10
276.9846800684063
 20
27.3296354262854
 42
1.0
 10
277.5366914227135
 20
27.25167954511983
 42
1.0
 10
277.5738092075535
 20
27.20775573119973
 42
1.0
 10
277.5772915943764
 20
26.57154691311976
 42
1.0
 10
277.5773838430334
 20
26.55476419172763
 42
1.0
 10
277.577359243392
 20
26.53798031722657
 42
1.0
 10
277.577359243392
 20
26.52119721146337
 42
1.0
 10
277.5773700057348
 20
24.72538990447762
 42
1.0
 10
277.5776652014392
 20
22.92958298186009
 42
1.0
 10
277.5771993457187
 20
21.13377529050539
 42
1.0
 10
277.5770686601204
 20
20.6342380475635
 42
1.0
 10
277.4179566381115
 20
20.4199152040148
 42
1.0
 10
276.9460186560295
 20
20.2549177176549
 42
1.0
 97
        0
 75
     0
 76
     1
 98
        1
 10
0.0
 20
0.0
  0
HATCH
  5
78
330
1F
100
AcDbEntity
  8
0
  6
Continuous
 62
     7
100
AcDbHatch
 10
0.0
 20
0.0
 30
0.0
210
0.0
220
0.0
230
1.0
  2
SOLID
 70
     1
 71
     0
 91
        3
 92
        0
 93
        9
 72
     4
 94
        3
 73
     1
 74
     0
 95
       14
 96
       10
 40
0.0
 40
0.0
 40
0.0
 40
0.0
 40
1.0
 40
1.0
 40
1.0
 40
2.0
 40
2.0
 40
2.0
 40
3.0
 40
3.0
 40
3.0
 40
3.0
 10
287.0539854214827
 20
21.61211917311517
 42
1.0
 10
287.2972697310664
 20
21.3082559388604
 42
1.0
 10
287.5152010346028
 20
21.01001756649998
 42
1.0
 10
287.7601488949774
 20
20.73592220529573
 42
1.0
 10
288.1784811821614
 20
20.26780485511384
 42
1.0
 10
288.7048673968812
 20
20.09831485913089
 42
1.0
 10
289.3271645408483
 20
20.20870037148624
 42
1.0
 10
289.9739444785289
 20
20.32342848939635
 42
1.0
 10
290.7160910783766
 20
21.04182259740494
 42
1.0
 10
290.8103661314317
 20
21.70506046432864
 42
1.0
 72
     4
 94
        3
 73
     1
 74
     0
 95
       14
 96
       10
 40
24.0
 40
24.0
 40
24.0
 40
24.0
 40
25.0
 40
25.0
 40
25.0
 40
26.0
 40
26.0
 40
26.0
 40
27.0
 40
27.0
 40
27.0
 40
27.0
 10
290.8103661314317
 20
21.70506046432864
 42
1.0
 10
290.6825002672103
 20
21.49939669476813
 42
1.0
 10
290.5884281612034
 20
21.32571784099438
 42
1.0
 10
290.4735170834558
 20
21.16713932372221
 42
1.0
 10
289.9836367374808
 20
20.49110656799653
 42
1.0
 10
289.3841588364346
 20
20.43289382139212
 42
1.0
 10
288.8166481701822
 20
21.05011190802389
 42
1.0
 10
288.4270667146001
 20
21.47381844824843
 42
1.0
 10
288.0996055050067
 20
21.95463920731319
 42
1.0
 10
287.7314564875268
 20
22.4264857094768
 42
1.0
 72
     4
 94
        3
 73
     1
 74
     0
 95
       11
 96
        7
 40
22.0
 40
22.0
 40
22.0
 40
22.0
 40
23.0
 40
23.0
 40
23.0
 40
24.0
 40
24.0
 40
24.0
 40
24.0
 10
287.7314564875268
 20
22.4264857094768
 42
1.0
 10
288.1508588591387
 20
23.00030157147278
 42
1.0
 10
288.5466855488353
 20
23.55949371503118
 42
1.0
 10
288.9612633156569
 20
24.10441845059237
 42
1.0
 10
289.4290162836425
 20
24.71923384406366
 42
1.0
 10
289.9536528488242
 20
25.26443186627322
 42
1.0
 10
290.7742138825406
 20
25.39867403457779
 42
1.0
 72
     1
 10
290.7742138825406
 20
25.39867403457779
 11
287.7715077796773
 21
25.39867403457779
 72
     4
 94
        3
 73
     1
 74
     0
 95
       17
 96
       13
 40
16.0
 40
16.0
 40
16.0
 40
16.0
 40
17.0
 40
17.0
 40
17.0
 40
18.0
 40
18.0
 40
18.0
 40
19.0
 40
19.0
 40
19.0
 40
20.0
 40
20.0
 40
20.0
 40
20.0
 10
287.7715077796773
 20
25.39867403457779
 42
1.0
 10
287.9710693005408
 20
25.34310267453518
 42
1.0
 10
288.1718392788191
 20
25.32949945687163
 42
1.0
 10
288.3670435880915
 20
25.28904726743022
 42
1.0
 10
288.7601181928394
 20
25.20759054971102
 42
1.0
 10
288.9174636530569
 20
24.97387165717582
 42
1.0
 10
288.8543009972361
 20
24.57697987985169
 42
1.0
 10
288.8373887433532
 20
24.47070865762303
 42
1.0
 10
288.8131334963293
 20
24.35736772890119
 42
1.0
 10
288.7595985254019
 20
24.26650702928458
 42
1.0
 10
288.4211781752921
 20
23.692108847638
 42
1.0
 10
288.0735790837579
 20
23.12311989664797
 42
1.0
 10
287.7233847299918
 20
22.54303496963325
 42
1.0
 72
     1
 10
287.7233847299918
 20
22.54303496963325
 11
285.8065406500284
 21
24.86455968857224
 72
     4
 94
        3
 73
     1
 74
     0
 95
       20
 96
       16
 40
10.0
 40
10.0
 40
10.0
 40
10.0
 40
11.0
 40
11.0
 40
11.0
 40
12.0
 40
12.0
 40
12.0
 40
13.0
 40
13.0
 40
13.0
 40
14.0
 40
14.0
 40
14.0
 40
15.0
 40
15.0
 40
15.0
 40
15.0
 10
285.8065406500283
 20
24.86455968857225
 42
1.0
 10
285.9002991106001
 20
24.9215528310502
 42
1.0
 10
286.0025259979348
 20
24.975621306713
 42
1.0
 10
286.0959738880259
 20
25.04203380586477
 42
1.0
 10
286.361711520857
 20
25.23088333574105
 42
1.0
 10
286.6551698752792
 20
25.39378370261948
 42
1.0
 10
286.8815726805328
 20
25.62247811827483
 42
1.0
 10
287.5614237619422
 20
26.30921056516709
 42
1.0
 10
287.361321048954
 20
27.32558686332681
 42
1.0
 10
286.4793408590448
 20
27.71426216803416
 42
1.0
 10
285.840402057257
 20
27.99583274545401
 42
1.0
 10
285.1912113546599
 20
27.99239110178883
 42
1.0
 10
284.558084218296
 20
27.68711127408746
 42
1.0
 10
283.9109291360762
 20
27.37506654483262
 42
1.0
 10
283.6309452355653
 20
26.8393466878164
 42
1.0
 10
283.7149530130354
 20
26.1296866058298
 42
1.0
 72
     4
 94
        3
 73
     1
 74
     0
 95
       11
 96
        7
 40
8.0
 40
8.0
 40
8.0
 40
8.0
 40
9.0
 40
9.0
 40
9.0
 40
10.0
 40
10.0
 40
10.0
 40
10.0
 10
283.7149530130354
 20
26.1296866058298
 42
1.0
 10
283.7707819005811
 20
25.65802498535045
 42
1.0
 10
284.0198409761273
 20
25.28515591156022
 42
1.0
 10
284.3077767109179
 20
24.93075271279267
 42
1.0
 10
284.4323277733789
 20
24.77744812814591
 42
1.0
 10
284.5641388051866
 20
24.6300390014551
 42
1.0
 10
284.7027239634148
 20
24.46818604120849
 42
1.0
 72
     4
 94
        3
 73
     1
 74
     0
 95
       20
 96
       16
 40
3.0
 40
3.0
 40
3.0
 40
3.0
 40
4.0
 40
4.0
 40
4.0
 40
5.0
 40
5.0
 40
5.0
 40
6.0
 40
6.0
 40
6.0
 40
7.0
 40
7.0
 40
7.0
 40
8.0
 40
8.0
 40
8.0
 40
8.0
 10
284.7027239634148
 20
24.46818604120849
 42
1.0
 10
284.5513685160267
 20
24.38851087568819
 42
1.0
 10
284.4255536469583
 20
24.32317807019961
 42
1.0
 10
284.3005597909425
 20
24.25632085564481
 42
1.0
 10
283.8607304915963
 20
24.02105948868024
 42
1.0
 10
283.460866385652
 20
23.73663343094009
 42
1.0
 10
283.1417229300147
 20
23.34576433784628
 42
1.0
 10
282.3522343191156
 20
22.37884389028816
 42
1.0
 10
282.6109241545095
 20
20.5355588898502
 42
1.0
 10
284.198169930981
 20
20.23446388406056
 42
1.0
 10
285.1515567317372
 20
20.05360962220845
 42
1.0
 10
285.9488126796034
 20
20.36759637788916
 42
1.0
 10
286.5896302790503
 20
21.09003174583673
 42
1.0
 10
286.7443651022574
 20
21.26447318851251
 42
1.0
 10
286.8995550188436
 20
21.43851181205056
 42
1.0
 10
287.0539854214827
 20
21.61211917311517
 42
1.0
 97
        0
 92
        0
 93
        2
 72
     4
 94
        3
 73
     1
 74
     0
 95
       14
 96
       10
 40
0.0
 40
0.0
 40
0.0
 40
0.0
 40
1.0
 40
1.0
 40
1.0
 40
2.0
 40
2.0
 40
2.0
 40
3.0
 40
3.0
 40
3.0
 40
3.0
 10
284.688382372121
 20
27.15085253116304
 42
1.0
 10
284.8337724063213
 20
27.5710895609412
 42
1.0
 10
285.1818973152029
 20
27.79269159230804
 42
1.0
 10
285.6158934244382
 20
27.76810636414938
 42
1.0
 10
285.9916529561654
 20
27.74682017860581
 42
1.0
 10
286.2400293916459
 20
27.5110460628537
 42
1.0
 10
286.3549927436335
 20
27.06650131962916
 42
1.0
 10
286.5713650448558
 20
26.2298440482801
 42
1.0
 10
286.3259713159692
 20
25.4295804098103
 42
1.0
 10
285.6520579731507
 20
24.9254318870995
 42
1.0
 72
     4
 94
        3
 73
     1
 74
     0
 95
       11
 96
        7
 40
3.0
 40
3.0
 40
3.0
 40
3.0
 40
4.0
 40
4.0
 40
4.0
 40
5.0
 40
5.0
 40
5.0
 40
5.0
 10
285.6520579731507
 20
24.9254318870995
 42
1.0
 10
285.3510444536752
 20
25.31853032275095
 42
1.0
 10
285.0380140090768
 20
25.68714980838475
 42
1.0
 10
284.7721626029031
 20
26.08712768767229
 42
1.0
 10
284.5571094574822
 20
26.41068293535724
 42
1.0
 10
284.5630810205802
 20
26.788679112661
 42
1.0
 10
284.688382372121
 20
27.15085253116304
 42
1.0
 97
        0
 92
        0
 93
        2
 72
     1
 10
284.845288113738
 20
24.3712657578988
 11
287.0009947176327
 21
21.77781006188367
 72
     4
 94
        3
 73
     1
 74
     0
 95
       14
 96
       10
 40
1.0
 40
1.0
 40
1.0
 40
1.0
 40
2.0
 40
2.0
 40
2.0
 40
3.0
 40
3.0
 40
3.0
 40
4.0
 40
4.0
 40
4.0
 40
4.0
 10
287.0009947176327
 20
21.77781006188367
 42
1.0
 10
286.5509442670314
 20
21.22618922689351
 42
1.0
 10
286.0339581905155
 20
20.90925282038733
 42
1.0
 10
285.3603677179978
 20
20.87638462370451
 42
1.0
 10
284.4974276510072
 20
20.83427541775252
 42
1.0
 10
283.8665083325146
 20
21.39392726712143
 42
1.0
 10
283.7780264951535
 20
22.28619625730053
 42
1.0
 10
283.6988925217564
 20
23.08417174469389
 42
1.0
 10
284.1054815548355
 20
23.90423117633508
 42
1.0
 10
284.845288113738
 20
24.3712657578988
 42
1.0
 97
        0
 75
     0
 76
     1
 98
        1
 10
0.0
 20
0.0
  0
HATCH
  5
79
330
1F
100
AcDbEntity
  8
0
  6
Continuous
 62
     7
100
AcDbHatch
 10
0.0
 20
0.0
 30
0.0
210
0.0
220
0.0
230
1.0
  2
SOLID
 70
     1
 71
     0
 91
        1
 92
        0
 93
        2
 72
     4
 94
        3
 73
     1
 74
     0
 95
       11
 96
        7
 40
0.0
 40
0.0
 40
0.0
 40
0.0
 40
1.0
 40
1.0
 40
1.0
 40
2.0
 40
2.0
 40
2.0
 40
2.0
 10
303.0570519104932
 20
26.35430478392947
 42
1.0
 10
303.0628482011429
 20
25.96449808787493
 42
1.0
 10
303.3259905717408
 20
25.69768229885988
 42
1.0
 10
303.6993639381942
 20
25.70301926806731
 42
1.0
 10
304.0680572227529
 20
25.70828897263022
 42
1.0
 10
304.3293945946187
 20
25.98752450590587
 42
1.0
 10
304.327448147944
 20
26.37412133304796
 42
1.0
 72
     4
 94
        3
 73
     1
 74
     0
 95
       11
 96
        7
 40
2.0
 40
2.0
 40
2.0
 40
2.0
 40
3.0
 40
3.0
 40
3.0
 40
4.0
 40
4.0
 40
4.0
 40
4.0
 10
304.327448147944
 20
26.37412133304796
 42
1.0
 10
304.3255386007336
 20
26.75299425696746
 42
1.0
 10
304.0507636744179
 20
27.04560238626284
 42
1.0
 10
303.6924299141011
 20
27.05034857969325
 42
1.0
 10
303.3266947364936
 20
27.05519259513757
 42
1.0
 10
303.0511172468595
 20
26.75330175249256
 42
1.0
 10
303.0570519104932
 20
26.35430478392947
 42
1.0
 97
        0
 75
     0
 76
     1
 98
        1
 10
0.0
 20
0.0
  0
HATCH
  5
7A
330
1F
100
AcDbEntity
  8
0
  6
Continuous
 62
     7
100
AcDbHatch
 10
0.0
 20
0.0
 30
0.0
210
0.0
220
0.0
230
1.0
  2
SOLID
 70
     1
 71
     0
 91
        1
 92
        0
 93
        4
 72
     1
 10
302.6973344203136
 20
20.2539775500868
 11
304.8038079156778
 21
20.2539775500868
 72
     4
 94
        3
 73
     1
 74
     0
 95
       17
 96
       13
 40
6.0
 40
6.0
 40
6.0
 40
6.0
 40
7.0
 40
7.0
 40
7.0
 40
8.0
 40
8.0
 40
8.0
 40
9.0
 40
9.0
 40
9.0
 40
10.0
 40
10.0
 40
10.0
 40
10.0
 10
304.8038079156778
 20
20.2539775500868
 42
1.0
 10
304.4578262506061
 20
20.33981031349822
 42
1.0
 10
304.2621822227331
 20
20.55023795748124
 42
1.0
 10
304.2107535961514
 20
20.89393877449616
 42
1.0
 10
304.1922454404932
 20
21.01764883669525
 42
1.0
 10
304.1821011631179
 20
21.14380579453512
 42
1.0
 10
304.1818797663412
 20
21.26887114326077
 42
1.0
 10
304.1797703470369
 20
22.46084295323946
 42
1.0
 10
304.1808527312862
 20
23.65282014439031
 42
1.0
 10
304.1800932173391
 20
24.84479541369365
 42
1.0
 10
304.1800409430993
 20
24.93136078519359
 42
1.0
 10
304.1727133247369
 20
25.01792115989102
 42
1.0
 10
304.1706223551654
 20
25.06377258638473
 42
1.0
 72
     1
 10
304.1706223551654
 20
25.06377258638473
 11
302.7125031745686
 21
24.50968064047992
 72
     4
 94
        3
 73
     1
 74
     0
 95
       17
 96
       13
 40
1.0
 40
1.0
 40
1.0
 40
1.0
 40
2.0
 40
2.0
 40
2.0
 40
3.0
 40
3.0
 40
3.0
 40
4.0
 40
4.0
 40
4.0
 40
5.0
 40
5.0
 40
5.0
 40
5.0
 10
302.7125031745686
 20
24.50968064047994
 42
1.0
 10
302.7604109773859
 20
24.50557288463289
 42
1.0
 10
302.8224697242704
 20
24.49650561033552
 42
1.0
 10
302.8846514693661
 20
24.49557889569631
 42
1.0
 10
303.1332831261333
 20
24.4918735746181
 42
1.0
 10
303.2632153602819
 20
24.35030186610297
 42
1.0
 10
303.2668591822546
 20
24.11891186780057
 42
1.0
 10
303.2829750227277
 20
23.09531768874206
 42
1.0
 10
303.296603224403
 20
22.071496731734
 42
1.0
 10
303.2916556214044
 20
21.04785181591346
 42
1.0
 10
303.2897768237453
 20
20.65853557522151
 42
1.0
 10
303.1321361678242
 20
20.3494649042487
 42
1.0
 10
302.6973344203136
 20
20.2539775500868
 42
1.0
 97
        0
 75
     0
 76
     1
 98
        1
 10
0.0
 20
0.0
  0
HATCH
  5
7B
330
1F
100
AcDbEntity
  8
0
  6
Continuous
 62
     7
100
AcDbHatch
 10
0.0
 20
0.0
 30
0.0
210
0.0
220
0.0
230
1.0
  2
SOLID
 70
     1
 71
     0
 91
        1
 92
        0
 93
        4
 72
     1
 10
308.65963267846
 20
27.88697759989075
 11
307.1608133901539
 21
27.32540717062984
 72
     4
 94
        3
 73
     1
 74
     0
 95
       20
 96
       16
 40
5.0
 40
5.0
 40
5.0
 40
5.0
 40
6.0
 40
6.0
 40
6.0
 40
7.0
 40
7.0
 40
7.0
 40
8.0
 40
8.0
 40
8.0
 40
9.0
 40
9.0
 40
9.0
 40
10.0
 40
10.0
 40
10.0
 40
10.0
 10
307.1608133901539
 20
27.32540717062984
 42
1.0
 10
307.6774858212348
 20
27.28280885460759
 42
1.0
 10
307.7501131893193
 20
27.20350460556406
 42
1.0
 10
307.7547502218385
 20
26.63215658734291
 42
1.0
 10
307.7552944889174
 20
26.56503146731187
 42
1.0
 10
307.7550361926765
 20
26.49789904426262
 42
1.0
 10
307.7550361926765
 20
26.43077008053731
 42
1.0
 10
307.7550484924979
 20
24.69380511724257
 42
1.0
 10
307.7587445887104
 20
22.95682170421714
 42
1.0
 10
307.7500732149022
 20
21.21990094340409
 42
1.0
 10
307.7490584796685
 20
21.01681475508336
 42
1.0
 10
307.7285516030971
 20
20.78446498637255
 42
1.0
 10
307.6283941606454
 20
20.61954360515536
 42
1.0
 10
307.5293898264143
 20
20.45652254628292
 42
1.0
 10
307.3179589782804
 20
20.36177625633667
 42
1.0
 10
307.178408284104
 20
20.25443648715803
 42
1.0
 72
     1
 10
307.178408284104
 20
20.25443648715803
 11
309.3620693061908
 21
20.25443648715802
 72
     4
 94
        3
 73
     1
 74
     0
 95
       14
 96
       10
 40
1.0
 40
1.0
 40
1.0
 40
1.0
 40
2.0
 40
2.0
 40
2.0
 40
3.0
 40
3.0
 40
3.0
 40
4.0
 40
4.0
 40
4.0
 40
4.0
 10
309.3620693061908
 20
20.25443648715802
 42
1.0
 10
308.807415027844
 20
20.43200746554105
 42
1.0
 10
308.6597679764911
 20
20.6374237012035
 42
1.0
 10
308.6597187772069
 20
21.15880542625192
 42
1.0
 10
308.6595035303402
 20
23.32371921490944
 42
1.0
 10
308.65963267846
 20
25.48863300356693
 42
1.0
 10
308.65963267846
 20
27.65354698440997
 42
1.0
 10
308.65963267846
 20
27.74275854708867
 42
1.0
 10
308.65963267846
 20
27.83196991758182
 42
1.0
 10
308.65963267846
 20
27.88697759989075
 42
1.0
 97
        0
 75
     0
 76
     1
 98
        1
 10
0.0
 20
0.0
  0
HATCH
  5
7C
330
1F
100
AcDbEntity
  8
0
  6
Continuous
 62
     7
100
AcDbHatch
 10
0.0
 20
0.0
 30
0.0
210
0.0
220
0.0
230
1.0
  2
SOLID
 70
     1
 71
     0
 91
        1
 92
        0
 93
        4
 72
     1
 10
313.1781318226163
 20
27.87703492426926
 11
311.6691528821608
 21
27.32445797038016
 72
     4
 94
        3
 73
     1
 74
     0
 95
       17
 96
       13
 40
6.0
 40
6.0
 40
6.0
 40
6.0
 40
7.0
 40
7.0
 40
7.0
 40
8.0
 40
8.0
 40
8.0
 40
9.0
 40
9.0
 40
9.0
 40
10.0
 40
10.0
 40
10.0
 40
10.0
 10
311.6691528821608
 20
27.32445797038016
 42
1.0
 10
312.2096131670664
 20
27.27631108979181
 42
1.0
 10
312.2683694120104
 20
27.21300429544448
 42
1.0
 10
312.2823973578678
 20
26.60716642601487
 42
1.0
 10
312.2845313768121
 20
26.51487279724974
 42
1.0
 10
312.2871512386867
 20
26.42255802816857
 42
1.0
 10
312.2871819882395
 20
26.33025248395311
 42
1.0
 10
312.2877662297369
 20
24.60974045310045
 42
1.0
 10
312.2890700107628
 20
22.88922803787955
 42
1.0
 10
312.2876555313485
 20
21.16871754450475
 42
1.0
 10
312.2872188877024
 20
20.63608302071405
 42
1.0
 10
312.1185268426077
 20
20.41647125413319
 42
1.0
 10
311.6156486607861
 20
20.25320881127337
 42
1.0
 72
     1
 10
311.6156486607861
 20
20.25320881127337
 11
313.8867245107604
 21
20.25320881127337
 72
     4
 94
        3
 73
     1
 74
     0
 95
       17
 96
       13
 40
1.0
 40
1.0
 40
1.0
 40
1.0
 40
2.0
 40
2.0
 40
2.0
 40
3.0
 40
3.0
 40
3.0
 40
4.0
 40
4.0
 40
4.0
 40
5.0
 40
5.0
 40
5.0
 40
5.0
 10
313.8867245107604
 20
20.25320881127337
 42
1.0
 10
313.3266152617988
 20
20.4348325806782
 42
1.0
 10
313.1888880160859
 20
20.62648762285203
 42
1.0
 10
313.1786115156352
 20
21.17082388885262
 42
1.0
 10
313.1771847363981
 20
21.24633325874564
 42
1.0
 10
313.1781441224363
 20
21.32188875296783
 42
1.0
 10
313.1781441224363
 20
21.39742349124222
 42
1.0
 10
313.1781256727049
 20
23.48721689184593
 42
1.0
 10
313.1781318226163
 20
25.57700952371036
 42
1.0
 10
313.1781318226163
 20
27.66680273212925
 42
1.0
 10
313.1781318226163
 20
27.75161518695077
 42
1.0
 10
313.1781318226163
 20
27.83642744958889
 42
1.0
 10
313.1781318226163
 20
27.87703492426926
 42
1.0
 97
        0
 75
     0
 76
     1
 98
        1
 10
0.0
 20
0.0
  0
HATCH
  5
7D
330
1F
100
AcDbEntity
  8
0
  6
Continuous
 62
     7
100
AcDbHatch
 10
0.0
 20
0.0
 30
0.0
210
0.0
220
0.0
230
1.0
  2
SOLID
 70
     1
 71
     0
 91
        1
 92
        0
 93
       12
 72
     1
 10
296.2715297073844
 20
27.50458020069891
 11
293.841527870193
 21
27.50458020069891
 72
     4
 94
        3
 73
     1
 74
     0
 95
       17
 96
       13
 40
21.0
 40
21.0
 40
21.0
 40
21.0
 40
22.0
 40
22.0
 40
22.0
 40
23.0
 40
23.0
 40
23.0
 40
24.0
 40
24.0
 40
24.0
 40
25.0
 40
25.0
 40
25.0
 40
25.0
 10
293.841527870193
 20
27.50458020069891
 42
1.0
 10
294.4654639653083
 20
27.35271373418588
 42
1.0
 10
294.541848928711
 20
26.88863860486635
 42
1.0
 10
294.5396718603926
 20
26.35648992400541
 42
1.0
 10
294.5326947869268
 20
24.65236702027423
 42
1.0
 10
294.54232862173
 20
22.9481603240125
 42
1.0
 10
294.5304592944584
 20
21.24409084762873
 42
1.0
 10
294.52894334152
 20
21.02641399663968
 42
1.0
 10
294.4888489999954
 20
20.77588586122133
 42
1.0
 10
294.3739502220706
 20
20.60171040217499
 42
1.0
 10
294.2655211499942
 20
20.43733713173098
 42
1.0
 10
294.0348564567621
 20
20.35359533789035
 42
1.0
 10
293.8906841048422
 20
20.25643828302682
 42
1.0
 72
     1
 10
293.8906841048422
 20
20.25643828302682
 11
296.2880237673525
 21
20.25643828302682
 72
     4
 94
        3
 73
     1
 74
     0
 95
       14
 96
       10
 40
17.0
 40
17.0
 40
17.0
 40
17.0
 40
18.0
 40
18.0
 40
18.0
 40
19.0
 40
19.0
 40
19.0
 40
20.0
 40
20.0
 40
20.0
 40
20.0
 10
296.2880237673525
 20
20.25643828302682
 42
1.0
 10
295.7413366980624
 20
20.4024294709773
 42
1.0
 10
295.5628078711177
 20
20.63015527572819
 42
1.0
 10
295.5619960829322
 20
21.2138824872384
 42
1.0
 10
295.560827599936
 20
22.05336910178782
 42
1.0
 10
295.561359567195
 20
22.89285956003151
 42
1.0
 10
295.5621928800676
 20
23.73234771205876
 42
1.0
 10
295.5622759038603
 20
23.81306182808445
 42
1.0
 10
295.5696219719554
 20
23.89376787235267
 42
1.0
 10
295.5733857171835
 20
23.97022240661697
 42
1.0
 72
     1
 10
295.5733857171835
 20
23.97022240661697
 11
298.4851131190222
 21
23.97022240661697
 72
     4
 94
        3
 73
     1
 74
     0
 95
       11
 96
        7
 40
14.0
 40
14.0
 40
14.0
 40
14.0
 40
15.0
 40
15.0
 40
15.0
 40
16.0
 40
16.0
 40
16.0
 40
16.0
 10
298.4851131190222
 20
23.97022240661697
 42
1.0
 10
298.4851131190222
 20
23.04419117651474
 42
1.0
 10
298.4852207424561
 20
22.13796342697173
 42
1.0
 10
298.485073144605
 20
21.23173567742801
 42
1.0
 10
298.4849747460367
 20
20.62384393007452
 42
1.0
 10
298.3307257657572
 20
20.41986831094703
 42
1.0
 10
297.7632396991476
 20
20.25412130424438
 42
1.0
 72
     1
 10
297.7632396991476
 20
20.25412130424438
 11
300.2193725060648
 21
20.25412130424438
 72
     4
 94
        3
 73
     1
 74
     0
 95
       17
 96
       13
 40
9.0
 40
9.0
 40
9.0
 40
9.0
 40
10.0
 40
10.0
 40
10.0
 40
11.0
 40
11.0
 40
11.0
 40
12.0
 40
12.0
 40
12.0
 40
13.0
 40
13.0
 40
13.0
 40
13.0
 10
300.2193725060648
 20
20.25412130424438
 42
1.0
 10
299.739442715284
 20
20.41422423058344
 42
1.0
 10
299.5427163031618
 20
20.62720562490344
 42
1.0
 10
299.542119761843
 20
21.03839632851544
 42
1.0
 10
299.5393769017586
 20
22.92724217217554
 42
1.0
 10
299.5395583241182
 20
24.8160968563317
 42
1.0
 10
299.5421628112159
 20
26.70494346873036
 42
1.0
 10
299.5426363543262
 20
27.0468754177367
 42
1.0
 10
299.7248336028849
 20
27.28837413924314
 42
1.0
 10
300.049118383702
 20
27.40930924651266
 42
1.0
 10
300.1052670665942
 20
27.43024796211264
 42
1.0
 10
300.1600043450263
 20
27.45496618208605
 42
1.0
 10
300.2549312885929
 20
27.49433829349534
 42
1.0
 72
     1
 10
300.2549312885929
 20
27.49433829349534
 11
297.7186989723292
 21
27.49433829349534
 72
     4
 94
        3
 73
     1
 74
     0
 95
       14
 96
       10
 40
5.0
 40
5.0
 40
5.0
 40
5.0
 40
6.0
 40
6.0
 40
6.0
 40
7.0
 40
7.0
 40
7.0
 40
8.0
 40
8.0
 40
8.0
 40
8.0
 10
297.7186989723292
 20
27.49433829349534
 42
1.0
 10
298.3648823686909
 20
27.26685790861022
 42
1.0
 10
298.4850762195593
 20
27.0944786077999
 42
1.0
 10
298.4851069691121
 20
26.45733654080182
 42
1.0
 10
298.4851377186649
 20
25.7773505457302
 42
1.0
 10
298.4851131190222
 20
25.09736416629037
 42
1.0
 10
298.4851131190222
 20
24.41737817121947
 42
1.0
 10
298.4851131190222
 20
24.32893553953832
 42
1.0
 10
298.4851131190222
 20
24.24049329222682
 42
1.0
 10
298.4851131190222
 20
24.16049564077468
 42
1.0
 72
     1
 10
298.4851131190222
 20
24.16049564077468
 11
295.5632814142282
 21
24.16049564077468
 72
     4
 94
        3
 73
     1
 74
     0
 95
       14
 96
       10
 40
1.0
 40
1.0
 40
1.0
 40
1.0
 40
2.0
 40
2.0
 40
2.0
 40
3.0
 40
3.0
 40
3.0
 40
4.0
 40
4.0
 40
4.0
 40
4.0
 10
295.5632814142282
 20
24.16049564077468
 42
1.0
 10
295.5632814142282
 20
25.01272602299438
 42
1.0
 10
295.5627432970579
 20
25.84365465270932
 42
1.0
 10
295.5644406723573
 20
26.67457866999212
 42
1.0
 10
295.5645605956114
 20
26.73240397223375
 42
1.0
 10
295.5792681065788
 20
26.79059327230427
 42
1.0
 10
295.5906023916358
 20
26.8479388815276
 42
1.0
 10
295.6648994604227
 20
27.22384581892186
 42
1.0
 10
295.9411319155254
 20
27.38780204855992
 42
1.0
 10
296.2715297073844
 20
27.50458020069891
 42
1.0
 97
        0
 75
     0
 76
     1
 98
        1
 10
0.0
 20
0.0
  0
SPLINE
  5
7E
330
1F
100
AcDbEntity
  8
0
  6
Continuous
 62
   179
370
     0
100
AcDbSpline
210
0.0
220
0.0
230
1.0
 70
     8
 71
     3
 72
    14
 73
    10
 74
     0
 42
0.000000001
 43
0.00000001
 40
24.0
 40
24.0
 40
24.0
 40
24.0
 40
25.0
 40
25.0
 40
25.0
 40
26.0
 40
26.0
 40
26.0
 40
27.0
 40
27.0
 40
27.0
 40
27.0
 10
287.7314564875268
 20
22.42648570947681
 30
0.0
 10
288.0996055050067
 20
21.95463920731319
 30
0.0
 10
288.4270667146001
 20
21.47381844824843
 30
0.0
 10
288.8166481701822
 20
21.05011190802389
 30
0.0
 10
289.3841588364346
 20
20.43289382139212
 30
0.0
 10
289.9836367374808
 20
20.49110656799654
 30
0.0
 10
290.4735170834558
 20
21.16713932372222
 30
0.0
 10
290.5884281612034
 20
21.32571784099438
 30
0.0
 10
290.6825002672103
 20
21.49939669476814
 30
0.0
 10
290.8103661314317
 20
21.70506046432864
 30
0.0
  0
SPLINE
  5
7F
330
1F
100
AcDbEntity
  8
0
  6
Continuous
 62
   179
370
     0
100
AcDbSpline
210
0.0
220
0.0
230
1.0
 70
     8
 71
     3
 72
    11
 73
     7
 74
     0
 42
0.000000001
 43
0.00000001
 40
22.0
 40
22.0
 40
22.0
 40
22.0
 40
23.0
 40
23.0
 40
23.0
 40
24.0
 40
24.0
 40
24.0
 40
24.0
 10
290.7742138825406
 20
25.39867403457779
 30
0.0
 10
289.9536528488242
 20
25.26443186627322
 30
0.0
 10
289.4290162836425
 20
24.71923384406366
 30
0.0
 10
288.9612633156569
 20
24.10441845059237
 30
0.0
 10
288.5466855488353
 20
23.55949371503119
 30
0.0
 10
288.1508588591388
 20
23.00030157147279
 30
0.0
 10
287.7314564875268
 20
22.42648570947681
 30
0.0
  0
SPLINE
  5
80
330
1F
100
AcDbEntity
  8
0
  6
Continuous
 62
   179
370
     0
100
AcDbSpline
210
0.0
220
0.0
230
1.0
 70
     8
 71
     3
 72
    11
 73
     7
 74
     0
 42
0.000000001
 43
0.00000001
 40
20.0
 40
20.0
 40
20.0
 40
20.0
 40
21.0
 40
21.0
 40
21.0
 40
22.0
 40
22.0
 40
22.0
 40
22.0
 10
287.7715077796773
 20
25.39867403457779
 30
0.0
 10
288.2706160663608
 20
25.39867403457779
 30
0.0
 10
288.76972127809
 20
25.39867441894744
 30
0.0
 10
289.2688295647749
 20
25.39867441894744
 30
0.0
 10
289.7706253623487
 20
25.39867441894744
 30
0.0
 10
290.2724180849667
 20
25.39867403457779
 30
0.0
 10
290.7742138825406
 20
25.39867403457779
 30
0.0
  0
SPLINE
  5
81
330
1F
100
AcDbEntity
  8
0
  6
Continuous
 62
   179
370
     0
100
AcDbSpline
210
0.0
220
0.0
230
1.0
 70
     8
 71
     3
 72
    17
 73
    13
 74
     0
 42
0.000000001
 43
0.00000001
 40
16.0
 40
16.0
 40
16.0
 40
16.0
 40
17.0
 40
17.0
 40
17.0
 40
18.0
 40
18.0
 40
18.0
 40
19.0
 40
19.0
 40
19.0
 40
20.0
 40
20.0
 40
20.0
 40
20.0
 10
287.7233847299918
 20
22.54303496963325
 30
0.0
 10
288.0735790837579
 20
23.12311989664797
 30
0.0
 10
288.4211781752921
 20
23.692108847638
 30
0.0
 10
288.7595985254019
 20
24.26650702928458
 30
0.0
 10
288.8131334963293
 20
24.3573677289012
 30
0.0
 10
288.8373887433532
 20
24.47070865762303
 30
0.0
 10
288.8543009972361
 20
24.57697987985169
 30
0.0
 10
288.9174636530569
 20
24.97387165717582
 30
0.0
 10
288.7601181928394
 20
25.20759054971102
 30
0.0
 10
288.3670435880915
 20
25.28904726743022
 30
0.0
 10
288.1718392788191
 20
25.32949945687163
 30
0.0
 10
287.9710693005408
 20
25.34310267453518
 30
0.0
 10
287.7715077796773
 20
25.39867403457779
 30
0.0
  0
SPLINE
  5
82
330
1F
100
AcDbEntity
  8
0
  6
Continuous
 62
   179
370
     0
100
AcDbSpline
210
0.0
220
0.0
230
1.0
 70
     8
 71
     3
 72
     8
 73
     4
 74
     0
 42
0.000000001
 43
0.00000001
 40
15.0
 40
15.0
 40
15.0
 40
15.0
 40
16.0
 40
16.0
 40
16.0
 40
16.0
 10
285.8065406500283
 20
24.86455968857225
 30
0.0
 10
286.4380688096612
 20
24.09970377545334
 30
0.0
 10
287.0596648638312
 20
23.34687900912474
 30
0.0
 10
287.7233847299918
 20
22.54303496963325
 30
0.0
  0
SPLINE
  5
83
330
1F
100
AcDbEntity
  8
0
  6
Continuous
 62
   179
370
     0
100
AcDbSpline
210
0.0
220
0.0
230
1.0
 70
     8
 71
     3
 72
    26
 73
    22
 74
     0
 42
0.000000001
 43
0.00000001
 40
8.0
 40
8.0
 40
8.0
 40
8.0
 40
9.0
 40
9.0
 40
9.0
 40
10.0
 40
10.0
 40
10.0
 40
11.0
 40
11.0
 40
11.0
 40
12.0
 40
12.0
 40
12.0
 40
13.0
 40
13.0
 40
13.0
 40
14.0
 40
14.0
 40
14.0
 40
15.0
 40
15.0
 40
15.0
 40
15.0
 10
284.7027239634148
 20
24.4681860412085
 30
0.0
 10
284.5641388051866
 20
24.63003900145511
 30
0.0
 10
284.4323277733789
 20
24.77744812814592
 30
0.0
 10
284.3077767109179
 20
24.93075271279267
 30
0.0
 10
284.0198409761273
 20
25.28515591156022
 30
0.0
 10
283.7707819005811
 20
25.65802498535045
 30
0.0
 10
283.7149530130354
 20
26.1296866058298
 30
0.0
 10
283.6309452355654
 20
26.8393466878164
 30
0.0
 10
283.9109291360762
 20
27.37506654483262
 30
0.0
 10
284.558084218296
 20
27.68711127408746
 30
0.0
 10
285.1912113546599
 20
27.99239110178883
 30
0.0
 10
285.840402057257
 20
27.99583274545402
 30
0.0
 10
286.4793408590448
 20
27.71426216803416
 30
0.0
 10
287.361321048954
 20
27.32558686332681
 30
0.0
 10
287.5614237619422
 20
26.30921056516709
 30
0.0
 10
286.8815726805328
 20
25.62247811827483
 30
0.0
 10
286.6551698752792
 20
25.39378370261948
 30
0.0
 10
286.361711520857
 20
25.23088333574105
 30
0.0
 10
286.0959738880259
 20
25.04203380586477
 30
0.0
 10
286.0025259979348
 20
24.97562130671301
 30
0.0
 10
285.9002991106001
 20
24.9215528310502
 30
0.0
 10
285.8065406500283
 20
24.86455968857225
 30
0.0
  0
SPLINE
  5
84
330
1F
100
AcDbEntity
  8
0
  6
Continuous
 62
   179
370
     0
100
AcDbSpline
210
0.0
220
0.0
230
1.0
 70
     8
 71
     3
 72
    20
 73
    16
 74
     0
 42
0.000000001
 43
0.00000001
 40
3.0
 40
3.0
 40
3.0
 40
3.0
 40
4.0
 40
4.0
 40
4.0
 40
5.0
 40
5.0
 40
5.0
 40
6.0
 40
6.0
 40
6.0
 40
7.0
 40
7.0
 40
7.0
 40
8.0
 40
8.0
 40
8.0
 40
8.0
 10
287.0539854214827
 20
21.61211917311518
 30
0.0
 10
286.8995550188436
 20
21.43851181205056
 30
0.0
 10
286.7443651022574
 20
21.26447318851252
 30
0.0
 10
286.5896302790503
 20
21.09003174583674
 30
0.0
 10
285.9488126796034
 20
20.36759637788917
 30
0.0
 10
285.1515567317372
 20
20.05360962220845
 30
0.0
 10
284.198169930981
 20
20.23446388406056
 30
0.0
 10
282.6109241545095
 20
20.5355588898502
 30
0.0
 10
282.3522343191156
 20
22.37884389028816
 30
0.0
 10
283.1417229300147
 20
23.34576433784628
 30
0.0
 10
283.460866385652
 20
23.7366334309401
 30
0.0
 10
283.8607304915963
 20
24.02105948868025
 30
0.0
 10
284.3005597909425
 20
24.25632085564482
 30
0.0
 10
284.4255536469583
 20
24.32317807019961
 30
0.0
 10
284.5513685160267
 20
24.38851087568819
 30
0.0
 10
284.7027239634148
 20
24.4681860412085
 30
0.0
  0
SPLINE
  5
85
330
1F
100
AcDbEntity
  8
0
  6
Continuous
 62
   179
370
     0
100
AcDbSpline
210
0.0
220
0.0
230
1.0
 70
     8
 71
     3
 72
    14
 73
    10
 74
     0
 42
0.000000001
 43
0.00000001
 40
0.0
 40
0.0
 40
0.0
 40
0.0
 40
1.0
 40
1.0
 40
1.0
 40
2.0
 40
2.0
 40
2.0
 40
3.0
 40
3.0
 40
3.0
 40
3.0
 10
290.8103661314317
 20
21.70506046432864
 30
0.0
 10
290.7160910783766
 20
21.04182259740494
 30
0.0
 10
289.9739444785289
 20
20.32342848939635
 30
0.0
 10
289.3271645408483
 20
20.20870037148624
 30
0.0
 10
288.7048673968812
 20
20.0983148591309
 30
0.0
 10
288.1784811821614
 20
20.26780485511384
 30
0.0
 10
287.7601488949774
 20
20.73592220529573
 30
0.0
 10
287.5152010346028
 20
21.01001756649998
 30
0.0
 10
287.2972697310665
 20
21.30825593886041
 30
0.0
 10
287.0539854214827
 20
21.61211917311518
 30
0.0
  0
SPLINE
  5
86
330
1F
100
AcDbEntity
  8
0
  6
Continuous
 62
   179
370
     0
100
AcDbSpline
210
0.0
220
0.0
230
1.0
 70
     8
 71
     3
 72
    14
 73
    10
 74
     0
 42
0.000000001
 43
0.00000001
 40
1.0
 40
1.0
 40
1.0
 40
1.0
 40
2.0
 40
2.0
 40
2.0
 40
3.0
 40
3.0
 40
3.0
 40
4.0
 40
4.0
 40
4.0
 40
4.0
 10
284.845288113738
 20
24.3712657578988
 30
0.0
 10
284.1054815548355
 20
23.90423117633508
 30
0.0
 10
283.6988925217564
 20
23.08417174469389
 30
0.0
 10
283.7780264951535
 20
22.28619625730053
 30
0.0
 10
283.8665083325146
 20
21.39392726712143
 30
0.0
 10
284.4974276510072
 20
20.83427541775253
 30
0.0
 10
285.3603677179978
 20
20.87638462370452
 30
0.0
 10
286.0339581905155
 20
20.90925282038733
 30
0.0
 10
286.5509442670314
 20
21.22618922689351
 30
0.0
 10
287.0009947176327
 20
21.77781006188367
 30
0.0
  0
SPLINE
  5
87
330
1F
100
AcDbEntity
  8
0
  6
Continuous
 62
   179
370
     0
100
AcDbSpline
210
0.0
220
0.0
230
1.0
 70
     8
 71
     3
 72
     8
 73
     4
 74
     0
 42
0.000000001
 43
0.00000001
 40
0.0
 40
0.0
 40
0.0
 40
0.0
 40
1.0
 40
1.0
 40
1.0
 40
1.0
 10
287.0009947176327
 20
21.77781006188367
 30
0.0
 10
286.2819902310068
 20
22.64282111123716
 30
0.0
 10
285.5612360948443
 20
23.50993158628786
 30
0.0
 10
284.845288113738
 20
24.3712657578988
 30
0.0
  0
SPLINE
  5
88
330
1F
100
AcDbEntity
  8
0
  6
Continuous
 62
   179
370
     0
100
AcDbSpline
210
0.0
220
0.0
230
1.0
 70
     8
 71
     3
 72
    11
 73
     7
 74
     0
 42
0.000000001
 43
0.00000001
 40
3.0
 40
3.0
 40
3.0
 40
3.0
 40
4.0
 40
4.0
 40
4.0
 40
5.0
 40
5.0
 40
5.0
 40
5.0
 10
284.6883823721211
 20
27.15085253116305
 30
0.0
 10
284.5630810205802
 20
26.788679112661
 30
0.0
 10
284.5571094574822
 20
26.41068293535724
 30
0.0
 10
284.7721626029031
 20
26.08712768767229
 30
0.0
 10
285.0380140090768
 20
25.68714980838475
 30
0.0
 10
285.3510444536753
 20
25.31853032275096
 30
0.0
 10
285.6520579731507
 20
24.9254318870995
 30
0.0
  0
SPLINE
  5
89
330
1F
100
AcDbEntity
  8
0
  6
Continuous
 62
   179
370
     0
100
AcDbSpline
210
0.0
220
0.0
230
1.0
 70
     8
 71
     3
 72
    14
 73
    10
 74
     0
 42
0.000000001
 43
0.00000001
 40
0.0
 40
0.0
 40
0.0
 40
0.0
 40
1.0
 40
1.0
 40
1.0
 40
2.0
 40
2.0
 40
2.0
 40
3.0
 40
3.0
 40
3.0
 40
3.0
 10
285.6520579731507
 20
24.9254318870995
 30
0.0
 10
286.3259713159692
 20
25.4295804098103
 30
0.0
 10
286.5713650448558
 20
26.2298440482801
 30
0.0
 10
286.3549927436335
 20
27.06650131962916
 30
0.0
 10
286.2400293916459
 20
27.5110460628537
 30
0.0
 10
285.9916529561654
 20
27.74682017860582
 30
0.0
 10
285.6158934244382
 20
27.76810636414938
 30
0.0
 10
285.1818973152029
 20
27.79269159230804
 30
0.0
 10
284.8337724063213
 20
27.5710895609412
 30
0.0
 10
284.6883823721211
 20
27.15085253116305
 30
0.0
  0
SPLINE
  5
8A
330
1F
100
AcDbEntity
  8
0
  6
Continuous
 62
   179
370
     0
100
AcDbSpline
210
0.0
220
0.0
230
1.0
 70
     8
 71
     3
 72
    17
 73
    13
 74
     0
 42
0.000000001
 43
0.00000001
 40
21.0
 40
21.0
 40
21.0
 40
21.0
 40
22.0
 40
22.0
 40
22.0
 40
23.0
 40
23.0
 40
23.0
 40
24.0
 40
24.0
 40
24.0
 40
25.0
 40
25.0
 40
25.0
 40
25.0
 10
293.8906841048423
 20
20.25643828302682
 30
0.0
 10
294.0348564567621
 20
20.35359533789035
 30
0.0
 10
294.2655211499942
 20
20.43733713173099
 30
0.0
 10
294.3739502220706
 20
20.601710402175
 30
0.0
 10
294.4888489999955
 20
20.77588586122134
 30
0.0
 10
294.5289433415201
 20
21.02641399663968
 30
0.0
 10
294.5304592944584
 20
21.24409084762874
 30
0.0
 10
294.5423286217301
 20
22.94816032401251
 30
0.0
 10
294.5326947869268
 20
24.65236702027423
 30
0.0
 10
294.5396718603926
 20
26.35648992400541
 30
0.0
 10
294.541848928711
 20
26.88863860486636
 30
0.0
 10
294.4654639653083
 20
27.35271373418588
 30
0.0
 10
293.841527870193
 20
27.50458020069892
 30
0.0
  0
SPLINE
  5
8B
330
1F
100
AcDbEntity
  8
0
  6
Continuous
 62
   179
370
     0
100
AcDbSpline
210
0.0
220
0.0
230
1.0
 70
    24
 71
     3
 72
     8
 73
     4
 74
     0
 42
0.000000001
 43
0.00000001
 40
20.0
 40
20.0
 40
20.0
 40
20.0
 40
21.0
 40
21.0
 40
21.0
 40
21.0
 10
296.2880237673526
 20
20.25643828302682
 30
0.0
 10
295.4693261565182
 20
20.25643828302682
 30
0.0
 10
294.6506254707311
 20
20.25643828302682
 30
0.0
 10
293.8906841048423
 20
20.25643828302682
 30
0.0
  0
SPLINE
  5
8C
330
1F
100
AcDbEntity
  8
0
  6
Continuous
 62
   179
370
     0
100
AcDbSpline
210
0.0
220
0.0
230
1.0
 70
     8
 71
     3
 72
    14
 73
    10
 74
     0
 42
0.000000001
 43
0.00000001
 40
17.0
 40
17.0
 40
17.0
 40
17.0
 40
18.0
 40
18.0
 40
18.0
 40
19.0
 40
19.0
 40
19.0
 40
20.0
 40
20.0
 40
20.0
 40
20.0
 10
295.5733857171836
 20
23.97022240661698
 30
0.0
 10
295.5696219719554
 20
23.89376787235267
 30
0.0
 10
295.5622759038603
 20
23.81306182808446
 30
0.0
 10
295.5621928800676
 20
23.73234771205876
 30
0.0
 10
295.561359567195
 20
22.89285956003151
 30
0.0
 10
295.560827599936
 20
22.05336910178782
 30
0.0
 10
295.5619960829322
 20
21.2138824872384
 30
0.0
 10
295.5628078711177
 20
20.63015527572819
 30
0.0
 10
295.7413366980624
 20
20.4024294709773
 30
0.0
 10
296.2880237673526
 20
20.25643828302682
 30
0.0
  0
SPLINE
  5
8D
330
1F
100
AcDbEntity
  8
0
  6
Continuous
 62
   179
370
     0
100
AcDbSpline
210
0.0
220
0.0
230
1.0
 70
    24
 71
     3
 72
     8
 73
     4
 74
     0
 42
0.000000001
 43
0.00000001
 40
16.0
 40
16.0
 40
16.0
 40
16.0
 40
17.0
 40
17.0
 40
17.0
 40
17.0
 10
298.4851131190222
 20
23.97022240661698
 30
0.0
 10
297.5154382802974
 20
23.97022240661698
 30
0.0
 10
296.5557754958725
 20
23.97022240661698
 30
0.0
 10
295.5733857171836
 20
23.97022240661698
 30
0.0
  0
SPLINE
  5
8E
330
1F
100
AcDbEntity
  8
0
  6
Continuous
 62
   179
370
     0
100
AcDbSpline
210
0.0
220
0.0
230
1.0
 70
     8
 71
     3
 72
    11
 73
     7
 74
     0
 42
0.000000001
 43
0.00000001
 40
14.0
 40
14.0
 40
14.0
 40
14.0
 40
15.0
 40
15.0
 40
15.0
 40
16.0
 40
16.0
 40
16.0
 40
16.0
 10
297.7632396991476
 20
20.25412130424438
 30
0.0
 10
298.3307257657572
 20
20.41986831094704
 30
0.0
 10
298.4849747460367
 20
20.62384393007452
 30
0.0
 10
298.485073144605
 20
21.23173567742802
 30
0.0
 10
298.4852207424561
 20
22.13796342697173
 30
0.0
 10
298.4851131190222
 20
23.04419117651474
 30
0.0
 10
298.4851131190222
 20
23.97022240661698
 30
0.0
  0
SPLINE
  5
8F
330
1F
100
AcDbEntity
  8
0
  6
Continuous
 62
   179
370
     0
100
AcDbSpline
210
0.0
220
0.0
230
1.0
 70
    24
 71
     3
 72
     8
 73
     4
 74
     0
 42
0.000000001
 43
0.00000001
 40
13.0
 40
13.0
 40
13.0
 40
13.0
 40
14.0
 40
14.0
 40
14.0
 40
14.0
 10
300.2193725060649
 20
20.25412130424438
 30
0.0
 10
299.4006625954106
 20
20.25412130424438
 30
0.0
 10
298.5819526847563
 20
20.25412130424438
 30
0.0
 10
297.7632396991476
 20
20.25412130424438
 30
0.0
  0
SPLINE
  5
90
330
1F
100
AcDbEntity
  8
0
  6
Continuous
 62
   179
370
     0
100
AcDbSpline
210
0.0
220
0.0
230
1.0
 70
     8
 71
     3
 72
    17
 73
    13
 74
     0
 42
0.000000001
 43
0.00000001
 40
9.0
 40
9.0
 40
9.0
 40
9.0
 40
10.0
 40
10.0
 40
10.0
 40
11.0
 40
11.0
 40
11.0
 40
12.0
 40
12.0
 40
12.0
 40
13.0
 40
13.0
 40
13.0
 40
13.0
 10
300.254931288593
 20
27.49433829349534
 30
0.0
 10
300.1600043450263
 20
27.45496618208605
 30
0.0
 10
300.1052670665943
 20
27.43024796211265
 30
0.0
 10
300.049118383702
 20
27.40930924651266
 30
0.0
 10
299.7248336028849
 20
27.28837413924314
 30
0.0
 10
299.5426363543262
 20
27.0468754177367
 30
0.0
 10
299.5421628112159
 20
26.70494346873036
 30
0.0
 10
299.5395583241182
 20
24.8160968563317
 30
0.0
 10
299.5393769017586
 20
22.92724217217554
 30
0.0
 10
299.542119761843
 20
21.03839632851544
 30
0.0
 10
299.5427163031618
 20
20.62720562490344
 30
0.0
 10
299.739442715284
 20
20.41422423058345
 30
0.0
 10
300.2193725060649
 20
20.25412130424438
 30
0.0
  0
SPLINE
  5
91
330
1F
100
AcDbEntity
  8
0
  6
Continuous
 62
   179
370
     0
100
AcDbSpline
210
0.0
220
0.0
230
1.0
 70
    24
 71
     3
 72
     8
 73
     4
 74
     0
 42
0.000000001
 43
0.00000001
 40
8.0
 40
8.0
 40
8.0
 40
8.0
 40
9.0
 40
9.0
 40
9.0
 40
9.0
 10
297.7186989723292
 20
27.49433829349534
 30
0.0
 10
298.5854396840106
 20
27.49433829349534
 30
0.0
 10
299.3949493285535
 20
27.49433829349534
 30
0.0
 10
300.254931288593
 20
27.49433829349534
 30
0.0
  0
SPLINE
  5
92
330
1F
100
AcDbEntity
  8
0
  6
Continuous
 62
   179
370
     0
100
AcDbSpline
210
0.0
220
0.0
230
1.0
 70
     8
 71
     3
 72
    14
 73
    10
 74
     0
 42
0.000000001
 43
0.00000001
 40
5.0
 40
5.0
 40
5.0
 40
5.0
 40
6.0
 40
6.0
 40
6.0
 40
7.0
 40
7.0
 40
7.0
 40
8.0
 40
8.0
 40
8.0
 40
8.0
 10
298.4851131190222
 20
24.16049564077469
 30
0.0
 10
298.4851131190222
 20
24.24049329222683
 30
0.0
 10
298.4851131190222
 20
24.32893553953833
 30
0.0
 10
298.4851131190222
 20
24.41737817121947
 30
0.0
 10
298.4851131190222
 20
25.09736416629037
 30
0.0
 10
298.4851377186649
 20
25.7773505457302
 30
0.0
 10
298.4851069691121
 20
26.45733654080182
 30
0.0
 10
298.4850762195594
 20
27.0944786077999
 30
0.0
 10
298.3648823686909
 20
27.26685790861022
 30
0.0
 10
297.7186989723292
 20
27.49433829349534
 30
0.0
  0
SPLINE
  5
93
330
1F
100
AcDbEntity
  8
0
  6
Continuous
 62
   179
370
     0
100
AcDbSpline
210
0.0
220
0.0
230
1.0
 70
    24
 71
     3
 72
     8
 73
     4
 74
     0
 42
0.000000001
 43
0.00000001
 40
4.0
 40
4.0
 40
4.0
 40
4.0
 40
5.0
 40
5.0
 40
5.0
 40
5.0
 10
295.5632814142282
 20
24.16049564077469
 30
0.0
 10
296.5292663066504
 20
24.16049564077469
 30
0.0
 10
297.4889290910767
 20
24.16049564077469
 30
0.0
 10
298.4851131190222
 20
24.16049564077469
 30
0.0
  0
SPLINE
  5
94
330
1F
100
AcDbEntity
  8
0
  6
Continuous
 62
   179
370
     0
100
AcDbSpline
210
0.0
220
0.0
230
1.0
 70
     8
 71
     3
 72
    14
 73
    10
 74
     0
 42
0.000000001
 43
0.00000001
 40
1.0
 40
1.0
 40
1.0
 40
1.0
 40
2.0
 40
2.0
 40
2.0
 40
3.0
 40
3.0
 40
3.0
 40
4.0
 40
4.0
 40
4.0
 40
4.0
 10
296.2715297073845
 20
27.50458020069892
 30
0.0
 10
295.9411319155254
 20
27.38780204855992
 30
0.0
 10
295.6648994604227
 20
27.22384581892186
 30
0.0
 10
295.5906023916359
 20
26.8479388815276
 30
0.0
 10
295.5792681065788
 20
26.79059327230428
 30
0.0
 10
295.5645605956114
 20
26.73240397223375
 30
0.0
 10
295.5644406723574
 20
26.67457866999212
 30
0.0
 10
295.562743297058
 20
25.84365465270932
 30
0.0
 10
295.5632814142282
 20
25.01272602299438
 30
0.0
 10
295.5632814142282
 20
24.16049564077469
 30
0.0
  0
SPLINE
  5
95
330
1F
100
AcDbEntity
  8
0
  6
Continuous
 62
   179
370
     0
100
AcDbSpline
210
0.0
220
0.0
230
1.0
 70
    24
 71
     3
 72
     8
 73
     4
 74
     0
 42
0.000000001
 43
0.00000001
 40
0.0
 40
0.0
 40
0.0
 40
0.0
 40
1.0
 40
1.0
 40
1.0
 40
1.0
 10
293.841527870193
 20
27.50458020069892
 30
0.0
 10
294.6515264326192
 20
27.50458020069892
 30
0.0
 10
295.4615280700011
 20
27.50458020069892
 30
0.0
 10
296.2715297073845
 20
27.50458020069892
 30
0.0
  0
SPLINE
  5
96
330
1F
100
AcDbEntity
  8
0
  6
Continuous
 62
   179
370
     0
100
AcDbSpline
210
0.0
220
0.0
230
1.0
 70
     8
 71
     3
 72
    14
 73
    10
 74
     0
 42
0.000000001
 43
0.00000001
 40
17.0
 40
17.0
 40
17.0
 40
17.0
 40
18.0
 40
18.0
 40
18.0
 40
19.0
 40
19.0
 40
19.0
 40
20.0
 40
20.0
 40
20.0
 40
20.0
 10
257.7053577757453
 20
20.25910042553502
 30
0.0
 10
258.2139995287706
 20
20.39587059142628
 30
0.0
 10
258.4104423723632
 20
20.62446660851326
 30
0.0
 10
258.4124688639662
 20
21.16843695483816
 30
0.0
 10
258.4191609275175
 20
22.96470127704906
 30
0.0
 10
258.4149081683119
 20
24.76100595804667
 30
0.0
 10
258.4151320634913
 20
26.55729487989966
 30
0.0
 10
258.4151924094879
 20
27.04153921726714
 30
0.0
 10
258.2057453879524
 20
27.36893835120057
 30
0.0
 10
257.7192638284546
 20
27.51463645747964
 30
0.0
  0
SPLINE
  5
97
330
1F
100
AcDbEntity
  8
0
  6
Continuous
 62
   179
370
     0
100
AcDbSpline
210
0.0
220
0.0
230
1.0
 70
    24
 71
     3
 72
     8
 73
     4
 74
     0
 42
0.000000001
 43
0.00000001
 40
16.0
 40
16.0
 40
16.0
 40
16.0
 40
17.0
 40
17.0
 40
17.0
 40
17.0
 10
260.1134120717832
 20
20.25910042553502
 30
0.0
 10
259.3107272904223
 20
20.25910042553502
 30
0.0
 10
258.5080426051526
 20
20.25910042553502
 30
0.0
 10
257.7053577757453
 20
20.25910042553502
 30
0.0
  0
SPLINE
  5
98
330
1F
100
AcDbEntity
  8
0
  6
Continuous
 62
   179
370
     0
100
AcDbSpline
210
0.0
220
0.0
230
1.0
 70
     8
 71
     3
 72
    14
 73
    10
 74
     0
 42
0.000000001
 43
0.00000001
 40
13.0
 40
13.0
 40
13.0
 40
13.0
 40
14.0
 40
14.0
 40
14.0
 40
15.0
 40
15.0
 40
15.0
 40
16.0
 40
16.0
 40
16.0
 40
16.0
 10
259.4607286043899
 20
23.57138302951071
 30
0.0
 10
259.4539911852495
 20
23.51939476107442
 30
0.0
 10
259.4406539512153
 20
23.46398560492077
 30
0.0
 10
259.4405559370167
 20
23.40855338660287
 30
0.0
 10
259.4392191002215
 20
22.65310606781493
 30
0.0
 10
259.4366701545022
 20
21.89763799307776
 30
0.0
 10
259.4408326829897
 20
21.14221143023692
 30
0.0
 10
259.4435911100346
 20
20.64162793377142
 30
0.0
 10
259.6377614656041
 20
20.40079128856705
 30
0.0
 10
260.1134120717832
 20
20.25910042553502
 30
0.0
  0
SPLINE
  5
99
330
1F
100
AcDbEntity
  8
0
  6
Continuous
 62
   179
370
     0
100
AcDbSpline
210
0.0
220
0.0
230
1.0
 70
     8
 71
     3
 72
    20
 73
    16
 74
     0
 42
0.000000001
 43
0.00000001
 40
8.0
 40
8.0
 40
8.0
 40
8.0
 40
9.0
 40
9.0
 40
9.0
 40
10.0
 40
10.0
 40
10.0
 40
11.0
 40
11.0
 40
11.0
 40
12.0
 40
12.0
 40
12.0
 40
13.0
 40
13.0
 40
13.0
 40
13.0
 10
263.9554858268652
 20
20.24609336482204
 30
0.0
 10
263.8909540472192
 20
20.24131411562172
 30
0.0
 10
263.8264337986555
 20
20.23257048036439
 30
0.0
 10
263.7618904879275
 20
20.2323936704376
 30
0.0
 10
263.3170171088603
 20
20.2311736819415
 30
0.0
 10
262.8718696744063
 20
20.24067529366942
 30
0.0
 10
262.427398730108
 20
20.22724465786874
 30
0.0
 10
262.2549406335689
 20
20.22203337745712
 30
0.0
 10
262.1765046750147
 20
20.28890135435546
 30
0.0
 10
262.1067370153144
 20
20.43629933433309
 30
0.0
 10
261.7451764738302
 20
21.20016664933901
 30
0.0
 10
261.3780268168071
 20
21.9614848264415
 30
0.0
 10
261.0037355762117
 20
22.71920223094413
 30
0.0
 10
260.6054131759577
 20
23.52556773374194
 30
0.0
 10
260.3725694925604
 20
23.65083910446932
 30
0.0
 10
259.4607286043899
 20
23.57138302951071
 30
0.0
  0
SPLINE
  5
9A
330
1F
100
AcDbEntity
  8
0
  6
Continuous
 62
   179
370
     0
100
AcDbSpline
210
0.0
220
0.0
230
1.0
 70
     8
 71
     3
 72
    14
 73
    10
 74
     0
 42
0.000000001
 43
0.00000001
 40
5.0
 40
5.0
 40
5.0
 40
5.0
 40
6.0
 40
6.0
 40
6.0
 40
7.0
 40
7.0
 40
7.0
 40
8.0
 40
8.0
 40
8.0
 40
8.0
 10
261.0219043336847
 20
23.63056361828031
 30
0.0
 10
261.7521543160346
 20
23.35408286053947
 30
0.0
 10
262.033208300972
 20
22.73079019980925
 30
0.0
 10
262.3739921385617
 20
22.16106556577573
 30
0.0
 10
262.6276890153665
 20
21.7369354504649
 30
0.0
 10
262.8739775562312
 20
21.30835818112305
 30
0.0
 10
263.1292772534608
 20
20.88520667032095
 30
0.0
 10
263.3178377375433
 20
20.57267359973515
 30
0.0
 10
263.5606000734738
 20
20.32757122285868
 30
0.0
 10
263.9554858268652
 20
20.24609336482204
 30
0.0
  0
SPLINE
  5
9B
330
1F
100
AcDbEntity
  8
0
  6
Continuous
 62
   179
370
     0
100
AcDbSpline
210
0.0
220
0.0
230
1.0
 70
     8
 71
     3
 72
    20
 73
    16
 74
     0
 42
0.000000001
 43
0.00000001
 40
0.0
 40
0.0
 40
0.0
 40
0.0
 40
1.0
 40
1.0
 40
1.0
 40
2.0
 40
2.0
 40
2.0
 40
3.0
 40
3.0
 40
3.0
 40
4.0
 40
4.0
 40
4.0
 40
5.0
 40
5.0
 40
5.0
 40
5.0
 10
257.7192638284546
 20
27.51463645747964
 30
0.0
 10
258.1174764912431
 20
27.51463645747964
 30
0.0
 10
258.5159962651877
 20
27.52468175973202
 30
0.0
 10
258.913837050576
 20
27.51251762112626
 30
0.0
 10
259.7094699986222
 20
27.48819126576296
 30
0.0
 10
260.5093946232761
 20
27.49481913962259
 30
0.0
 10
261.2989762515716
 20
27.40941936834727
 30
0.0
 10
262.3071445332423
 20
27.30037799580672
 30
0.0
 10
262.8488620904764
 20
26.74717259793779
 30
0.0
 10
262.9131259646454
 20
25.88395655371281
 30
0.0
 10
262.9966382899504
 20
24.76217905347503
 30
0.0
 10
262.5617362220245
 20
24.08644572151765
 30
0.0
 10
261.5515161764629
 20
23.77337299628438
 30
0.0
 10
261.3945785321864
 20
23.72473719781129
 30
0.0
 10
261.2341319795987
 20
23.68742184709605
 30
0.0
 10
261.0219043336847
 20
23.63056361828031
 30
0.0
  0
SPLINE
  5
9C
330
1F
100
AcDbEntity
  8
0
  6
Continuous
 62
   179
370
     0
100
AcDbSpline
210
0.0
220
0.0
230
1.0
 70
     8
 71
     3
 72
    20
 73
    16
 74
     0
 42
0.000000001
 43
0.00000001
 40
1.0
 40
1.0
 40
1.0
 40
1.0
 40
2.0
 40
2.0
 40
2.0
 40
3.0
 40
3.0
 40
3.0
 40
4.0
 40
4.0
 40
4.0
 40
5.0
 40
5.0
 40
5.0
 40
6.0
 40
6.0
 40
6.0
 40
6.0
 10
259.4558811296203
 20
23.74052094311723
 30
0.0
 10
259.8313410453958
 20
23.74052094311723
 30
0.0
 10
260.1942113256325
 20
23.70804326575078
 30
0.0
 10
260.5489927438957
 20
23.74778168120398
 30
0.0
 10
261.1506181168165
 20
23.81517009427841
 30
0.0
 10
261.6082598631961
 20
24.13857044109259
 30
0.0
 10
261.7413862071132
 20
24.73962656292206
 30
0.0
 10
261.8389787525148
 20
25.18024881635489
 30
0.0
 10
261.8719876284001
 20
25.65810454981779
 30
0.0
 10
261.8164781518313
 20
26.10478869315943
 30
0.0
 10
261.7108519014664
 20
26.95476897687368
 30
0.0
 10
261.3230227860075
 20
27.28690123567825
 30
0.0
 10
260.4792308497364
 20
27.35420547185249
 30
0.0
 10
260.146744010155
 20
27.38072599997261
 30
0.0
 10
259.8103733099057
 20
27.35855230546976
 30
0.0
 10
259.4558811296203
 20
27.35855230546976
 30
0.0
  0
SPLINE
  5
9D
330
1F
100
AcDbEntity
  8
0
  6
Continuous
 62
   179
370
     0
100
AcDbSpline
210
0.0
220
0.0
230
1.0
 70
    24
 71
     3
 72
     8
 73
     4
 74
     0
 42
0.000000001
 43
0.00000001
 40
0.0
 40
0.0
 40
0.0
 40
0.0
 40
1.0
 40
1.0
 40
1.0
 40
1.0
 10
259.4558811296203
 20
27.35855230546976
 30
0.0
 10
259.4558811296203
 20
26.13864548795524
 30
0.0
 10
259.4558811296203
 20
24.94385548148867
 30
0.0
 10
259.4558811296203
 20
23.74052094311723
 30
0.0
  0
SPLINE
  5
9E
330
1F
100
AcDbEntity
  8
0
  6
Continuous
 62
   179
370
     0
100
AcDbSpline
210
0.0
220
0.0
230
1.0
 70
     8
 71
     3
 72
    14
 73
    10
 74
     0
 42
0.000000001
 43
0.00000001
 40
3.0
 40
3.0
 40
3.0
 40
3.0
 40
4.0
 40
4.0
 40
4.0
 40
5.0
 40
5.0
 40
5.0
 40
6.0
 40
6.0
 40
6.0
 40
6.0
 10
267.2336118279071
 20
20.23490821509466
 30
0.0
 10
266.3034040398355
 20
20.48709452013179
 30
0.0
 10
265.5792320909092
 20
21.34541139190241
 30
0.0
 10
265.4837047623288
 20
22.29272284982233
 30
0.0
 10
265.4259332718035
 20
22.86561853145873
 30
0.0
 10
265.4879189885011
 20
23.41465794151554
 30
0.0
 10
265.7739382574312
 20
23.92202056120339
 30
0.0
 10
266.225828300013
 20
24.72361219597301
 30
0.0
 10
266.9062728477855
 20
25.1505801106106
 30
0.0
 10
267.7758432870376
 20
25.16748813643033
 30
0.0
  0
SPLINE
  5
9F
330
1F
100
AcDbEntity
  8
0
  6
Continuous
 62
   179
370
     0
100
AcDbSpline
210
0.0
220
0.0
230
1.0
 70
     8
 71
     3
 72
    14
 73
    10
 74
     0
 42
0.000000001
 43
0.00000001
 40
0.0
 40
0.0
 40
0.0
 40
0.0
 40
1.0
 40
1.0
 40
1.0
 40
2.0
 40
2.0
 40
2.0
 40
3.0
 40
3.0
 40
3.0
 40
3.0
 10
267.7758432870376
 20
25.16748813643033
 30
0.0
 10
268.6216197225536
 20
25.16033694362373
 30
0.0
 10
269.2464106552308
 20
24.83848445240962
 30
0.0
 10
269.7103360726668
 20
24.21398909980579
 30
0.0
 10
270.372934348899
 20
23.32205720159637
 30
0.0
 10
270.3723808569537
 20
22.03321892002499
 30
0.0
 10
269.7215189161772
 20
21.13111084177938
 30
0.0
 10
269.1482911393735
 20
20.33660467264828
 30
0.0
 10
268.1650050112285
 20
19.98240211471103
 30
0.0
 10
267.2336118279071
 20
20.23490821509466
 30
0.0
  0
SPLINE
  5
A0
330
1F
100
AcDbEntity
  8
0
  6
Continuous
 62
   179
370
     0
100
AcDbSpline
210
0.0
220
0.0
230
1.0
 70
     8
 71
     3
 72
    17
 73
    13
 74
     0
 42
0.000000001
 43
0.00000001
 40
4.0
 40
4.0
 40
4.0
 40
4.0
 40
5.0
 40
5.0
 40
5.0
 40
6.0
 40
6.0
 40
6.0
 40
7.0
 40
7.0
 40
7.0
 40
8.0
 40
8.0
 40
8.0
 40
8.0
 10
266.4699528411193
 20
22.82140374989816
 30
0.0
 10
266.4269741915698
 20
22.16270989809668
 30
0.0
 10
266.5287029361534
 20
21.51524885782823
 30
0.0
 10
266.8746830637486
 20
20.93428603108956
 30
0.0
 10
267.1048165584612
 20
20.54785025472892
 30
0.0
 10
267.4153070900211
 20
20.27237193240103
 30
0.0
 10
267.9076604687568
 20
20.30531315927085
 30
0.0
 10
268.3388937306983
 20
20.33416469565678
 30
0.0
 10
268.6078393105943
 20
20.59660136402461
 30
0.0
 10
268.810867074766
 20
20.94311038392242
 30
0.0
 10
269.1208448575376
 20
21.47214721006825
 30
0.0
 10
269.202432645224
 20
22.05765558940843
 30
0.0
 10
269.218762963826
 20
22.6835112253406
 30
0.0
  0
SPLINE
  5
A1
330
1F
100
AcDbEntity
  8
0
  6
Continuous
 62
   179
370
     0
100
AcDbSpline
210
0.0
220
0.0
230
1.0
 70
     8
 71
     3
 72
    17
 73
    13
 74
     0
 42
0.000000001
 43
0.00000001
 40
0.0
 40
0.0
 40
0.0
 40
0.0
 40
1.0
 40
1.0
 40
1.0
 40
2.0
 40
2.0
 40
2.0
 40
3.0
 40
3.0
 40
3.0
 40
4.0
 40
4.0
 40
4.0
 40
4.0
 10
269.218762963826
 20
22.6835112253406
 30
0.0
 10
269.195680043492
 20
23.34551372899321
 30
0.0
 10
269.0963628325642
 20
24.01168817818242
 30
0.0
 10
268.6683621173312
 20
24.58056604641373
 30
0.0
 10
268.2143234497673
 20
25.18405330473933
 30
0.0
 10
267.4640605055332
 20
25.19142205062979
 30
0.0
 10
267.0072628343699
 20
24.59213287496141
 30
0.0
 10
266.882078331128
 20
24.42789874624284
 30
0.0
 10
266.7597204805012
 20
24.2414496033099
 30
0.0
 10
266.7072125446275
 20
24.04607386528146
 30
0.0
 10
266.5993976948625
 20
23.64490674705059
 30
0.0
 10
266.4968487059656
 20
23.23360918874381
 30
0.0
 10
266.4699528411193
 20
22.82140374989816
 30
0.0
  0
SPLINE
  5
A2
330
1F
100
AcDbEntity
  8
0
  6
Continuous
 62
   179
370
     0
100
AcDbSpline
210
0.0
220
0.0
230
1.0
 70
     8
 71
     3
 72
    17
 73
    13
 74
     0
 42
0.000000001
 43
0.00000001
 40
6.0
 40
6.0
 40
6.0
 40
6.0
 40
7.0
 40
7.0
 40
7.0
 40
8.0
 40
8.0
 40
8.0
 40
9.0
 40
9.0
 40
9.0
 40
10.0
 40
10.0
 40
10.0
 40
10.0
 10
311.6156486607862
 20
20.25320881127337
 30
0.0
 10
312.1185268426077
 20
20.41647125413319
 30
0.0
 10
312.2872188877024
 20
20.63608302071405
 30
0.0
 10
312.2876555313485
 20
21.16871754450475
 30
0.0
 10
312.2890700107628
 20
22.88922803787956
 30
0.0
 10
312.287766229737
 20
24.60974045310045
 30
0.0
 10
312.2871819882396
 20
26.33025248395311
 30
0.0
 10
312.2871512386867
 20
26.42255802816858
 30
0.0
 10
312.2845313768121
 20
26.51487279724975
 30
0.0
 10
312.2823973578678
 20
26.60716642601487
 30
0.0
 10
312.2683694120104
 20
27.21300429544448
 30
0.0
 10
312.2096131670664
 20
27.27631108979181
 30
0.0
 10
311.6691528821609
 20
27.32445797038016
 30
0.0
  0
SPLINE
  5
A3
330
1F
100
AcDbEntity
  8
0
  6
Continuous
 62
   179
370
     0
100
AcDbSpline
210
0.0
220
0.0
230
1.0
 70
    24
 71
     3
 72
     8
 73
     4
 74
     0
 42
0.000000001
 43
0.00000001
 40
5.0
 40
5.0
 40
5.0
 40
5.0
 40
6.0
 40
6.0
 40
6.0
 40
6.0
 10
313.8867245107604
 20
20.25320881127337
 30
0.0
 10
313.0865658051385
 20
20.25320881127337
 30
0.0
 10
312.3511103079175
 20
20.25320881127337
 30
0.0
 10
311.6156486607862
 20
20.25320881127337
 30
0.0
  0
SPLINE
  5
A4
330
1F
100
AcDbEntity
  8
0
  6
Continuous
 62
   179
370
     0
100
AcDbSpline
210
0.0
220
0.0
230
1.0
 70
     8
 71
     3
 72
    17
 73
    13
 74
     0
 42
0.000000001
 43
0.00000001
 40
1.0
 40
1.0
 40
1.0
 40
1.0
 40
2.0
 40
2.0
 40
2.0
 40
3.0
 40
3.0
 40
3.0
 40
4.0
 40
4.0
 40
4.0
 40
5.0
 40
5.0
 40
5.0
 40
5.0
 10
313.1781318226163
 20
27.87703492426926
 30
0.0
 10
313.1781318226163
 20
27.83642744958889
 30
0.0
 10
313.1781318226163
 20
27.75161518695077
 30
0.0
 10
313.1781318226163
 20
27.66680273212925
 30
0.0
 10
313.1781318226163
 20
25.57700952371036
 30
0.0
 10
313.1781256727049
 20
23.48721689184594
 30
0.0
 10
313.1781441224363
 20
21.39742349124223
 30
0.0
 10
313.1781441224363
 20
21.32188875296784
 30
0.0
 10
313.1771847363982
 20
21.24633325874564
 30
0.0
 10
313.1786115156352
 20
21.17082388885262
 30
0.0
 10
313.1888880160859
 20
20.62648762285203
 30
0.0
 10
313.3266152617988
 20
20.4348325806782
 30
0.0
 10
313.8867245107604
 20
20.25320881127337
 30
0.0
  0
SPLINE
  5
A5
330
1F
100
AcDbEntity
  8
0
  6
Continuous
 62
   179
370
     0
100
AcDbSpline
210
0.0
220
0.0
230
1.0
 70
     8
 71
     3
 72
     8
 73
     4
 74
     0
 42
0.000000001
 43
0.00000001
 40
0.0
 40
0.0
 40
0.0
 40
0.0
 40
1.0
 40
1.0
 40
1.0
 40
1.0
 10
311.6691528821609
 20
27.32445797038016
 30
0.0
 10
312.1410908642435
 20
27.49727756634619
 30
0.0
 10
312.6458878181427
 20
27.68213176842718
 30
0.0
 10
313.1781318226163
 20
27.87703492426926
 30
0.0
  0
SPLINE
  5
A6
330
1F
100
AcDbEntity
  8
0
  6
Continuous
 62
   179
370
     0
100
AcDbSpline
210
0.0
220
0.0
230
1.0
 70
     8
 71
     3
 72
    14
 73
    10
 74
     0
 42
0.000000001
 43
0.00000001
 40
6.0
 40
6.0
 40
6.0
 40
6.0
 40
7.0
 40
7.0
 40
7.0
 40
8.0
 40
8.0
 40
8.0
 40
9.0
 40
9.0
 40
9.0
 40
9.0
 10
278.4819664915177
 20
27.88441039662488
 30
0.0
 10
278.4819664915177
 20
27.83987735719566
 30
0.0
 10
278.4819649540404
 20
27.75219577693941
 30
0.0
 10
278.4819649540404
 20
27.66451419668386
 30
0.0
 10
278.4819664915177
 20
25.48269219002111
 30
0.0
 10
278.4816605334703
 20
23.30086999117493
 30
0.0
 10
278.4822124879378
 20
21.11904779232805
 30
0.0
 10
278.4823339486704
 20
20.63637283524633
 30
0.0
 10
278.6550987719953
 20
20.40793364087759
 30
0.0
 10
279.1055120673173
 20
20.25491771765491
 30
0.0
  0
SPLINE
  5
A7
330
1F
100
AcDbEntity
  8
0
  6
Continuous
 62
   179
370
     0
100
AcDbSpline
210
0.0
220
0.0
230
1.0
 70
     8
 71
     3
 72
     8
 73
     4
 74
     0
 42
0.000000001
 43
0.00000001
 40
5.0
 40
5.0
 40
5.0
 40
5.0
 40
6.0
 40
6.0
 40
6.0
 40
6.0
 10
276.9846800684063
 20
27.3296354262854
 30
0.0
 10
277.4478728777531
 20
27.5012575193644
 30
0.0
 10
277.9568994326009
 20
27.68986239811422
 30
0.0
 10
278.4819664915177
 20
27.88441039662488
 30
0.0
  0
SPLINE
  5
A8
330
1F
100
AcDbEntity
  8
0
  6
Continuous
 62
   179
370
     0
100
AcDbSpline
210
0.0
220
0.0
230
1.0
 70
     8
 71
     3
 72
    17
 73
    13
 74
     0
 42
0.000000001
 43
0.00000001
 40
1.0
 40
1.0
 40
1.0
 40
1.0
 40
2.0
 40
2.0
 40
2.0
 40
3.0
 40
3.0
 40
3.0
 40
4.0
 40
4.0
 40
4.0
 40
5.0
 40
5.0
 40
5.0
 40
5.0
 10
276.9460186560295
 20
20.25491771765491
 30
0.0
 10
277.4179566381115
 20
20.4199152040148
 30
0.0
 10
277.5770686601204
 20
20.6342380475635
 30
0.0
 10
277.5771993457187
 20
21.13377529050539
 30
0.0
 10
277.5776652014392
 20
22.92958298186009
 30
0.0
 10
277.5773700057348
 20
24.72538990447762
 30
0.0
 10
277.577359243392
 20
26.52119721146338
 30
0.0
 10
277.577359243392
 20
26.53798031722657
 30
0.0
 10
277.5773838430334
 20
26.55476419172763
 30
0.0
 10
277.5772915943764
 20
26.57154691311976
 30
0.0
 10
277.5738092075535
 20
27.20775573119973
 30
0.0
 10
277.5366914227135
 20
27.25167954511983
 30
0.0
 10
276.9846800684063
 20
27.3296354262854
 30
0.0
  0
SPLINE
  5
A9
330
1F
100
AcDbEntity
  8
0
  6
Continuous
 62
   179
370
     0
100
AcDbSpline
210
0.0
220
0.0
230
1.0
 70
    24
 71
     3
 72
     8
 73
     4
 74
     0
 42
0.000000001
 43
0.00000001
 40
0.0
 40
0.0
 40
0.0
 40
0.0
 40
1.0
 40
1.0
 40
1.0
 40
1.0
 10
279.1055120673173
 20
20.25491771765491
 30
0.0
 10
278.3856819552066
 20
20.25491771765491
 30
0.0
 10
277.6658503056181
 20
20.25491771765491
 30
0.0
 10
276.9460186560295
 20
20.25491771765491
 30
0.0
  0
SPLINE
  5
AA
330
1F
100
AcDbEntity
  8
0
  6
Continuous
 62
   179
370
     0
100
AcDbSpline
210
0.0
220
0.0
230
1.0
 70
     8
 71
     3
 72
    20
 73
    16
 74
     0
 42
0.000000001
 43
0.00000001
 40
5.0
 40
5.0
 40
5.0
 40
5.0
 40
6.0
 40
6.0
 40
6.0
 40
7.0
 40
7.0
 40
7.0
 40
8.0
 40
8.0
 40
8.0
 40
9.0
 40
9.0
 40
9.0
 40
10.0
 40
10.0
 40
10.0
 40
10.0
 10
307.178408284104
 20
20.25443648715803
 30
0.0
 10
307.3179589782804
 20
20.36177625633667
 30
0.0
 10
307.5293898264143
 20
20.45652254628292
 30
0.0
 10
307.6283941606455
 20
20.61954360515536
 30
0.0
 10
307.7285516030972
 20
20.78446498637256
 30
0.0
 10
307.7490584796685
 20
21.01681475508337
 30
0.0
 10
307.7500732149022
 20
21.21990094340409
 30
0.0
 10
307.7587445887104
 20
22.95682170421714
 30
0.0
 10
307.7550484924979
 20
24.69380511724258
 30
0.0
 10
307.7550361926766
 20
26.43077008053731
 30
0.0
 10
307.7550361926766
 20
26.49789904426263
 30
0.0
 10
307.7552944889175
 20
26.56503146731187
 30
0.0
 10
307.7547502218385
 20
26.63215658734291
 30
0.0
 10
307.7501131893193
 20
27.20350460556406
 30
0.0
 10
307.6774858212348
 20
27.28280885460759
 30
0.0
 10
307.160813390154
 20
27.32540717062984
 30
0.0
  0
SPLINE
  5
AB
330
1F
100
AcDbEntity
  8
0
  6
Continuous
 62
   179
370
     0
100
AcDbSpline
210
0.0
220
0.0
230
1.0
 70
    24
 71
     3
 72
     8
 73
     4
 74
     0
 42
0.000000001
 43
0.00000001
 40
4.0
 40
4.0
 40
4.0
 40
4.0
 40
5.0
 40
5.0
 40
5.0
 40
5.0
 10
309.3620693061908
 20
20.25443648715802
 30
0.0
 10
308.5715044609525
 20
20.25443648715802
 30
0.0
 10
307.8517004859625
 20
20.25443648715802
 30
0.0
 10
307.178408284104
 20
20.25443648715803
 30
0.0
  0
SPLINE
  5
AC
330
1F
100
AcDbEntity
  8
0
  6
Continuous
 62
   179
370
     0
100
AcDbSpline
210
0.0
220
0.0
230
1.0
 70
     8
 71
     3
 72
    14
 73
    10
 74
     0
 42
0.000000001
 43
0.00000001
 40
1.0
 40
1.0
 40
1.0
 40
1.0
 40
2.0
 40
2.0
 40
2.0
 40
3.0
 40
3.0
 40
3.0
 40
4.0
 40
4.0
 40
4.0
 40
4.0
 10
308.65963267846
 20
27.88697759989075
 30
0.0
 10
308.65963267846
 20
27.83196991758182
 30
0.0
 10
308.65963267846
 20
27.74275854708867
 30
0.0
 10
308.65963267846
 20
27.65354698440997
 30
0.0
 10
308.65963267846
 20
25.48863300356693
 30
0.0
 10
308.6595035303402
 20
23.32371921490945
 30
0.0
 10
308.6597187772069
 20
21.15880542625192
 30
0.0
 10
308.6597679764911
 20
20.6374237012035
 30
0.0
 10
308.807415027844
 20
20.43200746554105
 30
0.0
 10
309.3620693061909
 20
20.25443648715802
 30
0.0
  0
SPLINE
  5
AD
330
1F
100
AcDbEntity
  8
0
  6
Continuous
 62
   179
370
     0
100
AcDbSpline
210
0.0
220
0.0
230
1.0
 70
     8
 71
     3
 72
     8
 73
     4
 74
     0
 42
0.000000001
 43
0.00000001
 40
0.0
 40
0.0
 40
0.0
 40
0.0
 40
1.0
 40
1.0
 40
1.0
 40
1.0
 10
307.160813390154
 20
27.32540717062984
 30
0.0
 10
307.6336123597078
 20
27.50255342081908
 30
0.0
 10
308.1420254609839
 20
27.69304267058278
 30
0.0
 10
308.65963267846
 20
27.88697759989075
 30
0.0
  0
SPLINE
  5
AE
330
1F
100
AcDbEntity
  8
0
  6
Continuous
 62
   179
370
     0
100
AcDbSpline
210
0.0
220
0.0
230
1.0
 70
     8
 71
     3
 72
    14
 73
    10
 74
     0
 42
0.000000001
 43
0.00000001
 40
6.0
 40
6.0
 40
6.0
 40
6.0
 40
7.0
 40
7.0
 40
7.0
 40
8.0
 40
8.0
 40
8.0
 40
9.0
 40
9.0
 40
9.0
 40
9.0
 10
272.426404840594
 20
20.25907966958721
 30
0.0
 10
273.005992393597
 20
20.37668517687365
 30
0.0
 10
273.0805785081768
 20
20.81042375860577
 30
0.0
 10
273.0783845276048
 20
21.29462927466368
 30
0.0
 10
273.0702866329497
 20
23.08209538116095
 30
0.0
 10
273.0685846452182
 20
24.86961337752775
 30
0.0
 10
273.0527409382852
 20
26.65700799131587
 30
0.0
 10
273.0476395875227
 20
27.23250104921648
 30
0.0
 10
272.9826104338649
 20
27.28380667758701
 30
0.0
 10
272.4594267850394
 20
27.32510813123116
 30
0.0
  0
SPLINE
  5
AF
330
1F
100
AcDbEntity
  8
0
  6
Continuous
 62
   179
370
     0
100
AcDbSpline
210
0.0
220
0.0
230
1.0
 70
    24
 71
     3
 72
     8
 73
     4
 74
     0
 42
0.000000001
 43
0.00000001
 40
5.0
 40
5.0
 40
5.0
 40
5.0
 40
6.0
 40
6.0
 40
6.0
 40
6.0
 10
274.6224502449564
 20
20.25907966958721
 30
0.0
 10
273.8904356226618
 20
20.25907966958721
 30
0.0
 10
273.1584194628893
 20
20.25907966958721
 30
0.0
 10
272.426404840594
 20
20.25907966958721
 30
0.0
  0
SPLINE
  5
B0
330
1F
100
AcDbEntity
  8
0
  6
Continuous
 62
   179
370
     0
100
AcDbSpline
210
0.0
220
0.0
230
1.0
 70
     8
 71
     3
 72
    17
 73
    13
 74
     0
 42
0.000000001
 43
0.00000001
 40
1.0
 40
1.0
 40
1.0
 40
1.0
 40
2.0
 40
2.0
 40
2.0
 40
3.0
 40
3.0
 40
3.0
 40
4.0
 40
4.0
 40
4.0
 40
5.0
 40
5.0
 40
5.0
 40
5.0
 10
273.9540333846496
 20
27.87257450949275
 30
0.0
 10
273.9540333846496
 20
27.8074859707617
 30
0.0
 10
273.9540333846496
 20
27.71082379150879
 30
0.0
 10
273.9540333846496
 20
27.61416161225588
 30
0.0
 10
273.9540349221275
 20
25.51596282147274
 30
0.0
 10
273.9539872603212
 20
23.41776441505854
 30
0.0
 10
273.9542086570993
 20
21.31956562427539
 30
0.0
 10
273.954217881965
 20
21.22727776105204
 30
0.0
 10
273.9506540088286
 20
21.13443409966764
 30
0.0
 10
273.9590578615309
 20
21.04279505200227
 30
0.0
 10
274.0006220316647
 20
20.58964274029083
 30
0.0
 10
274.1836818051717
 20
20.38260600321025
 30
0.0
 10
274.6224502449564
 20
20.25907966958721
 30
0.0
  0
SPLINE
  5
B1
330
1F
100
AcDbEntity
  8
0
  6
Continuous
 62
   179
370
     0
100
AcDbSpline
210
0.0
220
0.0
230
1.0
 70
     8
 71
     3
 72
     8
 73
     4
 74
     0
 42
0.000000001
 43
0.00000001
 40
0.0
 40
0.0
 40
0.0
 40
0.0
 40
1.0
 40
1.0
 40
1.0
 40
1.0
 10
272.4594267850394
 20
27.32510813123116
 30
0.0
 10
272.932774634105
 20
27.49849255803981
 30
0.0
 10
273.4351023989377
 20
27.68249307566929
 30
0.0
 10
273.9540333846496
 20
27.87257450949275
 30
0.0
  0
SPLINE
  5
B2
330
1F
100
AcDbEntity
  8
0
  6
Continuous
 62
   179
370
     0
100
AcDbSpline
210
0.0
220
0.0
230
1.0
 70
     8
 71
     3
 72
    17
 73
    13
 74
     0
 42
0.000000001
 43
0.00000001
 40
6.0
 40
6.0
 40
6.0
 40
6.0
 40
7.0
 40
7.0
 40
7.0
 40
8.0
 40
8.0
 40
8.0
 40
9.0
 40
9.0
 40
9.0
 40
10.0
 40
10.0
 40
10.0
 40
10.0
 10
304.1706223551654
 20
25.06377258638473
 30
0.0
 10
304.1727133247369
 20
25.01792115989103
 30
0.0
 10
304.1800409430993
 20
24.93136078519359
 30
0.0
 10
304.1800932173391
 20
24.84479541369365
 30
0.0
 10
304.1808527312862
 20
23.65282014439031
 30
0.0
 10
304.1797703470369
 20
22.46084295323947
 30
0.0
 10
304.1818797663413
 20
21.26887114326077
 30
0.0
 10
304.1821011631179
 20
21.14380579453512
 30
0.0
 10
304.1922454404933
 20
21.01764883669525
 30
0.0
 10
304.2107535961514
 20
20.89393877449616
 30
0.0
 10
304.2621822227331
 20
20.55023795748125
 30
0.0
 10
304.4578262506062
 20
20.33981031349823
 30
0.0
 10
304.8038079156779
 20
20.2539775500868
 30
0.0
  0
SPLINE
  5
B3
330
1F
100
AcDbEntity
  8
0
  6
Continuous
 62
   179
370
     0
100
AcDbSpline
210
0.0
220
0.0
230
1.0
 70
     8
 71
     3
 72
     8
 73
     4
 74
     0
 42
0.000000001
 43
0.00000001
 40
5.0
 40
5.0
 40
5.0
 40
5.0
 40
6.0
 40
6.0
 40
6.0
 40
6.0
 10
302.7125031745686
 20
24.50968064047994
 30
0.0
 10
303.1898069535648
 20
24.6910587978335
 30
0.0
 10
303.6729961969132
 20
24.87467283202501
 30
0.0
 10
304.1706223551654
 20
25.06377258638473
 30
0.0
  0
SPLINE
  5
B4
330
1F
100
AcDbEntity
  8
0
  6
Continuous
 62
   179
370
     0
100
AcDbSpline
210
0.0
220
0.0
230
1.0
 70
     8
 71
     3
 72
    17
 73
    13
 74
     0
 42
0.000000001
 43
0.00000001
 40
1.0
 40
1.0
 40
1.0
 40
1.0
 40
2.0
 40
2.0
 40
2.0
 40
3.0
 40
3.0
 40
3.0
 40
4.0
 40
4.0
 40
4.0
 40
5.0
 40
5.0
 40
5.0
 40
5.0
 10
302.6973344203136
 20
20.2539775500868
 30
0.0
 10
303.1321361678242
 20
20.3494649042487
 30
0.0
 10
303.2897768237453
 20
20.65853557522151
 30
0.0
 10
303.2916556214045
 20
21.04785181591347
 30
0.0
 10
303.2966032244031
 20
22.071496731734
 30
0.0
 10
303.2829750227277
 20
23.09531768874207
 30
0.0
 10
303.2668591822546
 20
24.11891186780057
 30
0.0
 10
303.2632153602819
 20
24.35030186610297
 30
0.0
 10
303.1332831261333
 20
24.4918735746181
 30
0.0
 10
302.8846514693662
 20
24.49557889569631
 30
0.0
 10
302.8224697242705
 20
24.49650561033552
 30
0.0
 10
302.760410977386
 20
24.5055728846329
 30
0.0
 10
302.7125031745686
 20
24.50968064047994
 30
0.0
  0
SPLINE
  5
B5
330
1F
100
AcDbEntity
  8
0
  6
Continuous
 62
   179
370
     0
100
AcDbSpline
210
0.0
220
0.0
230
1.0
 70
    24
 71
     3
 72
     8
 73
     4
 74
     0
 42
0.000000001
 43
0.00000001
 40
0.0
 40
0.0
 40
0.0
 40
0.0
 40
1.0
 40
1.0
 40
1.0
 40
1.0
 10
304.8038079156779
 20
20.2539775500868
 30
0.0
 10
304.101651108875
 20
20.2539775500868
 30
0.0
 10
303.3994912271164
 20
20.2539775500868
 30
0.0
 10
302.6973344203136
 20
20.2539775500868
 30
0.0
  0
SPLINE
  5
B6
330
1F
100
AcDbEntity
  8
0
  6
Continuous
 62
   179
370
     0
100
AcDbSpline
210
0.0
220
0.0
230
1.0
 70
     8
 71
     3
 72
    11
 73
     7
 74
     0
 42
0.000000001
 43
0.00000001
 40
2.0
 40
2.0
 40
2.0
 40
2.0
 40
3.0
 40
3.0
 40
3.0
 40
4.0
 40
4.0
 40
4.0
 40
4.0
 10
303.0570519104932
 20
26.35430478392947
 30
0.0
 10
303.0511172468595
 20
26.75330175249256
 30
0.0
 10
303.3266947364937
 20
27.05519259513757
 30
0.0
 10
303.6924299141011
 20
27.05034857969325
 30
0.0
 10
304.0507636744179
 20
27.04560238626284
 30
0.0
 10
304.3255386007336
 20
26.75299425696746
 30
0.0
 10
304.327448147944
 20
26.37412133304796
 30
0.0
  0
SPLINE
  5
B7
330
1F
100
AcDbEntity
  8
0
  6
Continuous
 62
   179
370
     0
100
AcDbSpline
210
0.0
220
0.0
230
1.0
 70
     8
 71
     3
 72
    11
 73
     7
 74
     0
 42
0.000000001
 43
0.00000001
 40
0.0
 40
0.0
 40
0.0
 40
0.0
 40
1.0
 40
1.0
 40
1.0
 40
2.0
 40
2.0
 40
2.0
 40
2.0
 10
304.327448147944
 20
26.37412133304796
 30
0.0
 10
304.3293945946187
 20
25.98752450590587
 30
0.0
 10
304.068057222753
 20
25.70828897263022
 30
0.0
 10
303.6993639381942
 20
25.70301926806731
 30
0.0
 10
303.3259905717408
 20
25.69768229885988
 30
0.0
 10
303.0628482011429
 20
25.96449808787493
 30
0.0
 10
303.0570519104932
 20
26.35430478392947
 30
0.0
  0
MTEXT
  5
B9
330
1F
100
AcDbEntity
  8
0
  6
Continuous
 62
     7
370
     0
100
AcDbMText
 10
257.9690483454
 20
40.3166048975
 30
0.0
 40
3.7041666667
 41
0.0
 71
     1
 72
     1
  1
BLOWL - Blow Ceiling Mount
  7
SLDTEXTSTYLE0
 73
     1
 44
1.0
  0
MTEXT
  5
BA
330
1F
100
AcDbEntity
  8
0
  6
Continuous
 62
     7
370
     0
100
AcDbMText
 10
258.6105142387
 20
44.3546043689
 30
0.0
 40
1.5875
 41
0.0
 71
     1
 72
     1
  1
\LDESCRIPTION
  7
SLDTEXTSTYLE0
 73
     1
 44
1.0
  0
INSERT
  5
C1
330
1F
100
AcDbEntity
  8
0
  6
Continuous
 62
     7
370
     0
100
AcDbBlockReference
  2
SW_NOTE_0
 10
317.1049495712
 20
24.1495665419
 30
0.0
  0
MTEXT
  5
C2
330
1F
100
AcDbEntity
  8
0
  6
Continuous
 62
     7
370
     0
100
AcDbMText
 10
273.8792930731
 20
32.371143085
 30
0.0
 40
1.5875
 41
0.0
 71
     2
 72
     1
  1
\LSCALE
  7
SLDTEXTSTYLE0
 73
     1
 44
1.0
  0
MTEXT
  5
C3
330
1F
100
AcDbEntity
  8
0
  6
Continuous
 62
     7
370
     0
100
AcDbMText
 10
278.3960862508
 20
33.4394651033
 30
0.0
 40
2.6458333333
 41
0.0
 71
     1
 72
     1
  1
1:5
  7
SLDTEXTSTYLE0
 73
     1
 44
1.0
  0
MTEXT
  5
C4
330
1F
100
AcDbEntity
  8
0
  6
Continuous
 62
     7
370
     0
100
AcDbMText
 10
261.5657280329
 20
32.371143085
 30
0.0
 40
1.5875
 41
0.0
 71
     2
 72
     1
  1
\LSIZE
  7
SLDTEXTSTYLE0
 73
     1
 44
1.0
  0
MTEXT
  5
C5
330
1F
100
AcDbEntity
  8
0
  6
Continuous
 62
     7
370
     0
100
AcDbMText
 10
264.7495209372
 20
33.4394651033
 30
0.0
 40
2.6458333333
 41
0.0
 71
     1
 72
     1
  1
B
  7
SLDTEXTSTYLE0
 73
     1
 44
1.0
  0
INSERT
  5
CC
330
1F
100
AcDbEntity
  8
0
  6
Continuous
 62
     7
370
     0
100
AcDbBlockReference
  2
SW_NOTE_1
 10
258.0900415808
 20
15.6806800849
 30
0.0
  0
SPLINE
  5
CD
330
1F
100
AcDbEntity
  8
0
  6
Continuous
 62
     7
370
    15
100
AcDbSpline
210
0.0
220
0.0
230
1.0
 70
     8
 71
     3
 72
    35
 73
    31
 74
     0
 42
0.000000001
 43
0.00000001
 40
0.0
 40
0.0
 40
0.0
 40
0.0
 40
0.0418166578740566
 40
0.0587735268535875
 40
0.0869994111251091
 40
0.1164817232361058
 40
0.14828580219695
 40
0.1816927627450266
 40
0.2164049355003013
 40
0.2521773201200141
 40
0.2888256243844673
 40
0.3262055539246267
 40
0.3642023529739091
 40
0.4027254998615853
 40
0.4417040087205837
 40
0.4810835594585595
 40
0.5208257117873648
 40
0.5609056059710361
 40
0.6013125039460256
 40
0.6420499219335647
 40
0.6831376159697657
 40
0.7246155664361692
 40
0.7665495716391565
 40
0.8090429949210877
 40
0.8473086396658738
 40
0.8854980326389943
 40
0.9235571271891831
 40
0.961393344424201
 40
0.9988138423479284
 40
1.0
 40
1.0
 40
1.0
 40
1.0
 10
111.6361159150979
 20
81.96890144603752
 30
0.0
 10
111.5456841884561
 20
82.14496910385469
 30
0.0
 10
111.418581933412
 20
82.3924330988476
 30
0.0
 10
111.1919164612824
 20
82.73600032473601
 30
0.0
 10
110.9809889305496
 20
83.0194168282937
 30
0.0
 10
110.701803454775
 20
83.33808647185359
 30
0.0
 10
110.37962374764
 20
83.649716292526
 30
0.0
 10
110.0118869609859
 20
83.94730397537137
 30
0.0
 10
109.6026353582665
 20
84.22020904832905
 30
0.0
 10
109.1556721167886
 20
84.46014751994555
 30
0.0
 10
108.6756636820651
 20
84.6600365711345
 30
0.0
 10
108.1679475505407
 20
84.8139561023374
 30
0.0
 10
107.6384416233123
 20
84.91702597454886
 30
0.0
 10
107.0935472348089
 20
84.96545075583863
 30
0.0
 10
106.5400059304734
 20
84.95640633237423
 30
0.0
 10
105.9847841023866
 20
84.88807789918515
 30
0.0
 10
105.4349567066939
 20
84.75956194632523
 30
0.0
 10
104.8975938544388
 20
84.57086050658727
 30
0.0
 10
104.3796835145534
 20
84.32276682783501
 30
0.0
 10
103.8880431016943
 20
84.016828830911
 30
0.0
 10
103.4292392522681
 20
83.65525715803791
 30
0.0
 10
103.009618121271
 20
83.24072599326936
 30
0.0
 10
102.6351890660461
 20
82.77634250841245
 30
0.0
 10
102.3243437359929
 20
82.2850684536332
 30
0.0
 10
102.0767697234901
 20
81.7789843627216
 30
0.0
 10
101.8905040801355
 20
81.26974995116666
 30
0.0
 10
101.756536025785
 20
80.74590697910797
 30
0.0
 10
101.6837867873878
 20
80.21508821708673
 30
0.0
 10
101.6558248411402
 20
79.85289601231013
 30
0.0
 10
101.6664246480029
 20
79.67067328026361
 30
0.0
 10
101.6667503183267
 20
79.66507463710806
 30
0.0
  0
SPLINE
  5
CE
330
1F
100
AcDbEntity
  8
0
  6
Continuous
 62
     7
370
    15
100
AcDbSpline
210
0.0
220
0.0
230
1.0
 70
     8
 71
     3
 72
    35
 73
    31
 74
     0
 42
0.000000001
 43
0.00000001
 40
0.0
 40
0.0
 40
0.0
 40
0.0
 40
0.0231235357747148
 40
0.0553837623040511
 40
0.0889045619582135
 40
0.1234495561623354
 40
0.1588400364291418
 40
0.1949367195934334
 40
0.2316294898535012
 40
0.2688304653721957
 40
0.30647117416597
 40
0.3444993618797472
 40
0.3828773071849261
 40
0.4215817345937629
 40
0.4606018080767744
 40
0.4999408432300836
 40
0.539618598042684
 40
0.5796731082662249
 40
0.6201677490399087
 40
0.6612023922686618
 40
0.6981550680655904
 40
0.7350337445976299
 40
0.7717865947412973
 40
0.8083242464131073
 40
0.8444604175108862
 40
0.8797419190934735
 40
0.9127317692123351
 40
0.9384791392898981
 40
0.9613454015031866
 40
0.9999999999999999
 40
0.9999999999999999
 40
0.9999999999999999
 40
0.9999999999999999
 10
103.1839060848138
 20
76.03747635143301
 30
0.0
 10
103.2640838426203
 20
75.95747171651354
 30
0.0
 10
103.4561196075522
 20
75.76585060256404
 30
0.0
 10
103.7975483546757
 20
75.49429391127971
 30
0.0
 10
104.2059950691573
 20
75.22057938215805
 30
0.0
 10
104.6531833701041
 20
74.98086235396086
 30
0.0
 10
105.1331291650956
 20
74.78090867967121
 30
0.0
 10
105.6408642908906
 20
74.627017154245
 30
0.0
 10
106.1703617900022
 20
74.52393074405042
 30
0.0
 10
106.7152585512811
 20
74.47551046448721
 30
0.0
 10
107.2688003048237
 20
74.4845537980018
 30
0.0
 10
107.8240222662731
 20
74.55288219483766
 30
0.0
 10
108.3738507261388
 20
74.68139724691811
 30
0.0
 10
108.9112105760775
 20
74.87010685259645
 30
0.0
 10
109.429119771738
 20
75.11820034656411
 30
0.0
 10
109.9207664428407
 20
75.42412977178314
 30
0.0
 10
110.3795631794277
 20
75.78571117172801
 30
0.0
 10
110.7991928655488
 20
76.2002375611311
 30
0.0
 10
111.1736071938265
 20
76.66462420577628
 30
0.0
 10
111.484488178823
 20
77.1558945462834
 30
0.0
 10
111.7319581732322
 20
77.6619777431668
 30
0.0
 10
111.9185838822246
 20
78.17122761271817
 30
0.0
 10
112.0512220532824
 20
78.69501675622243
 30
0.0
 10
112.1288839827267
 20
79.22603581756027
 30
0.0
 10
112.1518182029743
 20
79.75498075875637
 30
0.0
 10
112.122674792872
 20
80.26612381859213
 30
0.0
 10
112.0527649895446
 20
80.7218095873376
 30
0.0
 10
111.9592311567515
 20
81.11047205239322
 30
0.0
 10
111.8333348350144
 20
81.51930029689008
 30
0.0
 10
111.7122165711438
 20
81.79541432612223
 30
0.0
 10
111.6361159150979
 20
81.96890144603752
 30
0.0
  0
SPLINE
  5
CF
330
1F
100
AcDbEntity
  8
0
  6
Continuous
 62
     7
370
    15
100
AcDbSpline
210
0.0
220
0.0
230
1.0
 70
     8
 71
     3
 72
    35
 73
    31
 74
     0
 42
0.000000001
 43
0.00000001
 40
0.0
 40
0.0
 40
0.0
 40
0.0
 40
0.0418168632025124
 40
0.0587737119685965
 40
0.0869993788549493
 40
0.1164816149925232
 40
0.1482858904307482
 40
0.181692698075926
 40
0.2164048713147811
 40
0.2521773485331456
 40
0.2888257146303309
 40
0.3262055003180396
 40
0.3642022758627687
 40
0.4027253424717774
 40
0.4417039679384203
 40
0.4810834108510543
 40
0.5208257297595783
 40
0.5609053835270532
 40
0.6013123296346423
 40
0.6420495630112317
 40
0.6831376974434212
 40
0.7246153934792026
 40
0.766549502699363
 40
0.8090426207764608
 40
0.847308561849923
 40
0.8854978065006669
 40
0.923557048092545
 40
0.9613931320174589
 40
0.9988136966165047
 40
1.0
 40
1.0
 40
1.0
 40
1.0
 10
69.69586492232294
 20
134.8165833856394
 30
0.0
 10
69.74980525840252
 20
135.0070264142583
 30
0.0
 10
69.82561854360463
 20
135.2746945953045
 30
0.0
 10
69.89416210862242
 20
135.6805486983679
 30
0.0
 10
69.93318162746614
 20
136.0316780004056
 30
0.0
 10
69.94633937940831
 20
136.4551416631114
 30
0.0
 10
69.9232331475902
 20
136.902779185189
 30
0.0
 10
69.85724135689553
 20
137.3712167365209
 30
0.0
 10
69.7440620148522
 20
137.8499175993292
 30
0.0
 10
69.58081140082295
 20
138.330226736587
 30
0.0
 10
69.36608147421121
 20
138.803782714151
 30
0.0
 10
69.09972833220881
 20
139.2626100031251
 30
0.0
 10
68.78277193240656
 20
139.6991158091401
 30
0.0
 10
68.41728552885031
 20
140.106148053655
 30
0.0
 10
68.0062811843039
 20
140.4770453847206
 30
0.0
 10
67.55361914875809
 20
140.8057372527042
 30
0.0
 10
67.06385221848305
 20
141.0867253591071
 30
0.0
 10
66.54215515626207
 20
141.3151972389804
 30
0.0
 10
65.99418141293158
 20
141.486964903925
 30
0.0
 10
65.42596893579841
 20
141.5985237409717
 30
0.0
 10
64.84382831267565
 20
141.6469763704824
 30
0.0
 10
64.2542258003311
 20
141.6299975274503
 30
0.0
 10
63.66367897405863
 20
141.5457255929099
 30
0.0
 10
63.10129211843856
 20
141.398427950688
 30
0.0
 10
62.57508004759784
 20
141.197146114824
 30
0.0
 10
62.09155482126506
 20
140.9517494281332
 30
0.0
 10
61.63631705304638
 20
140.6600003452431
 30
0.0
 10
61.22109786595231
 20
140.3213947555968
 30
0.0
 10
60.95362380854255
 20
140.075581769806
 30
0.0
 10
60.83710484133967
 20
139.9350783581495
 30
0.0
 10
60.83352447203606
 20
139.9307610000899
 30
0.0
  0
SPLINE
  5
D0
330
1F
100
AcDbEntity
  8
0
  6
Continuous
 62
     7
370
    15
100
AcDbSpline
210
0.0
220
0.0
230
1.0
 70
     8
 71
     3
 72
    35
 73
    31
 74
     0
 42
0.000000001
 43
0.00000001
 40
0.0
 40
0.0
 40
0.0
 40
0.0
 40
0.0231235798219298
 40
0.0553838331465651
 40
0.0889047409359754
 40
0.1234494807451824
 40
0.1588400332895129
 40
0.1949369026795461
 40
0.2316295865840469
 40
0.2688305038595954
 40
0.3064710519835745
 40
0.3444992822737142
 40
0.3828775996060236
 40
0.4215816855333168
 40
0.4606018257200394
 40
0.4999409173935673
 40
0.5396184624319905
 40
0.5796730082852797
 40
0.6201679014360706
 40
0.6612026141293887
 40
0.6981552352019023
 40
0.7350337876153744
 40
0.7717867988021442
 40
0.8083243113113968
 40
0.8444605477409575
 40
0.8797419064994959
 40
0.9127317675239264
 40
0.9384791937429576
 40
0.9613453575395214
 40
1.0
 40
1.0
 40
1.0
 40
1.0
 10
59.46908474616021
 20
136.2430084030559
 30
0.0
 10
59.47316011895381
 20
136.1298154020239
 30
0.0
 10
59.48292114075705
 20
135.8587041670512
 30
0.0
 10
59.54742926518824
 20
135.4272461192964
 30
0.0
 10
59.65947430695796
 20
134.9485044244574
 30
0.0
 10
59.82304340401836
 20
134.4682061552805
 30
0.0
 10
60.03768480977539
 20
133.9946470348643
 30
0.0
 10
60.3040624994587
 20
133.5358208172267
 30
0.0
 10
60.62101183030319
 20
133.0993144218573
 30
0.0
 10
60.98650053411112
 20
132.692284993776
 30
0.0
 10
61.39749882783993
 20
132.3213810048266
 30
0.0
 10
61.85016598185526
 20
131.9926953678586
 30
0.0
 10
62.33993306328172
 20
131.711704981527
 30
0.0
 10
62.86163035558214
 20
131.4832332525118
 30
0.0
 10
63.40960402814647
 20
131.311465553039
 30
0.0
 10
63.97781469855585
 20
131.1999070517645
 30
0.0
 10
64.55995480752539
 20
131.1514543100815
 30
0.0
 10
65.14955901500477
 20
131.1684309967237
 30
0.0
 10
65.74010168680542
 20
131.252709127982
 30
0.0
 10
66.30251072631813
 20
131.3999875386227
 30
0.0
 10
66.8286479615282
 20
131.6013338999184
 30
0.0
 10
67.31244494012279
 20
131.8464971834457
 30
0.0
 10
67.7666734942802
 20
132.1391129531375
 30
0.0
 10
68.18562163710465
 20
132.4745161551697
 30
0.0
 10
68.56313717239374
 20
132.8457160976556
 30
0.0
 10
68.89042074396062
 20
133.239418830053
 30
0.0
 10
69.15006901526868
 20
133.6203638983145
 30
0.0
 10
69.34673107155376
 20
133.9684028148325
 30
0.0
 10
69.53347096082746
 20
134.3532645306515
 30
0.0
 10
69.63320205832072
 20
134.6378028070242
 30
0.0
 10
69.69586492232294
 20
134.8165833856394
 30
0.0
  0
SPLINE
  5
D1
330
1F
100
AcDbEntity
  8
0
  6
Continuous
 62
     7
370
    15
100
AcDbSpline
210
0.0
220
0.0
230
1.0
 70
     8
 71
     3
 72
    36
 73
    32
 74
     0
 42
0.000000001
 43
0.00000001
 40
0.0
 40
0.0
 40
0.0
 40
0.0
 40
0.0403814179945291
 40
0.0567561271684969
 40
0.084012759378042
 40
0.1124828148042635
 40
0.1431951754496943
 40
0.1754552458080432
 40
0.2089757745271223
 40
0.2435201144802648
 40
0.2789103429410603
 40
0.3150068780029195
 40
0.3516992741450643
 40
0.3888998773974134
 40
0.4265400929857881
 40
0.4645679563065152
 40
0.5029456681072855
 40
0.5416495295466858
 40
0.5806692125800476
 40
0.6200080320679325
 40
0.6596852851905193
 40
0.699739273791148
 40
0.7402337011962314
 40
0.7812681606740465
 40
0.8182201815181727
 40
0.8550985118985929
 40
0.8918511035197477
 40
0.9283883455985513
 40
0.9645242460206382
 40
0.9998053431488308
 40
1.0
 40
1.0
 40
1.0
 40
1.0
 10
158.6177948182008
 20
109.1260680462649
 30
0.0
 10
158.6999713546814
 20
108.9459974172
 30
0.0
 10
158.8154705666059
 20
108.6929079510525
 30
0.0
 10
159.0259742165726
 20
108.3392071031178
 30
0.0
 10
159.2235436154516
 20
108.046324068139
 30
0.0
 10
159.4876675947527
 20
107.7150651950087
 30
0.0
 10
159.7950599926837
 20
107.3888401115586
 30
0.0
 10
160.1486141667549
 20
107.0745326875685
 30
0.0
 10
160.544782023196
 20
106.7829585371807
 30
0.0
 10
160.9801481137576
 20
106.5225670730515
 30
0.0
 10
161.450378030943
 20
106.3006484964118
 30
0.0
 10
161.9504187860877
 20
106.1233744678901
 30
0.0
 10
162.4745785396465
 20
105.9958748021907
 30
0.0
 10
163.0166445112027
 20
105.9222625181775
 30
0.0
 10
163.5700105348619
 20
105.9056422387114
 30
0.0
 10
164.1278017724853
 20
105.9481790700032
 30
0.0
 10
164.682994331707
 20
106.0510775835322
 30
0.0
 10
165.2285217584836
 20
106.2146821259372
 30
0.0
 10
165.757369503774
 20
106.4385128202325
 30
0.0
 10
166.2626623071083
 20
106.7213354894429
 30
0.0
 10
166.7377176513357
 20
107.0612722309723
 30
0.0
 10
167.1761068041579
 20
107.4559063387886
 30
0.0
 10
167.5716338439659
 20
107.9024478049971
 30
0.0
 10
167.9049494728204
 20
108.3787883074653
 30
0.0
 10
168.1755783388256
 20
108.872857776006
 30
0.0
 10
168.3856943415445
 20
109.3729208092629
 30
0.0
 10
168.5421066319961
 20
109.8899710618308
 30
0.0
 10
168.6455749566277
 20
110.4169412993823
 30
0.0
 10
168.688287186491
 20
110.9438182628433
 30
0.0
 10
168.6960596580012
 20
111.2960238224291
 30
0.0
 10
168.6777333722082
 20
111.4687392198976
 30
0.0
 10
168.6776328151605
 20
111.4696869160464
 30
0.0
  0
SPLINE
  5
D2
330
1F
100
AcDbEntity
  8
0
  6
Continuous
 62
     7
370
    15
100
AcDbSpline
210
0.0
220
0.0
230
1.0
 70
     8
 71
     3
 72
    34
 73
    30
 74
     0
 42
0.000000001
 43
0.00000001
 40
0.0
 40
0.0
 40
0.0
 40
0.0
 40
0.021778375995154
 40
0.056491823258284
 40
0.0922655065932745
 40
0.1289150813213499
 40
0.1662961420070622
 40
0.2042941659038142
 40
0.2428185981154935
 40
0.2817983743643192
 40
0.3211793785036942
 40
0.3609228968306504
 40
0.4010040979819571
 40
0.4414123293234897
 40
0.4821510538592614
 40
0.5232402554758718
 40
0.5647196693132892
 40
0.6066550463996024
 40
0.649149691468422
 40
0.6874168237413955
 40
0.7256073068550309
 40
0.7636677704256535
 40
0.8015054273442457
 40
0.8389270355468841
 40
0.8754636380466615
 40
0.9096272586340142
 40
0.9362906117957523
 40
0.9599701574554226
 40
1.0
 40
1.0
 40
1.0
 40
1.0
 10
166.979551619806
 20
115.0162467266848
 30
0.0
 10
166.9036125299822
 20
115.0858514587457
 30
0.0
 10
166.7066310084182
 20
115.2664020297525
 30
0.0
 10
166.3516446580491
 20
115.5218411719021
 30
0.0
 10
165.9172796024257
 20
115.7833405543241
 30
0.0
 10
165.4467702474595
 20
116.0049490991269
 30
0.0
 10
164.9468073101856
 20
116.1823086138016
 30
0.0
 10
164.4226268093255
 20
116.3097843643027
 30
0.0
 10
163.8805668878877
 20
116.3834062633544
 30
0.0
 10
163.3271991294325
 20
116.4000209713077
 30
0.0
 10
162.7694078271151
 20
116.3574875644872
 30
0.0
 10
162.2142148171602
 20
116.2545890720161
 30
0.0
 10
161.6686875451129
 20
116.090982150862
 30
0.0
 10
161.13983942102
 20
115.8671520322022
 30
0.0
 10
160.6345468310826
 20
115.5843290805327
 30
0.0
 10
160.1594906047122
 20
115.2443926423388
 30
0.0
 10
159.7211037781762
 20
114.8497567900101
 30
0.0
 10
159.3255727132817
 20
114.4032172752985
 30
0.0
 10
158.9922669991329
 20
113.926875752603
 30
0.0
 10
158.7216116452413
 20
113.4328050431222
 30
0.0
 10
158.5115879706606
 20
112.9327514842621
 30
0.0
 10
158.3548279449151
 20
112.4156687318355
 30
0.0
 10
158.2526460901947
 20
111.888817836686
 30
0.0
 10
158.2052293540747
 20
111.3615040028257
 30
0.0
 10
158.2106533747072
 20
110.849559984507
 30
0.0
 10
158.2593751276802
 20
110.3911241203227
 30
0.0
 10
158.3348020871457
 20
109.9985460611942
 30
0.0
 10
158.4416217588151
 20
109.5843246965133
 30
0.0
 10
158.5498149442717
 20
109.3028954761777
 30
0.0
 10
158.6177948182008
 20
109.1260680462649
 30
0.0
  0
SPLINE
  5
D3
330
1F
100
AcDbEntity
  8
0
  6
Continuous
 62
     7
370
    15
100
AcDbSpline
210
0.0
220
0.0
230
1.0
 70
     8
 71
     3
 72
    36
 73
    32
 74
     0
 42
0.000000001
 43
0.00000001
 40
0.0
 40
0.0
 40
0.0
 40
0.0
 40
0.0403812849627664
 40
0.0567559582721231
 40
0.0840127060838474
 40
0.1124827275204908
 40
0.1431952211388104
 40
0.1754551259976727
 40
0.2089755872698907
 40
0.2435200930837881
 40
0.2789103019438898
 40
0.3150068034917347
 40
0.3516991647201691
 40
0.3888997669094829
 40
0.4265399773985311
 40
0.46456772285659
 40
0.5029456361193592
 40
0.5416494840540617
 40
0.5806690408051116
 40
0.6200079537428954
 40
0.6596851089413946
 40
0.699739189811548
 40
0.740233606792101
 40
0.7812681011675608
 40
0.8182200830933615
 40
0.8550983630987585
 40
0.8918509096816863
 40
0.9283882613332503
 40
0.9645240974571798
 40
0.999805200320827
 40
1.0
 40
1.0
 40
1.0
 40
1.0
 10
152.3484337394616
 20
173.8718458916476
 30
0.0
 10
152.5441784829226
 20
173.9012072921439
 30
0.0
 10
152.8192980216421
 20
173.9424747858086
 30
0.0
 10
153.2173212742837
 20
174.0473240386416
 30
0.0
 10
153.5533144426696
 20
174.1565159868438
 30
0.0
 10
153.9445473094155
 20
174.3190938997209
 30
0.0
 10
154.3428608737089
 20
174.5246643088691
 30
0.0
 10
154.7424440037036
 20
174.7778879538381
 30
0.0
 10
155.1319245828409
 20
175.078336183777
 30
0.0
 10
155.5022303335504
 20
175.4250658556682
 30
0.0
 10
155.8451666182834
 20
175.8159101426936
 30
0.0
 10
156.1534007025756
 20
176.2477182734441
 30
0.0
 10
156.4204386369159
 20
176.7164289975524
 30
0.0
 10
156.6406158841768
 20
177.2172046277057
 30
0.0
 10
156.809116826921
 20
177.7445535319925
 30
0.0
 10
156.9219816555473
 20
178.2924607192744
 30
0.0
 10
156.9760992291352
 20
178.8545095767028
 30
0.0
 10
156.9691974279365
 20
179.423999797323
 30
0.0
 10
156.8998104641707
 20
179.9940570495284
 30
0.0
 10
156.7672211603073
 20
180.5577315084007
 30
0.0
 10
156.5713954135135
 20
181.1080836796721
 30
0.0
 10
156.3128817550902
 20
181.6382642578753
 30
0.0
 10
155.9926663485327
 20
182.1415571122225
 30
0.0
 10
155.6266486941233
 20
182.5932550319384
 30
0.0
 10
155.2263142899549
 20
182.9895832933746
 30
0.0
 10
154.8035399356306
 20
183.3293979843205
 30
0.0
 10
154.3496321973812
 20
183.6222635527582
 30
0.0
 10
153.8715998409815
 20
183.8670043034745
 30
0.0
 10
153.376886910489
 20
184.05317994132
 30
0.0
 10
153.0405142936358
 20
184.1579992800666
 30
0.0
 10
152.8694059468921
 20
184.187809739835
 30
0.0
 10
152.8684663837335
 20
184.1879734303286
 30
0.0
  0
SPLINE
  5
D4
330
1F
100
AcDbEntity
  8
0
  6
Continuous
 62
     7
370
    15
100
AcDbSpline
210
0.0
220
0.0
230
1.0
 70
     8
 71
     3
 72
    34
 73
    30
 74
     0
 42
0.000000001
 43
0.00000001
 40
0.0
 40
0.0
 40
0.0
 40
0.0
 40
0.0217783825045899
 40
0.056491843883183
 40
0.0922654984379579
 40
0.1289150773181049
 40
0.1662961154291333
 40
0.2042942150800981
 40
0.242818628828462
 40
0.281798294670327
 40
0.3211792756074831
 40
0.3609228959341039
 40
0.4010040489278549
 40
0.4414121524589418
 40
0.4821509703606959
 40
0.5232402562953019
 40
0.564719491536057
 40
0.6066549752652568
 40
0.6491496470066005
 40
0.6874167969893279
 40
0.7256072459075805
 40
0.7636677037763536
 40
0.8015052647150487
 40
0.838926972894432
 40
0.875463631128707
 40
0.9096270752584665
 40
0.9362904630689348
 40
0.959970165731901
 40
1.0
 40
1.0
 40
1.0
 40
1.0
 10
148.9912412380359
 20
183.5332372690966
 30
0.0
 10
148.9034011944775
 20
183.479425565312
 30
0.0
 10
148.675549285533
 20
183.3398411692418
 30
0.0
 10
148.3321584218467
 20
183.0690142616862
 30
0.0
 10
147.9610621756663
 20
182.7235545828367
 30
0.0
 10
147.618346635876
 20
182.3323572489921
 30
0.0
 10
147.3100514069729
 20
181.9006469449525
 30
0.0
 10
147.0430297252029
 20
181.4319094766404
 30
0.0
 10
146.822848058319
 20
180.9311410614357
 30
0.0
 10
146.6543480516929
 20
180.4037902848134
 30
0.0
 10
146.5414840287118
 20
179.8558834306413
 30
0.0
 10
146.4873666329855
 20
179.2938345574934
 30
0.0
 10
146.4942669252556
 20
178.7243442952884
 30
0.0
 10
146.5636553069588
 20
178.1542870910737
 30
0.0
 10
146.6962451012929
 20
177.5906119847775
 30
0.0
 10
146.8920683895342
 20
177.0402587981454
 30
0.0
 10
147.1505838441367
 20
176.5100793164288
 30
0.0
 10
147.4707993639928
 20
176.0067860310901
 30
0.0
 10
147.8368179300031
 20
175.55509445855
 30
0.0
 10
148.2371455380566
 20
175.1587382746105
 30
0.0
 10
148.6599402277892
 20
174.8190206909312
 30
0.0
 10
149.1137809117147
 20
174.5258036933309
 30
0.0
 10
149.5920583955856
 20
174.2823622376985
 30
0.0
 10
150.085874492858
 20
174.091432547281
 30
0.0
 10
150.5794818980584
 20
173.9555358596168
 30
0.0
 10
151.0335879870727
 20
173.8760091490365
 30
0.0
 10
151.4317488335472
 20
173.840304255161
 30
0.0
 10
151.8593683935899
 20
173.8288143317785
 30
0.0
 10
152.1597184569684
 20
173.8552413355379
 30
0.0
 10
152.3484337394616
 20
173.8718458916476
 30
0.0
  0
SPLINE
  5
D5
330
1F
100
AcDbEntity
  8
0
  6
Continuous
 62
     7
370
    15
100
AcDbSpline
210
0.0
220
0.0
230
1.0
 70
     8
 71
     3
 72
    36
 73
    32
 74
     0
 42
0.000000001
 43
0.00000001
 40
0.0
 40
0.0
 40
0.0
 40
0.0
 40
0.0403813096069454
 40
0.0567558468726113
 40
0.0840126259873503
 40
0.1124827507206198
 40
0.1431951095404149
 40
0.1754549950671779
 40
0.2089756289149582
 40
0.2435201092773798
 40
0.2789101662887195
 40
0.3150066752625144
 40
0.3516991996203015
 40
0.388899723914879
 40
0.4265400614166939
 40
0.4645678431122678
 40
0.5029455999618093
 40
0.5416494820144188
 40
0.580669223976698
 40
0.6200080516348013
 40
0.6596852820200658
 40
0.6997393300181015
 40
0.7402337650933768
 40
0.7812682030411634
 40
0.8182202531255385
 40
0.8550985911695632
 40
0.8918510901947178
 40
0.9283883939556746
 40
0.9645243320134249
 40
0.9998053075927366
 40
1.0
 40
1.0
 40
1.0
 40
1.0
 10
96.7056024139306
 20
174.0598359610369
 30
0.0
 10
96.85221945697923
 20
174.1928081533875
 30
0.0
 10
97.05828940679459
 20
174.379700293856
 30
0.0
 10
97.33138009884031
 20
174.6876563457429
 30
0.0
 10
97.55044757368881
 20
174.9648274387341
 30
0.0
 10
97.78587107615935
 20
175.3170636887763
 30
0.0
 10
98.00336480257177
 20
175.7089934854012
 30
0.0
 10
98.19547728711937
 20
176.1412920129709
 30
0.0
 10
98.35300340398591
 20
176.6072856525655
 30
0.0
 10
98.46890883183931
 20
177.1011619186422
 30
0.0
 10
98.53757698370998
 20
177.6165725550524
 30
0.0
 10
98.55465541600923
 20
178.1468319684253
 30
0.0
 10
98.51697986442115
 20
178.6849583508421
 30
0.0
 10
98.42253500049979
 20
179.2237860395887
 30
0.0
 10
98.27034912424226
 20
179.7560729500511
 30
0.0
 10
98.06046371995802
 20
180.274618020862
 30
0.0
 10
97.79384411631278
 20
180.7723538156288
 30
0.0
 10
97.47232598776992
 20
181.2424526707645
 30
0.0
 10
97.09848988772812
 20
181.6783738789999
 30
0.0
 10
96.67559532730601
 20
182.0739366748564
 30
0.0
 10
96.20746515336974
 20
182.4233487284742
 30
0.0
 10
95.69835391488137
 20
182.7212193328316
 30
0.0
 10
95.1528007349014
 20
182.9624929437848
 30
0.0
 10
94.59774266901303
 20
183.1354386776166
 30
0.0
 10
94.04482787303432
 20
183.2432787138931
 30
0.0
 10
93.50457435399045
 20
183.2916394253472
 30
0.0
 10
92.96444637863456
 20
183.2836714356982
 30
0.0
 10
92.43092513061724
 20
183.2222775065213
 30
0.0
 10
91.91600330721222
 20
183.1028848600327
 30
0.0
 10
91.57794395043715
 20
183.0036276721023
 30
0.0
 10
91.4190299511329
 20
182.9335372666399
 30
0.0
 10
91.41815782240838
 20
182.9331526066591
 30
0.0
  0
SPLINE
  5
D6
330
1F
100
AcDbEntity
  8
0
  6
Continuous
 62
     7
370
    15
100
AcDbSpline
210
0.0
220
0.0
230
1.0
 70
     8
 71
     3
 72
    34
 73
    30
 74
     0
 42
0.000000001
 43
0.00000001
 40
0.0
 40
0.0
 40
0.0
 40
0.0
 40
0.0217782993357844
 40
0.0564917855353369
 40
0.0922653478856257
 40
0.1289150178598784
 40
0.1662960297597916
 40
0.2042940558510898
 40
0.2428185543559709
 40
0.2817983463953829
 40
0.3211795277482206
 40
0.3609227822178455
 40
0.4010039656943725
 40
0.4414122264332413
 40
0.4821509405275966
 40
0.523240109535257
 40
0.5647193993286641
 40
0.6066550459320612
 40
0.6491497195672739
 40
0.6874167310585876
 40
0.7256072168283851
 40
0.7636677862219245
 40
0.801505292387066
 40
0.8389269448860224
 40
0.8754636151878638
 40
0.9096270124137192
 40
0.9362904439313146
 40
0.9599702559537039
 40
1.0
 40
1.0
 40
1.0
 40
1.0
 10
88.5546195571801
 20
180.2383968140414
 30
0.0
 10
88.51135868586249
 20
180.1449089322115
 30
0.0
 10
88.39914221629952
 20
179.9024061872057
 30
0.0
 10
88.26354408669391
 20
179.4866212596218
 30
0.0
 10
88.14628183094757
 20
178.993362403702
 30
0.0
 10
88.07798428878594
 20
178.4777805340246
 30
0.0
 10
88.06081379259106
 20
177.9475681308532
 30
0.0
 10
88.09851145989563
 20
177.4094290226438
 30
0.0
 10
88.19294550483995
 20
176.870604493475
 30
0.0
 10
88.3451320902314
 20
176.3383141708304
 30
0.0
 10
88.55502740356397
 20
175.8197740660744
 30
0.0
 10
88.82163716164668
 20
175.322033532824
 30
0.0
 10
89.14315570538471
 20
174.851935400946
 30
0.0
 10
89.51699775017778
 20
174.4160199862638
 30
0.0
 10
89.93988605523872
 20
174.02045106852
 30
0.0
 10
90.40801699943242
 20
173.671040069735
 30
0.0
 10
90.91712994737212
 20
173.3731726488517
 30
0.0
 10
91.46268472088191
 20
173.1318980323483
 30
0.0
 10
92.0177404363901
 20
172.9589585068722
 30
0.0
 10
92.57066488378597
 20
172.8510957478042
 30
0.0
 10
93.1108802620825
 20
172.8028183757961
 30
0.0
 10
93.65114859601212
 20
172.8104576960301
 30
0.0
 10
94.1841520676005
 20
172.8730710240482
 30
0.0
 10
94.70096841795255
 20
172.9880002599245
 30
0.0
 10
95.18709694692059
 20
173.1486080583591
 30
0.0
 10
95.60909486728131
 20
173.3342275405128
 30
0.0
 10
95.96023989633703
 20
173.5252888195425
 30
0.0
 10
96.32247157009826
 20
173.7528390167712
 30
0.0
 10
96.55776423112185
 20
173.9413754635366
 30
0.0
 10
96.7056024139306
 20
174.0598359610369
 30
0.0
  0
LINE
  5
D7
330
1F
100
AcDbEntity
  8
0
  6
Continuous
 62
     7
370
    15
100
AcDbLine
 10
152.8773102229
 20
184.1869661118
 30
0.0
 11
152.8224508529
 21
184.5117160584
 31
0.0
  0
LINE
  5
D8
330
1F
100
AcDbEntity
  8
0
  6
Continuous
 62
     7
370
    15
100
AcDbLine
 10
148.8522435789
 20
184.2256048228
 30
0.0
 11
148.9702645009
 21
183.5269579198
 31
0.0
  0
LINE
  5
D9
330
1F
100
AcDbEntity
  8
0
  6
Continuous
 62
     7
370
    15
100
AcDbLine
 10
91.4260733192
 20
182.9372176434
 30
0.0
 11
91.2010061806
 21
183.1763514783
 31
0.0
  0
LINE
  5
DA
330
1F
100
AcDbEntity
  8
0
  6
Continuous
 62
     7
370
    15
100
AcDbLine
 10
88.3155751293
 20
180.4606744553
 30
0.0
 11
88.540642268
 21
180.2215406205
 31
0.0
  0
LINE
  5
DB
330
1F
100
AcDbEntity
  8
0
  6
Continuous
 62
     7
370
    15
100
AcDbLine
 10
60.846869952
 20
139.9477106984
 30
0.0
 11
60.462199456
 21
140.0908579584
 31
0.0
  0
LINE
  5
DC
330
1F
100
AcDbEntity
  8
0
  6
Continuous
 62
     7
370
    15
100
AcDbLine
 10
59.3354868954
 20
136.2822774332
 30
0.0
 11
59.4649362629
 21
136.2341062631
 31
0.0
  0
LINE
  5
DD
330
1F
100
AcDbEntity
  8
0
  6
Continuous
 62
     7
370
    15
100
AcDbLine
 10
101.6649532383
 20
79.686568072
 30
0.0
 11
101.205246455
 21
79.4953206088
 31
0.0
  0
LINE
  5
DE
330
1F
100
AcDbEntity
  8
0
  6
Continuous
 62
     7
370
    15
100
AcDbLine
 10
103.0554908579
 20
75.973449042
 30
0.0
 11
103.186936981
 21
76.0281303431
 31
0.0
  0
LINE
  5
DF
330
1F
100
AcDbEntity
  8
0
  6
Continuous
 62
     7
370
    15
100
AcDbLine
 10
168.6790990894
 20
111.4609101321
 30
0.0
 11
168.8110578125
 21
111.5240999963
 31
0.0
  0
LINE
  5
E0
330
1F
100
AcDbEntity
  8
0
  6
Continuous
 62
     7
370
    15
100
AcDbLine
 10
167.3701065843
 20
115.2273648884
 30
0.0
 11
166.9677320187
 21
115.0346794631
 31
0.0
  0
CIRCLE
  5
E1
330
1F
100
AcDbEntity
  8
0
  6
Continuous
 62
     7
370
    15
100
AcDbCircle
 10
186.2922226377
 20
89.4996298447
 30
0.0
 40
0.9083426285184828
  0
ARC
  5
E2
330
1F
100
AcDbEntity
  8
0
  6
Continuous
 62
     7
370
    15
100
AcDbCircle
 10
161.4576471379
 20
102.3014836069
 30
0.0
 40
30.48000000000077
100
AcDbArc
 50
239.6103848166
 51
38.9844241158
  0
ARC
  5
E3
330
1F
100
AcDbEntity
  8
0
  6
Continuous
 62
     7
370
    15
100
AcDbCircle
 10
161.4576471379
 20
102.3014836069
 30
0.0
 40
25.40000000000214
100
AcDbArc
 50
239.6103848166
 51
38.3063949329
  0
ARC
  5
E4
330
1F
100
AcDbEntity
  8
0
  6
Continuous
 62
     7
370
    15
100
AcDbCircle
 10
152.4653330359
 20
153.53279257
 30
0.0
 40
45.78095999999994
100
AcDbArc
 50
309.1821866323
 51
315.556535131
  0
LINE
  5
E5
330
1F
100
AcDbEntity
  8
0
  6
Continuous
 62
     7
370
    15
100
AcDbLine
 10
148.6083603715
 20
80.39130955
 30
0.0
 11
146.0385031318
 21
76.0092714335
 31
0.0
  0
LINE
  5
E6
330
1F
100
AcDbEntity
  8
0
  6
Continuous
 62
     7
370
    15
100
AcDbLine
 10
187.0784866875
 20
89.4005694892
 30
0.0
 11
185.505958206
 21
89.4005694892
 31
0.0
  0
ARC
  5
E7
330
1F
100
AcDbEntity
  8
0
  6
Continuous
 62
     7
370
    15
100
AcDbCircle
 10
186.2922226377
 20
89.4996298447
 30
0.0
 40
0.7924800000000144
100
AcDbArc
 50
187.1807557815
 51
352.8192442185
  0
LINE
  5
E8
330
1F
100
AcDbEntity
  8
0
  6
Continuous
 62
     7
370
    15
100
AcDbLine
 10
185.505958206
 20
89.5986893679
 30
0.0
 11
187.0784866875
 21
89.5986893679
 31
0.0
  0
ARC
  5
E9
330
1F
100
AcDbEntity
  8
0
  6
Continuous
 62
     7
370
    15
100
AcDbCircle
 10
186.2922226377
 20
89.4996298447
 30
0.0
 40
0.7924799999999969
100
AcDbArc
 50
7.1807557815
 51
172.8192442185
  0
ARC
  5
EA
330
1F
100
AcDbEntity
  8
0
  6
Continuous
 62
     7
370
    15
100
AcDbCircle
 10
67.7604655611
 20
164.7608267548
 30
0.0
 40
25.39999999999998
100
AcDbArc
 50
37.2640819446
 51
253.5198868025
  0
LINE
  5
EB
330
1F
100
AcDbEntity
  8
0
  6
Continuous
 62
     7
370
    15
100
AcDbLine
 10
60.5549264019
 20
140.404303139
 30
0.0
 11
59.1138231819
 21
135.532998247
 31
0.0
  0
ARC
  5
EC
330
1F
100
AcDbEntity
  8
0
  6
Continuous
 62
     7
370
    15
100
AcDbCircle
 10
43.4057782162
 20
178.4536382068
 30
0.0
 40
0.7670800000000131
100
AcDbArc
 50
172.5801545265
 51
187.4198454734
  0
LINE
  5
ED
330
1F
100
AcDbEntity
  8
0
  6
Continuous
 62
     7
370
    15
100
AcDbLine
 10
44.1664326256
 20
178.3545771148
 30
0.0
 11
42.6451253956
 21
178.3545771148
 31
0.0
  0
ARC
  5
EE
330
1F
100
AcDbEntity
  8
0
  6
Continuous
 62
     7
370
    15
100
AcDbCircle
 10
43.4057782162
 20
178.4536382068
 30
0.0
 40
0.7670800000000303
100
AcDbArc
 50
352.5801545266
 51
7.4198454735
  0
LINE
  5
EF
330
1F
100
AcDbEntity
  8
0
  6
Continuous
 62
     7
370
    15
100
AcDbLine
 10
42.6451253956
 20
178.5526969935
 30
0.0
 11
44.1664326256
 21
178.5526969935
 31
0.0
  0
LINE
  5
F0
330
1F
100
AcDbEntity
  8
0
  6
Continuous
 62
     7
370
    15
100
AcDbLine
 10
91.6913616722
 20
183.6378613021
 30
0.0
 11
87.9751372402
 21
180.1402637269
 31
0.0
  0
ARC
  5
F1
330
1F
100
AcDbEntity
  8
0
  6
Continuous
 62
     7
370
    15
100
AcDbCircle
 10
67.7604655611
 20
164.7608267548
 30
0.0
 40
30.48000000000009
100
AcDbArc
 50
38.2668823278
 51
253.5198868025
  0
CIRCLE
  5
F2
330
1F
100
AcDbEntity
  8
0
  6
Continuous
 62
     7
370
    15
100
AcDbCircle
 10
110.1036303283
 20
219.6318884553
 30
0.0
 40
0.8623299999999858
  0
LINE
  5
F3
330
1F
100
AcDbEntity
  8
0
  6
Continuous
 62
     7
370
    15
100
AcDbLine
 10
110.8898955648
 20
219.5328274276
 30
0.0
 11
109.3173670833
 21
219.5328274276
 31
0.0
  0
ARC
  5
F4
330
1F
100
AcDbEntity
  8
0
  6
Continuous
 62
     7
370
    15
100
AcDbCircle
 10
110.1036303283
 20
219.6318884553
 30
0.0
 40
0.7924800000000285
100
AcDbArc
 50
187.1807557815
 51
352.8192442185
  0
LINE
  5
F5
330
1F
100
AcDbEntity
  8
0
  6
Continuous
 62
     7
370
    15
100
AcDbLine
 10
122.9332926934
 20
53.0978837516
 30
0.0
 11
124.5058211749
 21
53.0978837516
 31
0.0
  0
ARC
  5
F6
330
1F
100
AcDbEntity
  8
0
  6
Continuous
 62
     7
370
    15
100
AcDbCircle
 10
123.7195574163
 20
52.9988253421
 30
0.0
 40
0.7924799999999969
100
AcDbArc
 50
7.1807557815
 51
172.8192442185
  0
ARC
  5
F7
330
1F
100
AcDbEntity
  8
0
  6
Continuous
 62
     7
370
    15
100
AcDbCircle
 10
43.4057782162
 20
178.4536382068
 30
0.0
 40
0.5462811685946936
100
AcDbArc
 50
169.5524594403
 51
190.4475405596
  0
ARC
  5
F8
330
1F
100
AcDbEntity
  8
0
  6
Continuous
 62
     7
370
    15
100
AcDbCircle
 10
110.1036303283
 20
219.6318884553
 30
0.0
 40
0.7924799999999969
100
AcDbArc
 50
7.1807557815
 51
172.8192442185
  0
LINE
  5
F9
330
1F
100
AcDbEntity
  8
0
  6
Continuous
 62
     7
370
    15
100
AcDbLine
 10
109.3173670833
 20
219.7309473063
 30
0.0
 11
110.8898955648
 21
219.7309473063
 31
0.0
  0
ARC
  5
FA
330
1F
100
AcDbEntity
  8
0
  6
Continuous
 62
     7
370
    15
100
AcDbCircle
 10
67.760469252
 20
164.7608230557
 30
0.0
 40
30.54096000000008
100
AcDbArc
 50
68.2251915914
 51
77.7708862082
  0
LINE
  5
FB
330
1F
100
AcDbEntity
  8
0
  6
Continuous
 62
     7
370
    15
100
AcDbLine
 10
148.2072494244
 20
184.1791251208
 30
0.0
 11
153.2741102641
 21
184.5442631747
 31
0.0
  0
ARC
  5
FC
330
1F
100
AcDbEntity
  8
0
  6
Continuous
 62
     7
370
    15
100
AcDbCircle
 10
112.739226858
 20
181.6231574724
 30
0.0
 40
40.64000000000204
100
AcDbArc
 50
4.1218372401
 51
161.3656410293
  0
ARC
  5
FD
330
1F
100
AcDbEntity
  8
0
  6
Continuous
 62
     7
370
    15
100
AcDbCircle
 10
112.739226858
 20
181.6231574724
 30
0.0
 40
35.56000000000434
100
AcDbArc
 50
4.1218372401
 51
161.1323640373
  0
CIRCLE
  5
FE
330
1F
100
AcDbEntity
  8
0
  6
Continuous
 62
     7
370
    15
100
AcDbCircle
 10
44.4925833034
 20
94.5780966446
 30
0.0
 40
0.9083426285184473
  0
ARC
  5
FF
330
1F
100
AcDbEntity
  8
0
  6
Continuous
 62
     7
370
    15
100
AcDbCircle
 10
82.0572049059
 20
115.9429530262
 30
0.0
 40
40.64000000000212
100
AcDbArc
 50
143.2211459522
 51
297.7155365176
  0
ARC
  5
100
330
1F
100
AcDbEntity
  8
0
  6
Continuous
 62
     7
370
    15
100
AcDbCircle
 10
82.0572049059
 20
115.9429530262
 30
0.0
 40
45.71999999999997
100
AcDbArc
 50
142.6967465067
 51
297.7155365176
  0
ARC
  5
101
330
1F
100
AcDbEntity
  8
0
  6
Continuous
 62
     7
370
    15
100
AcDbCircle
 10
67.7604655611
 20
164.7608267548
 30
0.0
 40
30.54096000000007
100
AcDbArc
 50
223.7254532316
 51
233.295506623
  0
LINE
  5
102
330
1F
100
AcDbEntity
  8
0
  6
Continuous
 62
     7
370
    15
100
AcDbLine
 10
103.3207583492
 20
75.4685202147
 30
0.0
 11
100.9581434791
 21
79.9656787421
 31
0.0
  0
ARC
  5
103
330
1F
100
AcDbEntity
  8
0
  6
Continuous
 62
     7
370
    15
100
AcDbCircle
 10
82.0572049059
 20
115.9429530262
 30
0.0
 40
45.78096000000003
100
AcDbArc
 50
277.3775819036
 51
284.1922526253
  0
CIRCLE
  5
104
330
1F
100
AcDbEntity
  8
0
  6
Continuous
 62
     7
370
    15
100
AcDbCircle
 10
123.7195574163
 20
52.9988253421
 30
0.0
 40
0.8407399999999967
  0
ARC
  5
105
330
1F
100
AcDbEntity
  8
0
  6
Continuous
 62
     7
370
    15
100
AcDbCircle
 10
122.9967306868
 20
91.0919680548
 30
0.0
 40
40.64000000000019
100
AcDbArc
 50
210.3767335117
 51
331.7812713681
  0
ARC
  5
106
330
1F
100
AcDbEntity
  8
0
  6
Continuous
 62
     7
370
    15
100
AcDbCircle
 10
122.9967306868
 20
91.0919680548
 30
0.0
 40
35.56000000000017
100
AcDbArc
 50
213.3181625128
 51
329.0716121053
  0
ARC
  5
107
330
1F
100
AcDbEntity
  8
0
  6
Continuous
 62
     7
370
    15
100
AcDbCircle
 10
161.4576471379
 20
102.3014836069
 30
0.0
 40
30.54096000018999
100
AcDbArc
 50
254.8978192877
 51
265.0203316139
  0
ARC
  5
108
330
1F
100
AcDbEntity
  8
0
  6
Continuous
 62
     7
370
    15
100
AcDbCircle
 10
43.4057782162
 20
178.4536382068
 30
0.0
 40
0.5462811685946936
100
AcDbArc
 50
349.5524594404
 51
10.4475405597
  0
LINE
  5
109
330
1F
100
AcDbEntity
  8
0
  6
Continuous
 62
     7
370
    15
100
AcDbLine
 10
124.5058211749
 20
52.8997638728
 30
0.0
 11
122.9332926934
 21
52.8997638728
 31
0.0
  0
ARC
  5
10A
330
1F
100
AcDbEntity
  8
0
  6
Continuous
 62
     7
370
    15
100
AcDbCircle
 10
123.7195574163
 20
52.9988253421
 30
0.0
 40
0.7924800000000276
100
AcDbArc
 50
187.1807557815
 51
352.8192442185
  0
ARC
  5
10B
330
1F
100
AcDbEntity
  8
0
  6
Continuous
 62
     7
370
    15
100
AcDbCircle
 10
152.4653330359
 20
153.53279257
 30
0.0
 40
45.71999999999934
100
AcDbArc
 50
291.2611820498
 51
93.7552809819
  0
LINE
  5
10C
330
1F
100
AcDbEntity
  8
0
  6
Continuous
 62
     7
370
    15
100
AcDbLine
 10
167.2022062605
 20
115.6588682439
 30
0.0
 11
169.0443146294
 21
110.9246262814
 31
0.0
  0
ARC
  5
10D
330
1F
100
AcDbEntity
  8
0
  6
Continuous
 62
     7
370
    15
100
AcDbCircle
 10
152.4653330359
 20
153.53279257
 30
0.0
 40
40.63999999999665
100
AcDbArc
 50
291.2611820498
 51
91.4159045832
  0
ARC
  5
10E
330
1F
100
AcDbEntity
  8
0
  6
Continuous
 62
     7
370
    15
100
AcDbCircle
 10
112.7392231672
 20
181.6231611715
 30
0.0
 40
40.70096000000203
100
AcDbArc
 50
17.9407060921
 51
25.5144287027
  0
LINE
  5
10F
330
1F
100
AcDbEntity
  8
0
  6
Continuous
 62
     7
370
    15
100
AcDbLine
 10
45.3068840568
 20
94.5010432507
 30
0.0
 11
43.7343525951
 21
94.5010432507
 31
0.0
  0
ARC
  5
110
330
1F
100
AcDbEntity
  8
0
  6
Continuous
 62
     7
370
    15
100
AcDbCircle
 10
44.5206184772
 20
94.600104143
 30
0.0
 40
0.7924800000000303
100
AcDbArc
 50
187.1807557815
 51
352.8192442185
  0
LINE
  5
111
330
1F
100
AcDbEntity
  8
0
  6
Continuous
 62
     7
370
    15
100
AcDbLine
 10
43.7343525951
 20
94.6991631295
 30
0.0
 11
45.3068840568
 21
94.6991631295
 31
0.0
  0
ARC
  5
112
330
1F
100
AcDbEntity
  8
0
  6
Continuous
 62
     7
370
    15
100
AcDbCircle
 10
44.5206184772
 20
94.600104143
 30
0.0
 40
0.792480000000011
100
AcDbArc
 50
7.1807557815
 51
172.8192442185
  0
CIRCLE
  5
113
330
1F
100
AcDbEntity
  8
0
  6
Continuous
 62
     7
370
    15
100
AcDbCircle
 10
123.718655528
 20
60.6664462339
 30
0.0
 40
5.003799999999998
  0
CIRCLE
  5
114
330
1F
100
AcDbEntity
  8
0
  6
Continuous
 62
     7
370
    15
100
AcDbCircle
 10
112.7392270367
 20
204.4831641875
 30
0.0
 40
12.62379999999999
  0
ARC
  5
115
330
1F
100
AcDbEntity
  8
0
  6
Continuous
 62
     7
370
    15
100
AcDbCircle
 10
186.2922226377
 20
89.4996298447
 30
0.0
 40
0.5716811685946718
100
AcDbArc
 50
350.0215126443
 51
9.9784873557
  0
ARC
  5
116
330
1F
100
AcDbEntity
  8
0
  6
Continuous
 62
     7
370
    15
100
AcDbCircle
 10
186.2922226377
 20
89.4996298447
 30
0.0
 40
0.5716811685946973
100
AcDbArc
 50
170.0215126443
 51
189.9784873557
  0
ARC
  5
117
330
1F
100
AcDbEntity
  8
0
  6
Continuous
 62
     7
370
    15
100
AcDbCircle
 10
110.1036303283
 20
219.6318884553
 30
0.0
 40
0.5716811685946973
100
AcDbArc
 50
350.0215126443
 51
9.9784873557
  0
ARC
  5
118
330
1F
100
AcDbEntity
  8
0
  6
Continuous
 62
     7
370
    15
100
AcDbCircle
 10
110.1036303283
 20
219.6318884553
 30
0.0
 40
0.5716811685946784
100
AcDbArc
 50
170.0215126443
 51
189.9784873557
  0
ARC
  5
119
330
1F
100
AcDbEntity
  8
0
  6
Continuous
 62
     7
370
    15
100
AcDbCircle
 10
123.7195574163
 20
52.9988253421
 30
0.0
 40
0.5716811685946998
100
AcDbArc
 50
350.0215126443
 51
9.9784873557
  0
ARC
  5
11A
330
1F
100
AcDbEntity
  8
0
  6
Continuous
 62
     7
370
    15
100
AcDbCircle
 10
123.7195574163
 20
52.9988253421
 30
0.0
 40
0.5716811685946809
100
AcDbArc
 50
170.0215126443
 51
189.9784873557
  0
ARC
  5
11B
330
1F
100
AcDbEntity
  8
0
  6
Continuous
 62
     7
370
    15
100
AcDbCircle
 10
44.5206184772
 20
94.600104143
 30
0.0
 40
0.5716811685946998
100
AcDbArc
 50
350.0215126443
 51
9.9784873557
  0
ARC
  5
11C
330
1F
100
AcDbEntity
  8
0
  6
Continuous
 62
     7
370
    15
100
AcDbCircle
 10
44.5206184772
 20
94.600104143
 30
0.0
 40
0.5716811685946809
100
AcDbArc
 50
170.0215126443
 51
189.9784873557
  0
LWPOLYLINE
  5
11D
330
1F
100
AcDbEntity
  8
0
  6
Continuous
 62
     7
370
    15
100
AcDbPolyline
 90
       19
 70
   128
 43
0.0
 10
148.9702645009
 20
183.5269579198
 10
148.9774040198
 20
183.5281619336
 10
149.0441567516
 20
183.5394391324
 10
149.1788442498
 20
183.5621902253
 10
149.376598305
 20
183.5955986287
 10
149.6302719479
 20
183.6384513881
 10
149.9306964939
 20
183.6892017628
 10
150.2670142119
 20
183.74601393
 10
150.6270694797
 20
183.8068374898
 10
150.9978483682
 20
183.8694730307
 10
151.3659510081
 20
183.9316555764
 10
151.7180721527
 20
183.9911380317
 10
152.0414862101
 20
184.0457716491
 10
152.3245039647
 20
184.0935805346
 10
152.5568957692
 20
184.1328391339
 10
152.730262584
 20
184.1621258761
 10
152.838339216
 20
184.1803827788
 10
152.8772185808
 20
184.1869482304
 10
152.8773102229
 20
184.1869661118
  0
LWPOLYLINE
  5
11E
330
1F
100
AcDbEntity
  8
0
  6
Continuous
 62
     7
370
    15
100
AcDbPolyline
 90
       19
 70
   128
 43
0.0
 10
88.540642268
 20
180.2215406205
 10
88.545917279
 20
180.2265027072
 10
88.5952162807
 20
180.2728989627
 10
88.6946845119
 20
180.366516998
 10
88.8407278126
 20
180.5039712693
 10
89.0280711716
 20
180.6802907492
 10
89.2499435013
 20
180.8891096618
 10
89.4983220165
 20
181.1228731181
 10
89.7642242973
 20
181.3731381203
 10
90.0380539959
 20
181.6308566834
 10
90.3099048202
 20
181.8867155816
 10
90.5699539249
 20
182.131464174
 10
90.8088016575
 20
182.3562601115
 10
91.0178172653
 20
182.5529763009
 10
91.1894428795
 20
182.7145078685
 10
91.3174736565
 20
182.8350105788
 10
91.3972902363
 20
182.9101303126
 10
91.4260077541
 20
182.9371550586
 10
91.4260733192
 20
182.9372176434
  0
LINE
  5
11F
330
1F
100
AcDbEntity
  8
0
  6
Continuous
 62
     7
370
    15
100
AcDbLine
 10
60.8430731361
 20
139.9375080596
 30
0.0
 11
60.846869952
 21
139.9477106984
 31
0.0
  0
LWPOLYLINE
  5
120
330
1F
100
AcDbEntity
  8
0
  6
Continuous
 62
     7
370
    15
100
AcDbPolyline
 90
       17
 70
   128
 43
0.0
 10
59.4649362629
 20
136.2341062631
 10
59.4761836594
 20
136.2643451895
 10
59.5119762485
 20
136.3605141174
 10
59.5710325306
 20
136.5192237775
 10
59.6512305801
 20
136.7347384337
 10
59.7496736114
 20
136.9992685038
 10
59.8627913063
 20
137.3032533097
 10
59.986506707
 20
137.635705946
 10
60.1163435047
 20
137.9846108728
 10
60.2476108139
 20
138.3373576449
 10
60.3755641048
 20
138.6811971198
 10
60.4955780571
 20
139.0037020202
 10
60.6033134525
 20
139.2932161223
 10
60.6948840683
 20
139.5392758306
 10
60.7669699257
 20
139.7329875733
 10
60.8169663017
 20
139.8673504125
 10
60.8430731361
 20
139.9375080596
  0
LINE
  5
121
330
1F
100
AcDbEntity
  8
0
  6
Continuous
 62
     7
370
    15
100
AcDbLine
 10
101.6691345041
 20
79.6765187289
 30
0.0
 11
101.6649532383
 21
79.686568072
 31
0.0
  0
LWPOLYLINE
  5
122
330
1F
100
AcDbEntity
  8
0
  6
Continuous
 62
     7
370
    15
100
AcDbPolyline
 90
       17
 70
   128
 43
0.0
 10
103.186936981
 20
76.0281303431
 10
103.1745451754
 20
76.0579207446
 10
103.135131604
 20
76.1526623275
 10
103.0700850552
 20
76.3090112712
 10
102.9817599123
 20
76.5213289763
 10
102.8733420437
 20
76.7819264437
 10
102.7487593954
 20
77.0813980605
 10
102.6125061577
 20
77.4089077021
 10
102.4695086544
 20
77.7526298072
 10
102.3249405687
 20
78.1001368071
 10
102.1840202873
 20
78.4388700034
 10
102.0518440073
 20
78.7565866019
 10
101.9331890409
 20
79.0418007876
 10
101.8323439424
 20
79.284200957
 10
101.7529535358
 20
79.4750371482
 10
101.6978877848
 20
79.6074011828
 10
101.6691345041
 20
79.6765187289
  0
LWPOLYLINE
  5
123
330
1F
100
AcDbEntity
  8
0
  6
Continuous
 62
     7
370
    15
100
AcDbPolyline
 90
       19
 70
   128
 43
0.0
 10
166.9677320187
 20
115.0346794631
 10
166.9708597725
 20
115.0281497742
 10
167.000098831
 20
114.9670907761
 10
167.0590940183
 20
114.8438924457
 10
167.1457144683
 20
114.66300725
 10
167.2568294471
 20
114.4309708382
 10
167.3884216016
 20
114.1561740543
 10
167.5357359713
 20
113.8485440518
 10
167.6934483712
 20
113.5192015673
 10
167.8558576172
 20
113.1800511386
 10
168.0170941418
 20
112.8433474805
 10
168.1713301008
 20
112.5212618615
 10
168.3129924601
 20
112.2254350688
 10
168.4369611805
 20
111.9665601756
 10
168.5387510126
 20
111.7539921309
 10
168.6146903103
 20
111.5954139735
 10
168.6620312994
 20
111.4965566899
 10
168.6790603464
 20
111.4609935786
 10
168.6790990894
 20
111.4609101321
  0
ARC
  5
124
330
1F
100
AcDbEntity
  8
0
  6
Continuous
 62
     7
370
    15
100
AcDbCircle
 10
122.9967306868
 20
91.0919680548
 30
0.0
 40
40.64000000000025
100
AcDbArc
 50
210.2833893684
 51
210.3767335117
  0
ARC
  5
125
330
1F
100
AcDbEntity
  8
0
  6
Continuous
 62
     7
370
    15
100
AcDbCircle
 10
122.9967306868
 20
91.0919680548
 30
0.0
 40
35.56000000000014
100
AcDbArc
 50
213.2142270288
 51
213.3181625128
  0
ARC
  5
126
330
1F
100
AcDbEntity
  8
0
  6
Continuous
 62
     7
370
    15
100
AcDbCircle
 10
161.4576471379
 20
102.3014836069
 30
0.0
 40
30.4800000000006
100
AcDbArc
 50
38.9844241158
 51
39.0997613897
  0
ARC
  5
127
330
1F
100
AcDbEntity
  8
0
  6
Continuous
 62
     7
370
    15
100
AcDbCircle
 10
161.4576471379
 20
102.3014836069
 30
0.0
 40
25.40000000000108
100
AcDbArc
 50
38.3063949329
 51
38.4439184968
  0
ARC
  5
128
330
1F
100
AcDbEntity
  8
0
  6
Continuous
 62
     7
370
    15
100
AcDbCircle
 10
82.0572049059
 20
115.9429530262
 30
0.0
 40
45.71999999999996
100
AcDbArc
 50
142.6194123013
 51
142.6967465067
  0
ARC
  5
129
330
1F
100
AcDbEntity
  8
0
  6
Continuous
 62
     7
370
    15
100
AcDbCircle
 10
82.0572049059
 20
115.9429530262
 30
0.0
 40
40.64000000000213
100
AcDbArc
 50
143.1352020943
 51
143.2211459522
  0
LWPOLYLINE
  5
12A
330
1F
100
AcDbEntity
  8
0
  6
Continuous
 62
     7
370
    15
100
AcDbPolyline
 90
        3
 70
   128
 43
0.0
 10
158.806623823
 20
71.8757966067
 10
158.8282424276
 20
71.9161429908
 10
158.8379401033
 20
71.9342747237
  0
LINE
  5
12B
330
1F
100
AcDbEntity
  8
0
  6
Continuous
 62
     7
370
    15
100
AcDbLine
 10
153.5004670983
 20
72.8153267409
 30
0.0
 11
153.5329791968
 21
72.8696980979
 31
0.0
  0
ARC
  5
12C
330
1F
100
AcDbEntity
  8
0
  6
Continuous
 62
     7
370
    15
100
AcDbCircle
 10
112.739226858
 20
181.6231574724
 30
0.0
 40
40.64000000000204
100
AcDbArc
 50
161.3656410293
 51
161.4521143151
  0
ARC
  5
12D
330
1F
100
AcDbEntity
  8
0
  6
Continuous
 62
     7
370
    15
100
AcDbCircle
 10
112.739226858
 20
181.6231574724
 30
0.0
 40
35.56000000000437
100
AcDbArc
 50
161.1323640373
 51
161.2307132106
  0
LWPOLYLINE
  5
12E
330
1F
100
AcDbEntity
  8
0
  6
Continuous
 62
     7
370
    15
100
AcDbPolyline
 90
        3
 70
   128
 43
0.0
 10
149.4708973234
 20
199.1546252276
 10
149.4318026369
 20
199.1520443465
 10
149.4054186409
 20
199.150280049
  0
LWPOLYLINE
  5
12F
330
1F
100
AcDbEntity
  8
0
  6
Continuous
 62
     7
370
    15
100
AcDbPolyline
 90
        3
 70
   128
 43
0.0
 10
151.4611314302
 20
194.1603818442
 10
151.4118525451
 20
194.1591361071
 10
151.3975794678
 20
194.1587605979
  0
LINE
  5
130
330
1F
100
AcDbEntity
  8
0
  6
Continuous
 62
     7
370
    15
100
AcDbLine
 10
50.845073468
 20
139.4053548108
 30
0.0
 11
50.8417952125
 21
139.3965366762
 31
0.0
  0
LINE
  5
131
330
1F
100
AcDbEntity
  8
0
  6
Continuous
 62
     7
370
    15
100
AcDbLine
 10
50.8417952125
 20
139.3965366762
 30
0.0
 11
50.651352412
 21
139.4674053881
 31
0.0
  0
LINE
  5
132
330
1F
100
AcDbEntity
  8
0
  6
Continuous
 62
     7
370
    15
100
AcDbLine
 10
50.6716358726
 20
139.521920355
 30
0.0
 11
50.651352412
 21
139.4674053881
 31
0.0
  0
LINE
  5
133
330
1F
100
AcDbEntity
  8
0
  6
Continuous
 62
     7
370
    15
100
AcDbLine
 10
122.4486562674
 20
55.7477572467
 30
0.0
 11
122.4486562674
 21
55.53619056
 31
0.0
  0
ARC
  5
134
330
1F
100
AcDbEntity
  8
0
  6
Continuous
 62
     7
370
    15
100
AcDbCircle
 10
123.718655528
 20
60.6664462339
 30
0.0
 40
5.08000000000001
100
AcDbArc
 50
284.4775121859
 51
255.5224878141
  0
LINE
  5
135
330
1F
100
AcDbEntity
  8
0
  6
Continuous
 62
     7
370
    15
100
AcDbLine
 10
124.9886560505
 20
55.5878022219
 30
0.0
 11
124.9886560505
 21
55.7477572467
 31
0.0
  0
LINE
  5
136
330
1F
100
AcDbEntity
  8
0
  6
Continuous
 62
     7
370
    15
100
AcDbLine
 10
114.0092271631
 20
217.0429208781
 30
0.0
 11
114.0092271631
 21
217.1604731585
 31
0.0
  0
LINE
  5
137
330
1F
100
AcDbEntity
  8
0
  6
Continuous
 62
     7
370
    15
100
AcDbLine
 10
111.4692288702
 20
217.1604731585
 30
0.0
 11
111.4692288702
 21
217.0429208781
 31
0.0
  0
LINE
  5
138
330
1F
100
AcDbEntity
  8
0
  6
Continuous
 62
     7
370
    15
100
AcDbLine
 10
125.3630268639
 20
246.3981445102
 30
0.0
 11
125.3630268639
 21
261.6508447719
 31
0.0
  0
LINE
  5
139
330
1F
100
AcDbEntity
  8
0
  6
Continuous
 62
     7
370
    15
100
AcDbLine
 10
100.1154261892
 20
261.6508447719
 30
0.0
 11
100.1154261892
 21
246.3981445102
 31
0.0
  0
LINE
  5
13A
330
1F
100
AcDbEntity
  8
0
  6
Continuous
 62
     7
370
    15
100
AcDbLine
 10
198.1853354042
 20
241.3181445716
 30
0.0
 11
198.1853354042
 21
246.3981445102
 31
0.0
  0
LINE
  5
13B
330
1F
100
AcDbEntity
  8
0
  6
Continuous
 62
     7
370
    15
100
AcDbLine
 10
37.2804689472
 20
246.3981445102
 30
0.0
 11
37.2804689472
 21
241.3181445716
 31
0.0
  0
SPLINE
  5
13C
330
1F
100
AcDbEntity
  8
0
  6
Continuous
 62
     7
370
    15
100
AcDbSpline
210
0.0
220
0.0
230
1.0
 70
     8
 71
     3
 72
    20
 73
    16
 74
     0
 42
0.000000001
 43
0.00000001
 40
0.0
 40
0.0
 40
0.0
 40
0.0
 40
0.0973850571872005
 40
0.1380381177457643
 40
0.2059160419371408
 40
0.2776028883616731
 40
0.355560678683354
 40
0.4379682393622952
 40
0.5238928906717617
 40
0.6125120927470108
 40
0.7031734951569495
 40
0.795372506579593
 40
0.8887316345813149
 40
0.9829754040395738
 40
1.0
 40
1.0
 40
1.0
 40
1.0
 10
152.1569180553338
 20
249.031952504592
 30
0.0
 10
151.96401908865
 20
249.0418101745678
 30
0.0
 10
151.6905951050818
 20
249.0557828953128
 30
0.0
 10
151.2829959924205
 20
249.0330561936905
 30
0.0
 10
150.9279254671826
 20
248.9928560872123
 30
0.0
 10
150.5045285368901
 20
248.9099183284827
 30
0.0
 10
150.0618769888246
 20
248.7836180423795
 30
0.0
 10
149.6061220303553
 20
248.607349527928
 30
0.0
 10
149.150308866717
 20
248.3789125404437
 30
0.0
 10
148.705345565413
 20
248.0977821258943
 30
0.0
 10
148.2817356311564
 20
247.7650317402678
 30
0.0
 10
147.8868357858108
 20
247.3842685781638
 30
0.0
 10
147.5343490311002
 20
246.9561807772027
 30
0.0
 10
147.2981439192299
 20
246.6242041342209
 30
0.0
 10
147.1972595726925
 20
246.4281428337
 30
0.0
 10
147.1818237816474
 20
246.3981445101668
 30
0.0
  0
SPLINE
  5
13D
330
1F
100
AcDbEntity
  8
0
  6
Continuous
 62
     7
370
    15
100
AcDbSpline
210
0.0
220
0.0
230
1.0
 70
     8
 71
     3
 72
    31
 73
    27
 74
     0
 42
0.000000001
 43
0.00000001
 40
0.0
 40
0.0
 40
0.0
 40
0.0
 40
0.0315872513000596
 40
0.0846239906115853
 40
0.132911659549886
 40
0.1810956875705252
 40
0.2290670564276306
 40
0.2765667587847324
 40
0.3228417121945378
 40
0.3648424683830486
 40
0.3937874886191784
 40
0.4254490323112451
 40
0.4621533061147382
 40
0.513600166400642
 40
0.5350764550722582
 40
0.5709351586327017
 40
0.6088059729350339
 40
0.6499897503676424
 40
0.6935241488143784
 40
0.7389166578653441
 40
0.7857326234682572
 40
0.8336273829963329
 40
0.8823345511161692
 40
0.9316544072118902
 40
0.9814417692706916
 40
1.0
 40
1.0
 40
1.0
 40
1.0
 10
147.132903641977
 20
241.3181445715595
 30
0.0
 10
147.1886886599584
 20
241.2135442647262
 30
0.0
 10
147.3381398038098
 20
240.9333142662577
 30
0.0
 10
147.6354867437165
 20
240.5307448386111
 30
0.0
 10
148.0083589362894
 20
240.1113323146272
 30
0.0
 10
148.4107370379375
 20
239.7469687189888
 30
0.0
 10
148.8455710115711
 20
239.4274215959371
 30
0.0
 10
149.3047899709696
 20
239.1578113570876
 30
0.0
 10
149.7683242842122
 20
238.9450969557032
 30
0.0
 10
150.184017171332
 20
238.8002123204366
 30
0.0
 10
150.556175056948
 20
238.7015349818008
 30
0.0
 10
150.9145412378193
 20
238.6310898884063
 30
0.0
 10
151.3610000675224
 20
238.5769398587382
 30
0.0
 10
151.7729638657533
 20
238.5662393983669
 30
0.0
 10
152.1804412426644
 20
238.5875955179269
 30
0.0
 10
152.5355495190848
 20
238.6282236981382
 30
0.0
 10
152.9589338073826
 20
238.7110195887967
 30
0.0
 10
153.4015894049396
 20
238.8373614755415
 30
0.0
 10
153.8573417335437
 20
239.0136196705367
 30
0.0
 10
154.3131606310904
 20
239.2420561491565
 30
0.0
 10
154.7581051663598
 20
239.5231967199906
 30
0.0
 10
155.1817858845646
 20
239.8559074886764
 30
0.0
 10
155.5764159028575
 20
240.2368222635843
 30
0.0
 10
155.9299285396002
 20
240.6643317548216
 30
0.0
 10
156.183968042098
 20
241.0274090189515
 30
0.0
 10
156.3000515016155
 20
241.256058264558
 30
0.0
 10
156.3315722411058
 20
241.3181445715595
 30
0.0
  0
SPLINE
  5
13E
330
1F
100
AcDbEntity
  8
0
  6
Continuous
 62
     7
370
    15
100
AcDbSpline
210
0.0
220
0.0
230
1.0
 70
     8
 71
     3
 72
    18
 73
    14
 74
     0
 42
0.000000001
 43
0.00000001
 40
0.0
 40
0.0
 40
0.0
 40
0.0
 40
0.0483793789482545
 40
0.1655992850971007
 40
0.2723227304940327
 40
0.3788171076587369
 40
0.484841582121714
 40
0.5898235974267371
 40
0.6920987197124473
 40
0.784927313897871
 40
0.8489005031512782
 40
0.9188774715778432
 40
1.0
 40
1.0
 40
1.0
 40
1.0
 10
156.2774765556237
 20
246.3981445101668
 30
0.0
 10
156.2385518525899
 20
246.4704712106015
 30
0.0
 10
156.1053152725605
 20
246.7180405293032
 30
0.0
 10
155.8274350577383
 20
247.0899000102606
 30
0.0
 10
155.45524514141
 20
247.5097214015604
 30
0.0
 10
155.052691447125
 20
247.873980475097
 30
0.0
 10
154.6179041226049
 20
248.1935518342599
 30
0.0
 10
154.1586739898138
 20
248.4631681076947
 30
0.0
 10
153.6951384672614
 20
248.6758372288699
 30
0.0
 10
153.279457266727
 20
248.8208653760693
 30
0.0
 10
152.9072655427696
 20
248.9191595642483
 30
0.0
 10
152.549033615938
 20
248.9911141993096
 30
0.0
 10
152.2938964736073
 20
249.0176863875985
 30
0.0
 10
152.1569180553338
 20
249.031952504592
 30
0.0
  0
SPLINE
  5
13F
330
1F
100
AcDbEntity
  8
0
  6
Continuous
 62
     7
370
    15
100
AcDbSpline
210
0.0
220
0.0
230
1.0
 70
     8
 71
     3
 72
    23
 73
    19
 74
     0
 42
0.000000001
 43
0.00000001
 40
0.0
 40
0.0
 40
0.0
 40
0.0
 40
0.077428440670923
 40
0.1091016952613828
 40
0.1623714571553112
 40
0.2190314466322634
 40
0.2808251326094336
 40
0.3461712349415363
 40
0.4141235179707289
 40
0.4839039946679337
 40
0.554948197460119
 40
0.6268672353744291
 40
0.6994001606874307
 40
0.7723750165812339
 40
0.8456777206654102
 40
0.9192345197349306
 40
0.992998611704485
 40
1.0
 40
1.0
 40
1.0
 40
1.0
 10
95.45221210173577
 20
248.6222838205863
 30
0.0
 10
95.26668133973074
 20
248.6986365459627
 30
0.0
 10
95.00525646170802
 20
248.8062224885983
 30
0.0
 10
94.6011159014841
 20
248.9224485448258
 30
0.0
 10
94.24330193330638
 20
249.0031081287158
 30
0.0
 10
93.80260531633712
 20
249.0646220421057
 30
0.0
 10
93.32690499012392
 20
249.0890488110765
 30
0.0
 10
92.82168198976426
 20
249.0672819816679
 30
0.0
 10
92.30051431989152
 20
248.992856374287
 30
0.0
 10
91.77526509940482
 20
248.8621129696311
 30
0.0
 10
91.25679348192708
 20
248.6738257209121
 30
0.0
 10
90.75474373410691
 20
248.428588217052
 30
0.0
 10
90.277421025261
 20
248.1284704429477
 30
0.0
 10
89.83277535115124
 20
247.7762689660449
 30
0.0
 10
89.42539805009233
 20
247.3769125700701
 30
0.0
 10
89.06840764065764
 20
246.9311618720091
 30
0.0
 10
88.83879533689249
 20
246.6015860117591
 30
0.0
 10
88.74577120901093
 20
246.4143735607348
 30
0.0
 10
88.73770714453667
 20
246.3981445101668
 30
0.0
  0
SPLINE
  5
140
330
1F
100
AcDbEntity
  8
0
  6
Continuous
 62
     7
370
    15
100
AcDbSpline
210
0.0
220
0.0
230
1.0
 70
     8
 71
     3
 72
    31
 73
    27
 74
     0
 42
0.000000001
 43
0.00000001
 40
0.0
 40
0.0
 40
0.0
 40
0.0
 40
0.0377698687378075
 40
0.0861609857328337
 40
0.1340983883312983
 40
0.1805849913168542
 40
0.2177707351137101
 40
0.247898446490799
 40
0.2847941963695965
 40
0.3024621258609779
 40
0.3562300881023029
 40
0.3782243144901707
 40
0.4152158030692487
 40
0.4545615225386917
 40
0.4974721802677308
 40
0.5428499663649327
 40
0.5900372591421468
 40
0.6384938288003309
 40
0.6878282228099994
 40
0.7377703463307141
 40
0.7881385248794684
 40
0.8388135673639427
 40
0.8897162942495008
 40
0.9407953008321799
 40
0.992018568778952
 40
0.9999999999999999
 40
0.9999999999999999
 40
0.9999999999999999
 40
0.9999999999999999
 10
88.72288942984552
 20
241.3181445715595
 30
0.0
 10
88.79200099116927
 20
241.1953926953318
 30
0.0
 10
88.94965894572893
 20
240.9153699414866
 30
0.0
 10
89.25108108950388
 20
240.5148495757488
 30
0.0
 10
89.60879566026665
 20
240.1198922304722
 30
0.0
 10
89.97470380915078
 20
239.7918569801475
 30
0.0
 10
90.31462906348472
 20
239.5375332927272
 30
0.0
 10
90.64172976077994
 20
239.3277069142125
 30
0.0
 10
90.91923998800462
 20
239.1765319677114
 30
0.0
 10
91.28444016289615
 20
239.0043251054344
 30
0.0
 10
91.61070024542589
 20
238.8799094176404
 30
0.0
 10
92.01422488059198
 20
238.76236830007
 30
0.0
 10
92.3722298362872
 20
238.6821186334489
 30
0.0
 10
92.81286244188242
 20
238.6204686801044
 30
0.0
 10
93.2885829662712
 20
238.5960820325899
 30
0.0
 10
93.7938012860749
 20
238.6178377380137
 30
0.0
 10
94.31497068602174
 20
238.6922656690247
 30
0.0
 10
94.84021849647672
 20
238.8230089554282
 30
0.0
 10
95.35868920446734
 20
239.0112975666592
 30
0.0
 10
95.86074307849509
 20
239.2565320668207
 30
0.0
 10
96.3380575866962
 20
239.5566555555694
 30
0.0
 10
96.78273581339886
 20
239.9088390282211
 30
0.0
 10
97.18999141112882
 20
240.30826048758
 30
0.0
 10
97.54743614456531
 20
240.7537656330271
 30
0.0
 10
97.7825024127065
 20
241.093601933397
 30
0.0
 10
97.88025541905273
 20
241.2914698455065
 30
0.0
 10
97.89343357733698
 20
241.3181445715595
 30
0.0
  0
SPLINE
  5
141
330
1F
100
AcDbEntity
  8
0
  6
Continuous
 62
     7
370
    15
100
AcDbSpline
210
0.0
220
0.0
230
1.0
 70
     8
 71
     3
 72
    15
 73
    11
 74
     0
 42
0.000000001
 43
0.00000001
 40
0.0
 40
0.0
 40
0.0
 40
0.0
 40
0.1154134981854631
 40
0.2771337801747105
 40
0.4373376484669709
 40
0.592693775916829
 40
0.7169656084532366
 40
0.8176513792297159
 40
0.9409532181431672
 40
1.0
 40
1.0
 40
1.0
 40
1.0
 10
97.87424386195153
 20
246.3981445101668
 30
0.0
 10
97.81095329803007
 20
246.5103207344837
 30
0.0
 10
97.65897841203574
 20
246.7796810916294
 30
0.0
 10
97.3642757385035
 20
247.1701900177141
 30
0.0
 10
97.00672627165399
 20
247.5652584303851
 30
0.0
 10
96.64076191310053
 20
247.8932366130572
 30
0.0
 10
96.3008844091724
 20
248.1476493238898
 30
0.0
 10
95.97366581858356
 20
248.3572242560793
 30
0.0
 10
95.69656725388256
 20
248.5092781161069
 30
0.0
 10
95.51198285630433
 20
248.5946419388091
 30
0.0
 10
95.45221210173577
 20
248.6222838205863
 30
0.0
  0
LINE
  5
142
330
1F
100
AcDbEntity
  8
0
  6
Continuous
 62
     7
370
    15
100
AcDbLine
 10
36.3372016018
 20
246.3981445102
 30
0.0
 11
36.3372016018
 21
241.3181445716
 31
0.0
  0
SPLINE
  5
143
330
1F
100
AcDbEntity
  8
0
  6
Continuous
 62
     7
370
    15
100
AcDbSpline
210
0.0
220
0.0
230
1.0
 70
     8
 71
     3
 72
    13
 73
     9
 74
     0
 42
0.000000001
 43
0.00000001
 40
0.0
 40
0.0
 40
0.0
 40
0.0
 40
0.2336918090163309
 40
0.3423848323184158
 40
0.5276902264816303
 40
0.7297208646188919
 40
0.945100476655265
 40
1.0
 40
1.0
 40
1.0
 40
1.0
 10
67.58583069495172
 20
239.484655965643
 30
0.0
 10
67.74644243057905
 20
239.5978225226607
 30
0.0
 10
67.98175672080859
 20
239.7636242801619
 30
0.0
 10
68.31353712457278
 20
240.0578519039736
 30
0.0
 10
68.6074286383221
 20
240.354006625705
 30
0.0
 10
68.92521697389178
 20
240.7481846573705
 30
0.0
 10
69.15355104671312
 20
241.0746513280548
 30
0.0
 10
69.25644992660607
 20
241.2770358989964
 30
0.0
 10
69.2773509090325
 20
241.3181445715595
 30
0.0
  0
SPLINE
  5
144
330
1F
100
AcDbEntity
  8
0
  6
Continuous
 62
     7
370
    15
100
AcDbSpline
210
0.0
220
0.0
230
1.0
 70
     8
 71
     3
 72
    23
 73
    19
 74
     0
 42
0.000000001
 43
0.00000001
 40
0.0
 40
0.0
 40
0.0
 40
0.0
 40
0.0304731602080351
 40
0.0971857550151171
 40
0.1639220184591791
 40
0.2306847616307497
 40
0.2974776812714809
 40
0.3643097165663712
 40
0.4311959751165099
 40
0.498160062636848
 40
0.5652463655507051
 40
0.6325394274218766
 40
0.7002145908386388
 40
0.7686918959260208
 40
0.8315908232503505
 40
0.89318168609637
 40
0.9354264073045037
 40
1.0
 40
1.0
 40
1.0
 40
1.0
 10
69.27472830466242
 20
246.3981445101668
 30
0.0
 10
69.23369040123596
 20
246.4755808132292
 30
0.0
 10
69.1028113062714
 20
246.7225425831055
 30
0.0
 10
68.82398367262103
 20
247.1047483550074
 30
0.0
 10
68.44537900661392
 20
247.5388549449331
 30
0.0
 10
68.01828879516175
 20
247.9269630198013
 30
0.0
 10
67.55176196595764
 20
248.2665584643412
 30
0.0
 10
67.05024268982963
 20
248.5529070957655
 30
0.0
 10
66.51989762963629
 20
248.782645559962
 30
0.0
 10
65.96678537707224
 20
248.952868247062
 30
0.0
 10
65.39713707638806
 20
249.0613527032377
 30
0.0
 10
64.81694429934373
 20
249.1064247464861
 30
0.0
 10
64.23131063288324
 20
249.0867592316371
 30
0.0
 10
63.66406385273524
 20
249.0034565119377
 30
0.0
 10
63.12615511884302
 20
248.8640999002045
 30
0.0
 10
62.67660568298829
 20
248.6959919324226
 30
0.0
 10
62.23755565008186
 20
248.4906770998898
 30
0.0
 10
61.97604355307401
 20
248.3292304941185
 30
0.0
 10
61.81795478514641
 20
248.2316331160833
 30
0.0
  0
SPLINE
  5
145
330
1F
100
AcDbEntity
  8
0
  6
Continuous
 62
     7
370
    15
100
AcDbSpline
210
0.0
220
0.0
230
1.0
 70
     8
 71
     3
 72
    23
 73
    19
 74
     0
 42
0.000000001
 43
0.00000001
 40
0.0
 40
0.0
 40
0.0
 40
0.0
 40
0.0304734801277667
 40
0.0971856495571563
 40
0.1639223416592609
 40
0.2306850566337564
 40
0.2974779480646676
 40
0.3643099551332174
 40
0.4311955511337007
 40
0.4981596103719265
 40
0.5652465640005979
 40
0.6325395974507158
 40
0.7002147322850445
 40
0.7686913245236658
 40
0.8315908943775385
 40
0.8931817312108136
 40
0.9354264345769965
 40
0.9999999999999999
 40
0.9999999999999999
 40
0.9999999999999999
 40
0.9999999999999999
 10
60.12905121497125
 20
241.3181445715595
 30
0.0
 10
60.17009150579105
 20
241.2407085172961
 30
0.0
 10
60.30097669857562
 20
240.9937504015447
 30
0.0
 10
60.57979350858221
 20
240.6115360245246
 30
0.0
 10
60.95840747164047
 20
240.1774365843203
 30
0.0
 10
61.38549617692217
 20
239.7893256905579
 30
0.0
 10
61.85202357267349
 20
239.4497305394993
 30
0.0
 10
62.3535414783134
 20
239.1633835756799
 30
0.0
 10
62.8838832945425
 20
238.9336422228492
 30
0.0
 10
63.43699604487379
 20
238.763420164371
 30
0.0
 10
64.00664652224944
 20
238.6549368991921
 30
0.0
 10
64.58684113784017
 20
238.6098643732764
 30
0.0
 10
65.172472982419
 20
238.6295292541067
 30
0.0
 10
65.73971928115834
 20
238.7128342123759
 30
0.0
 10
66.27762868193007
 20
238.8521879942101
 30
0.0
 10
66.72717977586636
 20
239.0202972366546
 30
0.0
 10
67.16622983735765
 20
239.2256119516496
 30
0.0
 10
67.42774192979003
 20
239.3870585762346
 30
0.0
 10
67.58583069495172
 20
239.484655965643
 30
0.0
  0
SPLINE
  5
146
330
1F
100
AcDbEntity
  8
0
  6
Continuous
 62
     7
370
    15
100
AcDbSpline
210
0.0
220
0.0
230
1.0
 70
     8
 71
     3
 72
    13
 73
     9
 74
     0
 42
0.000000001
 43
0.00000001
 40
0.0
 40
0.0
 40
0.0
 40
0.0
 40
0.2336915537523036
 40
0.342384458327853
 40
0.5276896500800314
 40
0.7297200675370965
 40
0.9450994443120483
 40
1.0
 40
1.0
 40
1.0
 40
1.0
 10
61.81795478514641
 20
248.2316331160833
 30
0.0
 10
61.65734306269602
 20
248.1184665522025
 30
0.0
 10
61.42202879177216
 20
247.9526647846461
 30
0.0
 10
61.09024828698201
 20
247.6584372134529
 30
0.0
 10
60.79635734330211
 20
247.3622821948057
 30
0.0
 10
60.4785664213831
 20
246.9681055102181
 30
0.0
 10
60.25023958696592
 20
246.6416340394131
 30
0.0
 10
60.14733174486157
 20
246.4392530973881
 30
0.0
 10
60.12642861060113
 20
246.3981445101668
 30
0.0
  0
SPLINE
  5
147
330
1F
100
AcDbEntity
  8
0
  6
Continuous
 62
     7
370
    15
100
AcDbSpline
210
0.0
220
0.0
230
1.0
 70
     8
 71
     3
 72
    13
 73
     9
 74
     0
 42
0.000000001
 43
0.00000001
 40
0.0
 40
0.0
 40
0.0
 40
0.0
 40
0.2205826418610274
 40
0.3205884611304529
 40
0.4912444722751348
 40
0.6778972576508892
 40
0.880219911340171
 40
1.0
 40
1.0
 40
1.0
 40
1.0
 10
160.6313172047517
 20
248.2748617572356
 30
0.0
 10
160.4732594409977
 20
248.1672386146496
 30
0.0
 10
160.2435428376237
 20
248.0108222376736
 30
0.0
 10
159.9195329633137
 20
247.7347448923697
 30
0.0
 10
159.6340289697977
 20
247.4595822988339
 30
0.0
 10
159.318254439006
 20
247.0915105598724
 30
0.0
 10
159.0575770162434
 20
246.7345904950844
 30
0.0
 10
158.9243630999325
 20
246.489344093121
 30
0.0
 10
158.8748249476334
 20
246.3981445101668
 30
0.0
  0
SPLINE
  5
148
330
1F
100
AcDbEntity
  8
0
  6
Continuous
 62
     7
370
    15
100
AcDbSpline
210
0.0
220
0.0
230
1.0
 70
     8
 71
     3
 72
    30
 73
    26
 74
     0
 42
0.000000001
 43
0.00000001
 40
0.0
 40
0.0
 40
0.0
 40
0.0
 40
0.0055386343203216
 40
0.0571482732306657
 40
0.1087884629192374
 40
0.1604608812062209
 40
0.2121704656570345
 40
0.2639266503986729
 40
0.3157455170485794
 40
0.367654620494742
 40
0.4197019766532666
 40
0.4719774229842707
 40
0.5246624877872875
 40
0.5781742583000289
 40
0.6267372222979393
 40
0.674134068272394
 40
0.7056169984996357
 40
0.7402021844755697
 40
0.7668929139643673
 40
0.8183122882884635
 40
0.841624352248792
 40
0.8814054757482286
 40
0.9249155604897007
 40
0.9720784797081288
 40
1.0
 40
1.0
 40
1.0
 40
1.0
 10
158.8702607219598
 20
241.3181445715595
 30
0.0
 10
158.8793707660785
 20
241.2996935884027
 30
0.0
 10
158.973369261074
 20
241.1093141977731
 30
0.0
 10
159.2048714105788
 20
240.7752878611031
 30
0.0
 10
159.564293734013
 20
240.3256647117123
 30
0.0
 10
159.9766194210607
 20
239.9214049548222
 30
0.0
 10
160.4297079362293
 20
239.5636574096063
 30
0.0
 10
160.9202211192622
 20
239.2578230127972
 30
0.0
 10
161.4419645646374
 20
239.0074088473779
 30
0.0
 10
161.9891732114204
 20
238.815651566518
 30
0.0
 10
162.5558607292401
 20
238.6850901777162
 30
0.0
 10
163.1364083115761
 20
238.6177821919038
 30
0.0
 10
163.7263001441711
 20
238.615578903936
 30
0.0
 10
164.299013415139
 20
238.6784219053036
 30
0.0
 10
164.8420538469633
 20
238.7986619658668
 30
0.0
 10
165.292237776947
 20
238.9478604769417
 30
0.0
 10
165.6800500630258
 20
239.1136311456148
 30
0.0
 10
165.986904819111
 20
239.2711372003705
 30
0.0
 10
166.3462231275415
 20
239.4862316698977
 30
0.0
 10
166.6530690806725
 20
239.7064284004036
 30
0.0
 10
166.9778708529813
 20
239.9812304419752
 30
0.0
 10
167.2631104967788
 20
240.2568188803231
 30
0.0
 10
167.5789756582977
 20
240.6247445746554
 30
0.0
 10
167.8396309259707
 20
240.981702529711
 30
0.0
 10
167.9728457051149
 20
241.2269462242352
 30
0.0
 10
168.0223840539834
 20
241.3181445715595
 30
0.0
  0
SPLINE
  5
149
330
1F
100
AcDbEntity
  8
0
  6
Continuous
 62
     7
370
    15
100
AcDbSpline
210
0.0
220
0.0
230
1.0
 70
     8
 71
     3
 72
    24
 73
    20
 74
     0
 42
0.000000001
 43
0.00000001
 40
0.0
 40
0.0
 40
0.0
 40
0.0
 40
0.0072222517555852
 40
0.0745193075363069
 40
0.1418562003992079
 40
0.2092351181596058
 40
0.2766624992197522
 40
0.3441506453314908
 40
0.4117205263277631
 40
0.4794080727609445
 40
0.5472758956055118
 40
0.6154411395788539
 40
0.6841403364952802
 40
0.7539178746859859
 40
0.8172421793322933
 40
0.8790457438006422
 40
0.9200984779566378
 40
0.9651962782697217
 40
1.0
 40
1.0
 40
1.0
 40
1.0
 10
168.0269497697732
 20
246.3981445101668
 30
0.0
 10
168.0178392088016
 20
246.4165954833267
 30
0.0
 10
167.9238362969887
 20
246.6069729154328
 30
0.0
 10
167.6923391284257
 20
246.9410019891788
 30
0.0
 10
167.3329148553193
 20
247.3906241638308
 30
0.0
 10
166.9205896910082
 20
247.7948841824326
 30
0.0
 10
166.4675010362524
 20
248.1526316563822
 30
0.0
 10
165.976987888314
 20
248.4584660762933
 30
0.0
 10
165.4552444423362
 20
248.7088802206269
 30
0.0
 10
164.9080357627128
 20
248.9006375628576
 30
0.0
 10
164.3413483774374
 20
249.0311987263342
 30
0.0
 10
163.7608007886438
 20
249.0985075007055
 30
0.0
 10
163.1709108597336
 20
249.1007076724242
 30
0.0
 10
162.5981906144584
 20
249.0378760587181
 30
0.0
 10
162.0551736863163
 20
248.9175982309538
 30
0.0
 10
161.6049151545232
 20
248.7685194302408
 30
0.0
 10
161.2172994491358
 20
248.602432592816
 30
0.0
 10
160.9097719799283
 20
248.4460089314441
 30
0.0
 10
160.7158056046791
 20
248.3267910189687
 30
0.0
 10
160.6313172047517
 20
248.2748617572356
 30
0.0
  0
SPLINE
  5
14A
330
1F
100
AcDbEntity
  8
0
  6
Continuous
 62
     7
370
    15
100
AcDbSpline
210
0.0
220
0.0
230
1.0
 70
     8
 71
     3
 72
    13
 73
     9
 74
     0
 42
0.000000001
 43
0.00000001
 40
0.0
 40
0.0
 40
0.0
 40
0.0
 40
0.2178932109427036
 40
0.3147565045734759
 40
0.479733660076674
 40
0.6596778524387913
 40
0.8554904047862182
 40
1.0
 40
1.0
 40
1.0
 40
1.0
 10
109.680246121206
 20
239.4152627480794
 30
0.0
 10
109.8403478441662
 20
239.5221408293955
 30
0.0
 10
110.0716219553565
 20
239.6765310058723
 30
0.0
 10
110.3965468658077
 20
239.9483711909831
 30
0.0
 10
110.6801990175732
 20
240.2165137516439
 30
0.0
 10
110.9955639754103
 20
240.5751678874998
 30
0.0
 10
111.2706693390537
 20
240.9444007146369
 30
0.0
 10
111.4172882489261
 20
241.2067459796101
 30
0.0
 10
111.4795464342019
 20
241.3181445715595
 30
0.0
  0
SPLINE
  5
14B
330
1F
100
AcDbEntity
  8
0
  6
Continuous
 62
     7
370
    15
100
AcDbSpline
210
0.0
220
0.0
230
1.0
 70
     8
 71
     3
 72
    23
 73
    19
 74
     0
 42
0.000000001
 43
0.00000001
 40
0.0
 40
0.0
 40
0.0
 40
0.0
 40
0.0648531103329767
 40
0.1325731191378978
 40
0.2003449899855211
 40
0.2681762786733175
 40
0.336081073647335
 40
0.4040847927477829
 40
0.4722292202360576
 40
0.5405890288784048
 40
0.6092997762879409
 40
0.6786352424864874
 40
0.7492160013136542
 40
0.8128036010636671
 40
0.8746732403523013
 40
0.9153911845548399
 40
0.9594725101458352
 40
1.0
 40
1.0
 40
1.0
 40
1.0
 10
102.3240435188195
 20
241.3181445715595
 30
0.0
 10
102.417630761292
 20
241.1598517271958
 30
0.0
 10
102.6089423665857
 20
240.8362685404099
 30
0.0
 10
102.9639423697786
 20
240.3912318940733
 30
0.0
 10
103.3674437758558
 20
239.9790113285544
 30
0.0
 10
103.8152990215209
 20
239.6140231256779
 30
0.0
 10
104.3008148175273
 20
239.2999116651617
 30
0.0
 10
104.8188334055669
 20
239.0408056992538
 30
0.0
 10
105.3634560551951
 20
238.8399291844835
 30
0.0
 10
105.9289078115799
 20
238.7000128172533
 30
0.0
 10
106.5097615155522
 20
238.6232796020751
 30
0.0
 10
107.1018648176768
 20
238.6118419936093
 30
0.0
 10
107.6770646442683
 20
238.6661939051392
 30
0.0
 10
108.2218753993699
 20
238.7784407689066
 30
0.0
 10
108.6717698294756
 20
238.919882457087
 30
0.0
 10
109.0563723784184
 20
239.0775610707531
 30
0.0
 10
109.3759872234923
 20
239.2331500582588
 30
0.0
 10
109.5817067775628
 20
239.356282501129
 30
0.0
 10
109.680246121206
 20
239.4152627480794
 30
0.0
  0
LINE
  5
14C
330
1F
100
AcDbEntity
  8
0
  6
Continuous
 62
     7
370
    15
100
AcDbLine
 10
128.79865498
 20
246.3981445102
 30
0.0
 11
128.79865498
 21
261.6508447719
 31
0.0
  0
LINE
  5
14D
330
1F
100
AcDbEntity
  8
0
  6
Continuous
 62
     7
370
    15
100
AcDbLine
 10
74.2101419037
 20
245.7275846196
 30
0.0
 11
74.2101419037
 21
244.2493045391
 31
0.0
  0
LINE
  5
14E
330
1F
100
AcDbEntity
  8
0
  6
Continuous
 62
     7
370
    15
100
AcDbLine
 10
74.2296981876
 20
245.7275846196
 30
0.0
 11
74.2101419037
 21
245.7275846196
 31
0.0
  0
LINE
  5
14F
330
1F
100
AcDbEntity
  8
0
  6
Continuous
 62
     7
370
    15
100
AcDbLine
 10
74.2296981876
 20
245.7275846196
 30
0.0
 11
74.2296981876
 21
246.3981445102
 31
0.0
  0
LINE
  5
150
330
1F
100
AcDbEntity
  8
0
  6
Continuous
 62
     7
370
    15
100
AcDbLine
 10
149.591775543
 20
246.3981445102
 30
0.0
 11
74.2296981876
 21
246.3981445102
 31
0.0
  0
LINE
  5
151
330
1F
100
AcDbEntity
  8
0
  6
Continuous
 62
     7
370
    15
100
AcDbLine
 10
149.591775543
 20
245.7733045486
 30
0.0
 11
149.3723306125
 21
245.7733045486
 31
0.0
  0
LINE
  5
152
330
1F
100
AcDbEntity
  8
0
  6
Continuous
 62
     7
370
    15
100
AcDbLine
 10
149.3723306125
 20
243.8581445409
 30
0.0
 11
149.3723306125
 21
245.7733045486
 31
0.0
  0
LINE
  5
153
330
1F
100
AcDbEntity
  8
0
  6
Continuous
 62
     7
370
    15
100
AcDbLine
 10
149.3723313575
 20
241.9429845331
 30
0.0
 11
149.3723313575
 21
243.8581445409
 31
0.0
  0
LINE
  5
154
330
1F
100
AcDbEntity
  8
0
  6
Continuous
 62
     7
370
    15
100
AcDbLine
 10
149.4708973234
 20
241.9429845331
 30
0.0
 11
149.3723313575
 21
241.9429845331
 31
0.0
  0
LINE
  5
155
330
1F
100
AcDbEntity
  8
0
  6
Continuous
 62
     7
370
    15
100
AcDbLine
 10
149.4708973234
 20
241.3181445716
 30
0.0
 11
74.2296981876
 21
241.3181445716
 31
0.0
  0
LINE
  5
156
330
1F
100
AcDbEntity
  8
0
  6
Continuous
 62
     7
370
    15
100
AcDbLine
 10
74.2296981876
 20
241.9887044621
 30
0.0
 11
74.2296981876
 21
241.3181445716
 31
0.0
  0
LINE
  5
157
330
1F
100
AcDbEntity
  8
0
  6
Continuous
 62
     7
370
    15
100
AcDbLine
 10
74.2296981876
 20
241.9887044621
 30
0.0
 11
74.2101419037
 21
241.9887044621
 31
0.0
  0
LINE
  5
158
330
1F
100
AcDbEntity
  8
0
  6
Continuous
 62
     7
370
    15
100
AcDbLine
 10
74.2101419037
 20
243.4669845426
 30
0.0
 11
74.2101419037
 21
241.9887044621
 31
0.0
  0
LINE
  5
159
330
1F
100
AcDbEntity
  8
0
  6
Continuous
 62
     7
370
    15
100
AcDbLine
 10
112.8491747444
 20
261.6508447719
 30
0.0
 11
125.3630268639
 21
261.6508447719
 31
0.0
  0
LINE
  5
15A
330
1F
100
AcDbEntity
  8
0
  6
Continuous
 62
     7
370
    15
100
AcDbLine
 10
100.1154261892
 20
261.6508447719
 30
0.0
 11
112.8491747444
 21
261.6508447719
 31
0.0
  0
LINE
  5
15B
330
1F
100
AcDbEntity
  8
0
  6
Continuous
 62
     7
370
    15
100
AcDbLine
 10
198.1853354042
 20
241.3181445716
 30
0.0
 11
149.4708973234
 21
241.3181445716
 31
0.0
  0
LINE
  5
15C
330
1F
100
AcDbEntity
  8
0
  6
Continuous
 62
     7
370
    15
100
AcDbLine
 10
149.4708973234
 20
241.9887044621
 30
0.0
 11
149.4708973234
 21
241.3181445716
 31
0.0
  0
LINE
  5
15D
330
1F
100
AcDbEntity
  8
0
  6
Continuous
 62
     7
370
    15
100
AcDbLine
 10
149.4708973234
 20
241.9887044621
 30
0.0
 11
149.3723313575
 21
241.9887044621
 31
0.0
  0
LINE
  5
15E
330
1F
100
AcDbEntity
  8
0
  6
Continuous
 62
     7
370
    15
100
AcDbLine
 10
149.3723306125
 20
245.7275846196
 30
0.0
 11
149.591775543
 21
245.7275846196
 31
0.0
  0
LINE
  5
15F
330
1F
100
AcDbEntity
  8
0
  6
Continuous
 62
     7
370
    15
100
AcDbLine
 10
149.591775543
 20
246.3981445102
 30
0.0
 11
149.591775543
 21
245.7275846196
 31
0.0
  0
LINE
  5
160
330
1F
100
AcDbEntity
  8
0
  6
Continuous
 62
     7
370
    15
100
AcDbLine
 10
198.1853354042
 20
246.3981445102
 30
0.0
 11
149.591775543
 21
246.3981445102
 31
0.0
  0
LINE
  5
161
330
1F
100
AcDbEntity
  8
0
  6
Continuous
 62
     7
370
    15
100
AcDbLine
 10
149.4447822934
 20
241.9429845331
 30
0.0
 11
149.4447822934
 21
241.9887044621
 31
0.0
  0
LINE
  5
162
330
1F
100
AcDbEntity
  8
0
  6
Continuous
 62
     7
370
    15
100
AcDbLine
 10
74.2296981876
 20
241.3181445716
 30
0.0
 11
37.2804689472
 21
241.3181445716
 31
0.0
  0
LINE
  5
163
330
1F
100
AcDbEntity
  8
0
  6
Continuous
 62
     7
370
    15
100
AcDbLine
 10
74.2101419037
 20
244.2493045391
 30
0.0
 11
74.1401779716
 21
244.2493045391
 31
0.0
  0
LINE
  5
164
330
1F
100
AcDbEntity
  8
0
  6
Continuous
 62
     7
370
    15
100
AcDbLine
 10
74.1401779716
 20
243.4669845426
 30
0.0
 11
74.1401779716
 21
244.2493045391
 31
0.0
  0
LINE
  5
165
330
1F
100
AcDbEntity
  8
0
  6
Continuous
 62
     7
370
    15
100
AcDbLine
 10
74.2101419037
 20
243.4669845426
 30
0.0
 11
74.1401779716
 21
243.4669845426
 31
0.0
  0
LINE
  5
166
330
1F
100
AcDbEntity
  8
0
  6
Continuous
 62
     7
370
    15
100
AcDbLine
 10
74.2296981876
 20
246.3981445102
 30
0.0
 11
37.2804689472
 21
246.3981445102
 31
0.0
  0
LINE
  5
167
330
1F
100
AcDbEntity
  8
0
  6
Continuous
 62
     7
370
    15
100
AcDbLine
 10
149.432021684
 20
245.7733045486
 30
0.0
 11
149.432021684
 21
245.7275846196
 31
0.0
  0
LINE
  5
168
330
1F
100
AcDbEntity
  8
0
  6
Continuous
 62
     7
370
    15
100
AcDbLine
 10
149.5256009763
 20
245.7733045486
 30
0.0
 11
149.5256009763
 21
245.7275846196
 31
0.0
  0
LINE
  5
169
330
1F
100
AcDbEntity
  8
0
  6
Continuous
 62
     7
370
    15
100
AcDbLine
 10
37.2804689472
 20
241.3181445716
 30
0.0
 11
36.3372016018
 21
241.3181445716
 31
0.0
  0
LINE
  5
16A
330
1F
100
AcDbEntity
  8
0
  6
Continuous
 62
     7
370
    15
100
AcDbLine
 10
37.2804689472
 20
246.3981445102
 30
0.0
 11
36.3372016018
 21
246.3981445102
 31
0.0
  0
LINE
  5
16B
330
1F
100
AcDbEntity
  8
0
  6
Continuous
 62
     7
370
    15
100
AcDbLine
 10
128.79865498
 20
261.6508447719
 30
0.0
 11
125.3630268639
 21
261.6508447719
 31
0.0
  0
SPLINE
  5
16C
330
1F
100
AcDbEntity
  8
0
  6
Continuous
 62
     8
370
    15
100
AcDbSpline
210
0.0
220
0.0
230
1.0
 70
    24
 71
     3
 72
    39
 73
    35
 74
     0
 42
0.000000001
 43
0.00000001
 40
0.0
 40
0.0
 40
0.0
 40
0.0
 40
0.0313492308028429
 40
0.0626984199856821
 40
0.0940475866743903
 40
0.1253967939701132
 40
0.1567459870105631
 40
0.1880951877265204
 40
0.2194443582407739
 40
0.2507935573101597
 40
0.2821427625915481
 40
0.3134919509120859
 40
0.3448411496333073
 40
0.3761903364353268
 40
0.4075395324733812
 40
0.4388887175156735
 40
0.470237923185276
 40
0.5015871292583685
 40
0.5329363235555888
 40
0.5642855117173784
 40
0.5956347293786196
 40
0.626983918650767
 40
0.6583330965795363
 40
0.6896823272721209
 40
0.7210314671451679
 40
0.752380699982606
 40
0.7837298673880883
 40
0.815079079136406
 40
0.8464282674657034
 40
0.877777473507051
 40
0.9091266705712001
 40
0.940475869251498
 40
0.9718250214654186
 40
1.0
 40
1.0
 40
1.0
 40
1.0
 10
149.3723298674009
 20
243.8581445408631
 30
0.0
 10
148.91581632756
 20
243.8581445408631
 30
0.0
 10
148.0027898539569
 20
243.8581445408631
 30
0.0
 10
146.3831969373541
 20
243.8581445408631
 30
0.0
 10
144.5915690643172
 20
243.8581445408631
 30
0.0
 10
142.6193544123628
 20
243.8581445408631
 30
0.0
 10
140.4824397721713
 20
243.8581445408631
 30
0.0
 10
138.1913582917226
 20
243.8581445408631
 30
0.0
 10
135.7591657848762
 20
243.8581445408631
 30
0.0
 10
133.1992665595489
 20
243.8581445408631
 30
0.0
 10
130.5258821013954
 20
243.8581445408631
 30
0.0
 10
127.7538310693757
 20
243.8581445408631
 30
0.0
 10
124.8985002188436
 20
243.8581445408631
 30
0.0
 10
121.975718728909
 20
243.8581445408631
 30
0.0
 10
119.0017058233603
 20
243.8581445408631
 30
0.0
 10
115.992953420663
 20
243.8581445408631
 30
0.0
 10
112.9661530000654
 20
243.8581445408631
 30
0.0
 10
109.9380935459574
 20
243.8581445408631
 30
0.0
 10
106.9255715834015
 20
243.8581445408631
 30
0.0
 10
103.9452976401002
 20
243.8581445408631
 30
0.0
 10
101.0138056711436
 20
243.8581445408631
 30
0.0
 10
98.14735151505006
 20
243.8581445408631
 30
0.0
 10
95.36183520966134
 20
243.8581445408631
 30
0.0
 10
92.67271777557829
 20
243.8581445408631
 30
0.0
 10
90.09489953932909
 20
243.8581445408631
 30
0.0
 10
87.64269920412289
 20
243.8581445408631
 30
0.0
 10
85.32969026635452
 20
243.8581445408631
 30
0.0
 10
83.16875208579972
 20
243.8581445408631
 30
0.0
 10
81.17173912874662
 20
243.8581445408631
 30
0.0
 10
79.35020504324409
 20
243.8581445408631
 30
0.0
 10
77.71247474764651
 20
243.8581445408631
 30
0.0
 10
76.27426764334561
 20
243.8581445408631
 30
0.0
 10
75.0611912886788
 20
243.8581445408631
 30
0.0
 10
74.43607071957919
 20
243.8581445408631
 30
0.0
 10
74.14017797163933
 20
243.8581445408631
 30
0.0
  0
LINE
  5
16D
330
1F
100
AcDbEntity
  8
0
  6
Continuous
 62
     7
370
    15
100
AcDbLine
 10
274.4268905611
 20
199.2527940776
 30
0.0
 11
269.3468906225
 21
199.2527940776
 31
0.0
  0
LINE
  5
16E
330
1F
100
AcDbEntity
  8
0
  6
Continuous
 62
     7
370
    15
100
AcDbLine
 10
269.3468906225
 20
71.8214848544
 30
0.0
 11
274.4268905611
 21
71.8214848544
 31
0.0
  0
SPLINE
  5
16F
330
1F
100
AcDbEntity
  8
0
  6
Continuous
 62
     7
370
    15
100
AcDbSpline
210
0.0
220
0.0
230
1.0
 70
     8
 71
     3
 72
    21
 73
    17
 74
     0
 42
0.000000001
 43
0.00000001
 40
0.0
 40
0.0
 40
0.0
 40
0.0
 40
0.0830801332556363
 40
0.1179489104495367
 40
0.1762300624982011
 40
0.2379467852604895
 40
0.3051719208060292
 40
0.3762996673672764
 40
0.4504648769067241
 40
0.5269093689736342
 40
0.6050400483550621
 40
0.6844106439070496
 40
0.7646962831852774
 40
0.8456665241792634
 40
0.9271607837723415
 40
1.0
 40
1.0
 40
1.0
 40
1.0
 10
276.9475532935419
 20
109.7985097672274
 30
0.0
 10
276.9916947780484
 20
109.9858549345695
 30
0.0
 10
277.054362467653
 20
110.2518289707207
 30
0.0
 10
277.1051941303511
 20
110.6567581851016
 30
0.0
 10
277.1294549387483
 20
111.0146274608257
 30
0.0
 10
277.1236611124557
 20
111.4483605158044
 30
0.0
 10
277.0781138335076
 20
111.9097129148156
 30
0.0
 10
276.9849842776786
 20
112.3933613115529
 30
0.0
 10
276.8397377665432
 20
112.8863727317536
 30
0.0
 10
276.6399319201652
 20
113.3775314934072
 30
0.0
 10
276.3852620769177
 20
113.8563900055645
 30
0.0
 10
276.0770266231721
 20
114.3134158916045
 30
0.0
 10
275.7181731574366
 20
114.7407323119382
 30
0.0
 10
275.3114950707627
 20
115.1294097880311
 30
0.0
 10
274.8816611649752
 20
115.4664623311402
 30
0.0
 10
274.5727053333509
 20
115.6462878215521
 30
0.0
 10
274.4268905611196
 20
115.7311582471659
 30
0.0
  0
SPLINE
  5
170
330
1F
100
AcDbEntity
  8
0
  6
Continuous
 62
     7
370
    15
100
AcDbSpline
210
0.0
220
0.0
230
1.0
 70
     8
 71
     3
 72
    30
 73
    26
 74
     0
 42
0.000000001
 43
0.00000001
 40
0.0
 40
0.0
 40
0.0
 40
0.0
 40
0.0526593222238069
 40
0.1012993891283827
 40
0.1497327300281537
 40
0.1976699974288416
 40
0.2442312447669142
 40
0.284444902526753
 40
0.313925896060559
 40
0.3472050343967438
 40
0.3772286216605437
 40
0.4289688020306331
 40
0.4506838089554028
 40
0.4869796350550487
 40
0.5254150358334967
 40
0.5672809177441469
 40
0.6115772336078256
 40
0.6577651940970054
 40
0.7053727500398922
 40
0.7540304091681995
 40
0.8034601344278307
 40
0.853459620298454
 40
0.9038854661993594
 40
0.954637830027346
 40
1.0
 40
1.0
 40
1.0
 40
1.0
 10
269.3468906225124
 20
115.7336199189951
 30
0.0
 10
269.1785267104898
 20
115.6334806423022
 30
0.0
 10
268.8546493661015
 20
115.4408452811093
 30
0.0
 10
268.4196220000568
 20
115.0914476561533
 30
0.0
 10
268.032948195106
 20
114.7151418061727
 30
0.0
 10
267.6924800514901
 20
114.3061858014865
 30
0.0
 10
267.4117728818243
 20
113.8907578040367
 30
0.0
 10
267.2037484498648
 20
113.5115219421532
 30
0.0
 10
267.0449789560972
 20
113.163128361499
 30
0.0
 10
266.9231553063304
 20
112.8402552953319
 30
0.0
 10
266.7994328587415
 20
112.4308284568392
 30
0.0
 10
266.72043538259
 20
112.053552783684
 30
0.0
 10
266.6682775413011
 20
111.6489932798184
 30
0.0
 10
266.6444322515006
 20
111.2910091792196
 30
0.0
 10
266.6500881431765
 20
110.8573145724662
 30
0.0
 10
266.6956767795112
 20
110.395950651859
 30
0.0
 10
266.7887941661346
 20
109.9123056190491
 30
0.0
 10
266.9340444500462
 20
109.4192928537043
 30
0.0
 10
267.1338490397556
 20
108.9281333062977
 30
0.0
 10
267.388518799421
 20
108.4492734907127
 30
0.0
 10
267.6967541943135
 20
107.9922475335619
 30
0.0
 10
268.0556079844512
 20
107.5649322185438
 30
0.0
 10
268.4622870698497
 20
107.1762565457108
 30
0.0
 10
268.8921195028024
 20
106.8392022015345
 30
0.0
 10
269.2010757690365
 20
106.6593767754224
 30
0.0
 10
269.3468906225124
 20
106.5745064522555
 30
0.0
  0
SPLINE
  5
171
330
1F
100
AcDbEntity
  8
0
  6
Continuous
 62
     7
370
    15
100
AcDbSpline
210
0.0
220
0.0
230
1.0
 70
     8
 71
     3
 72
    16
 73
    12
 74
     0
 42
0.000000001
 43
0.00000001
 40
0.0
 40
0.0
 40
0.0
 40
0.0
 40
0.1395951998846774
 40
0.2685357098496663
 40
0.3969279599170259
 40
0.5240056828604162
 40
0.6474357198754047
 40
0.7540382547415403
 40
0.8321900803087112
 40
0.9204101289505318
 40
1.0
 40
1.0
 40
1.0
 40
1.0
 10
274.4268905611196
 20
106.5720447804263
 30
0.0
 10
274.5952544376482
 20
106.6721840457085
 30
0.0
 10
274.9191317137582
 20
106.8648193849508
 30
0.0
 10
275.354159289984
 20
107.2142169467842
 30
0.0
 10
275.7408313679178
 20
107.5905222105209
 30
0.0
 10
276.0813105316893
 20
107.9994763666313
 30
0.0
 10
276.3619755637727
 20
108.4149168016259
 30
0.0
 10
276.5701232416025
 20
108.7941183208031
 30
0.0
 10
276.7285513934474
 20
109.1426073673435
 30
0.0
 10
276.8516627246468
 20
109.4651217283923
 30
0.0
 10
276.9167047710336
 20
109.6912570046407
 30
0.0
 10
276.9475532935419
 20
109.7985097672274
 30
0.0
  0
LINE
  5
172
330
1F
100
AcDbEntity
  8
0
  6
Continuous
 62
     7
370
    15
100
AcDbLine
 10
269.3468906225
 20
50.4519680049
 30
0.0
 11
274.4268905611
 21
50.4519680049
 31
0.0
  0
SPLINE
  5
173
330
1F
100
AcDbEntity
  8
0
  6
Continuous
 62
     7
370
    15
100
AcDbSpline
210
0.0
220
0.0
230
1.0
 70
     8
 71
     3
 72
    13
 73
     9
 74
     0
 42
0.000000001
 43
0.00000001
 40
0.0
 40
0.0
 40
0.0
 40
0.0
 40
0.0381717269840681
 40
0.2727659767892173
 40
0.5091855746324013
 40
0.7541638451572462
 40
0.9346747457208437
 40
1.0
 40
1.0
 40
1.0
 40
1.0
 10
269.3388715626159
 20
183.672786643677
 30
0.0
 10
269.3106673879621
 20
183.659023480773
 30
0.0
 10
269.1091271419005
 20
183.5606752301217
 30
0.0
 10
268.7621268341805
 20
183.3226701787003
 30
0.0
 10
268.3020719700234
 20
182.9552235310245
 30
0.0
 10
267.9213300276671
 20
182.5643834929267
 30
0.0
 10
267.6679357977342
 20
182.2498398402483
 30
0.0
 10
267.5519443454348
 20
182.0843605568699
 30
0.0
 10
267.5211223082104
 20
182.0403882767489
 30
0.0
  0
SPLINE
  5
174
330
1F
100
AcDbEntity
  8
0
  6
Continuous
 62
     7
370
    15
100
AcDbSpline
210
0.0
220
0.0
230
1.0
 70
     8
 71
     3
 72
    23
 73
    19
 74
     0
 42
0.000000001
 43
0.00000001
 40
0.0
 40
0.0
 40
0.0
 40
0.0
 40
0.0633429256554289
 40
0.1038171803081982
 40
0.1657884340468921
 40
0.2303223159808942
 40
0.2958388737356589
 40
0.3616719804613283
 40
0.4276335033057591
 40
0.4936558984852365
 40
0.5597112831895814
 40
0.625786082619427
 40
0.6918732082539745
 40
0.7579683933910522
 40
0.8240697693598392
 40
0.8901758902167712
 40
0.9562857842661413
 40
1.0
 40
1.0
 40
1.0
 40
1.0
 10
276.1573406176129
 20
176.1079558636477
 30
0.0
 10
276.2569502015154
 20
176.2625573063674
 30
0.0
 10
276.4202073612603
 20
176.5159444950498
 30
0.0
 10
276.6334020842107
 20
176.9476380585505
 30
0.0
 10
276.8130452151177
 20
177.3982333499484
 30
0.0
 10
276.9631980580034
 20
177.9357482160922
 30
0.0
 10
277.056609883812
 20
178.4973019578252
 30
0.0
 10
277.0884581193889
 20
179.0698759004095
 30
0.0
 10
277.0574780107121
 20
179.6439642544852
 30
0.0
 10
276.9637388178077
 20
180.2118539466939
 30
0.0
 10
276.8082789367447
 20
180.7663807906964
 30
0.0
 10
276.5929193007514
 20
181.3006994252156
 30
0.0
 10
276.3202664851452
 20
181.8083417897345
 30
0.0
 10
275.9934820004639
 20
182.2829445176212
 30
0.0
 10
275.6169207855651
 20
182.7194931740644
 30
0.0
 10
275.1935563807429
 20
183.1099661256717
 30
0.0
 10
274.7861818747128
 20
183.4203464040071
 30
0.0
 10
274.5079318481512
 20
183.5759321834142
 30
0.0
 10
274.3971776456991
 20
183.6378613020709
 30
0.0
  0
SPLINE
  5
175
330
1F
100
AcDbEntity
  8
0
  6
Continuous
 62
     7
370
    15
100
AcDbSpline
210
0.0
220
0.0
230
1.0
 70
     8
 71
     3
 72
    23
 73
    19
 74
     0
 42
0.000000001
 43
0.00000001
 40
0.0
 40
0.0
 40
0.0
 40
0.0
 40
0.0627946737120198
 40
0.1029185974427523
 40
0.164353449791271
 40
0.2283287376916825
 40
0.2932782141106896
 40
0.3585414902459838
 40
0.4239320733333939
 40
0.4893829949544242
 40
0.5548669543895104
 40
0.6203695186678095
 40
0.6858846173717332
 40
0.751407729879002
 40
0.8169369555712808
 40
0.8824708539796883
 40
0.9480085240230386
 40
1.0
 40
1.0
 40
1.0
 40
1.0
 10
267.5211223082104
 20
182.0403882767489
 30
0.0
 10
267.4215125661028
 20
181.8857868535011
 30
0.0
 10
267.2582551695223
 20
181.6323997315887
 30
0.0
 10
267.0450605103655
 20
181.2007060663102
 30
0.0
 10
266.8654171792793
 20
180.7501108653668
 30
0.0
 10
266.7152651532264
 20
180.2125958106047
 30
0.0
 10
266.6218523705458
 20
179.6510422505421
 30
0.0
 10
266.5900049785348
 20
179.0784682126984
 30
0.0
 10
266.620984901361
 20
178.5043799260699
 30
0.0
 10
266.7147241348568
 20
177.9364892285712
 30
0.0
 10
266.8701826304847
 20
177.381962323653
 30
0.0
 10
267.0855431666808
 20
176.8476425538398
 30
0.0
 10
267.3581994658838
 20
176.3400078627735
 30
0.0
 10
267.684967699414
 20
175.8653785563597
 30
0.0
 10
268.0615917038372
 20
175.4289301305159
 30
0.0
 10
268.4847210777918
 20
175.0380828471277
 30
0.0
 10
268.9131287355424
 20
174.7135989419453
 30
0.0
 10
269.2138571280595
 20
174.5462127676666
 30
0.0
 10
269.3468906225124
 20
174.4721659924319
 30
0.0
  0
SPLINE
  5
176
330
1F
100
AcDbEntity
  8
0
  6
Continuous
 62
     7
370
    15
100
AcDbSpline
210
0.0
220
0.0
230
1.0
 70
     8
 71
     3
 72
    12
 73
     8
 74
     0
 42
0.000000001
 43
0.00000001
 40
0.0
 40
0.0
 40
0.0
 40
0.0
 40
0.2427681709049569
 40
0.4889398120858151
 40
0.7440232248643661
 40
0.9319800443032655
 40
0.9999999999999999
 40
0.9999999999999999
 40
0.9999999999999999
 40
0.9999999999999999
 10
274.4268905611196
 20
174.5193430687716
 30
0.0
 10
274.5906317299782
 20
174.6192839882071
 30
0.0
 10
274.920409624807
 20
174.8205669413484
 30
0.0
 10
275.3754979943527
 20
175.1947796062503
 30
0.0
 10
275.7573112787916
 20
175.5836285428825
 30
0.0
 10
276.0105148668144
 20
175.8985263013516
 30
0.0
 10
276.1265159823186
 20
176.0639881683182
 30
0.0
 10
276.1573406176129
 20
176.1079558636477
 30
0.0
  0
LINE
  5
177
330
1F
100
AcDbEntity
  8
0
  6
Continuous
 62
     7
370
    15
100
AcDbLine
 10
274.4268905611
 20
222.2631612326
 30
0.0
 11
271.8868354784
 21
222.2631612326
 31
0.0
  0
LINE
  5
178
330
1F
100
AcDbEntity
  8
0
  6
Continuous
 62
     7
370
    15
100
AcDbLine
 10
271.8869457052
 20
222.2631552722
 30
0.0
 11
269.3468906225
 21
222.2631552722
 31
0.0
  0
LINE
  5
179
330
1F
100
AcDbEntity
  8
0
  6
Continuous
 62
     7
370
    15
100
AcDbLine
 10
289.6795908229
 20
65.7464483287
 30
0.0
 11
274.4268905611
 21
65.7464483287
 31
0.0
  0
LINE
  5
17A
330
1F
100
AcDbEntity
  8
0
  6
Continuous
 62
     7
370
    15
100
AcDbLine
 10
274.4268905611
 20
55.5864491965
 30
0.0
 11
289.6795908229
 21
55.5864491965
 31
0.0
  0
LINE
  5
17B
330
1F
100
AcDbEntity
  8
0
  6
Continuous
 62
     7
370
    15
100
AcDbLine
 10
274.4268905611
 20
191.8593624141
 30
0.0
 11
289.6795908229
 21
191.8593624141
 31
0.0
  0
LINE
  5
17C
330
1F
100
AcDbEntity
  8
0
  6
Continuous
 62
     7
370
    15
100
AcDbLine
 10
289.6795908229
 20
217.1069660689
 30
0.0
 11
274.4268905611
 21
217.1069660689
 31
0.0
  0
SPLINE
  5
17D
330
1F
100
AcDbEntity
  8
0
  6
Continuous
 62
     7
370
    15
100
AcDbSpline
210
0.0
220
0.0
230
1.0
 70
     8
 71
     3
 72
    22
 73
    18
 74
     0
 42
0.000000001
 43
0.00000001
 40
0.0
 40
0.0
 40
0.0
 40
0.0
 40
0.0813395211795424
 40
0.1155294254204979
 40
0.1726948299434289
 40
0.233278118882751
 40
0.2992983191271683
 40
0.369165850445696
 40
0.4420140596490162
 40
0.5170842697735255
 40
0.5937869736552533
 40
0.6716830172600833
 40
0.75045283574138
 40
0.8298742314641239
 40
0.9097919378125211
 40
0.9901009948714274
 40
1.0
 40
1.0
 40
1.0
 40
1.0
 10
266.8647935853758
 20
81.21146946208977
 30
0.0
 10
266.815632501359
 20
81.02556508649047
 30
0.0
 10
266.7458072588798
 20
80.76151846579873
 30
0.0
 10
266.6839835946036
 20
80.35813200496774
 30
0.0
 10
266.6499788043861
 20
80.00064160637328
 30
0.0
 10
266.6440323267452
 20
79.56620715663648
 30
0.0
 10
266.6772339215194
 20
79.10282853370931
 30
0.0
 10
266.7576166125202
 20
78.61575497416193
 30
0.0
 10
266.8900772531165
 20
78.11795224378888
 30
0.0
 10
267.0773177005395
 20
77.62068328996321
 30
0.0
 10
267.319900536613
 20
77.13453001083961
 30
0.0
 10
267.6165696810718
 20
76.66884180168404
 30
0.0
 10
267.9650607641434
 20
76.23249592222544
 30
0.0
 10
268.3608154913118
 20
75.83098953335318
 30
0.0
 10
268.8030214049377
 20
75.47759610008862
 30
0.0
 10
269.1350292691498
 20
75.24749363232134
 30
0.0
 10
269.3259408865975
 20
75.1528989433525
 30
0.0
 10
269.3468906225124
 20
75.142518570595
 30
0.0
  0
SPLINE
  5
17E
330
1F
100
AcDbEntity
  8
0
  6
Continuous
 62
     7
370
    15
100
AcDbSpline
210
0.0
220
0.0
230
1.0
 70
     8
 71
     3
 72
    31
 73
    27
 74
     0
 42
0.000000001
 43
0.00000001
 40
0.0
 40
0.0
 40
0.0
 40
0.0
 40
0.0402440345482992
 40
0.0889079833734159
 40
0.1373702951488318
 40
0.1853454924501681
 40
0.2319522031422976
 40
0.2720195757418611
 40
0.3015614681315616
 40
0.3350198285624431
 40
0.3643118585671001
 40
0.4160179097872969
 40
0.4377525559075225
 40
0.4740919274136558
 40
0.51260400761675
 40
0.5545717345626988
 40
0.5989862255344228
 40
0.6452949704805739
 40
0.6930162151306267
 40
0.7417752167531018
 40
0.7912923592858728
 40
0.8413658193102017
 40
0.8918530611794809
 40
0.9426558018431548
 40
0.9937073195246258
 40
0.9999999999999999
 40
0.9999999999999999
 40
0.9999999999999999
 40
0.9999999999999999
 10
274.4268905611196
 20
75.14620213764213
 30
0.0
 10
274.5572130437994
 20
75.21974234966922
 30
0.0
 10
274.8451242647625
 20
75.3822089617166
 30
0.0
 10
275.2510862933869
 20
75.69409311501288
 30
0.0
 10
275.647806349565
 20
76.05989996728927
 30
0.0
 10
275.9987797160157
 20
76.46028832711312
 30
0.0
 10
276.2898699286266
 20
76.86802477601665
 30
0.0
 10
276.5074768941956
 20
77.24152593400582
 30
0.0
 10
276.67533902695
 20
77.58589466833038
 30
0.0
 10
276.8046968223094
 20
77.90374890509011
 30
0.0
 10
276.9384207075652
 20
78.30757651712689
 30
0.0
 10
277.0269680038381
 20
78.67975645641084
 30
0.0
 10
277.0901038034272
 20
79.08273761124946
 30
0.0
 10
277.123697250973
 20
79.44035707461505
 30
0.0
 10
277.1297807786675
 20
79.87474733254636
 30
0.0
 10
277.0965369632735
 20
80.33813847528162
 30
0.0
 10
277.0161680781057
 20
80.82520856545966
 30
0.0
 10
276.8837031659244
 20
81.3230142637153
 30
0.0
 10
276.6964633800125
 20
81.8202826511539
 30
0.0
 10
276.4538826370512
 20
82.30643560928955
 30
0.0
 10
276.1572075890523
 20
82.7721196109563
 30
0.0
 10
275.8087228025979
 20
83.20847018880065
 30
0.0
 10
275.4129653418739
 20
83.60997642738852
 30
0.0
 10
274.9707598780616
 20
83.96337020597919
 30
0.0
 10
274.6387519122115
 20
84.19347259571802
 30
0.0
 10
274.4478402968099
 20
84.28806728625766
 30
0.0
 10
274.4268905611196
 20
84.29844765918753
 30
0.0
  0
SPLINE
  5
17F
330
1F
100
AcDbEntity
  8
0
  6
Continuous
 62
     7
370
    15
100
AcDbSpline
210
0.0
220
0.0
230
1.0
 70
     8
 71
     3
 72
    16
 73
    12
 74
     0
 42
0.000000001
 43
0.00000001
 40
0.0
 40
0.0
 40
0.0
 40
0.0
 40
0.1104666845421491
 40
0.2440444610887287
 40
0.3770687636690825
 40
0.5087548814371552
 40
0.6366857406606291
 40
0.7466667568569697
 40
0.8277576797146342
 40
0.9195962445912671
 40
1.0
 40
1.0
 40
1.0
 40
1.0
 10
269.3468906225124
 20
84.2947640921404
 30
0.0
 10
269.216568396234
 20
84.22122153252396
 30
0.0
 10
268.9286588096307
 20
84.05875033676875
 30
0.0
 10
268.5226936565298
 20
83.74686805185979
 30
0.0
 10
268.125979612397
 20
83.3810594773092
 30
0.0
 10
267.7749901999494
 20
82.98068056116149
 30
0.0
 10
267.4839431067099
 20
82.57293139856122
 30
0.0
 10
267.2662144881911
 20
82.19946643750484
 30
0.0
 10
267.0986916332313
 20
81.85499212537002
 30
0.0
 10
266.9680713531104
 20
81.53752816971479
 30
0.0
 10
266.8976613841464
 20
81.3152365382446
 30
0.0
 10
266.8647935853758
 20
81.21146946208977
 30
0.0
  0
SPLINE
  5
180
330
1F
100
AcDbEntity
  8
0
  6
Continuous
 62
     7
370
    15
100
AcDbSpline
210
0.0
220
0.0
230
1.0
 70
     8
 71
     3
 72
    15
 73
    11
 74
     0
 42
0.000000001
 43
0.00000001
 40
0.0
 40
0.0
 40
0.0
 40
0.0
 40
0.1824322758659896
 40
0.2585611257245065
 40
0.3869947384807221
 40
0.5246294666323837
 40
0.6750497809627619
 40
0.8339962567125445
 40
0.9988198133725843
 40
1.0
 40
1.0
 40
1.0
 40
1.0
 10
276.5068231390276
 20
175.6066033150485
 30
0.0
 10
276.5936646083015
 20
175.7847129382402
 30
0.0
 10
276.7167449566031
 20
176.0371475716198
 30
0.0
 10
276.8584846373404
 20
176.4326598121894
 30
0.0
 10
276.9631104202915
 20
176.7892377469431
 30
0.0
 10
277.0531407290099
 20
177.2324962585789
 30
0.0
 10
277.1086445640373
 20
177.7153135358737
 30
0.0
 10
277.1116166775537
 20
178.2296505902217
 30
0.0
 10
277.094927869305
 20
178.5838171188627
 30
0.0
 10
277.061105162565
 20
178.7607083311229
 30
0.0
 10
277.0608647034921
 20
178.761965921097
 30
0.0
  0
SPLINE
  5
181
330
1F
100
AcDbEntity
  8
0
  6
Continuous
 62
     7
370
    15
100
AcDbSpline
210
0.0
220
0.0
230
1.0
 70
     8
 71
     3
 72
    19
 73
    15
 74
     0
 42
0.000000001
 43
0.00000001
 40
0.0
 40
0.0
 40
0.0
 40
0.0
 40
0.0043867963711651
 40
0.0912550732904689
 40
0.1813353238605321
 40
0.2735319683312494
 40
0.3671128618480387
 40
0.461609088565325
 40
0.5567260237781927
 40
0.6522773106917569
 40
0.7481454366338325
 40
0.8442554171329851
 40
0.9405620647166542
 40
1.0
 40
1.0
 40
1.0
 40
1.0
 10
266.646566452221
 20
178.4139135386278
 30
0.0
 10
266.6455766791161
 20
178.4052614665613
 30
0.0
 10
266.6249872079881
 20
178.2252792189847
 30
0.0
 10
266.6304277039814
 20
177.8636876392914
 30
0.0
 10
266.6713165634948
 20
177.3308560061079
 30
0.0
 10
266.7754029640526
 20
176.7918622233769
 30
0.0
 10
266.9366940087741
 20
176.2584351680793
 30
0.0
 10
267.1567271813243
 20
175.7399136055892
 30
0.0
 10
267.433055343257
 20
175.2446034752774
 30
0.0
 10
267.7630670062426
 20
174.7800395178968
 30
0.0
 10
268.1425664121589
 20
174.3519604572301
 30
0.0
 10
268.5688226609116
 20
173.969138352328
 30
0.0
 10
268.9714195457742
 20
173.6696134051952
 30
0.0
 10
269.2431776176095
 20
173.5217360131802
 30
0.0
 10
269.3468906225124
 20
173.4653004910281
 30
0.0
  0
SPLINE
  5
182
330
1F
100
AcDbEntity
  8
0
  6
Continuous
 62
     7
370
    15
100
AcDbSpline
210
0.0
220
0.0
230
1.0
 70
     8
 71
     3
 72
    14
 73
    10
 74
     0
 42
0.000000001
 43
0.00000001
 40
0.0
 40
0.0
 40
0.0
 40
0.0
 40
0.0542956574112072
 40
0.2339184779355992
 40
0.4120010488886834
 40
0.584345071596232
 40
0.7120980217527813
 40
0.8268148062693909
 40
1.0
 40
1.0
 40
1.0
 40
1.0
 10
274.4268905611196
 20
173.4819093252947
 30
0.0
 10
274.4755027242008
 20
173.5067778861477
 30
0.0
 10
274.6849353701857
 20
173.613917502473
 30
0.0
 10
275.0238949515516
 20
173.8551837211859
 30
0.0
 10
275.4350936723555
 20
174.1943398445271
 30
0.0
 10
275.771253635112
 20
174.5395151254408
 30
0.0
 10
276.0356395124074
 20
174.8622292185276
 30
0.0
 10
276.2792855992269
 20
175.2023352641374
 30
0.0
 10
276.4213596186648
 20
175.4547594881734
 30
0.0
 10
276.5068231390276
 20
175.6066033150485
 30
0.0
  0
SPLINE
  5
183
330
1F
100
AcDbEntity
  8
0
  6
Continuous
 62
     7
370
    15
100
AcDbSpline
210
0.0
220
0.0
230
1.0
 70
     8
 71
     3
 72
    17
 73
    13
 74
     0
 42
0.000000001
 43
0.00000001
 40
0.0
 40
0.0
 40
0.0
 40
0.0
 40
0.1285912899686898
 40
0.1824295759409947
 40
0.2723736212543075
 40
0.3675030988260283
 40
0.4710480531517607
 40
0.5805612674651127
 40
0.6947543778458437
 40
0.8124927491554577
 40
0.932883296568106
 40
1.0
 40
1.0
 40
1.0
 40
1.0
 10
266.7589133845129
 20
135.3276032488277
 30
0.0
 10
266.8040142358176
 20
135.1401799571928
 30
0.0
 10
266.8679978009571
 20
134.8742867413867
 30
0.0
 10
267.0051747388947
 20
134.4898839093502
 30
0.0
 10
267.1445708974349
 20
134.1600718399568
 30
0.0
 10
267.3446796897687
 20
133.7764364624438
 30
0.0
 10
267.5922950813234
 20
133.386273116239
 30
0.0
 10
267.892116598354
 20
132.9978087876593
 30
0.0
 10
268.2420477961555
 20
132.623682960105
 30
0.0
 10
268.6409622181822
 20
132.2776988816895
 30
0.0
 10
269.0113346901523
 20
132.0071334101505
 30
0.0
 10
269.258440939681
 20
131.8734413016847
 30
0.0
 10
269.3468906225124
 20
131.8255872930815
 30
0.0
  0
SPLINE
  5
184
330
1F
100
AcDbEntity
  8
0
  6
Continuous
 62
     7
370
    15
100
AcDbSpline
210
0.0
220
0.0
230
1.0
 70
     8
 71
     3
 72
    31
 73
    27
 74
     0
 42
0.000000001
 43
0.00000001
 40
0.0
 40
0.0
 40
0.0
 40
0.0
 40
0.0060240992963265
 40
0.0582386784281424
 40
0.110743842427164
 40
0.1636326296656499
 40
0.2170575180935083
 40
0.2712767725660212
 40
0.3199160185685712
 40
0.3683398704347983
 40
0.4162536634696902
 40
0.4627794063613742
 40
0.5032561689024652
 40
0.532664512192638
 40
0.5656999276856569
 40
0.5968910305660213
 40
0.6487273346418331
 40
0.670430038081229
 40
0.7066872771207896
 40
0.7450348229240369
 40
0.7867747087903443
 40
0.8309204745258911
 40
0.8769527417318042
 40
0.9244141354222215
 40
0.9729446547514454
 40
0.9999999999999999
 40
0.9999999999999999
 40
0.9999999999999999
 40
0.9999999999999999
 10
274.4268905611196
 20
131.8211676086714
 30
0.0
 10
274.4469568623608
 20
131.8310816669929
 30
0.0
 10
274.6409501562529
 20
131.9269269753292
 30
0.0
 10
274.9806606375706
 20
132.1631048948669
 30
0.0
 10
275.4368942033146
 20
132.530302355511
 30
0.0
 10
275.8487842543993
 20
132.9550442850272
 30
0.0
 10
276.2149695362327
 20
133.427123338996
 30
0.0
 10
276.5163677598754
 20
133.9249069232021
 30
0.0
 10
276.7536812014221
 20
134.4353805587769
 30
0.0
 10
276.929448579423
 20
134.9454587129427
 30
0.0
 10
277.0503044254394
 20
135.4631545261207
 30
0.0
 10
277.1148067322645
 20
135.9609951550542
 30
0.0
 10
277.1305058066336
 20
136.3936939696739
 30
0.0
 10
277.115944772285
 20
136.7759634249346
 30
0.0
 10
277.0796280130436
 20
137.1222030517222
 30
0.0
 10
277.0054516316029
 20
137.5471704739115
 30
0.0
 10
276.9047483484627
 20
137.9239383968641
 30
0.0
 10
276.7689208296172
 20
138.3086091361884
 30
0.0
 10
276.629102708089
 20
138.6383373854513
 30
0.0
 10
276.429133899672
 20
139.0220004832775
 30
0.0
 10
276.1814764712867
 20
139.4121553809101
 30
0.0
 10
275.8816673637019
 20
139.8006222075469
 30
0.0
 10
275.5317326162998
 20
140.1747473473578
 30
0.0
 10
275.1328191244806
 20
140.5207315927027
 30
0.0
 10
274.7624465120045
 20
140.7912972282859
 30
0.0
 10
274.5153402405102
 20
140.9249893425149
 30
0.0
 10
274.4268905611196
 20
140.9728433470657
 30
0.0
  0
SPLINE
  5
185
330
1F
100
AcDbEntity
  8
0
  6
Continuous
 62
     7
370
    15
100
AcDbSpline
210
0.0
220
0.0
230
1.0
 70
     8
 71
     3
 72
    21
 73
    17
 74
     0
 42
0.000000001
 43
0.00000001
 40
0.0
 40
0.0
 40
0.0
 40
0.0
 40
0.0100924609227717
 40
0.0975700513955067
 40
0.1855344218414764
 40
0.274141530091286
 40
0.3636468274414191
 40
0.4544829069654885
 40
0.5359705433677893
 40
0.617097348941002
 40
0.6973696086674643
 40
0.7753164051825183
 40
0.8431290703494226
 40
0.8923982707493089
 40
0.9477440643106868
 40
1.0
 40
1.0
 40
1.0
 40
1.0
 10
269.3468906225124
 20
140.9772628452112
 30
0.0
 10
269.3268243209064
 20
140.9673487874089
 30
0.0
 10
269.1328309932144
 20
140.8715034691347
 30
0.0
 10
268.7931207413288
 20
140.6353252997156
 30
0.0
 10
268.3368868548042
 20
140.2681283179136
 30
0.0
 10
267.9249968622199
 20
139.8433863179505
 30
0.0
 10
267.5588117290825
 20
139.3713070667375
 30
0.0
 10
267.2574136103053
 20
138.8735236601457
 30
0.0
 10
267.0200992272894
 20
138.3630498837331
 30
0.0
 10
266.8443352816446
 20
137.8529723746496
 30
0.0
 10
266.723467093304
 20
137.3352740976349
 30
0.0
 10
266.6590074334019
 20
136.8374419094818
 30
0.0
 10
266.6431818782732
 20
136.4047179524302
 30
0.0
 10
266.6580943504279
 20
136.0225182701895
 30
0.0
 10
266.6930707319465
 20
135.6760125779961
 30
0.0
 10
266.7373900536209
 20
135.4414949130492
 30
0.0
 10
266.7589133845129
 20
135.3276032488277
 30
0.0
  0
LINE
  5
186
330
1F
100
AcDbEntity
  8
0
  6
Continuous
 62
     7
370
    15
100
AcDbLine
 10
269.3468906225
 20
121.4767286088
 30
0.0
 11
269.3468906225
 21
199.2527940776
 31
0.0
  0
LINE
  5
187
330
1F
100
AcDbEntity
  8
0
  6
Continuous
 62
     7
370
    15
100
AcDbLine
 10
274.4268905611
 20
121.4767286088
 30
0.0
 11
274.4268905611
 21
199.2527940776
 31
0.0
  0
LINE
  5
188
330
1F
100
AcDbEntity
  8
0
  6
Continuous
 62
     7
370
    15
100
AcDbLine
 10
273.7563306706
 20
121.5243840124
 30
0.0
 11
272.2780505901
 21
121.5243840124
 31
0.0
  0
LINE
  5
189
330
1F
100
AcDbEntity
  8
0
  6
Continuous
 62
     7
370
    15
100
AcDbLine
 10
272.2780505901
 20
121.5243840124
 30
0.0
 11
272.2780505901
 21
121.5755352284
 31
0.0
  0
LINE
  5
18A
330
1F
100
AcDbEntity
  8
0
  6
Continuous
 62
     7
370
    15
100
AcDbLine
 10
271.4957305936
 20
121.5755352284
 30
0.0
 11
272.2780505901
 21
121.5755352284
 31
0.0
  0
LINE
  5
18B
330
1F
100
AcDbEntity
  8
0
  6
Continuous
 62
     7
370
    15
100
AcDbLine
 10
271.4957305936
 20
121.5243840124
 30
0.0
 11
271.4957305936
 21
121.5755352284
 31
0.0
  0
LINE
  5
18C
330
1F
100
AcDbEntity
  8
0
  6
Continuous
 62
     7
370
    15
100
AcDbLine
 10
271.4957305936
 20
121.5243840124
 30
0.0
 11
270.0174505131
 21
121.5243840124
 31
0.0
  0
LINE
  5
18D
330
1F
100
AcDbEntity
  8
0
  6
Continuous
 62
     7
370
    15
100
AcDbLine
 10
273.7563306706
 20
121.4767286088
 30
0.0
 11
273.7563306706
 21
121.5243840124
 31
0.0
  0
LINE
  5
18E
330
1F
100
AcDbEntity
  8
0
  6
Continuous
 62
     7
370
    15
100
AcDbLine
 10
273.7563306706
 20
121.4767286088
 30
0.0
 11
274.4268905611
 21
121.4767286088
 31
0.0
  0
LINE
  5
18F
330
1F
100
AcDbEntity
  8
0
  6
Continuous
 62
     7
370
    15
100
AcDbLine
 10
269.3468906225
 20
71.8214848544
 30
0.0
 11
269.3468906225
 21
121.4767286088
 31
0.0
  0
LINE
  5
190
330
1F
100
AcDbEntity
  8
0
  6
Continuous
 62
     7
370
    15
100
AcDbLine
 10
270.0174505131
 20
121.4767286088
 30
0.0
 11
269.3468906225
 21
121.4767286088
 31
0.0
  0
LINE
  5
191
330
1F
100
AcDbEntity
  8
0
  6
Continuous
 62
     7
370
    15
100
AcDbLine
 10
270.0174505131
 20
121.4767286088
 30
0.0
 11
270.0174505131
 21
121.5243840124
 31
0.0
  0
LINE
  5
192
330
1F
100
AcDbEntity
  8
0
  6
Continuous
 62
     7
370
    15
100
AcDbLine
 10
274.4268905611
 20
71.8214848544
 30
0.0
 11
274.4268905611
 21
121.4767286088
 31
0.0
  0
LINE
  5
193
330
1F
100
AcDbEntity
  8
0
  6
Continuous
 62
     7
370
    15
100
AcDbLine
 10
269.3468906225
 20
50.4519680049
 30
0.0
 11
269.3468906225
 21
71.8214848544
 31
0.0
  0
LINE
  5
194
330
1F
100
AcDbEntity
  8
0
  6
Continuous
 62
     7
370
    15
100
AcDbLine
 10
274.4268905611
 20
50.4519680049
 30
0.0
 11
274.4268905611
 21
71.8214848544
 31
0.0
  0
LINE
  5
195
330
1F
100
AcDbEntity
  8
0
  6
Continuous
 62
     7
370
    15
100
AcDbLine
 10
274.4268905611
 20
199.2527940776
 30
0.0
 11
274.4268905611
 21
222.2631612326
 31
0.0
  0
LINE
  5
196
330
1F
100
AcDbEntity
  8
0
  6
Continuous
 62
     7
370
    15
100
AcDbLine
 10
269.3468906225
 20
199.2527940776
 30
0.0
 11
269.3468906225
 21
222.2631552722
 31
0.0
  0
LINE
  5
197
330
1F
100
AcDbEntity
  8
0
  6
Continuous
 62
     7
370
    15
100
AcDbLine
 10
289.6795908229
 20
55.5864491965
 30
0.0
 11
289.6795908229
 21
65.7464483287
 31
0.0
  0
LINE
  5
198
330
1F
100
AcDbEntity
  8
0
  6
Continuous
 62
     7
370
    15
100
AcDbLine
 10
289.6795908229
 20
217.1069660689
 30
0.0
 11
289.6795908229
 21
191.8593624141
 31
0.0
  0
SPLINE
  5
199
330
1F
100
AcDbEntity
  8
0
  6
Continuous
 62
     8
370
    15
100
AcDbSpline
210
0.0
220
0.0
230
1.0
 70
    24
 71
     3
 72
    23
 73
    19
 74
     0
 42
0.000000001
 43
0.00000001
 40
0.0
 40
0.0
 40
0.0
 40
0.0
 40
0.0663356841017786
 40
0.1326712801346845
 40
0.1990068285694985
 40
0.2653424629296774
 40
0.3316780671253753
 40
0.3980136875626208
 40
0.4643492440923756
 40
0.5306848610454384
 40
0.59702049114324
 40
0.6633560853514966
 40
0.7296917015678356
 40
0.796027292562873
 40
0.8623629031015699
 40
0.9286984903729847
 40
0.9950341212922559
 40
1.0
 40
1.0
 40
1.0
 40
1.0
 10
271.886890591816
 20
199.2193320299914
 30
0.0
 10
271.886890591816
 20
200.1195935267287
 30
0.0
 10
271.886890591816
 20
201.9201153249942
 30
0.0
 10
271.886890591816
 20
204.4821571686026
 30
0.0
 10
271.886890591816
 20
206.924405815396
 30
0.0
 10
271.886890591816
 20
209.2244366724924
 30
0.0
 10
271.886890591816
 20
211.3718659226098
 30
0.0
 10
271.886890591816
 20
213.3541478245263
 30
0.0
 10
271.886890591816
 20
215.1604526300933
 30
0.0
 10
271.886890591816
 20
216.7807141502803
 30
0.0
 10
271.886890591816
 20
218.2059975054224
 30
0.0
 10
271.886890591816
 20
219.428222677625
 30
0.0
 10
271.886890591816
 20
220.4412276531578
 30
0.0
 10
271.886890591816
 20
221.2371423160346
 30
0.0
 10
271.886890591816
 20
221.8198899683103
 30
0.0
 10
271.886890591816
 20
222.1551795429813
 30
0.0
 10
271.886890591816
 20
222.294772450507
 30
0.0
 10
271.886890591816
 20
222.2579196793912
 30
0.0
 10
271.886890591816
 20
222.2553530241778
 30
0.0
  0
ENDSEC
  0
SECTION
  2
OBJECTS
  0
DICTIONARY
  5
C
330
0
100
AcDbDictionary
281
     1
  3
ACAD_GROUP
350
D
  3
ACAD_LAYOUT
350
1A
  3
ACAD_MLINESTYLE
350
17
  3
ACAD_PLOTSETTINGS
350
19
  3
ACAD_PLOTSTYLENAME
350
E
  3
ACAD_SCALELIST
350
47
  0
DICTIONARY
  5
D
102
{ACAD_REACTORS
330
C
102
}
330
C
100
AcDbDictionary
281
     1
  0
DICTIONARY
  5
1A
102
{ACAD_REACTORS
330
C
102
}
330
C
100
AcDbDictionary
281
     1
  3
Layout1
350
1E
  3
Layout2
350
26
  3
Model
350
22
  0
DICTIONARY
  5
17
102
{ACAD_REACTORS
330
C
102
}
330
C
100
AcDbDictionary
281
     1
  3
Standard
350
18
  0
DICTIONARY
  5
19
102
{ACAD_REACTORS
330
C
102
}
330
C
100
AcDbDictionary
281
     1
  0
ACDBDICTIONARYWDFLT
  5
E
102
{ACAD_REACTORS
330
C
102
}
330
C
100
AcDbDictionary
281
     1
  3
Normal
350
F
100
AcDbDictionaryWithDefault
340
F
  0
DICTIONARY
  5
47
102
{ACAD_REACTORS
330
C
102
}
330
C
100
AcDbDictionary
281
     1
  3
A0
350
48
  3
A1
350
49
  3
A2
350
4A
  3
A3
350
4B
  3
A4
350
4C
  3
A5
350
4D
  3
A6
350
4E
  3
A7
350
4F
  3
A8
350
50
  3
A9
350
51
  3
B0
350
52
  3
B1
350
53
  3
B2
350
54
  3
B3
350
55
  3
B4
350
56
  3
B5
350
57
  3
B6
350
58
  3
B7
350
59
  3
B8
350
5A
  3
B9
350
5B
  3
C0
350
5C
  3
C1
350
5D
  3
C2
350
5E
  3
C3
350
5F
  3
C4
350
60
  3
C5
350
61
  3
C6
350
62
  3
C7
350
63
  3
C8
350
64
  3
C9
350
65
  3
D0
350
66
  3
D1
350
67
  3
D2
350
68
  0
LAYOUT
  5
1E
102
{ACAD_REACTORS
330
1A
102
}
330
1A
100
AcDbPlotSettings
  1

  2
none_device
  4

  6

 40
0.0
 41
0.0
 42
0.0
 43
0.0
 44
0.0
 45
0.0
 46
0.0
 47
0.0
 48
0.0
 49
0.0
140
0.0
141
0.0
142
1.0
143
1.0
 70
   688
 72
     1
 73
     0
 74
     5
  7

 75
    16
147
1.0
148
0.0
149
0.0
100
AcDbLayout
  1
Layout1
 70
     1
 71
     1
 10
0.0
 20
0.0
 11
420.0
 21
297.0
 12
0.0
 22
0.0
 32
0.0
 14
1.0000000000E+20
 24
1.0000000000E+20
 34
1.0000000000E+20
 15
-1.0000000000E+20
 25
-1.0000000000E+20
 35
-1.0000000000E+20
146
0.0
 13
0.0
 23
0.0
 33
0.0
 16
1.0
 26
0.0
 36
0.0
 17
0.0
 27
1.0
 37
0.0
 76
     0
330
1B
  0
LAYOUT
  5
26
102
{ACAD_REACTORS
330
1A
102
}
330
1A
100
AcDbPlotSettings
  1

  2
none_device
  4

  6

 40
0.0
 41
0.0
 42
0.0
 43
0.0
 44
0.0
 45
0.0
 46
0.0
 47
0.0
 48
0.0
 49
0.0
140
0.0
141
0.0
142
1.0
143
1.0
 70
   688
 72
     1
 73
     0
 74
     5
  7

 75
    16
147
1.0
148
0.0
149
0.0
100
AcDbLayout
  1
Layout2
 70
     1
 71
     2
 10
0.0
 20
0.0
 11
0.0
 21
0.0
 12
0.0
 22
0.0
 32
0.0
 14
0.0
 24
0.0
 34
0.0
 15
0.0
 25
0.0
 35
0.0
146
0.0
 13
0.0
 23
0.0
 33
0.0
 16
1.0
 26
0.0
 36
0.0
 17
0.0
 27
1.0
 37
0.0
 76
     0
330
23
  0
LAYOUT
  5
22
102
{ACAD_REACTORS
330
1A
102
}
330
1A
100
AcDbPlotSettings
  1

  2
none_device
  4
Letter_(8.50_x_11.00_Inches)
  6

 40
6.35
 41
6.35
 42
6.35000508
 43
6.35000508
 44
215.9
 45
279.4
 46
0.0
 47
0.0
 48
0.0
 49
0.0
140
0.0
141
0.0
142
1.0
143
1.0
 70
  1712
 72
     1
 73
     0
 74
     0
  7

 75
     0
147
1.0
148
0.0
149
0.0
100
AcDbLayout
  1
Model
 70
     1
 71
     0
 10
0.0
 20
0.0
 11
431.8
 21
279.4
 12
0.0
 22
0.0
 32
0.0
 14
0.0
 24
0.0
 34
0.0
 15
431.8
 25
279.4
 35
0.0
146
0.0
 13
0.0
 23
0.0
 33
0.0
 16
1.0
 26
0.0
 36
0.0
 17
0.0
 27
1.0
 37
0.0
 76
     0
330
1F
331
29
  0
MLINESTYLE
  5
18
102
{ACAD_REACTORS
330
17
102
}
330
17
100
AcDbMlineStyle
  2
Standard
 70
     0
  3

 62
   256
 51
90.0
 52
90.0
 71
     2
 49
0.5
 62
   256
  6
BYLAYER
 49
-0.5
 62
   256
  6
BYLAYER
  0
ACDBPLACEHOLDER
  5
F
102
{ACAD_REACTORS
330
E
102
}
330
E
  0
SCALE
  5
48
102
{ACAD_REACTORS
330
47
102
}
330
47
100
AcDbScale
 70
     0
300
1:1
140
1.0
141
1.0
290
     1
  0
SCALE
  5
49
102
{ACAD_REACTORS
330
47
102
}
330
47
100
AcDbScale
 70
     0
300
1:2
140
1.0
141
2.0
290
     0
  0
SCALE
  5
4A
102
{ACAD_REACTORS
330
47
102
}
330
47
100
AcDbScale
 70
     0
300
1:4
140
1.0
141
4.0
290
     0
  0
SCALE
  5
4B
102
{ACAD_REACTORS
330
47
102
}
330
47
100
AcDbScale
 70
     0
300
1:5
140
1.0
141
5.0
290
     0
  0
SCALE
  5
4C
102
{ACAD_REACTORS
330
47
102
}
330
47
100
AcDbScale
 70
     0
300
1:8
140
1.0
141
8.0
290
     0
  0
SCALE
  5
4D
102
{ACAD_REACTORS
330
47
102
}
330
47
100
AcDbScale
 70
     0
300
1:10
140
1.0
141
10.0
290
     0
  0
SCALE
  5
4E
102
{ACAD_REACTORS
330
47
102
}
330
47
100
AcDbScale
 70
     0
300
1:16
140
1.0
141
16.0
290
     0
  0
SCALE
  5
4F
102
{ACAD_REACTORS
330
47
102
}
330
47
100
AcDbScale
 70
     0
300
1:20
140
1.0
141
20.0
290
     0
  0
SCALE
  5
50
102
{ACAD_REACTORS
330
47
102
}
330
47
100
AcDbScale
 70
     0
300
1:30
140
1.0
141
30.0
290
     0
  0
SCALE
  5
51
102
{ACAD_REACTORS
330
47
102
}
330
47
100
AcDbScale
 70
     0
300
1:40
140
1.0
141
40.0
290
     0
  0
SCALE
  5
52
102
{ACAD_REACTORS
330
47
102
}
330
47
100
AcDbScale
 70
     0
300
1:50
140
1.0
141
50.0
290
     0
  0
SCALE
  5
53
102
{ACAD_REACTORS
330
47
102
}
330
47
100
AcDbScale
 70
     0
300
1:100
140
1.0
141
100.0
290
     0
  0
SCALE
  5
54
102
{ACAD_REACTORS
330
47
102
}
330
47
100
AcDbScale
 70
     0
300
2:1
140
2.0
141
1.0
290
     0
  0
SCALE
  5
55
102
{ACAD_REACTORS
330
47
102
}
330
47
100
AcDbScale
 70
     0
300
4:1
140
4.0
141
1.0
290
     0
  0
SCALE
  5
56
102
{ACAD_REACTORS
330
47
102
}
330
47
100
AcDbScale
 70
     0
300
8:1
140
8.0
141
1.0
290
     0
  0
SCALE
  5
57
102
{ACAD_REACTORS
330
47
102
}
330
47
100
AcDbScale
 70
     0
300
10:1
140
10.0
141
1.0
290
     0
  0
SCALE
  5
58
102
{ACAD_REACTORS
330
47
102
}
330
47
100
AcDbScale
 70
     0
300
100:1
140
100.0
141
1.0
290
     0
  0
SCALE
  5
59
102
{ACAD_REACTORS
330
47
102
}
330
47
100
AcDbScale
 70
     0
300
1/128" = 1'-0"
140
0.0078125
141
12.0
290
     0
  0
SCALE
  5
5A
102
{ACAD_REACTORS
330
47
102
}
330
47
100
AcDbScale
 70
     0
300
1/64" = 1'-0"
140
0.015625
141
12.0
290
     0
  0
SCALE
  5
5B
102
{ACAD_REACTORS
330
47
102
}
330
47
100
AcDbScale
 70
     0
300
1/32" = 1'-0"
140
0.03125
141
12.0
290
     0
  0
SCALE
  5
5C
102
{ACAD_REACTORS
330
47
102
}
330
47
100
AcDbScale
 70
     0
300
1/16" = 1'-0"
140
0.0625
141
12.0
290
     0
  0
SCALE
  5
5D
102
{ACAD_REACTORS
330
47
102
}
330
47
100
AcDbScale
 70
     0
300
3/32" = 1'-0"
140
0.09375
141
12.0
290
     0
  0
SCALE
  5
5E
102
{ACAD_REACTORS
330
47
102
}
330
47
100
AcDbScale
 70
     0
300
1/8" = 1'-0"
140
0.125
141
12.0
290
     0
  0
SCALE
  5
5F
102
{ACAD_REACTORS
330
47
102
}
330
47
100
AcDbScale
 70
     0
300
3/16" = 1'-0"
140
0.1875
141
12.0
290
     0
  0
SCALE
  5
60
102
{ACAD_REACTORS
330
47
102
}
330
47
100
AcDbScale
 70
     0
300
1/4" = 1'-0"
140
0.25
141
12.0
290
     0
  0
SCALE
  5
61
102
{ACAD_REACTORS
330
47
102
}
330
47
100
AcDbScale
 70
     0
300
3/8" = 1'-0"
140
0.375
141
12.0
290
     0
  0
SCALE
  5
62
102
{ACAD_REACTORS
330
47
102
}
330
47
100
AcDbScale
 70
     0
300
1/2" = 1'-0"
140
0.5
141
12.0
290
     0
  0
SCALE
  5
63
102
{ACAD_REACTORS
330
47
102
}
330
47
100
AcDbScale
 70
     0
300
3/4" = 1'-0"
140
0.75
141
12.0
290
     0
  0
SCALE
  5
64
102
{ACAD_REACTORS
330
47
102
}
330
47
100
AcDbScale
 70
     0
300
1" = 1'-0"
140
1.0
141
12.0
290
     0
  0
SCALE
  5
65
102
{ACAD_REACTORS
330
47
102
}
330
47
100
AcDbScale
 70
     0
300
1-1/2" = 1'-0"
140
1.5
141
12.0
290
     0
  0
SCALE
  5
66
102
{ACAD_REACTORS
330
47
102
}
330
47
100
AcDbScale
 70
     0
300
3" = 1'-0"
140
3.0
141
12.0
290
     0
  0
SCALE
  5
67
102
{ACAD_REACTORS
330
47
102
}
330
47
100
AcDbScale
 70
     0
300
6" = 1'-0"
140
6.0
141
12.0
290
     0
  0
SCALE
  5
68
102
{ACAD_REACTORS
330
47
102
}
330
47
100
AcDbScale
 70
     0
300
1'-0" = 1'-0"
140
12.0
141
12.0
290
     0
  0
ENDSEC
  0
EOF
