  0
SECTION
  2
HEADER
  9
$ACADVER
  1
AC1015
  9
$ACADMAINTVER
 70
     6
  9
$DWGCODEPAGE
  3
ANSI_1252
  9
$INSBASE
 10
0.0
 20
0.0
 30
0.0
  9
$EXTMIN
 10
0.0
 20
0.0
 30
0.0
  9
$EXTMAX
 10
431.8
 20
279.4
 30
0.0
  9
$LIMMIN
 10
0.0
 20
0.0
  9
$LIMMAX
 10
431.8
 20
279.4
  9
$ORTHOMODE
 70
     0
  9
$REGENMODE
 70
     1
  9
$FILLMODE
 70
     1
  9
$QTEXTMODE
 70
     0
  9
$MIRRTEXT
 70
     1
  9
$LTSCALE
 40
1.0
  9
$ATTMODE
 70
     1
  9
$TEXTSIZE
 40
3.175
  9
$TRACEWID
 40
1.0
  9
$TEXTSTYLE
  7
Standard
  9
$CLAYER
  8
0
  9
$CELTYPE
  6
ByLayer
  9
$CECOLOR
 62
   256
  9
$CELTSCALE
 40
1.0
  9
$DISPSILH
 70
     0
  9
$DIMSCALE
 40
1.0
  9
$DIMASZ
 40
3.302
  9
$DIMEXO
 40
1.27
  9
$DIMDLI
 40
3.75
  9
$DIMRND
 40
0.0
  9
$DIMDLE
 40
0.0
  9
$DIMEXE
 40
3.175
  9
$DIMTP
 40
0.0
  9
$DIMTM
 40
0.0
  9
$DIMTXT
 40
3.175
  9
$DIMCEN
 40
2.5
  9
$DIMTSZ
 40
0.0
  9
$DIMTOL
 70
     0
  9
$DIMLIM
 70
     0
  9
$DIMTIH
 70
     1
  9
$DIMTOH
 70
     1
  9
$DIMSE1
 70
     0
  9
$DIMSE2
 70
     0
  9
$DIMTAD
 70
     0
  9
$DIMZIN
 70
     0
  9
$DIMBLK
  1

  9
$DIMASO
 70
     1
  9
$DIMSHO
 70
     1
  9
$DIMPOST
  1

  9
$DIMAPOST
  1

  9
$DIMALT
 70
     0
  9
$DIMALTD
 70
     3
  9
$DIMALTF
 40
0.0393700787
  9
$DIMLFAC
 40
10.0
  9
$DIMTOFL
 70
     1
  9
$DIMTVP
 40
0.0
  9
$DIMTIX
 70
     0
  9
$DIMSOXD
 70
     0
  9
$DIMSAH
 70
     0
  9
$DIMBLK1
  1

  9
$DIMBLK2
  1

  9
$DIMSTYLE
  2
ISO-25
  9
$DIMCLRD
 70
     0
  9
$DIMCLRE
 70
     0
  9
$DIMCLRT
 70
     0
  9
$DIMTFAC
 40
1.0
  9
$DIMGAP
 40
1.524
  9
$DIMJUST
 70
     0
  9
$DIMSD1
 70
     0
  9
$DIMSD2
 70
     0
  9
$DIMTOLJ
 70
     0
  9
$DIMTZIN
 70
     0
  9
$DIMALTZ
 70
     0
  9
$DIMALTTZ
 70
     0
  9
$DIMUPT
 70
     0
  9
$DIMDEC
 70
     0
  9
$DIMTDEC
 70
     0
  9
$DIMALTU
 70
     2
  9
$DIMALTTD
 70
     3
  9
$DIMTXSTY
  7
Standard
  9
$DIMAUNIT
 70
     0
  9
$DIMADEC
 70
     0
  9
$DIMALTRND
 40
0.0
  9
$DIMAZIN
 70
     0
  9
$DIMDSEP
 70
    44
  9
$DIMATFIT
 70
     3
  9
$DIMFRAC
 70
     0
  9
$DIMLDRBLK
  1

  9
$DIMLUNIT
 70
     2
  9
$DIMLWD
 70
    -2
  9
$DIMLWE
 70
    -2
  9
$DIMTMOVE
 70
     0
  9
$LUNITS
 70
     2
  9
$LUPREC
 70
     2
  9
$SKETCHINC
 40
1.0
  9
$FILLETRAD
 40
10.0
  9
$AUNITS
 70
     0
  9
$AUPREC
 70
     2
  9
$MENU
  1
.
  9
$ELEVATION
 40
0.0
  9
$PELEVATION
 40
0.0
  9
$THICKNESS
 40
0.0
  9
$LIMCHECK
 70
     0
  9
$CHAMFERA
 40
0.0
  9
$CHAMFERB
 40
0.0
  9
$CHAMFERC
 40
0.0
  9
$CHAMFERD
 40
0.0
  9
$SKPOLY
 70
     0
  9
$TDCREATE
 40
2458584.688463079
  9
$TDUCREATE
 40
2458584.855129745
  9
$TDUPDATE
 40
2458584.688464745
  9
$TDUUPDATE
 40
2458584.855131412
  9
$TDINDWG
 40
0.0000000116
  9
$TDUSRTIMER
 40
0.0000000116
  9
$USRTIMER
 70
     1
  9
$ANGBASE
 50
0.0
  9
$ANGDIR
 70
     0
  9
$PDMODE
 70
     0
  9
$PDSIZE
 40
-1.0
  9
$PLINEWID
 40
0.0
  9
$SPLFRAME
 70
     0
  9
$SPLINETYPE
 70
     6
  9
$SPLINESEGS
 70
     8
  9
$HANDSEED
  5
174
  9
$SURFTAB1
 70
     6
  9
$SURFTAB2
 70
     6
  9
$SURFTYPE
 70
     6
  9
$SURFU
 70
     6
  9
$SURFV
 70
     6
  9
$UCSBASE
  2

  9
$UCSNAME
  2

  9
$UCSORG
 10
0.0
 20
0.0
 30
0.0
  9
$UCSXDIR
 10
1.0
 20
0.0
 30
0.0
  9
$UCSYDIR
 10
0.0
 20
1.0
 30
0.0
  9
$UCSORTHOREF
  2

  9
$UCSORTHOVIEW
 70
     0
  9
$UCSORGTOP
 10
0.0
 20
0.0
 30
0.0
  9
$UCSORGBOTTOM
 10
0.0
 20
0.0
 30
0.0
  9
$UCSORGLEFT
 10
0.0
 20
0.0
 30
0.0
  9
$UCSORGRIGHT
 10
0.0
 20
0.0
 30
0.0
  9
$UCSORGFRONT
 10
0.0
 20
0.0
 30
0.0
  9
$UCSORGBACK
 10
0.0
 20
0.0
 30
0.0
  9
$PUCSBASE
  2

  9
$PUCSNAME
  2

  9
$PUCSORG
 10
0.0
 20
0.0
 30
0.0
  9
$PUCSXDIR
 10
1.0
 20
0.0
 30
0.0
  9
$PUCSYDIR
 10
0.0
 20
1.0
 30
0.0
  9
$PUCSORTHOREF
  2

  9
$PUCSORTHOVIEW
 70
     0
  9
$PUCSORGTOP
 10
0.0
 20
0.0
 30
0.0
  9
$PUCSORGBOTTOM
 10
0.0
 20
0.0
 30
0.0
  9
$PUCSORGLEFT
 10
0.0
 20
0.0
 30
0.0
  9
$PUCSORGRIGHT
 10
0.0
 20
0.0
 30
0.0
  9
$PUCSORGFRONT
 10
0.0
 20
0.0
 30
0.0
  9
$PUCSORGBACK
 10
0.0
 20
0.0
 30
0.0
  9
$USERI1
 70
     0
  9
$USERI2
 70
     0
  9
$USERI3
 70
     0
  9
$USERI4
 70
     0
  9
$USERI5
 70
     0
  9
$USERR1
 40
0.0
  9
$USERR2
 40
0.0
  9
$USERR3
 40
0.0
  9
$USERR4
 40
0.0
  9
$USERR5
 40
0.0
  9
$WORLDVIEW
 70
     1
  9
$SHADEDGE
 70
     3
  9
$SHADEDIF
 70
    70
  9
$TILEMODE
 70
     1
  9
$MAXACTVP
 70
    64
  9
$PINSBASE
 10
0.0
 20
0.0
 30
0.0
  9
$PLIMCHECK
 70
     0
  9
$PEXTMIN
 10
1.0000000000E+20
 20
1.0000000000E+20
 30
1.0000000000E+20
  9
$PEXTMAX
 10
-1.0000000000E+20
 20
-1.0000000000E+20
 30
-1.0000000000E+20
  9
$PLIMMIN
 10
0.0
 20
0.0
  9
$PLIMMAX
 10
420.0
 20
297.0
  9
$UNITMODE
 70
     0
  9
$VISRETAIN
 70
     1
  9
$PLINEGEN
 70
     0
  9
$PSLTSCALE
 70
     1
  9
$TREEDEPTH
 70
  3020
  9
$CMLSTYLE
  2
Standard
  9
$CMLJUST
 70
     0
  9
$CMLSCALE
 40
20.0
  9
$PROXYGRAPHICS
 70
     1
  9
$MEASUREMENT
 70
     1
  9
$CELWEIGHT
370
    -1
  9
$ENDCAPS
280
     0
  9
$JOINSTYLE
280
     0
  9
$LWDISPLAY
290
     1
  9
$INSUNITS
 70
     4
  9
$HYPERLINKBASE
  1

  9
$STYLESHEET
  1

  9
$XEDIT
290
     1
  9
$CEPSNTYPE
380
     0
  9
$PSTYLEMODE
290
     1
  9
$FINGERPRINTGUID
  2
{523FA063-41C0-430D-8C66-B2523ADA3369}
  9
$VERSIONGUID
  2
{FAEB1C32-E019-11D5-929B-00C0DF256EC4}
  9
$EXTNAMES
290
     1
  9
$PSVPSCALE
 40
0.0
  9
$OLESTARTUP
290
     0
  0
ENDSEC
  0
SECTION
  2
CLASSES
  0
CLASS
  1
ACDBDICTIONARYWDFLT
  2
AcDbDictionaryWithDefault
  3
ObjectDBX Classes
 90
        0
280
     0
281
     0
  0
CLASS
  1
VISUALSTYLE
  2
AcDbVisualStyle
  3
ObjectDBX Classes
 90
     4095
280
     0
281
     0
  0
CLASS
  1
MATERIAL
  2
AcDbMaterial
  3
ObjectDBX Classes
 90
     1153
280
     0
281
     0
  0
CLASS
  1
SCALE
  2
AcDbScale
  3
ObjectDBX Classes
 90
     1153
280
     0
281
     0
  0
CLASS
  1
TABLESTYLE
  2
AcDbTableStyle
  3
ObjectDBX Classes
 90
     4095
280
     0
281
     0
  0
CLASS
  1
MLEADERSTYLE
  2
AcDbMLeaderStyle
  3
ACDB_MLEADERSTYLE_CLASS
 90
     4095
280
     0
281
     0
  0
CLASS
  1
SUN
  2
AcDbSun
  3
SCENEOE
 90
     1153
280
     0
281
     0
  0
CLASS
  1
ACDBPLACEHOLDER
  2
AcDbPlaceHolder
  3
ObjectDBX Classes
 90
        0
280
     0
281
     0
  0
CLASS
  1
LAYOUT
  2
AcDbLayout
  3
ObjectDBX Classes
 90
        0
280
     0
281
     0
  0
ENDSEC
  0
SECTION
  2
TABLES
  0
TABLE
  2
VPORT
  5
8
330
0
100
AcDbSymbolTable
 70
     1
  0
VPORT
  5
29
330
8
100
AcDbSymbolTableRecord
100
AcDbViewportTableRecord
  2
*Active
 70
     0
 10
0.0
 20
0.0
 11
1.0
 21
1.0
 12
215.9
 22
139.7
 13
0.0
 23
0.0
 14
10.0
 24
10.0
 15
10.0
 25
10.0
 16
0.0
 26
0.0
 36
1.0
 17
0.0
 27
0.0
 37
0.0
 40
279.4
 41
1.5454545455
 42
50.0
 43
0.0
 44
0.0
 50
0.0
 51
0.0
 71
     0
 72
  2000
 73
     1
 74
     3
 75
     0
 76
     0
 77
     0
 78
     0
281
     0
 65
     1
110
0.0
120
0.0
130
0.0
111
1.0
121
0.0
131
0.0
112
0.0
122
1.0
132
0.0
 79
     0
146
0.0
  0
ENDTAB
  0
TABLE
  2
LTYPE
  5
5
330
0
100
AcDbSymbolTable
 70
     6
  0
LTYPE
  5
14
330
5
100
AcDbSymbolTableRecord
100
AcDbLinetypeTableRecord
  2
ByBlock
 70
     0
  3

 72
    65
 73
     0
 40
0.0
  0
LTYPE
  5
15
330
5
100
AcDbSymbolTableRecord
100
AcDbLinetypeTableRecord
  2
ByLayer
 70
     0
  3

 72
    65
 73
     0
 40
0.0
  0
LTYPE
  5
16
330
5
100
AcDbSymbolTableRecord
100
AcDbLinetypeTableRecord
  2
Continuous
 70
     0
  3
Solid line
 72
    65
 73
     0
 40
0.0
  0
LTYPE
  5
6E
330
5
100
AcDbSymbolTableRecord
100
AcDbLinetypeTableRecord
  2
HIDDEN
 70
     0
  3
Hidden __ __ __ __ __ __ __ __ __ __ __ __ __ __
 72
    65
 73
     2
 40
1.905
 49
1.27
 74
     0
 49
-0.635
 74
     0
  0
LTYPE
  5
6F
330
5
100
AcDbSymbolTableRecord
100
AcDbLinetypeTableRecord
  2
PHANTOM
 70
     0
  3
Phantom ______  __  __  ______  __  __  ______
 72
    65
 73
     6
 40
12.7
 49
6.35
 74
     0
 49
-1.27
 74
     0
 49
1.27
 74
     0
 49
-1.27
 74
     0
 49
1.27
 74
     0
 49
-1.27
 74
     0
  0
LTYPE
  5
70
330
5
100
AcDbSymbolTableRecord
100
AcDbLinetypeTableRecord
  2
CENTER
 70
     0
  3
Center ____ _ ____ _ ____ _ ____ _ ____ _ ____
 72
    65
 73
     4
 40
10.16
 49
6.35
 74
     0
 49
-1.27
 74
     0
 49
1.27
 74
     0
 49
-1.27
 74
     0
  0
LTYPE
  5
71
330
5
100
AcDbSymbolTableRecord
100
AcDbLinetypeTableRecord
  2
CENTERX2
 70
     0
  3
Center (2x) ________  __  ________  __  _____
 72
    65
 73
     4
 40
20.32
 49
12.7
 74
     0
 49
-2.54
 74
     0
 49
2.54
 74
     0
 49
-2.54
 74
     0
  0
LTYPE
  5
72
330
5
100
AcDbSymbolTableRecord
100
AcDbLinetypeTableRecord
  2
DOT2
 70
     0
  3
Dot (.5x) ........................................
 72
    65
 73
     2
 40
0.635
 49
0.0
 74
     0
 49
-0.635
 74
     0
  0
ENDTAB
  0
TABLE
  2
LAYER
  5
2
330
0
100
AcDbSymbolTable
 70
     2
  0
LAYER
  5
10
330
2
100
AcDbSymbolTableRecord
100
AcDbLayerTableRecord
  2
0
 70
     0
 62
     7
  6
Continuous
370
    -3
390
F
  0
LAYER
  5
73
330
2
100
AcDbSymbolTableRecord
100
AcDbLayerTableRecord
  2
FORMAT
 70
     0
 62
     7
  6
Continuous
370
    -3
390
F
  0
ENDTAB
  0
TABLE
  2
STYLE
  5
3
330
0
100
AcDbSymbolTable
 70
     2
  0
STYLE
  5
11
330
3
100
AcDbSymbolTableRecord
100
AcDbTextStyleTableRecord
  2
Standard
 70
     0
 40
0.0
 41
1.0
 50
0.0
 71
     0
 42
3.175
  3
txt
  4

  0
STYLE
  5
B8
330
3
100
AcDbSymbolTableRecord
100
AcDbTextStyleTableRecord
  2
SLDTEXTSTYLE0
 70
     0
 40
0.0
 41
0.7
 50
0.0
 71
     0
 42
3.175
  3
TXT
  4

  0
ENDTAB
  0
TABLE
  2
VIEW
  5
6
330
0
100
AcDbSymbolTable
 70
     0
  0
ENDTAB
  0
TABLE
  2
UCS
  5
7
330
0
100
AcDbSymbolTable
 70
     0
  0
ENDTAB
  0
TABLE
  2
APPID
  5
9
330
0
100
AcDbSymbolTable
 70
     1
  0
APPID
  5
12
330
9
100
AcDbSymbolTableRecord
100
AcDbRegAppTableRecord
  2
ACAD
 70
     0
  0
ENDTAB
  0
TABLE
  2
DIMSTYLE
  5
A
330
0
100
AcDbSymbolTable
 70
     1
100
AcDbDimStyleTable
  0
DIMSTYLE
105
27
330
A
100
AcDbSymbolTableRecord
100
AcDbDimStyleTableRecord
  2
ISO-25
 70
     0
 41
2.5
 42
0.625
 43
3.75
 44
1.25
 73
     0
 74
     0
 77
     1
 78
     8
140
2.5
141
2.5
143
0.0393700787
147
0.625
171
     3
172
     1
178
     0
271
     2
272
     2
274
     3
278
    44
283
     0
284
     8
340
11
  0
ENDTAB
  0
TABLE
  2
BLOCK_RECORD
  5
1
330
0
100
AcDbSymbolTable
 70
     3
  0
BLOCK_RECORD
  5
1F
330
1
100
AcDbSymbolTableRecord
100
AcDbBlockTableRecord
  2
*Model_Space
340
22
  0
BLOCK_RECORD
  5
1B
330
1
100
AcDbSymbolTableRecord
100
AcDbBlockTableRecord
  2
*Paper_Space
340
1E
  0
BLOCK_RECORD
  5
23
330
1
100
AcDbSymbolTableRecord
100
AcDbBlockTableRecord
  2
*Paper_Space0
340
26
  0
BLOCK_RECORD
  5
BB
330
1
100
AcDbSymbolTableRecord
100
AcDbBlockTableRecord
  2
SW_NOTE_0
340
0
102
{BLKREFS
331
C1
102
}
  0
BLOCK_RECORD
  5
C6
330
1
100
AcDbSymbolTableRecord
100
AcDbBlockTableRecord
  2
SW_NOTE_1
340
0
102
{BLKREFS
331
CC
102
}
  0
ENDTAB
  0
ENDSEC
  0
SECTION
  2
BLOCKS
  0
BLOCK
  5
20
330
1F
100
AcDbEntity
  8
0
100
AcDbBlockBegin
  2
*Model_Space
 70
     0
 10
0.0
 20
0.0
 30
0.0
  3
*Model_Space
  1

  0
ENDBLK
  5
21
330
1F
100
AcDbEntity
  8
0
100
AcDbBlockEnd
  0
BLOCK
  5
1C
330
1B
100
AcDbEntity
 67
     1
  8
0
100
AcDbBlockBegin
  2
*Paper_Space
 70
     0
 10
0.0
 20
0.0
 30
0.0
  3
*Paper_Space
  1

  0
ENDBLK
  5
1D
330
1B
100
AcDbEntity
 67
     1
  8
0
100
AcDbBlockEnd
  0
BLOCK
  5
24
330
23
100
AcDbEntity
  8
0
100
AcDbBlockBegin
  2
*Paper_Space0
 70
     0
 10
0.0
 20
0.0
 30
0.0
  3
*Paper_Space0
  1

  0
ENDBLK
  5
25
330
23
100
AcDbEntity
  8
0
100
AcDbBlockEnd
  0
BLOCK
  5
BC
330
BB
100
AcDbEntity
  8
0
100
AcDbBlockBegin
  2
SW_NOTE_0
 70
     0
 10
0.0
 20
0.0
 30
0.0
  3
SW_NOTE_0
  1

  0
MTEXT
  5
BE
330
BB
100
AcDbEntity
  8
0
  6
Continuous
 62
     0
370
     0
100
AcDbMText
 10
0.0
 20
2.0463950369
 30
0.0
 40
1.5875
 41
0.0
 71
     1
 72
     1
  1
87 34th Street, Unit 11, Brooklyn, NY 11232
  7
SLDTEXTSTYLE0
 73
     1
 44
1.0
  0
MTEXT
  5
BF
330
BB
100
AcDbEntity
  8
0
  6
Continuous
 62
     0
370
     0
100
AcDbMText
 10
0.0
 20
-0.0702716042
 30
0.0
 40
1.5875
 41
0.0
 71
     1
 72
     1
  1
T +1 718-387-6132
  7
SLDTEXTSTYLE0
 73
     1
 44
1.0
  0
MTEXT
  5
C0
330
BB
100
AcDbEntity
  8
0
  6
Continuous
 62
     0
370
     0
100
AcDbMText
 10
0.0
 20
-2.1869382453
 30
0.0
 40
1.5875
 41
0.0
 71
     1
 72
     1
  1
www.rollandhill.com
  7
SLDTEXTSTYLE0
 73
     1
 44
1.0
  0
ENDBLK
  5
BD
330
BB
100
AcDbEntity
  8
0
100
AcDbBlockEnd
  0
BLOCK
  5
C7
330
C6
100
AcDbEntity
  8
0
100
AcDbBlockBegin
  2
SW_NOTE_1
 70
     0
 10
0.0
 20
0.0
 30
0.0
  3
SW_NOTE_1
  1

  0
MTEXT
  5
C9
330
C6
100
AcDbEntity
  8
0
  6
Continuous
 62
     0
370
     0
100
AcDbMText
 10
0.0
 20
2.0463950369
 30
0.0
 40
1.5875
 41
0.0
 71
     1
 72
     1
  1
\LPROPRIETARY AND CONFIDENTIAL
  7
SLDTEXTSTYLE0
 73
     1
 44
1.0
  0
MTEXT
  5
CA
330
C6
100
AcDbEntity
  8
0
  6
Continuous
 62
     0
370
     0
100
AcDbMText
 10
37.3117625713
 20
2.0463950369
 30
0.0
 40
1.5875
 41
0.0
 71
     1
 72
     1
  1
THE INFORMATION CONTAINED IN THIS DRAWING IS THE SOLE PROPERTY OF ROLL & HILL LLC. ANY REPRODUCTION IN
  7
SLDTEXTSTYLE0
 73
     1
 44
1.0
  0
MTEXT
  5
CB
330
C6
100
AcDbEntity
  8
0
  6
Continuous
 62
     0
370
     0
100
AcDbMText
 10
0.0
 20
-0.0702716042
 30
0.0
 40
1.5875
 41
0.0
 71
     1
 72
     1
  1
PART OR AS A WHOLE WITHOUT THE WRITTEN PERMISSION OF ROLL & HILL LLC. IS PROHIBITED.
  7
SLDTEXTSTYLE0
 73
     1
 44
1.0
  0
ENDBLK
  5
C8
330
C6
100
AcDbEntity
  8
0
100
AcDbBlockEnd
  0
ENDSEC
  0
SECTION
  2
ENTITIES
  0
HATCH
  5
74
330
1F
100
AcDbEntity
  8
0
  6
Continuous
 62
     7
100
AcDbHatch
 10
0.0
 20
0.0
 30
0.0
210
0.0
220
0.0
230
1.0
  2
SOLID
 70
     1
 71
     0
 91
        2
 92
        0
 93
        6
 72
     4
 94
        3
 73
     1
 74
     0
 95
       20
 96
       16
 40
0.0
 40
0.0
 40
0.0
 40
0.0
 40
1.0
 40
1.0
 40
1.0
 40
2.0
 40
2.0
 40
2.0
 40
3.0
 40
3.0
 40
3.0
 40
4.0
 40
4.0
 40
4.0
 40
5.0
 40
5.0
 40
5.0
 40
5.0
 10
261.0219043336847
 20
23.63056361828031
 42
1.0
 10
261.2341319795987
 20
23.68742184709604
 42
1.0
 10
261.3945785321864
 20
23.72473719781129
 42
1.0
 10
261.5515161764629
 20
23.77337299628437
 42
1.0
 10
262.5617362220245
 20
24.08644572151765
 42
1.0
 10
262.9966382899503
 20
24.76217905347502
 42
1.0
 10
262.9131259646454
 20
25.88395655371281
 42
1.0
 10
262.8488620904764
 20
26.74717259793779
 42
1.0
 10
262.3071445332423
 20
27.30037799580671
 42
1.0
 10
261.2989762515715
 20
27.40941936834727
 42
1.0
 10
260.5093946232761
 20
27.49481913962259
 42
1.0
 10
259.7094699986221
 20
27.48819126576296
 42
1.0
 10
258.913837050576
 20
27.51251762112626
 42
1.0
 10
258.5159962651877
 20
27.52468175973202
 42
1.0
 10
258.1174764912431
 20
27.51463645747964
 42
1.0
 10
257.7192638284546
 20
27.51463645747964
 42
1.0
 72
     4
 94
        3
 73
     1
 74
     0
 95
       14
 96
       10
 40
17.0
 40
17.0
 40
17.0
 40
17.0
 40
18.0
 40
18.0
 40
18.0
 40
19.0
 40
19.0
 40
19.0
 40
20.0
 40
20.0
 40
20.0
 40
20.0
 10
257.7192638284546
 20
27.51463645747964
 42
1.0
 10
258.2057453879524
 20
27.36893835120056
 42
1.0
 10
258.4151924094879
 20
27.04153921726714
 42
1.0
 10
258.4151320634913
 20
26.55729487989966
 42
1.0
 10
258.4149081683119
 20
24.76100595804667
 42
1.0
 10
258.4191609275175
 20
22.96470127704905
 42
1.0
 10
258.4124688639662
 20
21.16843695483816
 42
1.0
 10
258.4104423723632
 20
20.62446660851326
 42
1.0
 10
258.2139995287706
 20
20.39587059142628
 42
1.0
 10
257.7053577757453
 20
20.25910042553502
 42
1.0
 72
     1
 10
257.7053577757453
 20
20.25910042553502
 11
260.1134120717832
 21
20.25910042553502
 72
     4
 94
        3
 73
     1
 74
     0
 95
       14
 96
       10
 40
13.0
 40
13.0
 40
13.0
 40
13.0
 40
14.0
 40
14.0
 40
14.0
 40
15.0
 40
15.0
 40
15.0
 40
16.0
 40
16.0
 40
16.0
 40
16.0
 10
260.1134120717832
 20
20.25910042553502
 42
1.0
 10
259.6377614656041
 20
20.40079128856704
 42
1.0
 10
259.4435911100346
 20
20.64162793377141
 42
1.0
 10
259.4408326829897
 20
21.14221143023692
 42
1.0
 10
259.4366701545022
 20
21.89763799307775
 42
1.0
 10
259.4392191002215
 20
22.65310606781492
 42
1.0
 10
259.4405559370167
 20
23.40855338660287
 42
1.0
 10
259.4406539512153
 20
23.46398560492077
 42
1.0
 10
259.4539911852495
 20
23.51939476107442
 42
1.0
 10
259.4607286043899
 20
23.57138302951071
 42
1.0
 72
     4
 94
        3
 73
     1
 74
     0
 95
       20
 96
       16
 40
8.0
 40
8.0
 40
8.0
 40
8.0
 40
9.0
 40
9.0
 40
9.0
 40
10.0
 40
10.0
 40
10.0
 40
11.0
 40
11.0
 40
11.0
 40
12.0
 40
12.0
 40
12.0
 40
13.0
 40
13.0
 40
13.0
 40
13.0
 10
259.4607286043899
 20
23.57138302951071
 42
1.0
 10
260.3725694925604
 20
23.65083910446931
 42
1.0
 10
260.6054131759577
 20
23.52556773374194
 42
1.0
 10
261.0037355762117
 20
22.71920223094413
 42
1.0
 10
261.378026816807
 20
21.9614848264415
 42
1.0
 10
261.7451764738302
 20
21.200166649339
 42
1.0
 10
262.1067370153144
 20
20.43629933433309
 42
1.0
 10
262.1765046750147
 20
20.28890135435546
 42
1.0
 10
262.2549406335689
 20
20.22203337745712
 42
1.0
 10
262.427398730108
 20
20.22724465786873
 42
1.0
 10
262.8718696744063
 20
20.24067529366942
 42
1.0
 10
263.3170171088603
 20
20.2311736819415
 42
1.0
 10
263.7618904879274
 20
20.2323936704376
 42
1.0
 10
263.8264337986554
 20
20.23257048036439
 42
1.0
 10
263.8909540472192
 20
20.24131411562171
 42
1.0
 10
263.9554858268652
 20
20.24609336482204
 42
1.0
 72
     4
 94
        3
 73
     1
 74
     0
 95
       14
 96
       10
 40
5.0
 40
5.0
 40
5.0
 40
5.0
 40
6.0
 40
6.0
 40
6.0
 40
7.0
 40
7.0
 40
7.0
 40
8.0
 40
8.0
 40
8.0
 40
8.0
 10
263.9554858268652
 20
20.24609336482204
 42
1.0
 10
263.5606000734738
 20
20.32757122285868
 42
1.0
 10
263.3178377375433
 20
20.57267359973515
 42
1.0
 10
263.1292772534607
 20
20.88520667032095
 42
1.0
 10
262.8739775562312
 20
21.30835818112304
 42
1.0
 10
262.6276890153665
 20
21.7369354504649
 42
1.0
 10
262.3739921385617
 20
22.16106556577572
 42
1.0
 10
262.033208300972
 20
22.73079019980925
 42
1.0
 10
261.7521543160346
 20
23.35408286053947
 42
1.0
 10
261.0219043336847
 20
23.63056361828031
 42
1.0
 97
        0
 92
        0
 93
        2
 72
     1
 10
259.4558811296203
 20
23.74052094311722
 11
259.4558811296203
 21
27.35855230546976
 72
     4
 94
        3
 73
     1
 74
     0
 95
       20
 96
       16
 40
1.0
 40
1.0
 40
1.0
 40
1.0
 40
2.0
 40
2.0
 40
2.0
 40
3.0
 40
3.0
 40
3.0
 40
4.0
 40
4.0
 40
4.0
 40
5.0
 40
5.0
 40
5.0
 40
6.0
 40
6.0
 40
6.0
 40
6.0
 10
259.4558811296203
 20
27.35855230546976
 42
1.0
 10
259.8103733099057
 20
27.35855230546976
 42
1.0
 10
260.1467440101549
 20
27.38072599997261
 42
1.0
 10
260.4792308497364
 20
27.35420547185249
 42
1.0
 10
261.3230227860075
 20
27.28690123567825
 42
1.0
 10
261.7108519014664
 20
26.95476897687368
 42
1.0
 10
261.8164781518313
 20
26.10478869315943
 42
1.0
 10
261.8719876284001
 20
25.65810454981779
 42
1.0
 10
261.8389787525148
 20
25.18024881635489
 42
1.0
 10
261.7413862071132
 20
24.73962656292206
 42
1.0
 10
261.608259863196
 20
24.13857044109259
 42
1.0
 10
261.1506181168165
 20
23.81517009427841
 42
1.0
 10
260.5489927438957
 20
23.74778168120397
 42
1.0
 10
260.1942113256325
 20
23.70804326575078
 42
1.0
 10
259.8313410453958
 20
23.74052094311722
 42
1.0
 10
259.4558811296203
 20
23.74052094311722
 42
1.0
 97
        0
 75
     0
 76
     1
 98
        1
 10
0.0
 20
0.0
  0
HATCH
  5
75
330
1F
100
AcDbEntity
  8
0
  6
Continuous
 62
     7
100
AcDbHatch
 10
0.0
 20
0.0
 30
0.0
210
0.0
220
0.0
230
1.0
  2
SOLID
 70
     1
 71
     0
 91
        2
 92
        0
 93
        2
 72
     4
 94
        3
 73
     1
 74
     0
 95
       14
 96
       10
 40
0.0
 40
0.0
 40
0.0
 40
0.0
 40
1.0
 40
1.0
 40
1.0
 40
2.0
 40
2.0
 40
2.0
 40
3.0
 40
3.0
 40
3.0
 40
3.0
 10
267.2336118279071
 20
20.23490821509466
 42
1.0
 10
268.1650050112285
 20
19.98240211471103
 42
1.0
 10
269.1482911393735
 20
20.33660467264827
 42
1.0
 10
269.7215189161771
 20
21.13111084177937
 42
1.0
 10
270.3723808569537
 20
22.03321892002499
 42
1.0
 10
270.372934348899
 20
23.32205720159637
 42
1.0
 10
269.7103360726668
 20
24.21398909980579
 42
1.0
 10
269.2464106552308
 20
24.83848445240961
 42
1.0
 10
268.6216197225536
 20
25.16033694362372
 42
1.0
 10
267.7758432870376
 20
25.16748813643033
 42
1.0
 72
     4
 94
        3
 73
     1
 74
     0
 95
       14
 96
       10
 40
3.0
 40
3.0
 40
3.0
 40
3.0
 40
4.0
 40
4.0
 40
4.0
 40
5.0
 40
5.0
 40
5.0
 40
6.0
 40
6.0
 40
6.0
 40
6.0
 10
267.7758432870376
 20
25.16748813643033
 42
1.0
 10
266.9062728477855
 20
25.1505801106106
 42
1.0
 10
266.225828300013
 20
24.723612195973
 42
1.0
 10
265.7739382574312
 20
23.92202056120339
 42
1.0
 10
265.4879189885011
 20
23.41465794151554
 42
1.0
 10
265.4259332718035
 20
22.86561853145873
 42
1.0
 10
265.4837047623288
 20
22.29272284982232
 42
1.0
 10
265.5792320909092
 20
21.34541139190241
 42
1.0
 10
266.3034040398354
 20
20.48709452013179
 42
1.0
 10
267.2336118279071
 20
20.23490821509466
 42
1.0
 97
        0
 92
        0
 93
        2
 72
     4
 94
        3
 73
     1
 74
     0
 95
       17
 96
       13
 40
0.0
 40
0.0
 40
0.0
 40
0.0
 40
1.0
 40
1.0
 40
1.0
 40
2.0
 40
2.0
 40
2.0
 40
3.0
 40
3.0
 40
3.0
 40
4.0
 40
4.0
 40
4.0
 40
4.0
 10
266.4699528411193
 20
22.82140374989816
 42
1.0
 10
266.4968487059656
 20
23.23360918874381
 42
1.0
 10
266.5993976948625
 20
23.64490674705059
 42
1.0
 10
266.7072125446274
 20
24.04607386528146
 42
1.0
 10
266.7597204805012
 20
24.2414496033099
 42
1.0
 10
266.882078331128
 20
24.42789874624283
 42
1.0
 10
267.0072628343699
 20
24.59213287496141
 42
1.0
 10
267.4640605055332
 20
25.19142205062979
 42
1.0
 10
268.2143234497673
 20
25.18405330473933
 42
1.0
 10
268.6683621173312
 20
24.58056604641373
 42
1.0
 10
269.0963628325642
 20
24.01168817818241
 42
1.0
 10
269.195680043492
 20
23.34551372899321
 42
1.0
 10
269.218762963826
 20
22.68351122534059
 42
1.0
 72
     4
 94
        3
 73
     1
 74
     0
 95
       17
 96
       13
 40
4.0
 40
4.0
 40
4.0
 40
4.0
 40
5.0
 40
5.0
 40
5.0
 40
6.0
 40
6.0
 40
6.0
 40
7.0
 40
7.0
 40
7.0
 40
8.0
 40
8.0
 40
8.0
 40
8.0
 10
269.218762963826
 20
22.68351122534059
 42
1.0
 10
269.202432645224
 20
22.05765558940843
 42
1.0
 10
269.1208448575376
 20
21.47214721006825
 42
1.0
 10
268.810867074766
 20
20.94311038392242
 42
1.0
 10
268.6078393105943
 20
20.5966013640246
 42
1.0
 10
268.3388937306983
 20
20.33416469565678
 42
1.0
 10
267.9076604687568
 20
20.30531315927085
 42
1.0
 10
267.4153070900211
 20
20.27237193240103
 42
1.0
 10
267.1048165584612
 20
20.54785025472892
 42
1.0
 10
266.8746830637486
 20
20.93428603108956
 42
1.0
 10
266.5287029361534
 20
21.51524885782822
 42
1.0
 10
266.4269741915698
 20
22.16270989809668
 42
1.0
 10
266.4699528411193
 20
22.82140374989816
 42
1.0
 97
        0
 75
     0
 76
     1
 98
        1
 10
0.0
 20
0.0
  0
HATCH
  5
76
330
1F
100
AcDbEntity
  8
0
  6
Continuous
 62
     7
100
AcDbHatch
 10
0.0
 20
0.0
 30
0.0
210
0.0
220
0.0
230
1.0
  2
SOLID
 70
     1
 71
     0
 91
        1
 92
        0
 93
        4
 72
     1
 10
273.9540333846496
 20
27.87257450949275
 11
272.4594267850394
 21
27.32510813123116
 72
     4
 94
        3
 73
     1
 74
     0
 95
       14
 96
       10
 40
6.0
 40
6.0
 40
6.0
 40
6.0
 40
7.0
 40
7.0
 40
7.0
 40
8.0
 40
8.0
 40
8.0
 40
9.0
 40
9.0
 40
9.0
 40
9.0
 10
272.4594267850394
 20
27.32510813123116
 42
1.0
 10
272.9826104338649
 20
27.28380667758701
 42
1.0
 10
273.0476395875227
 20
27.23250104921648
 42
1.0
 10
273.0527409382852
 20
26.65700799131587
 42
1.0
 10
273.0685846452182
 20
24.86961337752774
 42
1.0
 10
273.0702866329497
 20
23.08209538116094
 42
1.0
 10
273.0783845276048
 20
21.29462927466367
 42
1.0
 10
273.0805785081768
 20
20.81042375860576
 42
1.0
 10
273.0059923935969
 20
20.37668517687364
 42
1.0
 10
272.426404840594
 20
20.2590796695872
 42
1.0
 72
     1
 10
272.426404840594
 20
20.2590796695872
 11
274.6224502449564
 21
20.2590796695872
 72
     4
 94
        3
 73
     1
 74
     0
 95
       17
 96
       13
 40
1.0
 40
1.0
 40
1.0
 40
1.0
 40
2.0
 40
2.0
 40
2.0
 40
3.0
 40
3.0
 40
3.0
 40
4.0
 40
4.0
 40
4.0
 40
5.0
 40
5.0
 40
5.0
 40
5.0
 10
274.6224502449564
 20
20.2590796695872
 42
1.0
 10
274.1836818051716
 20
20.38260600321025
 42
1.0
 10
274.0006220316647
 20
20.58964274029083
 42
1.0
 10
273.9590578615309
 20
21.04279505200226
 42
1.0
 10
273.9506540088286
 20
21.13443409966764
 42
1.0
 10
273.954217881965
 20
21.22727776105204
 42
1.0
 10
273.9542086570993
 20
21.31956562427539
 42
1.0
 10
273.9539872603212
 20
23.41776441505853
 42
1.0
 10
273.9540349221275
 20
25.51596282147274
 42
1.0
 10
273.9540333846496
 20
27.61416161225588
 42
1.0
 10
273.9540333846496
 20
27.71082379150879
 42
1.0
 10
273.9540333846496
 20
27.8074859707617
 42
1.0
 10
273.9540333846496
 20
27.87257450949275
 42
1.0
 97
        0
 75
     0
 76
     1
 98
        1
 10
0.0
 20
0.0
  0
HATCH
  5
77
330
1F
100
AcDbEntity
  8
0
  6
Continuous
 62
     7
100
AcDbHatch
 10
0.0
 20
0.0
 30
0.0
210
0.0
220
0.0
230
1.0
  2
SOLID
 70
     1
 71
     0
 91
        1
 92
        0
 93
        4
 72
     1
 10
276.9460186560295
 20
20.2549177176549
 11
279.1055120673172
 21
20.2549177176549
 72
     4
 94
        3
 73
     1
 74
     0
 95
       14
 96
       10
 40
6.0
 40
6.0
 40
6.0
 40
6.0
 40
7.0
 40
7.0
 40
7.0
 40
8.0
 40
8.0
 40
8.0
 40
9.0
 40
9.0
 40
9.0
 40
9.0
 10
279.1055120673172
 20
20.2549177176549
 42
1.0
 10
278.6550987719953
 20
20.40793364087759
 42
1.0
 10
278.4823339486704
 20
20.63637283524633
 42
1.0
 10
278.4822124879378
 20
21.11904779232805
 42
1.0
 10
278.4816605334703
 20
23.30086999117493
 42
1.0
 10
278.4819664915176
 20
25.48269219002111
 42
1.0
 10
278.4819649540404
 20
27.66451419668386
 42
1.0
 10
278.4819649540404
 20
27.75219577693941
 42
1.0
 10
278.4819664915176
 20
27.83987735719566
 42
1.0
 10
278.4819664915176
 20
27.88441039662488
 42
1.0
 72
     1
 10
278.4819664915176
 20
27.88441039662488
 11
276.9846800684063
 21
27.3296354262854
 72
     4
 94
        3
 73
     1
 74
     0
 95
       17
 96
       13
 40
1.0
 40
1.0
 40
1.0
 40
1.0
 40
2.0
 40
2.0
 40
2.0
 40
3.0
 40
3.0
 40
3.0
 40
4.0
 40
4.0
 40
4.0
 40
5.0
 40
5.0
 40
5.0
 40
5.0
 10
276.9846800684063
 20
27.3296354262854
 42
1.0
 10
277.5366914227135
 20
27.25167954511983
 42
1.0
 10
277.5738092075535
 20
27.20775573119973
 42
1.0
 10
277.5772915943764
 20
26.57154691311976
 42
1.0
 10
277.5773838430334
 20
26.55476419172763
 42
1.0
 10
277.577359243392
 20
26.53798031722657
 42
1.0
 10
277.577359243392
 20
26.52119721146337
 42
1.0
 10
277.5773700057348
 20
24.72538990447762
 42
1.0
 10
277.5776652014392
 20
22.92958298186009
 42
1.0
 10
277.5771993457187
 20
21.13377529050539
 42
1.0
 10
277.5770686601204
 20
20.6342380475635
 42
1.0
 10
277.4179566381115
 20
20.4199152040148
 42
1.0
 10
276.9460186560295
 20
20.2549177176549
 42
1.0
 97
        0
 75
     0
 76
     1
 98
        1
 10
0.0
 20
0.0
  0
HATCH
  5
78
330
1F
100
AcDbEntity
  8
0
  6
Continuous
 62
     7
100
AcDbHatch
 10
0.0
 20
0.0
 30
0.0
210
0.0
220
0.0
230
1.0
  2
SOLID
 70
     1
 71
     0
 91
        3
 92
        0
 93
        9
 72
     4
 94
        3
 73
     1
 74
     0
 95
       14
 96
       10
 40
0.0
 40
0.0
 40
0.0
 40
0.0
 40
1.0
 40
1.0
 40
1.0
 40
2.0
 40
2.0
 40
2.0
 40
3.0
 40
3.0
 40
3.0
 40
3.0
 10
287.0539854214827
 20
21.61211917311517
 42
1.0
 10
287.2972697310664
 20
21.3082559388604
 42
1.0
 10
287.5152010346028
 20
21.01001756649998
 42
1.0
 10
287.7601488949774
 20
20.73592220529573
 42
1.0
 10
288.1784811821614
 20
20.26780485511384
 42
1.0
 10
288.7048673968812
 20
20.09831485913089
 42
1.0
 10
289.3271645408483
 20
20.20870037148624
 42
1.0
 10
289.9739444785289
 20
20.32342848939635
 42
1.0
 10
290.7160910783766
 20
21.04182259740494
 42
1.0
 10
290.8103661314317
 20
21.70506046432864
 42
1.0
 72
     4
 94
        3
 73
     1
 74
     0
 95
       14
 96
       10
 40
24.0
 40
24.0
 40
24.0
 40
24.0
 40
25.0
 40
25.0
 40
25.0
 40
26.0
 40
26.0
 40
26.0
 40
27.0
 40
27.0
 40
27.0
 40
27.0
 10
290.8103661314317
 20
21.70506046432864
 42
1.0
 10
290.6825002672103
 20
21.49939669476813
 42
1.0
 10
290.5884281612034
 20
21.32571784099438
 42
1.0
 10
290.4735170834558
 20
21.16713932372221
 42
1.0
 10
289.9836367374808
 20
20.49110656799653
 42
1.0
 10
289.3841588364346
 20
20.43289382139212
 42
1.0
 10
288.8166481701822
 20
21.05011190802389
 42
1.0
 10
288.4270667146001
 20
21.47381844824843
 42
1.0
 10
288.0996055050067
 20
21.95463920731319
 42
1.0
 10
287.7314564875268
 20
22.4264857094768
 42
1.0
 72
     4
 94
        3
 73
     1
 74
     0
 95
       11
 96
        7
 40
22.0
 40
22.0
 40
22.0
 40
22.0
 40
23.0
 40
23.0
 40
23.0
 40
24.0
 40
24.0
 40
24.0
 40
24.0
 10
287.7314564875268
 20
22.4264857094768
 42
1.0
 10
288.1508588591387
 20
23.00030157147278
 42
1.0
 10
288.5466855488353
 20
23.55949371503118
 42
1.0
 10
288.9612633156569
 20
24.10441845059237
 42
1.0
 10
289.4290162836425
 20
24.71923384406366
 42
1.0
 10
289.9536528488242
 20
25.26443186627322
 42
1.0
 10
290.7742138825406
 20
25.39867403457779
 42
1.0
 72
     1
 10
290.7742138825406
 20
25.39867403457779
 11
287.7715077796773
 21
25.39867403457779
 72
     4
 94
        3
 73
     1
 74
     0
 95
       17
 96
       13
 40
16.0
 40
16.0
 40
16.0
 40
16.0
 40
17.0
 40
17.0
 40
17.0
 40
18.0
 40
18.0
 40
18.0
 40
19.0
 40
19.0
 40
19.0
 40
20.0
 40
20.0
 40
20.0
 40
20.0
 10
287.7715077796773
 20
25.39867403457779
 42
1.0
 10
287.9710693005408
 20
25.34310267453518
 42
1.0
 10
288.1718392788191
 20
25.32949945687163
 42
1.0
 10
288.3670435880915
 20
25.28904726743022
 42
1.0
 10
288.7601181928394
 20
25.20759054971102
 42
1.0
 10
288.9174636530569
 20
24.97387165717582
 42
1.0
 10
288.8543009972361
 20
24.57697987985169
 42
1.0
 10
288.8373887433532
 20
24.47070865762303
 42
1.0
 10
288.8131334963293
 20
24.35736772890119
 42
1.0
 10
288.7595985254019
 20
24.26650702928458
 42
1.0
 10
288.4211781752921
 20
23.692108847638
 42
1.0
 10
288.0735790837579
 20
23.12311989664797
 42
1.0
 10
287.7233847299918
 20
22.54303496963325
 42
1.0
 72
     1
 10
287.7233847299918
 20
22.54303496963325
 11
285.8065406500284
 21
24.86455968857224
 72
     4
 94
        3
 73
     1
 74
     0
 95
       20
 96
       16
 40
10.0
 40
10.0
 40
10.0
 40
10.0
 40
11.0
 40
11.0
 40
11.0
 40
12.0
 40
12.0
 40
12.0
 40
13.0
 40
13.0
 40
13.0
 40
14.0
 40
14.0
 40
14.0
 40
15.0
 40
15.0
 40
15.0
 40
15.0
 10
285.8065406500283
 20
24.86455968857225
 42
1.0
 10
285.9002991106001
 20
24.9215528310502
 42
1.0
 10
286.0025259979348
 20
24.975621306713
 42
1.0
 10
286.0959738880259
 20
25.04203380586477
 42
1.0
 10
286.361711520857
 20
25.23088333574105
 42
1.0
 10
286.6551698752792
 20
25.39378370261948
 42
1.0
 10
286.8815726805328
 20
25.62247811827483
 42
1.0
 10
287.5614237619422
 20
26.30921056516709
 42
1.0
 10
287.361321048954
 20
27.32558686332681
 42
1.0
 10
286.4793408590448
 20
27.71426216803416
 42
1.0
 10
285.840402057257
 20
27.99583274545401
 42
1.0
 10
285.1912113546599
 20
27.99239110178883
 42
1.0
 10
284.558084218296
 20
27.68711127408746
 42
1.0
 10
283.9109291360762
 20
27.37506654483262
 42
1.0
 10
283.6309452355653
 20
26.8393466878164
 42
1.0
 10
283.7149530130354
 20
26.1296866058298
 42
1.0
 72
     4
 94
        3
 73
     1
 74
     0
 95
       11
 96
        7
 40
8.0
 40
8.0
 40
8.0
 40
8.0
 40
9.0
 40
9.0
 40
9.0
 40
10.0
 40
10.0
 40
10.0
 40
10.0
 10
283.7149530130354
 20
26.1296866058298
 42
1.0
 10
283.7707819005811
 20
25.65802498535045
 42
1.0
 10
284.0198409761273
 20
25.28515591156022
 42
1.0
 10
284.3077767109179
 20
24.93075271279267
 42
1.0
 10
284.4323277733789
 20
24.77744812814591
 42
1.0
 10
284.5641388051866
 20
24.6300390014551
 42
1.0
 10
284.7027239634148
 20
24.46818604120849
 42
1.0
 72
     4
 94
        3
 73
     1
 74
     0
 95
       20
 96
       16
 40
3.0
 40
3.0
 40
3.0
 40
3.0
 40
4.0
 40
4.0
 40
4.0
 40
5.0
 40
5.0
 40
5.0
 40
6.0
 40
6.0
 40
6.0
 40
7.0
 40
7.0
 40
7.0
 40
8.0
 40
8.0
 40
8.0
 40
8.0
 10
284.7027239634148
 20
24.46818604120849
 42
1.0
 10
284.5513685160267
 20
24.38851087568819
 42
1.0
 10
284.4255536469583
 20
24.32317807019961
 42
1.0
 10
284.3005597909425
 20
24.25632085564481
 42
1.0
 10
283.8607304915963
 20
24.02105948868024
 42
1.0
 10
283.460866385652
 20
23.73663343094009
 42
1.0
 10
283.1417229300147
 20
23.34576433784628
 42
1.0
 10
282.3522343191156
 20
22.37884389028816
 42
1.0
 10
282.6109241545095
 20
20.5355588898502
 42
1.0
 10
284.198169930981
 20
20.23446388406056
 42
1.0
 10
285.1515567317372
 20
20.05360962220845
 42
1.0
 10
285.9488126796034
 20
20.36759637788916
 42
1.0
 10
286.5896302790503
 20
21.09003174583673
 42
1.0
 10
286.7443651022574
 20
21.26447318851251
 42
1.0
 10
286.8995550188436
 20
21.43851181205056
 42
1.0
 10
287.0539854214827
 20
21.61211917311517
 42
1.0
 97
        0
 92
        0
 93
        2
 72
     4
 94
        3
 73
     1
 74
     0
 95
       14
 96
       10
 40
0.0
 40
0.0
 40
0.0
 40
0.0
 40
1.0
 40
1.0
 40
1.0
 40
2.0
 40
2.0
 40
2.0
 40
3.0
 40
3.0
 40
3.0
 40
3.0
 10
284.688382372121
 20
27.15085253116304
 42
1.0
 10
284.8337724063213
 20
27.5710895609412
 42
1.0
 10
285.1818973152029
 20
27.79269159230804
 42
1.0
 10
285.6158934244382
 20
27.76810636414938
 42
1.0
 10
285.9916529561654
 20
27.74682017860581
 42
1.0
 10
286.2400293916459
 20
27.5110460628537
 42
1.0
 10
286.3549927436335
 20
27.06650131962916
 42
1.0
 10
286.5713650448558
 20
26.2298440482801
 42
1.0
 10
286.3259713159692
 20
25.4295804098103
 42
1.0
 10
285.6520579731507
 20
24.9254318870995
 42
1.0
 72
     4
 94
        3
 73
     1
 74
     0
 95
       11
 96
        7
 40
3.0
 40
3.0
 40
3.0
 40
3.0
 40
4.0
 40
4.0
 40
4.0
 40
5.0
 40
5.0
 40
5.0
 40
5.0
 10
285.6520579731507
 20
24.9254318870995
 42
1.0
 10
285.3510444536752
 20
25.31853032275095
 42
1.0
 10
285.0380140090768
 20
25.68714980838475
 42
1.0
 10
284.7721626029031
 20
26.08712768767229
 42
1.0
 10
284.5571094574822
 20
26.41068293535724
 42
1.0
 10
284.5630810205802
 20
26.788679112661
 42
1.0
 10
284.688382372121
 20
27.15085253116304
 42
1.0
 97
        0
 92
        0
 93
        2
 72
     1
 10
284.845288113738
 20
24.3712657578988
 11
287.0009947176327
 21
21.77781006188367
 72
     4
 94
        3
 73
     1
 74
     0
 95
       14
 96
       10
 40
1.0
 40
1.0
 40
1.0
 40
1.0
 40
2.0
 40
2.0
 40
2.0
 40
3.0
 40
3.0
 40
3.0
 40
4.0
 40
4.0
 40
4.0
 40
4.0
 10
287.0009947176327
 20
21.77781006188367
 42
1.0
 10
286.5509442670314
 20
21.22618922689351
 42
1.0
 10
286.0339581905155
 20
20.90925282038733
 42
1.0
 10
285.3603677179978
 20
20.87638462370451
 42
1.0
 10
284.4974276510072
 20
20.83427541775252
 42
1.0
 10
283.8665083325146
 20
21.39392726712143
 42
1.0
 10
283.7780264951535
 20
22.28619625730053
 42
1.0
 10
283.6988925217564
 20
23.08417174469389
 42
1.0
 10
284.1054815548355
 20
23.90423117633508
 42
1.0
 10
284.845288113738
 20
24.3712657578988
 42
1.0
 97
        0
 75
     0
 76
     1
 98
        1
 10
0.0
 20
0.0
  0
HATCH
  5
79
330
1F
100
AcDbEntity
  8
0
  6
Continuous
 62
     7
100
AcDbHatch
 10
0.0
 20
0.0
 30
0.0
210
0.0
220
0.0
230
1.0
  2
SOLID
 70
     1
 71
     0
 91
        1
 92
        0
 93
        2
 72
     4
 94
        3
 73
     1
 74
     0
 95
       11
 96
        7
 40
0.0
 40
0.0
 40
0.0
 40
0.0
 40
1.0
 40
1.0
 40
1.0
 40
2.0
 40
2.0
 40
2.0
 40
2.0
 10
303.0570519104932
 20
26.35430478392947
 42
1.0
 10
303.0628482011429
 20
25.96449808787493
 42
1.0
 10
303.3259905717408
 20
25.69768229885988
 42
1.0
 10
303.6993639381942
 20
25.70301926806731
 42
1.0
 10
304.0680572227529
 20
25.70828897263022
 42
1.0
 10
304.3293945946187
 20
25.98752450590587
 42
1.0
 10
304.327448147944
 20
26.37412133304796
 42
1.0
 72
     4
 94
        3
 73
     1
 74
     0
 95
       11
 96
        7
 40
2.0
 40
2.0
 40
2.0
 40
2.0
 40
3.0
 40
3.0
 40
3.0
 40
4.0
 40
4.0
 40
4.0
 40
4.0
 10
304.327448147944
 20
26.37412133304796
 42
1.0
 10
304.3255386007336
 20
26.75299425696746
 42
1.0
 10
304.0507636744179
 20
27.04560238626284
 42
1.0
 10
303.6924299141011
 20
27.05034857969325
 42
1.0
 10
303.3266947364936
 20
27.05519259513757
 42
1.0
 10
303.0511172468595
 20
26.75330175249256
 42
1.0
 10
303.0570519104932
 20
26.35430478392947
 42
1.0
 97
        0
 75
     0
 76
     1
 98
        1
 10
0.0
 20
0.0
  0
HATCH
  5
7A
330
1F
100
AcDbEntity
  8
0
  6
Continuous
 62
     7
100
AcDbHatch
 10
0.0
 20
0.0
 30
0.0
210
0.0
220
0.0
230
1.0
  2
SOLID
 70
     1
 71
     0
 91
        1
 92
        0
 93
        4
 72
     1
 10
302.6973344203136
 20
20.2539775500868
 11
304.8038079156778
 21
20.2539775500868
 72
     4
 94
        3
 73
     1
 74
     0
 95
       17
 96
       13
 40
6.0
 40
6.0
 40
6.0
 40
6.0
 40
7.0
 40
7.0
 40
7.0
 40
8.0
 40
8.0
 40
8.0
 40
9.0
 40
9.0
 40
9.0
 40
10.0
 40
10.0
 40
10.0
 40
10.0
 10
304.8038079156778
 20
20.2539775500868
 42
1.0
 10
304.4578262506061
 20
20.33981031349822
 42
1.0
 10
304.2621822227331
 20
20.55023795748124
 42
1.0
 10
304.2107535961514
 20
20.89393877449616
 42
1.0
 10
304.1922454404932
 20
21.01764883669525
 42
1.0
 10
304.1821011631179
 20
21.14380579453512
 42
1.0
 10
304.1818797663412
 20
21.26887114326077
 42
1.0
 10
304.1797703470369
 20
22.46084295323946
 42
1.0
 10
304.1808527312862
 20
23.65282014439031
 42
1.0
 10
304.1800932173391
 20
24.84479541369365
 42
1.0
 10
304.1800409430993
 20
24.93136078519359
 42
1.0
 10
304.1727133247369
 20
25.01792115989102
 42
1.0
 10
304.1706223551654
 20
25.06377258638473
 42
1.0
 72
     1
 10
304.1706223551654
 20
25.06377258638473
 11
302.7125031745686
 21
24.50968064047992
 72
     4
 94
        3
 73
     1
 74
     0
 95
       17
 96
       13
 40
1.0
 40
1.0
 40
1.0
 40
1.0
 40
2.0
 40
2.0
 40
2.0
 40
3.0
 40
3.0
 40
3.0
 40
4.0
 40
4.0
 40
4.0
 40
5.0
 40
5.0
 40
5.0
 40
5.0
 10
302.7125031745686
 20
24.50968064047994
 42
1.0
 10
302.7604109773859
 20
24.50557288463289
 42
1.0
 10
302.8224697242704
 20
24.49650561033552
 42
1.0
 10
302.8846514693661
 20
24.49557889569631
 42
1.0
 10
303.1332831261333
 20
24.4918735746181
 42
1.0
 10
303.2632153602819
 20
24.35030186610297
 42
1.0
 10
303.2668591822546
 20
24.11891186780057
 42
1.0
 10
303.2829750227277
 20
23.09531768874206
 42
1.0
 10
303.296603224403
 20
22.071496731734
 42
1.0
 10
303.2916556214044
 20
21.04785181591346
 42
1.0
 10
303.2897768237453
 20
20.65853557522151
 42
1.0
 10
303.1321361678242
 20
20.3494649042487
 42
1.0
 10
302.6973344203136
 20
20.2539775500868
 42
1.0
 97
        0
 75
     0
 76
     1
 98
        1
 10
0.0
 20
0.0
  0
HATCH
  5
7B
330
1F
100
AcDbEntity
  8
0
  6
Continuous
 62
     7
100
AcDbHatch
 10
0.0
 20
0.0
 30
0.0
210
0.0
220
0.0
230
1.0
  2
SOLID
 70
     1
 71
     0
 91
        1
 92
        0
 93
        4
 72
     1
 10
308.65963267846
 20
27.88697759989075
 11
307.1608133901539
 21
27.32540717062984
 72
     4
 94
        3
 73
     1
 74
     0
 95
       20
 96
       16
 40
5.0
 40
5.0
 40
5.0
 40
5.0
 40
6.0
 40
6.0
 40
6.0
 40
7.0
 40
7.0
 40
7.0
 40
8.0
 40
8.0
 40
8.0
 40
9.0
 40
9.0
 40
9.0
 40
10.0
 40
10.0
 40
10.0
 40
10.0
 10
307.1608133901539
 20
27.32540717062984
 42
1.0
 10
307.6774858212348
 20
27.28280885460759
 42
1.0
 10
307.7501131893193
 20
27.20350460556406
 42
1.0
 10
307.7547502218385
 20
26.63215658734291
 42
1.0
 10
307.7552944889174
 20
26.56503146731187
 42
1.0
 10
307.7550361926765
 20
26.49789904426262
 42
1.0
 10
307.7550361926765
 20
26.43077008053731
 42
1.0
 10
307.7550484924979
 20
24.69380511724257
 42
1.0
 10
307.7587445887104
 20
22.95682170421714
 42
1.0
 10
307.7500732149022
 20
21.21990094340409
 42
1.0
 10
307.7490584796685
 20
21.01681475508336
 42
1.0
 10
307.7285516030971
 20
20.78446498637255
 42
1.0
 10
307.6283941606454
 20
20.61954360515536
 42
1.0
 10
307.5293898264143
 20
20.45652254628292
 42
1.0
 10
307.3179589782804
 20
20.36177625633667
 42
1.0
 10
307.178408284104
 20
20.25443648715803
 42
1.0
 72
     1
 10
307.178408284104
 20
20.25443648715803
 11
309.3620693061908
 21
20.25443648715802
 72
     4
 94
        3
 73
     1
 74
     0
 95
       14
 96
       10
 40
1.0
 40
1.0
 40
1.0
 40
1.0
 40
2.0
 40
2.0
 40
2.0
 40
3.0
 40
3.0
 40
3.0
 40
4.0
 40
4.0
 40
4.0
 40
4.0
 10
309.3620693061908
 20
20.25443648715802
 42
1.0
 10
308.807415027844
 20
20.43200746554105
 42
1.0
 10
308.6597679764911
 20
20.6374237012035
 42
1.0
 10
308.6597187772069
 20
21.15880542625192
 42
1.0
 10
308.6595035303402
 20
23.32371921490944
 42
1.0
 10
308.65963267846
 20
25.48863300356693
 42
1.0
 10
308.65963267846
 20
27.65354698440997
 42
1.0
 10
308.65963267846
 20
27.74275854708867
 42
1.0
 10
308.65963267846
 20
27.83196991758182
 42
1.0
 10
308.65963267846
 20
27.88697759989075
 42
1.0
 97
        0
 75
     0
 76
     1
 98
        1
 10
0.0
 20
0.0
  0
HATCH
  5
7C
330
1F
100
AcDbEntity
  8
0
  6
Continuous
 62
     7
100
AcDbHatch
 10
0.0
 20
0.0
 30
0.0
210
0.0
220
0.0
230
1.0
  2
SOLID
 70
     1
 71
     0
 91
        1
 92
        0
 93
        4
 72
     1
 10
313.1781318226163
 20
27.87703492426926
 11
311.6691528821608
 21
27.32445797038016
 72
     4
 94
        3
 73
     1
 74
     0
 95
       17
 96
       13
 40
6.0
 40
6.0
 40
6.0
 40
6.0
 40
7.0
 40
7.0
 40
7.0
 40
8.0
 40
8.0
 40
8.0
 40
9.0
 40
9.0
 40
9.0
 40
10.0
 40
10.0
 40
10.0
 40
10.0
 10
311.6691528821608
 20
27.32445797038016
 42
1.0
 10
312.2096131670664
 20
27.27631108979181
 42
1.0
 10
312.2683694120104
 20
27.21300429544448
 42
1.0
 10
312.2823973578678
 20
26.60716642601487
 42
1.0
 10
312.2845313768121
 20
26.51487279724974
 42
1.0
 10
312.2871512386867
 20
26.42255802816857
 42
1.0
 10
312.2871819882395
 20
26.33025248395311
 42
1.0
 10
312.2877662297369
 20
24.60974045310045
 42
1.0
 10
312.2890700107628
 20
22.88922803787955
 42
1.0
 10
312.2876555313485
 20
21.16871754450475
 42
1.0
 10
312.2872188877024
 20
20.63608302071405
 42
1.0
 10
312.1185268426077
 20
20.41647125413319
 42
1.0
 10
311.6156486607861
 20
20.25320881127337
 42
1.0
 72
     1
 10
311.6156486607861
 20
20.25320881127337
 11
313.8867245107604
 21
20.25320881127337
 72
     4
 94
        3
 73
     1
 74
     0
 95
       17
 96
       13
 40
1.0
 40
1.0
 40
1.0
 40
1.0
 40
2.0
 40
2.0
 40
2.0
 40
3.0
 40
3.0
 40
3.0
 40
4.0
 40
4.0
 40
4.0
 40
5.0
 40
5.0
 40
5.0
 40
5.0
 10
313.8867245107604
 20
20.25320881127337
 42
1.0
 10
313.3266152617988
 20
20.4348325806782
 42
1.0
 10
313.1888880160859
 20
20.62648762285203
 42
1.0
 10
313.1786115156352
 20
21.17082388885262
 42
1.0
 10
313.1771847363981
 20
21.24633325874564
 42
1.0
 10
313.1781441224363
 20
21.32188875296783
 42
1.0
 10
313.1781441224363
 20
21.39742349124222
 42
1.0
 10
313.1781256727049
 20
23.48721689184593
 42
1.0
 10
313.1781318226163
 20
25.57700952371036
 42
1.0
 10
313.1781318226163
 20
27.66680273212925
 42
1.0
 10
313.1781318226163
 20
27.75161518695077
 42
1.0
 10
313.1781318226163
 20
27.83642744958889
 42
1.0
 10
313.1781318226163
 20
27.87703492426926
 42
1.0
 97
        0
 75
     0
 76
     1
 98
        1
 10
0.0
 20
0.0
  0
HATCH
  5
7D
330
1F
100
AcDbEntity
  8
0
  6
Continuous
 62
     7
100
AcDbHatch
 10
0.0
 20
0.0
 30
0.0
210
0.0
220
0.0
230
1.0
  2
SOLID
 70
     1
 71
     0
 91
        1
 92
        0
 93
       12
 72
     1
 10
296.2715297073844
 20
27.50458020069891
 11
293.841527870193
 21
27.50458020069891
 72
     4
 94
        3
 73
     1
 74
     0
 95
       17
 96
       13
 40
21.0
 40
21.0
 40
21.0
 40
21.0
 40
22.0
 40
22.0
 40
22.0
 40
23.0
 40
23.0
 40
23.0
 40
24.0
 40
24.0
 40
24.0
 40
25.0
 40
25.0
 40
25.0
 40
25.0
 10
293.841527870193
 20
27.50458020069891
 42
1.0
 10
294.4654639653083
 20
27.35271373418588
 42
1.0
 10
294.541848928711
 20
26.88863860486635
 42
1.0
 10
294.5396718603926
 20
26.35648992400541
 42
1.0
 10
294.5326947869268
 20
24.65236702027423
 42
1.0
 10
294.54232862173
 20
22.9481603240125
 42
1.0
 10
294.5304592944584
 20
21.24409084762873
 42
1.0
 10
294.52894334152
 20
21.02641399663968
 42
1.0
 10
294.4888489999954
 20
20.77588586122133
 42
1.0
 10
294.3739502220706
 20
20.60171040217499
 42
1.0
 10
294.2655211499942
 20
20.43733713173098
 42
1.0
 10
294.0348564567621
 20
20.35359533789035
 42
1.0
 10
293.8906841048422
 20
20.25643828302682
 42
1.0
 72
     1
 10
293.8906841048422
 20
20.25643828302682
 11
296.2880237673525
 21
20.25643828302682
 72
     4
 94
        3
 73
     1
 74
     0
 95
       14
 96
       10
 40
17.0
 40
17.0
 40
17.0
 40
17.0
 40
18.0
 40
18.0
 40
18.0
 40
19.0
 40
19.0
 40
19.0
 40
20.0
 40
20.0
 40
20.0
 40
20.0
 10
296.2880237673525
 20
20.25643828302682
 42
1.0
 10
295.7413366980624
 20
20.4024294709773
 42
1.0
 10
295.5628078711177
 20
20.63015527572819
 42
1.0
 10
295.5619960829322
 20
21.2138824872384
 42
1.0
 10
295.560827599936
 20
22.05336910178782
 42
1.0
 10
295.561359567195
 20
22.89285956003151
 42
1.0
 10
295.5621928800676
 20
23.73234771205876
 42
1.0
 10
295.5622759038603
 20
23.81306182808445
 42
1.0
 10
295.5696219719554
 20
23.89376787235267
 42
1.0
 10
295.5733857171835
 20
23.97022240661697
 42
1.0
 72
     1
 10
295.5733857171835
 20
23.97022240661697
 11
298.4851131190222
 21
23.97022240661697
 72
     4
 94
        3
 73
     1
 74
     0
 95
       11
 96
        7
 40
14.0
 40
14.0
 40
14.0
 40
14.0
 40
15.0
 40
15.0
 40
15.0
 40
16.0
 40
16.0
 40
16.0
 40
16.0
 10
298.4851131190222
 20
23.97022240661697
 42
1.0
 10
298.4851131190222
 20
23.04419117651474
 42
1.0
 10
298.4852207424561
 20
22.13796342697173
 42
1.0
 10
298.485073144605
 20
21.23173567742801
 42
1.0
 10
298.4849747460367
 20
20.62384393007452
 42
1.0
 10
298.3307257657572
 20
20.41986831094703
 42
1.0
 10
297.7632396991476
 20
20.25412130424438
 42
1.0
 72
     1
 10
297.7632396991476
 20
20.25412130424438
 11
300.2193725060648
 21
20.25412130424438
 72
     4
 94
        3
 73
     1
 74
     0
 95
       17
 96
       13
 40
9.0
 40
9.0
 40
9.0
 40
9.0
 40
10.0
 40
10.0
 40
10.0
 40
11.0
 40
11.0
 40
11.0
 40
12.0
 40
12.0
 40
12.0
 40
13.0
 40
13.0
 40
13.0
 40
13.0
 10
300.2193725060648
 20
20.25412130424438
 42
1.0
 10
299.739442715284
 20
20.41422423058344
 42
1.0
 10
299.5427163031618
 20
20.62720562490344
 42
1.0
 10
299.542119761843
 20
21.03839632851544
 42
1.0
 10
299.5393769017586
 20
22.92724217217554
 42
1.0
 10
299.5395583241182
 20
24.8160968563317
 42
1.0
 10
299.5421628112159
 20
26.70494346873036
 42
1.0
 10
299.5426363543262
 20
27.0468754177367
 42
1.0
 10
299.7248336028849
 20
27.28837413924314
 42
1.0
 10
300.049118383702
 20
27.40930924651266
 42
1.0
 10
300.1052670665942
 20
27.43024796211264
 42
1.0
 10
300.1600043450263
 20
27.45496618208605
 42
1.0
 10
300.2549312885929
 20
27.49433829349534
 42
1.0
 72
     1
 10
300.2549312885929
 20
27.49433829349534
 11
297.7186989723292
 21
27.49433829349534
 72
     4
 94
        3
 73
     1
 74
     0
 95
       14
 96
       10
 40
5.0
 40
5.0
 40
5.0
 40
5.0
 40
6.0
 40
6.0
 40
6.0
 40
7.0
 40
7.0
 40
7.0
 40
8.0
 40
8.0
 40
8.0
 40
8.0
 10
297.7186989723292
 20
27.49433829349534
 42
1.0
 10
298.3648823686909
 20
27.26685790861022
 42
1.0
 10
298.4850762195593
 20
27.0944786077999
 42
1.0
 10
298.4851069691121
 20
26.45733654080182
 42
1.0
 10
298.4851377186649
 20
25.7773505457302
 42
1.0
 10
298.4851131190222
 20
25.09736416629037
 42
1.0
 10
298.4851131190222
 20
24.41737817121947
 42
1.0
 10
298.4851131190222
 20
24.32893553953832
 42
1.0
 10
298.4851131190222
 20
24.24049329222682
 42
1.0
 10
298.4851131190222
 20
24.16049564077468
 42
1.0
 72
     1
 10
298.4851131190222
 20
24.16049564077468
 11
295.5632814142282
 21
24.16049564077468
 72
     4
 94
        3
 73
     1
 74
     0
 95
       14
 96
       10
 40
1.0
 40
1.0
 40
1.0
 40
1.0
 40
2.0
 40
2.0
 40
2.0
 40
3.0
 40
3.0
 40
3.0
 40
4.0
 40
4.0
 40
4.0
 40
4.0
 10
295.5632814142282
 20
24.16049564077468
 42
1.0
 10
295.5632814142282
 20
25.01272602299438
 42
1.0
 10
295.5627432970579
 20
25.84365465270932
 42
1.0
 10
295.5644406723573
 20
26.67457866999212
 42
1.0
 10
295.5645605956114
 20
26.73240397223375
 42
1.0
 10
295.5792681065788
 20
26.79059327230427
 42
1.0
 10
295.5906023916358
 20
26.8479388815276
 42
1.0
 10
295.6648994604227
 20
27.22384581892186
 42
1.0
 10
295.9411319155254
 20
27.38780204855992
 42
1.0
 10
296.2715297073844
 20
27.50458020069891
 42
1.0
 97
        0
 75
     0
 76
     1
 98
        1
 10
0.0
 20
0.0
  0
SPLINE
  5
7E
330
1F
100
AcDbEntity
  8
0
  6
Continuous
 62
   179
370
     0
100
AcDbSpline
210
0.0
220
0.0
230
1.0
 70
     8
 71
     3
 72
    14
 73
    10
 74
     0
 42
0.000000001
 43
0.00000001
 40
24.0
 40
24.0
 40
24.0
 40
24.0
 40
25.0
 40
25.0
 40
25.0
 40
26.0
 40
26.0
 40
26.0
 40
27.0
 40
27.0
 40
27.0
 40
27.0
 10
287.7314564875268
 20
22.42648570947681
 30
0.0
 10
288.0996055050067
 20
21.95463920731319
 30
0.0
 10
288.4270667146001
 20
21.47381844824843
 30
0.0
 10
288.8166481701822
 20
21.05011190802389
 30
0.0
 10
289.3841588364346
 20
20.43289382139212
 30
0.0
 10
289.9836367374808
 20
20.49110656799654
 30
0.0
 10
290.4735170834558
 20
21.16713932372222
 30
0.0
 10
290.5884281612034
 20
21.32571784099438
 30
0.0
 10
290.6825002672103
 20
21.49939669476814
 30
0.0
 10
290.8103661314317
 20
21.70506046432864
 30
0.0
  0
SPLINE
  5
7F
330
1F
100
AcDbEntity
  8
0
  6
Continuous
 62
   179
370
     0
100
AcDbSpline
210
0.0
220
0.0
230
1.0
 70
     8
 71
     3
 72
    11
 73
     7
 74
     0
 42
0.000000001
 43
0.00000001
 40
22.0
 40
22.0
 40
22.0
 40
22.0
 40
23.0
 40
23.0
 40
23.0
 40
24.0
 40
24.0
 40
24.0
 40
24.0
 10
290.7742138825406
 20
25.39867403457779
 30
0.0
 10
289.9536528488242
 20
25.26443186627322
 30
0.0
 10
289.4290162836425
 20
24.71923384406366
 30
0.0
 10
288.9612633156569
 20
24.10441845059237
 30
0.0
 10
288.5466855488353
 20
23.55949371503119
 30
0.0
 10
288.1508588591388
 20
23.00030157147279
 30
0.0
 10
287.7314564875268
 20
22.42648570947681
 30
0.0
  0
SPLINE
  5
80
330
1F
100
AcDbEntity
  8
0
  6
Continuous
 62
   179
370
     0
100
AcDbSpline
210
0.0
220
0.0
230
1.0
 70
     8
 71
     3
 72
    11
 73
     7
 74
     0
 42
0.000000001
 43
0.00000001
 40
20.0
 40
20.0
 40
20.0
 40
20.0
 40
21.0
 40
21.0
 40
21.0
 40
22.0
 40
22.0
 40
22.0
 40
22.0
 10
287.7715077796773
 20
25.39867403457779
 30
0.0
 10
288.2706160663608
 20
25.39867403457779
 30
0.0
 10
288.76972127809
 20
25.39867441894744
 30
0.0
 10
289.2688295647749
 20
25.39867441894744
 30
0.0
 10
289.7706253623487
 20
25.39867441894744
 30
0.0
 10
290.2724180849667
 20
25.39867403457779
 30
0.0
 10
290.7742138825406
 20
25.39867403457779
 30
0.0
  0
SPLINE
  5
81
330
1F
100
AcDbEntity
  8
0
  6
Continuous
 62
   179
370
     0
100
AcDbSpline
210
0.0
220
0.0
230
1.0
 70
     8
 71
     3
 72
    17
 73
    13
 74
     0
 42
0.000000001
 43
0.00000001
 40
16.0
 40
16.0
 40
16.0
 40
16.0
 40
17.0
 40
17.0
 40
17.0
 40
18.0
 40
18.0
 40
18.0
 40
19.0
 40
19.0
 40
19.0
 40
20.0
 40
20.0
 40
20.0
 40
20.0
 10
287.7233847299918
 20
22.54303496963325
 30
0.0
 10
288.0735790837579
 20
23.12311989664797
 30
0.0
 10
288.4211781752921
 20
23.692108847638
 30
0.0
 10
288.7595985254019
 20
24.26650702928458
 30
0.0
 10
288.8131334963293
 20
24.3573677289012
 30
0.0
 10
288.8373887433532
 20
24.47070865762303
 30
0.0
 10
288.8543009972361
 20
24.57697987985169
 30
0.0
 10
288.9174636530569
 20
24.97387165717582
 30
0.0
 10
288.7601181928394
 20
25.20759054971102
 30
0.0
 10
288.3670435880915
 20
25.28904726743022
 30
0.0
 10
288.1718392788191
 20
25.32949945687163
 30
0.0
 10
287.9710693005408
 20
25.34310267453518
 30
0.0
 10
287.7715077796773
 20
25.39867403457779
 30
0.0
  0
SPLINE
  5
82
330
1F
100
AcDbEntity
  8
0
  6
Continuous
 62
   179
370
     0
100
AcDbSpline
210
0.0
220
0.0
230
1.0
 70
     8
 71
     3
 72
     8
 73
     4
 74
     0
 42
0.000000001
 43
0.00000001
 40
15.0
 40
15.0
 40
15.0
 40
15.0
 40
16.0
 40
16.0
 40
16.0
 40
16.0
 10
285.8065406500283
 20
24.86455968857225
 30
0.0
 10
286.4380688096612
 20
24.09970377545334
 30
0.0
 10
287.0596648638312
 20
23.34687900912474
 30
0.0
 10
287.7233847299918
 20
22.54303496963325
 30
0.0
  0
SPLINE
  5
83
330
1F
100
AcDbEntity
  8
0
  6
Continuous
 62
   179
370
     0
100
AcDbSpline
210
0.0
220
0.0
230
1.0
 70
     8
 71
     3
 72
    26
 73
    22
 74
     0
 42
0.000000001
 43
0.00000001
 40
8.0
 40
8.0
 40
8.0
 40
8.0
 40
9.0
 40
9.0
 40
9.0
 40
10.0
 40
10.0
 40
10.0
 40
11.0
 40
11.0
 40
11.0
 40
12.0
 40
12.0
 40
12.0
 40
13.0
 40
13.0
 40
13.0
 40
14.0
 40
14.0
 40
14.0
 40
15.0
 40
15.0
 40
15.0
 40
15.0
 10
284.7027239634148
 20
24.4681860412085
 30
0.0
 10
284.5641388051866
 20
24.63003900145511
 30
0.0
 10
284.4323277733789
 20
24.77744812814592
 30
0.0
 10
284.3077767109179
 20
24.93075271279267
 30
0.0
 10
284.0198409761273
 20
25.28515591156022
 30
0.0
 10
283.7707819005811
 20
25.65802498535045
 30
0.0
 10
283.7149530130354
 20
26.1296866058298
 30
0.0
 10
283.6309452355654
 20
26.8393466878164
 30
0.0
 10
283.9109291360762
 20
27.37506654483262
 30
0.0
 10
284.558084218296
 20
27.68711127408746
 30
0.0
 10
285.1912113546599
 20
27.99239110178883
 30
0.0
 10
285.840402057257
 20
27.99583274545402
 30
0.0
 10
286.4793408590448
 20
27.71426216803416
 30
0.0
 10
287.361321048954
 20
27.32558686332681
 30
0.0
 10
287.5614237619422
 20
26.30921056516709
 30
0.0
 10
286.8815726805328
 20
25.62247811827483
 30
0.0
 10
286.6551698752792
 20
25.39378370261948
 30
0.0
 10
286.361711520857
 20
25.23088333574105
 30
0.0
 10
286.0959738880259
 20
25.04203380586477
 30
0.0
 10
286.0025259979348
 20
24.97562130671301
 30
0.0
 10
285.9002991106001
 20
24.9215528310502
 30
0.0
 10
285.8065406500283
 20
24.86455968857225
 30
0.0
  0
SPLINE
  5
84
330
1F
100
AcDbEntity
  8
0
  6
Continuous
 62
   179
370
     0
100
AcDbSpline
210
0.0
220
0.0
230
1.0
 70
     8
 71
     3
 72
    20
 73
    16
 74
     0
 42
0.000000001
 43
0.00000001
 40
3.0
 40
3.0
 40
3.0
 40
3.0
 40
4.0
 40
4.0
 40
4.0
 40
5.0
 40
5.0
 40
5.0
 40
6.0
 40
6.0
 40
6.0
 40
7.0
 40
7.0
 40
7.0
 40
8.0
 40
8.0
 40
8.0
 40
8.0
 10
287.0539854214827
 20
21.61211917311518
 30
0.0
 10
286.8995550188436
 20
21.43851181205056
 30
0.0
 10
286.7443651022574
 20
21.26447318851252
 30
0.0
 10
286.5896302790503
 20
21.09003174583674
 30
0.0
 10
285.9488126796034
 20
20.36759637788917
 30
0.0
 10
285.1515567317372
 20
20.05360962220845
 30
0.0
 10
284.198169930981
 20
20.23446388406056
 30
0.0
 10
282.6109241545095
 20
20.5355588898502
 30
0.0
 10
282.3522343191156
 20
22.37884389028816
 30
0.0
 10
283.1417229300147
 20
23.34576433784628
 30
0.0
 10
283.460866385652
 20
23.7366334309401
 30
0.0
 10
283.8607304915963
 20
24.02105948868025
 30
0.0
 10
284.3005597909425
 20
24.25632085564482
 30
0.0
 10
284.4255536469583
 20
24.32317807019961
 30
0.0
 10
284.5513685160267
 20
24.38851087568819
 30
0.0
 10
284.7027239634148
 20
24.4681860412085
 30
0.0
  0
SPLINE
  5
85
330
1F
100
AcDbEntity
  8
0
  6
Continuous
 62
   179
370
     0
100
AcDbSpline
210
0.0
220
0.0
230
1.0
 70
     8
 71
     3
 72
    14
 73
    10
 74
     0
 42
0.000000001
 43
0.00000001
 40
0.0
 40
0.0
 40
0.0
 40
0.0
 40
1.0
 40
1.0
 40
1.0
 40
2.0
 40
2.0
 40
2.0
 40
3.0
 40
3.0
 40
3.0
 40
3.0
 10
290.8103661314317
 20
21.70506046432864
 30
0.0
 10
290.7160910783766
 20
21.04182259740494
 30
0.0
 10
289.9739444785289
 20
20.32342848939635
 30
0.0
 10
289.3271645408483
 20
20.20870037148624
 30
0.0
 10
288.7048673968812
 20
20.0983148591309
 30
0.0
 10
288.1784811821614
 20
20.26780485511384
 30
0.0
 10
287.7601488949774
 20
20.73592220529573
 30
0.0
 10
287.5152010346028
 20
21.01001756649998
 30
0.0
 10
287.2972697310665
 20
21.30825593886041
 30
0.0
 10
287.0539854214827
 20
21.61211917311518
 30
0.0
  0
SPLINE
  5
86
330
1F
100
AcDbEntity
  8
0
  6
Continuous
 62
   179
370
     0
100
AcDbSpline
210
0.0
220
0.0
230
1.0
 70
     8
 71
     3
 72
    14
 73
    10
 74
     0
 42
0.000000001
 43
0.00000001
 40
1.0
 40
1.0
 40
1.0
 40
1.0
 40
2.0
 40
2.0
 40
2.0
 40
3.0
 40
3.0
 40
3.0
 40
4.0
 40
4.0
 40
4.0
 40
4.0
 10
284.845288113738
 20
24.3712657578988
 30
0.0
 10
284.1054815548355
 20
23.90423117633508
 30
0.0
 10
283.6988925217564
 20
23.08417174469389
 30
0.0
 10
283.7780264951535
 20
22.28619625730053
 30
0.0
 10
283.8665083325146
 20
21.39392726712143
 30
0.0
 10
284.4974276510072
 20
20.83427541775253
 30
0.0
 10
285.3603677179978
 20
20.87638462370452
 30
0.0
 10
286.0339581905155
 20
20.90925282038733
 30
0.0
 10
286.5509442670314
 20
21.22618922689351
 30
0.0
 10
287.0009947176327
 20
21.77781006188367
 30
0.0
  0
SPLINE
  5
87
330
1F
100
AcDbEntity
  8
0
  6
Continuous
 62
   179
370
     0
100
AcDbSpline
210
0.0
220
0.0
230
1.0
 70
     8
 71
     3
 72
     8
 73
     4
 74
     0
 42
0.000000001
 43
0.00000001
 40
0.0
 40
0.0
 40
0.0
 40
0.0
 40
1.0
 40
1.0
 40
1.0
 40
1.0
 10
287.0009947176327
 20
21.77781006188367
 30
0.0
 10
286.2819902310068
 20
22.64282111123716
 30
0.0
 10
285.5612360948443
 20
23.50993158628786
 30
0.0
 10
284.845288113738
 20
24.3712657578988
 30
0.0
  0
SPLINE
  5
88
330
1F
100
AcDbEntity
  8
0
  6
Continuous
 62
   179
370
     0
100
AcDbSpline
210
0.0
220
0.0
230
1.0
 70
     8
 71
     3
 72
    11
 73
     7
 74
     0
 42
0.000000001
 43
0.00000001
 40
3.0
 40
3.0
 40
3.0
 40
3.0
 40
4.0
 40
4.0
 40
4.0
 40
5.0
 40
5.0
 40
5.0
 40
5.0
 10
284.6883823721211
 20
27.15085253116305
 30
0.0
 10
284.5630810205802
 20
26.788679112661
 30
0.0
 10
284.5571094574822
 20
26.41068293535724
 30
0.0
 10
284.7721626029031
 20
26.08712768767229
 30
0.0
 10
285.0380140090768
 20
25.68714980838475
 30
0.0
 10
285.3510444536753
 20
25.31853032275096
 30
0.0
 10
285.6520579731507
 20
24.9254318870995
 30
0.0
  0
SPLINE
  5
89
330
1F
100
AcDbEntity
  8
0
  6
Continuous
 62
   179
370
     0
100
AcDbSpline
210
0.0
220
0.0
230
1.0
 70
     8
 71
     3
 72
    14
 73
    10
 74
     0
 42
0.000000001
 43
0.00000001
 40
0.0
 40
0.0
 40
0.0
 40
0.0
 40
1.0
 40
1.0
 40
1.0
 40
2.0
 40
2.0
 40
2.0
 40
3.0
 40
3.0
 40
3.0
 40
3.0
 10
285.6520579731507
 20
24.9254318870995
 30
0.0
 10
286.3259713159692
 20
25.4295804098103
 30
0.0
 10
286.5713650448558
 20
26.2298440482801
 30
0.0
 10
286.3549927436335
 20
27.06650131962916
 30
0.0
 10
286.2400293916459
 20
27.5110460628537
 30
0.0
 10
285.9916529561654
 20
27.74682017860582
 30
0.0
 10
285.6158934244382
 20
27.76810636414938
 30
0.0
 10
285.1818973152029
 20
27.79269159230804
 30
0.0
 10
284.8337724063213
 20
27.5710895609412
 30
0.0
 10
284.6883823721211
 20
27.15085253116305
 30
0.0
  0
SPLINE
  5
8A
330
1F
100
AcDbEntity
  8
0
  6
Continuous
 62
   179
370
     0
100
AcDbSpline
210
0.0
220
0.0
230
1.0
 70
     8
 71
     3
 72
    17
 73
    13
 74
     0
 42
0.000000001
 43
0.00000001
 40
21.0
 40
21.0
 40
21.0
 40
21.0
 40
22.0
 40
22.0
 40
22.0
 40
23.0
 40
23.0
 40
23.0
 40
24.0
 40
24.0
 40
24.0
 40
25.0
 40
25.0
 40
25.0
 40
25.0
 10
293.8906841048423
 20
20.25643828302682
 30
0.0
 10
294.0348564567621
 20
20.35359533789035
 30
0.0
 10
294.2655211499942
 20
20.43733713173099
 30
0.0
 10
294.3739502220706
 20
20.601710402175
 30
0.0
 10
294.4888489999955
 20
20.77588586122134
 30
0.0
 10
294.5289433415201
 20
21.02641399663968
 30
0.0
 10
294.5304592944584
 20
21.24409084762874
 30
0.0
 10
294.5423286217301
 20
22.94816032401251
 30
0.0
 10
294.5326947869268
 20
24.65236702027423
 30
0.0
 10
294.5396718603926
 20
26.35648992400541
 30
0.0
 10
294.541848928711
 20
26.88863860486636
 30
0.0
 10
294.4654639653083
 20
27.35271373418588
 30
0.0
 10
293.841527870193
 20
27.50458020069892
 30
0.0
  0
SPLINE
  5
8B
330
1F
100
AcDbEntity
  8
0
  6
Continuous
 62
   179
370
     0
100
AcDbSpline
210
0.0
220
0.0
230
1.0
 70
    24
 71
     3
 72
     8
 73
     4
 74
     0
 42
0.000000001
 43
0.00000001
 40
20.0
 40
20.0
 40
20.0
 40
20.0
 40
21.0
 40
21.0
 40
21.0
 40
21.0
 10
296.2880237673526
 20
20.25643828302682
 30
0.0
 10
295.4693261565182
 20
20.25643828302682
 30
0.0
 10
294.6506254707311
 20
20.25643828302682
 30
0.0
 10
293.8906841048423
 20
20.25643828302682
 30
0.0
  0
SPLINE
  5
8C
330
1F
100
AcDbEntity
  8
0
  6
Continuous
 62
   179
370
     0
100
AcDbSpline
210
0.0
220
0.0
230
1.0
 70
     8
 71
     3
 72
    14
 73
    10
 74
     0
 42
0.000000001
 43
0.00000001
 40
17.0
 40
17.0
 40
17.0
 40
17.0
 40
18.0
 40
18.0
 40
18.0
 40
19.0
 40
19.0
 40
19.0
 40
20.0
 40
20.0
 40
20.0
 40
20.0
 10
295.5733857171836
 20
23.97022240661698
 30
0.0
 10
295.5696219719554
 20
23.89376787235267
 30
0.0
 10
295.5622759038603
 20
23.81306182808446
 30
0.0
 10
295.5621928800676
 20
23.73234771205876
 30
0.0
 10
295.561359567195
 20
22.89285956003151
 30
0.0
 10
295.560827599936
 20
22.05336910178782
 30
0.0
 10
295.5619960829322
 20
21.2138824872384
 30
0.0
 10
295.5628078711177
 20
20.63015527572819
 30
0.0
 10
295.7413366980624
 20
20.4024294709773
 30
0.0
 10
296.2880237673526
 20
20.25643828302682
 30
0.0
  0
SPLINE
  5
8D
330
1F
100
AcDbEntity
  8
0
  6
Continuous
 62
   179
370
     0
100
AcDbSpline
210
0.0
220
0.0
230
1.0
 70
    24
 71
     3
 72
     8
 73
     4
 74
     0
 42
0.000000001
 43
0.00000001
 40
16.0
 40
16.0
 40
16.0
 40
16.0
 40
17.0
 40
17.0
 40
17.0
 40
17.0
 10
298.4851131190222
 20
23.97022240661698
 30
0.0
 10
297.5154382802974
 20
23.97022240661698
 30
0.0
 10
296.5557754958725
 20
23.97022240661698
 30
0.0
 10
295.5733857171836
 20
23.97022240661698
 30
0.0
  0
SPLINE
  5
8E
330
1F
100
AcDbEntity
  8
0
  6
Continuous
 62
   179
370
     0
100
AcDbSpline
210
0.0
220
0.0
230
1.0
 70
     8
 71
     3
 72
    11
 73
     7
 74
     0
 42
0.000000001
 43
0.00000001
 40
14.0
 40
14.0
 40
14.0
 40
14.0
 40
15.0
 40
15.0
 40
15.0
 40
16.0
 40
16.0
 40
16.0
 40
16.0
 10
297.7632396991476
 20
20.25412130424438
 30
0.0
 10
298.3307257657572
 20
20.41986831094704
 30
0.0
 10
298.4849747460367
 20
20.62384393007452
 30
0.0
 10
298.485073144605
 20
21.23173567742802
 30
0.0
 10
298.4852207424561
 20
22.13796342697173
 30
0.0
 10
298.4851131190222
 20
23.04419117651474
 30
0.0
 10
298.4851131190222
 20
23.97022240661698
 30
0.0
  0
SPLINE
  5
8F
330
1F
100
AcDbEntity
  8
0
  6
Continuous
 62
   179
370
     0
100
AcDbSpline
210
0.0
220
0.0
230
1.0
 70
    24
 71
     3
 72
     8
 73
     4
 74
     0
 42
0.000000001
 43
0.00000001
 40
13.0
 40
13.0
 40
13.0
 40
13.0
 40
14.0
 40
14.0
 40
14.0
 40
14.0
 10
300.2193725060649
 20
20.25412130424438
 30
0.0
 10
299.4006625954106
 20
20.25412130424438
 30
0.0
 10
298.5819526847563
 20
20.25412130424438
 30
0.0
 10
297.7632396991476
 20
20.25412130424438
 30
0.0
  0
SPLINE
  5
90
330
1F
100
AcDbEntity
  8
0
  6
Continuous
 62
   179
370
     0
100
AcDbSpline
210
0.0
220
0.0
230
1.0
 70
     8
 71
     3
 72
    17
 73
    13
 74
     0
 42
0.000000001
 43
0.00000001
 40
9.0
 40
9.0
 40
9.0
 40
9.0
 40
10.0
 40
10.0
 40
10.0
 40
11.0
 40
11.0
 40
11.0
 40
12.0
 40
12.0
 40
12.0
 40
13.0
 40
13.0
 40
13.0
 40
13.0
 10
300.254931288593
 20
27.49433829349534
 30
0.0
 10
300.1600043450263
 20
27.45496618208605
 30
0.0
 10
300.1052670665943
 20
27.43024796211265
 30
0.0
 10
300.049118383702
 20
27.40930924651266
 30
0.0
 10
299.7248336028849
 20
27.28837413924314
 30
0.0
 10
299.5426363543262
 20
27.0468754177367
 30
0.0
 10
299.5421628112159
 20
26.70494346873036
 30
0.0
 10
299.5395583241182
 20
24.8160968563317
 30
0.0
 10
299.5393769017586
 20
22.92724217217554
 30
0.0
 10
299.542119761843
 20
21.03839632851544
 30
0.0
 10
299.5427163031618
 20
20.62720562490344
 30
0.0
 10
299.739442715284
 20
20.41422423058345
 30
0.0
 10
300.2193725060649
 20
20.25412130424438
 30
0.0
  0
SPLINE
  5
91
330
1F
100
AcDbEntity
  8
0
  6
Continuous
 62
   179
370
     0
100
AcDbSpline
210
0.0
220
0.0
230
1.0
 70
    24
 71
     3
 72
     8
 73
     4
 74
     0
 42
0.000000001
 43
0.00000001
 40
8.0
 40
8.0
 40
8.0
 40
8.0
 40
9.0
 40
9.0
 40
9.0
 40
9.0
 10
297.7186989723292
 20
27.49433829349534
 30
0.0
 10
298.5854396840106
 20
27.49433829349534
 30
0.0
 10
299.3949493285535
 20
27.49433829349534
 30
0.0
 10
300.254931288593
 20
27.49433829349534
 30
0.0
  0
SPLINE
  5
92
330
1F
100
AcDbEntity
  8
0
  6
Continuous
 62
   179
370
     0
100
AcDbSpline
210
0.0
220
0.0
230
1.0
 70
     8
 71
     3
 72
    14
 73
    10
 74
     0
 42
0.000000001
 43
0.00000001
 40
5.0
 40
5.0
 40
5.0
 40
5.0
 40
6.0
 40
6.0
 40
6.0
 40
7.0
 40
7.0
 40
7.0
 40
8.0
 40
8.0
 40
8.0
 40
8.0
 10
298.4851131190222
 20
24.16049564077469
 30
0.0
 10
298.4851131190222
 20
24.24049329222683
 30
0.0
 10
298.4851131190222
 20
24.32893553953833
 30
0.0
 10
298.4851131190222
 20
24.41737817121947
 30
0.0
 10
298.4851131190222
 20
25.09736416629037
 30
0.0
 10
298.4851377186649
 20
25.7773505457302
 30
0.0
 10
298.4851069691121
 20
26.45733654080182
 30
0.0
 10
298.4850762195594
 20
27.0944786077999
 30
0.0
 10
298.3648823686909
 20
27.26685790861022
 30
0.0
 10
297.7186989723292
 20
27.49433829349534
 30
0.0
  0
SPLINE
  5
93
330
1F
100
AcDbEntity
  8
0
  6
Continuous
 62
   179
370
     0
100
AcDbSpline
210
0.0
220
0.0
230
1.0
 70
    24
 71
     3
 72
     8
 73
     4
 74
     0
 42
0.000000001
 43
0.00000001
 40
4.0
 40
4.0
 40
4.0
 40
4.0
 40
5.0
 40
5.0
 40
5.0
 40
5.0
 10
295.5632814142282
 20
24.16049564077469
 30
0.0
 10
296.5292663066504
 20
24.16049564077469
 30
0.0
 10
297.4889290910767
 20
24.16049564077469
 30
0.0
 10
298.4851131190222
 20
24.16049564077469
 30
0.0
  0
SPLINE
  5
94
330
1F
100
AcDbEntity
  8
0
  6
Continuous
 62
   179
370
     0
100
AcDbSpline
210
0.0
220
0.0
230
1.0
 70
     8
 71
     3
 72
    14
 73
    10
 74
     0
 42
0.000000001
 43
0.00000001
 40
1.0
 40
1.0
 40
1.0
 40
1.0
 40
2.0
 40
2.0
 40
2.0
 40
3.0
 40
3.0
 40
3.0
 40
4.0
 40
4.0
 40
4.0
 40
4.0
 10
296.2715297073845
 20
27.50458020069892
 30
0.0
 10
295.9411319155254
 20
27.38780204855992
 30
0.0
 10
295.6648994604227
 20
27.22384581892186
 30
0.0
 10
295.5906023916359
 20
26.8479388815276
 30
0.0
 10
295.5792681065788
 20
26.79059327230428
 30
0.0
 10
295.5645605956114
 20
26.73240397223375
 30
0.0
 10
295.5644406723574
 20
26.67457866999212
 30
0.0
 10
295.562743297058
 20
25.84365465270932
 30
0.0
 10
295.5632814142282
 20
25.01272602299438
 30
0.0
 10
295.5632814142282
 20
24.16049564077469
 30
0.0
  0
SPLINE
  5
95
330
1F
100
AcDbEntity
  8
0
  6
Continuous
 62
   179
370
     0
100
AcDbSpline
210
0.0
220
0.0
230
1.0
 70
    24
 71
     3
 72
     8
 73
     4
 74
     0
 42
0.000000001
 43
0.00000001
 40
0.0
 40
0.0
 40
0.0
 40
0.0
 40
1.0
 40
1.0
 40
1.0
 40
1.0
 10
293.841527870193
 20
27.50458020069892
 30
0.0
 10
294.6515264326192
 20
27.50458020069892
 30
0.0
 10
295.4615280700011
 20
27.50458020069892
 30
0.0
 10
296.2715297073845
 20
27.50458020069892
 30
0.0
  0
SPLINE
  5
96
330
1F
100
AcDbEntity
  8
0
  6
Continuous
 62
   179
370
     0
100
AcDbSpline
210
0.0
220
0.0
230
1.0
 70
     8
 71
     3
 72
    14
 73
    10
 74
     0
 42
0.000000001
 43
0.00000001
 40
17.0
 40
17.0
 40
17.0
 40
17.0
 40
18.0
 40
18.0
 40
18.0
 40
19.0
 40
19.0
 40
19.0
 40
20.0
 40
20.0
 40
20.0
 40
20.0
 10
257.7053577757453
 20
20.25910042553502
 30
0.0
 10
258.2139995287706
 20
20.39587059142628
 30
0.0
 10
258.4104423723632
 20
20.62446660851326
 30
0.0
 10
258.4124688639662
 20
21.16843695483816
 30
0.0
 10
258.4191609275175
 20
22.96470127704906
 30
0.0
 10
258.4149081683119
 20
24.76100595804667
 30
0.0
 10
258.4151320634913
 20
26.55729487989966
 30
0.0
 10
258.4151924094879
 20
27.04153921726714
 30
0.0
 10
258.2057453879524
 20
27.36893835120057
 30
0.0
 10
257.7192638284546
 20
27.51463645747964
 30
0.0
  0
SPLINE
  5
97
330
1F
100
AcDbEntity
  8
0
  6
Continuous
 62
   179
370
     0
100
AcDbSpline
210
0.0
220
0.0
230
1.0
 70
    24
 71
     3
 72
     8
 73
     4
 74
     0
 42
0.000000001
 43
0.00000001
 40
16.0
 40
16.0
 40
16.0
 40
16.0
 40
17.0
 40
17.0
 40
17.0
 40
17.0
 10
260.1134120717832
 20
20.25910042553502
 30
0.0
 10
259.3107272904223
 20
20.25910042553502
 30
0.0
 10
258.5080426051526
 20
20.25910042553502
 30
0.0
 10
257.7053577757453
 20
20.25910042553502
 30
0.0
  0
SPLINE
  5
98
330
1F
100
AcDbEntity
  8
0
  6
Continuous
 62
   179
370
     0
100
AcDbSpline
210
0.0
220
0.0
230
1.0
 70
     8
 71
     3
 72
    14
 73
    10
 74
     0
 42
0.000000001
 43
0.00000001
 40
13.0
 40
13.0
 40
13.0
 40
13.0
 40
14.0
 40
14.0
 40
14.0
 40
15.0
 40
15.0
 40
15.0
 40
16.0
 40
16.0
 40
16.0
 40
16.0
 10
259.4607286043899
 20
23.57138302951071
 30
0.0
 10
259.4539911852495
 20
23.51939476107442
 30
0.0
 10
259.4406539512153
 20
23.46398560492077
 30
0.0
 10
259.4405559370167
 20
23.40855338660287
 30
0.0
 10
259.4392191002215
 20
22.65310606781493
 30
0.0
 10
259.4366701545022
 20
21.89763799307776
 30
0.0
 10
259.4408326829897
 20
21.14221143023692
 30
0.0
 10
259.4435911100346
 20
20.64162793377142
 30
0.0
 10
259.6377614656041
 20
20.40079128856705
 30
0.0
 10
260.1134120717832
 20
20.25910042553502
 30
0.0
  0
SPLINE
  5
99
330
1F
100
AcDbEntity
  8
0
  6
Continuous
 62
   179
370
     0
100
AcDbSpline
210
0.0
220
0.0
230
1.0
 70
     8
 71
     3
 72
    20
 73
    16
 74
     0
 42
0.000000001
 43
0.00000001
 40
8.0
 40
8.0
 40
8.0
 40
8.0
 40
9.0
 40
9.0
 40
9.0
 40
10.0
 40
10.0
 40
10.0
 40
11.0
 40
11.0
 40
11.0
 40
12.0
 40
12.0
 40
12.0
 40
13.0
 40
13.0
 40
13.0
 40
13.0
 10
263.9554858268652
 20
20.24609336482204
 30
0.0
 10
263.8909540472192
 20
20.24131411562172
 30
0.0
 10
263.8264337986555
 20
20.23257048036439
 30
0.0
 10
263.7618904879275
 20
20.2323936704376
 30
0.0
 10
263.3170171088603
 20
20.2311736819415
 30
0.0
 10
262.8718696744063
 20
20.24067529366942
 30
0.0
 10
262.427398730108
 20
20.22724465786874
 30
0.0
 10
262.2549406335689
 20
20.22203337745712
 30
0.0
 10
262.1765046750147
 20
20.28890135435546
 30
0.0
 10
262.1067370153144
 20
20.43629933433309
 30
0.0
 10
261.7451764738302
 20
21.20016664933901
 30
0.0
 10
261.3780268168071
 20
21.9614848264415
 30
0.0
 10
261.0037355762117
 20
22.71920223094413
 30
0.0
 10
260.6054131759577
 20
23.52556773374194
 30
0.0
 10
260.3725694925604
 20
23.65083910446932
 30
0.0
 10
259.4607286043899
 20
23.57138302951071
 30
0.0
  0
SPLINE
  5
9A
330
1F
100
AcDbEntity
  8
0
  6
Continuous
 62
   179
370
     0
100
AcDbSpline
210
0.0
220
0.0
230
1.0
 70
     8
 71
     3
 72
    14
 73
    10
 74
     0
 42
0.000000001
 43
0.00000001
 40
5.0
 40
5.0
 40
5.0
 40
5.0
 40
6.0
 40
6.0
 40
6.0
 40
7.0
 40
7.0
 40
7.0
 40
8.0
 40
8.0
 40
8.0
 40
8.0
 10
261.0219043336847
 20
23.63056361828031
 30
0.0
 10
261.7521543160346
 20
23.35408286053947
 30
0.0
 10
262.033208300972
 20
22.73079019980925
 30
0.0
 10
262.3739921385617
 20
22.16106556577573
 30
0.0
 10
262.6276890153665
 20
21.7369354504649
 30
0.0
 10
262.8739775562312
 20
21.30835818112305
 30
0.0
 10
263.1292772534608
 20
20.88520667032095
 30
0.0
 10
263.3178377375433
 20
20.57267359973515
 30
0.0
 10
263.5606000734738
 20
20.32757122285868
 30
0.0
 10
263.9554858268652
 20
20.24609336482204
 30
0.0
  0
SPLINE
  5
9B
330
1F
100
AcDbEntity
  8
0
  6
Continuous
 62
   179
370
     0
100
AcDbSpline
210
0.0
220
0.0
230
1.0
 70
     8
 71
     3
 72
    20
 73
    16
 74
     0
 42
0.000000001
 43
0.00000001
 40
0.0
 40
0.0
 40
0.0
 40
0.0
 40
1.0
 40
1.0
 40
1.0
 40
2.0
 40
2.0
 40
2.0
 40
3.0
 40
3.0
 40
3.0
 40
4.0
 40
4.0
 40
4.0
 40
5.0
 40
5.0
 40
5.0
 40
5.0
 10
257.7192638284546
 20
27.51463645747964
 30
0.0
 10
258.1174764912431
 20
27.51463645747964
 30
0.0
 10
258.5159962651877
 20
27.52468175973202
 30
0.0
 10
258.913837050576
 20
27.51251762112626
 30
0.0
 10
259.7094699986222
 20
27.48819126576296
 30
0.0
 10
260.5093946232761
 20
27.49481913962259
 30
0.0
 10
261.2989762515716
 20
27.40941936834727
 30
0.0
 10
262.3071445332423
 20
27.30037799580672
 30
0.0
 10
262.8488620904764
 20
26.74717259793779
 30
0.0
 10
262.9131259646454
 20
25.88395655371281
 30
0.0
 10
262.9966382899504
 20
24.76217905347503
 30
0.0
 10
262.5617362220245
 20
24.08644572151765
 30
0.0
 10
261.5515161764629
 20
23.77337299628438
 30
0.0
 10
261.3945785321864
 20
23.72473719781129
 30
0.0
 10
261.2341319795987
 20
23.68742184709605
 30
0.0
 10
261.0219043336847
 20
23.63056361828031
 30
0.0
  0
SPLINE
  5
9C
330
1F
100
AcDbEntity
  8
0
  6
Continuous
 62
   179
370
     0
100
AcDbSpline
210
0.0
220
0.0
230
1.0
 70
     8
 71
     3
 72
    20
 73
    16
 74
     0
 42
0.000000001
 43
0.00000001
 40
1.0
 40
1.0
 40
1.0
 40
1.0
 40
2.0
 40
2.0
 40
2.0
 40
3.0
 40
3.0
 40
3.0
 40
4.0
 40
4.0
 40
4.0
 40
5.0
 40
5.0
 40
5.0
 40
6.0
 40
6.0
 40
6.0
 40
6.0
 10
259.4558811296203
 20
23.74052094311723
 30
0.0
 10
259.8313410453958
 20
23.74052094311723
 30
0.0
 10
260.1942113256325
 20
23.70804326575078
 30
0.0
 10
260.5489927438957
 20
23.74778168120398
 30
0.0
 10
261.1506181168165
 20
23.81517009427841
 30
0.0
 10
261.6082598631961
 20
24.13857044109259
 30
0.0
 10
261.7413862071132
 20
24.73962656292206
 30
0.0
 10
261.8389787525148
 20
25.18024881635489
 30
0.0
 10
261.8719876284001
 20
25.65810454981779
 30
0.0
 10
261.8164781518313
 20
26.10478869315943
 30
0.0
 10
261.7108519014664
 20
26.95476897687368
 30
0.0
 10
261.3230227860075
 20
27.28690123567825
 30
0.0
 10
260.4792308497364
 20
27.35420547185249
 30
0.0
 10
260.146744010155
 20
27.38072599997261
 30
0.0
 10
259.8103733099057
 20
27.35855230546976
 30
0.0
 10
259.4558811296203
 20
27.35855230546976
 30
0.0
  0
SPLINE
  5
9D
330
1F
100
AcDbEntity
  8
0
  6
Continuous
 62
   179
370
     0
100
AcDbSpline
210
0.0
220
0.0
230
1.0
 70
    24
 71
     3
 72
     8
 73
     4
 74
     0
 42
0.000000001
 43
0.00000001
 40
0.0
 40
0.0
 40
0.0
 40
0.0
 40
1.0
 40
1.0
 40
1.0
 40
1.0
 10
259.4558811296203
 20
27.35855230546976
 30
0.0
 10
259.4558811296203
 20
26.13864548795524
 30
0.0
 10
259.4558811296203
 20
24.94385548148867
 30
0.0
 10
259.4558811296203
 20
23.74052094311723
 30
0.0
  0
SPLINE
  5
9E
330
1F
100
AcDbEntity
  8
0
  6
Continuous
 62
   179
370
     0
100
AcDbSpline
210
0.0
220
0.0
230
1.0
 70
     8
 71
     3
 72
    14
 73
    10
 74
     0
 42
0.000000001
 43
0.00000001
 40
3.0
 40
3.0
 40
3.0
 40
3.0
 40
4.0
 40
4.0
 40
4.0
 40
5.0
 40
5.0
 40
5.0
 40
6.0
 40
6.0
 40
6.0
 40
6.0
 10
267.2336118279071
 20
20.23490821509466
 30
0.0
 10
266.3034040398355
 20
20.48709452013179
 30
0.0
 10
265.5792320909092
 20
21.34541139190241
 30
0.0
 10
265.4837047623288
 20
22.29272284982233
 30
0.0
 10
265.4259332718035
 20
22.86561853145873
 30
0.0
 10
265.4879189885011
 20
23.41465794151554
 30
0.0
 10
265.7739382574312
 20
23.92202056120339
 30
0.0
 10
266.225828300013
 20
24.72361219597301
 30
0.0
 10
266.9062728477855
 20
25.1505801106106
 30
0.0
 10
267.7758432870376
 20
25.16748813643033
 30
0.0
  0
SPLINE
  5
9F
330
1F
100
AcDbEntity
  8
0
  6
Continuous
 62
   179
370
     0
100
AcDbSpline
210
0.0
220
0.0
230
1.0
 70
     8
 71
     3
 72
    14
 73
    10
 74
     0
 42
0.000000001
 43
0.00000001
 40
0.0
 40
0.0
 40
0.0
 40
0.0
 40
1.0
 40
1.0
 40
1.0
 40
2.0
 40
2.0
 40
2.0
 40
3.0
 40
3.0
 40
3.0
 40
3.0
 10
267.7758432870376
 20
25.16748813643033
 30
0.0
 10
268.6216197225536
 20
25.16033694362373
 30
0.0
 10
269.2464106552308
 20
24.83848445240962
 30
0.0
 10
269.7103360726668
 20
24.21398909980579
 30
0.0
 10
270.372934348899
 20
23.32205720159637
 30
0.0
 10
270.3723808569537
 20
22.03321892002499
 30
0.0
 10
269.7215189161772
 20
21.13111084177938
 30
0.0
 10
269.1482911393735
 20
20.33660467264828
 30
0.0
 10
268.1650050112285
 20
19.98240211471103
 30
0.0
 10
267.2336118279071
 20
20.23490821509466
 30
0.0
  0
SPLINE
  5
A0
330
1F
100
AcDbEntity
  8
0
  6
Continuous
 62
   179
370
     0
100
AcDbSpline
210
0.0
220
0.0
230
1.0
 70
     8
 71
     3
 72
    17
 73
    13
 74
     0
 42
0.000000001
 43
0.00000001
 40
4.0
 40
4.0
 40
4.0
 40
4.0
 40
5.0
 40
5.0
 40
5.0
 40
6.0
 40
6.0
 40
6.0
 40
7.0
 40
7.0
 40
7.0
 40
8.0
 40
8.0
 40
8.0
 40
8.0
 10
266.4699528411193
 20
22.82140374989816
 30
0.0
 10
266.4269741915698
 20
22.16270989809668
 30
0.0
 10
266.5287029361534
 20
21.51524885782823
 30
0.0
 10
266.8746830637486
 20
20.93428603108956
 30
0.0
 10
267.1048165584612
 20
20.54785025472892
 30
0.0
 10
267.4153070900211
 20
20.27237193240103
 30
0.0
 10
267.9076604687568
 20
20.30531315927085
 30
0.0
 10
268.3388937306983
 20
20.33416469565678
 30
0.0
 10
268.6078393105943
 20
20.59660136402461
 30
0.0
 10
268.810867074766
 20
20.94311038392242
 30
0.0
 10
269.1208448575376
 20
21.47214721006825
 30
0.0
 10
269.202432645224
 20
22.05765558940843
 30
0.0
 10
269.218762963826
 20
22.6835112253406
 30
0.0
  0
SPLINE
  5
A1
330
1F
100
AcDbEntity
  8
0
  6
Continuous
 62
   179
370
     0
100
AcDbSpline
210
0.0
220
0.0
230
1.0
 70
     8
 71
     3
 72
    17
 73
    13
 74
     0
 42
0.000000001
 43
0.00000001
 40
0.0
 40
0.0
 40
0.0
 40
0.0
 40
1.0
 40
1.0
 40
1.0
 40
2.0
 40
2.0
 40
2.0
 40
3.0
 40
3.0
 40
3.0
 40
4.0
 40
4.0
 40
4.0
 40
4.0
 10
269.218762963826
 20
22.6835112253406
 30
0.0
 10
269.195680043492
 20
23.34551372899321
 30
0.0
 10
269.0963628325642
 20
24.01168817818242
 30
0.0
 10
268.6683621173312
 20
24.58056604641373
 30
0.0
 10
268.2143234497673
 20
25.18405330473933
 30
0.0
 10
267.4640605055332
 20
25.19142205062979
 30
0.0
 10
267.0072628343699
 20
24.59213287496141
 30
0.0
 10
266.882078331128
 20
24.42789874624284
 30
0.0
 10
266.7597204805012
 20
24.2414496033099
 30
0.0
 10
266.7072125446275
 20
24.04607386528146
 30
0.0
 10
266.5993976948625
 20
23.64490674705059
 30
0.0
 10
266.4968487059656
 20
23.23360918874381
 30
0.0
 10
266.4699528411193
 20
22.82140374989816
 30
0.0
  0
SPLINE
  5
A2
330
1F
100
AcDbEntity
  8
0
  6
Continuous
 62
   179
370
     0
100
AcDbSpline
210
0.0
220
0.0
230
1.0
 70
     8
 71
     3
 72
    17
 73
    13
 74
     0
 42
0.000000001
 43
0.00000001
 40
6.0
 40
6.0
 40
6.0
 40
6.0
 40
7.0
 40
7.0
 40
7.0
 40
8.0
 40
8.0
 40
8.0
 40
9.0
 40
9.0
 40
9.0
 40
10.0
 40
10.0
 40
10.0
 40
10.0
 10
311.6156486607862
 20
20.25320881127337
 30
0.0
 10
312.1185268426077
 20
20.41647125413319
 30
0.0
 10
312.2872188877024
 20
20.63608302071405
 30
0.0
 10
312.2876555313485
 20
21.16871754450475
 30
0.0
 10
312.2890700107628
 20
22.88922803787956
 30
0.0
 10
312.287766229737
 20
24.60974045310045
 30
0.0
 10
312.2871819882396
 20
26.33025248395311
 30
0.0
 10
312.2871512386867
 20
26.42255802816858
 30
0.0
 10
312.2845313768121
 20
26.51487279724975
 30
0.0
 10
312.2823973578678
 20
26.60716642601487
 30
0.0
 10
312.2683694120104
 20
27.21300429544448
 30
0.0
 10
312.2096131670664
 20
27.27631108979181
 30
0.0
 10
311.6691528821609
 20
27.32445797038016
 30
0.0
  0
SPLINE
  5
A3
330
1F
100
AcDbEntity
  8
0
  6
Continuous
 62
   179
370
     0
100
AcDbSpline
210
0.0
220
0.0
230
1.0
 70
    24
 71
     3
 72
     8
 73
     4
 74
     0
 42
0.000000001
 43
0.00000001
 40
5.0
 40
5.0
 40
5.0
 40
5.0
 40
6.0
 40
6.0
 40
6.0
 40
6.0
 10
313.8867245107604
 20
20.25320881127337
 30
0.0
 10
313.0865658051385
 20
20.25320881127337
 30
0.0
 10
312.3511103079175
 20
20.25320881127337
 30
0.0
 10
311.6156486607862
 20
20.25320881127337
 30
0.0
  0
SPLINE
  5
A4
330
1F
100
AcDbEntity
  8
0
  6
Continuous
 62
   179
370
     0
100
AcDbSpline
210
0.0
220
0.0
230
1.0
 70
     8
 71
     3
 72
    17
 73
    13
 74
     0
 42
0.000000001
 43
0.00000001
 40
1.0
 40
1.0
 40
1.0
 40
1.0
 40
2.0
 40
2.0
 40
2.0
 40
3.0
 40
3.0
 40
3.0
 40
4.0
 40
4.0
 40
4.0
 40
5.0
 40
5.0
 40
5.0
 40
5.0
 10
313.1781318226163
 20
27.87703492426926
 30
0.0
 10
313.1781318226163
 20
27.83642744958889
 30
0.0
 10
313.1781318226163
 20
27.75161518695077
 30
0.0
 10
313.1781318226163
 20
27.66680273212925
 30
0.0
 10
313.1781318226163
 20
25.57700952371036
 30
0.0
 10
313.1781256727049
 20
23.48721689184594
 30
0.0
 10
313.1781441224363
 20
21.39742349124223
 30
0.0
 10
313.1781441224363
 20
21.32188875296784
 30
0.0
 10
313.1771847363982
 20
21.24633325874564
 30
0.0
 10
313.1786115156352
 20
21.17082388885262
 30
0.0
 10
313.1888880160859
 20
20.62648762285203
 30
0.0
 10
313.3266152617988
 20
20.4348325806782
 30
0.0
 10
313.8867245107604
 20
20.25320881127337
 30
0.0
  0
SPLINE
  5
A5
330
1F
100
AcDbEntity
  8
0
  6
Continuous
 62
   179
370
     0
100
AcDbSpline
210
0.0
220
0.0
230
1.0
 70
     8
 71
     3
 72
     8
 73
     4
 74
     0
 42
0.000000001
 43
0.00000001
 40
0.0
 40
0.0
 40
0.0
 40
0.0
 40
1.0
 40
1.0
 40
1.0
 40
1.0
 10
311.6691528821609
 20
27.32445797038016
 30
0.0
 10
312.1410908642435
 20
27.49727756634619
 30
0.0
 10
312.6458878181427
 20
27.68213176842718
 30
0.0
 10
313.1781318226163
 20
27.87703492426926
 30
0.0
  0
SPLINE
  5
A6
330
1F
100
AcDbEntity
  8
0
  6
Continuous
 62
   179
370
     0
100
AcDbSpline
210
0.0
220
0.0
230
1.0
 70
     8
 71
     3
 72
    14
 73
    10
 74
     0
 42
0.000000001
 43
0.00000001
 40
6.0
 40
6.0
 40
6.0
 40
6.0
 40
7.0
 40
7.0
 40
7.0
 40
8.0
 40
8.0
 40
8.0
 40
9.0
 40
9.0
 40
9.0
 40
9.0
 10
278.4819664915177
 20
27.88441039662488
 30
0.0
 10
278.4819664915177
 20
27.83987735719566
 30
0.0
 10
278.4819649540404
 20
27.75219577693941
 30
0.0
 10
278.4819649540404
 20
27.66451419668386
 30
0.0
 10
278.4819664915177
 20
25.48269219002111
 30
0.0
 10
278.4816605334703
 20
23.30086999117493
 30
0.0
 10
278.4822124879378
 20
21.11904779232805
 30
0.0
 10
278.4823339486704
 20
20.63637283524633
 30
0.0
 10
278.6550987719953
 20
20.40793364087759
 30
0.0
 10
279.1055120673173
 20
20.25491771765491
 30
0.0
  0
SPLINE
  5
A7
330
1F
100
AcDbEntity
  8
0
  6
Continuous
 62
   179
370
     0
100
AcDbSpline
210
0.0
220
0.0
230
1.0
 70
     8
 71
     3
 72
     8
 73
     4
 74
     0
 42
0.000000001
 43
0.00000001
 40
5.0
 40
5.0
 40
5.0
 40
5.0
 40
6.0
 40
6.0
 40
6.0
 40
6.0
 10
276.9846800684063
 20
27.3296354262854
 30
0.0
 10
277.4478728777531
 20
27.5012575193644
 30
0.0
 10
277.9568994326009
 20
27.68986239811422
 30
0.0
 10
278.4819664915177
 20
27.88441039662488
 30
0.0
  0
SPLINE
  5
A8
330
1F
100
AcDbEntity
  8
0
  6
Continuous
 62
   179
370
     0
100
AcDbSpline
210
0.0
220
0.0
230
1.0
 70
     8
 71
     3
 72
    17
 73
    13
 74
     0
 42
0.000000001
 43
0.00000001
 40
1.0
 40
1.0
 40
1.0
 40
1.0
 40
2.0
 40
2.0
 40
2.0
 40
3.0
 40
3.0
 40
3.0
 40
4.0
 40
4.0
 40
4.0
 40
5.0
 40
5.0
 40
5.0
 40
5.0
 10
276.9460186560295
 20
20.25491771765491
 30
0.0
 10
277.4179566381115
 20
20.4199152040148
 30
0.0
 10
277.5770686601204
 20
20.6342380475635
 30
0.0
 10
277.5771993457187
 20
21.13377529050539
 30
0.0
 10
277.5776652014392
 20
22.92958298186009
 30
0.0
 10
277.5773700057348
 20
24.72538990447762
 30
0.0
 10
277.577359243392
 20
26.52119721146338
 30
0.0
 10
277.577359243392
 20
26.53798031722657
 30
0.0
 10
277.5773838430334
 20
26.55476419172763
 30
0.0
 10
277.5772915943764
 20
26.57154691311976
 30
0.0
 10
277.5738092075535
 20
27.20775573119973
 30
0.0
 10
277.5366914227135
 20
27.25167954511983
 30
0.0
 10
276.9846800684063
 20
27.3296354262854
 30
0.0
  0
SPLINE
  5
A9
330
1F
100
AcDbEntity
  8
0
  6
Continuous
 62
   179
370
     0
100
AcDbSpline
210
0.0
220
0.0
230
1.0
 70
    24
 71
     3
 72
     8
 73
     4
 74
     0
 42
0.000000001
 43
0.00000001
 40
0.0
 40
0.0
 40
0.0
 40
0.0
 40
1.0
 40
1.0
 40
1.0
 40
1.0
 10
279.1055120673173
 20
20.25491771765491
 30
0.0
 10
278.3856819552066
 20
20.25491771765491
 30
0.0
 10
277.6658503056181
 20
20.25491771765491
 30
0.0
 10
276.9460186560295
 20
20.25491771765491
 30
0.0
  0
SPLINE
  5
AA
330
1F
100
AcDbEntity
  8
0
  6
Continuous
 62
   179
370
     0
100
AcDbSpline
210
0.0
220
0.0
230
1.0
 70
     8
 71
     3
 72
    20
 73
    16
 74
     0
 42
0.000000001
 43
0.00000001
 40
5.0
 40
5.0
 40
5.0
 40
5.0
 40
6.0
 40
6.0
 40
6.0
 40
7.0
 40
7.0
 40
7.0
 40
8.0
 40
8.0
 40
8.0
 40
9.0
 40
9.0
 40
9.0
 40
10.0
 40
10.0
 40
10.0
 40
10.0
 10
307.178408284104
 20
20.25443648715803
 30
0.0
 10
307.3179589782804
 20
20.36177625633667
 30
0.0
 10
307.5293898264143
 20
20.45652254628292
 30
0.0
 10
307.6283941606455
 20
20.61954360515536
 30
0.0
 10
307.7285516030972
 20
20.78446498637256
 30
0.0
 10
307.7490584796685
 20
21.01681475508337
 30
0.0
 10
307.7500732149022
 20
21.21990094340409
 30
0.0
 10
307.7587445887104
 20
22.95682170421714
 30
0.0
 10
307.7550484924979
 20
24.69380511724258
 30
0.0
 10
307.7550361926766
 20
26.43077008053731
 30
0.0
 10
307.7550361926766
 20
26.49789904426263
 30
0.0
 10
307.7552944889175
 20
26.56503146731187
 30
0.0
 10
307.7547502218385
 20
26.63215658734291
 30
0.0
 10
307.7501131893193
 20
27.20350460556406
 30
0.0
 10
307.6774858212348
 20
27.28280885460759
 30
0.0
 10
307.160813390154
 20
27.32540717062984
 30
0.0
  0
SPLINE
  5
AB
330
1F
100
AcDbEntity
  8
0
  6
Continuous
 62
   179
370
     0
100
AcDbSpline
210
0.0
220
0.0
230
1.0
 70
    24
 71
     3
 72
     8
 73
     4
 74
     0
 42
0.000000001
 43
0.00000001
 40
4.0
 40
4.0
 40
4.0
 40
4.0
 40
5.0
 40
5.0
 40
5.0
 40
5.0
 10
309.3620693061908
 20
20.25443648715802
 30
0.0
 10
308.5715044609525
 20
20.25443648715802
 30
0.0
 10
307.8517004859625
 20
20.25443648715802
 30
0.0
 10
307.178408284104
 20
20.25443648715803
 30
0.0
  0
SPLINE
  5
AC
330
1F
100
AcDbEntity
  8
0
  6
Continuous
 62
   179
370
     0
100
AcDbSpline
210
0.0
220
0.0
230
1.0
 70
     8
 71
     3
 72
    14
 73
    10
 74
     0
 42
0.000000001
 43
0.00000001
 40
1.0
 40
1.0
 40
1.0
 40
1.0
 40
2.0
 40
2.0
 40
2.0
 40
3.0
 40
3.0
 40
3.0
 40
4.0
 40
4.0
 40
4.0
 40
4.0
 10
308.65963267846
 20
27.88697759989075
 30
0.0
 10
308.65963267846
 20
27.83196991758182
 30
0.0
 10
308.65963267846
 20
27.74275854708867
 30
0.0
 10
308.65963267846
 20
27.65354698440997
 30
0.0
 10
308.65963267846
 20
25.48863300356693
 30
0.0
 10
308.6595035303402
 20
23.32371921490945
 30
0.0
 10
308.6597187772069
 20
21.15880542625192
 30
0.0
 10
308.6597679764911
 20
20.6374237012035
 30
0.0
 10
308.807415027844
 20
20.43200746554105
 30
0.0
 10
309.3620693061909
 20
20.25443648715802
 30
0.0
  0
SPLINE
  5
AD
330
1F
100
AcDbEntity
  8
0
  6
Continuous
 62
   179
370
     0
100
AcDbSpline
210
0.0
220
0.0
230
1.0
 70
     8
 71
     3
 72
     8
 73
     4
 74
     0
 42
0.000000001
 43
0.00000001
 40
0.0
 40
0.0
 40
0.0
 40
0.0
 40
1.0
 40
1.0
 40
1.0
 40
1.0
 10
307.160813390154
 20
27.32540717062984
 30
0.0
 10
307.6336123597078
 20
27.50255342081908
 30
0.0
 10
308.1420254609839
 20
27.69304267058278
 30
0.0
 10
308.65963267846
 20
27.88697759989075
 30
0.0
  0
SPLINE
  5
AE
330
1F
100
AcDbEntity
  8
0
  6
Continuous
 62
   179
370
     0
100
AcDbSpline
210
0.0
220
0.0
230
1.0
 70
     8
 71
     3
 72
    14
 73
    10
 74
     0
 42
0.000000001
 43
0.00000001
 40
6.0
 40
6.0
 40
6.0
 40
6.0
 40
7.0
 40
7.0
 40
7.0
 40
8.0
 40
8.0
 40
8.0
 40
9.0
 40
9.0
 40
9.0
 40
9.0
 10
272.426404840594
 20
20.25907966958721
 30
0.0
 10
273.005992393597
 20
20.37668517687365
 30
0.0
 10
273.0805785081768
 20
20.81042375860577
 30
0.0
 10
273.0783845276048
 20
21.29462927466368
 30
0.0
 10
273.0702866329497
 20
23.08209538116095
 30
0.0
 10
273.0685846452182
 20
24.86961337752775
 30
0.0
 10
273.0527409382852
 20
26.65700799131587
 30
0.0
 10
273.0476395875227
 20
27.23250104921648
 30
0.0
 10
272.9826104338649
 20
27.28380667758701
 30
0.0
 10
272.4594267850394
 20
27.32510813123116
 30
0.0
  0
SPLINE
  5
AF
330
1F
100
AcDbEntity
  8
0
  6
Continuous
 62
   179
370
     0
100
AcDbSpline
210
0.0
220
0.0
230
1.0
 70
    24
 71
     3
 72
     8
 73
     4
 74
     0
 42
0.000000001
 43
0.00000001
 40
5.0
 40
5.0
 40
5.0
 40
5.0
 40
6.0
 40
6.0
 40
6.0
 40
6.0
 10
274.6224502449564
 20
20.25907966958721
 30
0.0
 10
273.8904356226618
 20
20.25907966958721
 30
0.0
 10
273.1584194628893
 20
20.25907966958721
 30
0.0
 10
272.426404840594
 20
20.25907966958721
 30
0.0
  0
SPLINE
  5
B0
330
1F
100
AcDbEntity
  8
0
  6
Continuous
 62
   179
370
     0
100
AcDbSpline
210
0.0
220
0.0
230
1.0
 70
     8
 71
     3
 72
    17
 73
    13
 74
     0
 42
0.000000001
 43
0.00000001
 40
1.0
 40
1.0
 40
1.0
 40
1.0
 40
2.0
 40
2.0
 40
2.0
 40
3.0
 40
3.0
 40
3.0
 40
4.0
 40
4.0
 40
4.0
 40
5.0
 40
5.0
 40
5.0
 40
5.0
 10
273.9540333846496
 20
27.87257450949275
 30
0.0
 10
273.9540333846496
 20
27.8074859707617
 30
0.0
 10
273.9540333846496
 20
27.71082379150879
 30
0.0
 10
273.9540333846496
 20
27.61416161225588
 30
0.0
 10
273.9540349221275
 20
25.51596282147274
 30
0.0
 10
273.9539872603212
 20
23.41776441505854
 30
0.0
 10
273.9542086570993
 20
21.31956562427539
 30
0.0
 10
273.954217881965
 20
21.22727776105204
 30
0.0
 10
273.9506540088286
 20
21.13443409966764
 30
0.0
 10
273.9590578615309
 20
21.04279505200227
 30
0.0
 10
274.0006220316647
 20
20.58964274029083
 30
0.0
 10
274.1836818051717
 20
20.38260600321025
 30
0.0
 10
274.6224502449564
 20
20.25907966958721
 30
0.0
  0
SPLINE
  5
B1
330
1F
100
AcDbEntity
  8
0
  6
Continuous
 62
   179
370
     0
100
AcDbSpline
210
0.0
220
0.0
230
1.0
 70
     8
 71
     3
 72
     8
 73
     4
 74
     0
 42
0.000000001
 43
0.00000001
 40
0.0
 40
0.0
 40
0.0
 40
0.0
 40
1.0
 40
1.0
 40
1.0
 40
1.0
 10
272.4594267850394
 20
27.32510813123116
 30
0.0
 10
272.932774634105
 20
27.49849255803981
 30
0.0
 10
273.4351023989377
 20
27.68249307566929
 30
0.0
 10
273.9540333846496
 20
27.87257450949275
 30
0.0
  0
SPLINE
  5
B2
330
1F
100
AcDbEntity
  8
0
  6
Continuous
 62
   179
370
     0
100
AcDbSpline
210
0.0
220
0.0
230
1.0
 70
     8
 71
     3
 72
    17
 73
    13
 74
     0
 42
0.000000001
 43
0.00000001
 40
6.0
 40
6.0
 40
6.0
 40
6.0
 40
7.0
 40
7.0
 40
7.0
 40
8.0
 40
8.0
 40
8.0
 40
9.0
 40
9.0
 40
9.0
 40
10.0
 40
10.0
 40
10.0
 40
10.0
 10
304.1706223551654
 20
25.06377258638473
 30
0.0
 10
304.1727133247369
 20
25.01792115989103
 30
0.0
 10
304.1800409430993
 20
24.93136078519359
 30
0.0
 10
304.1800932173391
 20
24.84479541369365
 30
0.0
 10
304.1808527312862
 20
23.65282014439031
 30
0.0
 10
304.1797703470369
 20
22.46084295323947
 30
0.0
 10
304.1818797663413
 20
21.26887114326077
 30
0.0
 10
304.1821011631179
 20
21.14380579453512
 30
0.0
 10
304.1922454404933
 20
21.01764883669525
 30
0.0
 10
304.2107535961514
 20
20.89393877449616
 30
0.0
 10
304.2621822227331
 20
20.55023795748125
 30
0.0
 10
304.4578262506062
 20
20.33981031349823
 30
0.0
 10
304.8038079156779
 20
20.2539775500868
 30
0.0
  0
SPLINE
  5
B3
330
1F
100
AcDbEntity
  8
0
  6
Continuous
 62
   179
370
     0
100
AcDbSpline
210
0.0
220
0.0
230
1.0
 70
     8
 71
     3
 72
     8
 73
     4
 74
     0
 42
0.000000001
 43
0.00000001
 40
5.0
 40
5.0
 40
5.0
 40
5.0
 40
6.0
 40
6.0
 40
6.0
 40
6.0
 10
302.7125031745686
 20
24.50968064047994
 30
0.0
 10
303.1898069535648
 20
24.6910587978335
 30
0.0
 10
303.6729961969132
 20
24.87467283202501
 30
0.0
 10
304.1706223551654
 20
25.06377258638473
 30
0.0
  0
SPLINE
  5
B4
330
1F
100
AcDbEntity
  8
0
  6
Continuous
 62
   179
370
     0
100
AcDbSpline
210
0.0
220
0.0
230
1.0
 70
     8
 71
     3
 72
    17
 73
    13
 74
     0
 42
0.000000001
 43
0.00000001
 40
1.0
 40
1.0
 40
1.0
 40
1.0
 40
2.0
 40
2.0
 40
2.0
 40
3.0
 40
3.0
 40
3.0
 40
4.0
 40
4.0
 40
4.0
 40
5.0
 40
5.0
 40
5.0
 40
5.0
 10
302.6973344203136
 20
20.2539775500868
 30
0.0
 10
303.1321361678242
 20
20.3494649042487
 30
0.0
 10
303.2897768237453
 20
20.65853557522151
 30
0.0
 10
303.2916556214045
 20
21.04785181591347
 30
0.0
 10
303.2966032244031
 20
22.071496731734
 30
0.0
 10
303.2829750227277
 20
23.09531768874207
 30
0.0
 10
303.2668591822546
 20
24.11891186780057
 30
0.0
 10
303.2632153602819
 20
24.35030186610297
 30
0.0
 10
303.1332831261333
 20
24.4918735746181
 30
0.0
 10
302.8846514693662
 20
24.49557889569631
 30
0.0
 10
302.8224697242705
 20
24.49650561033552
 30
0.0
 10
302.760410977386
 20
24.5055728846329
 30
0.0
 10
302.7125031745686
 20
24.50968064047994
 30
0.0
  0
SPLINE
  5
B5
330
1F
100
AcDbEntity
  8
0
  6
Continuous
 62
   179
370
     0
100
AcDbSpline
210
0.0
220
0.0
230
1.0
 70
    24
 71
     3
 72
     8
 73
     4
 74
     0
 42
0.000000001
 43
0.00000001
 40
0.0
 40
0.0
 40
0.0
 40
0.0
 40
1.0
 40
1.0
 40
1.0
 40
1.0
 10
304.8038079156779
 20
20.2539775500868
 30
0.0
 10
304.101651108875
 20
20.2539775500868
 30
0.0
 10
303.3994912271164
 20
20.2539775500868
 30
0.0
 10
302.6973344203136
 20
20.2539775500868
 30
0.0
  0
SPLINE
  5
B6
330
1F
100
AcDbEntity
  8
0
  6
Continuous
 62
   179
370
     0
100
AcDbSpline
210
0.0
220
0.0
230
1.0
 70
     8
 71
     3
 72
    11
 73
     7
 74
     0
 42
0.000000001
 43
0.00000001
 40
2.0
 40
2.0
 40
2.0
 40
2.0
 40
3.0
 40
3.0
 40
3.0
 40
4.0
 40
4.0
 40
4.0
 40
4.0
 10
303.0570519104932
 20
26.35430478392947
 30
0.0
 10
303.0511172468595
 20
26.75330175249256
 30
0.0
 10
303.3266947364937
 20
27.05519259513757
 30
0.0
 10
303.6924299141011
 20
27.05034857969325
 30
0.0
 10
304.0507636744179
 20
27.04560238626284
 30
0.0
 10
304.3255386007336
 20
26.75299425696746
 30
0.0
 10
304.327448147944
 20
26.37412133304796
 30
0.0
  0
SPLINE
  5
B7
330
1F
100
AcDbEntity
  8
0
  6
Continuous
 62
   179
370
     0
100
AcDbSpline
210
0.0
220
0.0
230
1.0
 70
     8
 71
     3
 72
    11
 73
     7
 74
     0
 42
0.000000001
 43
0.00000001
 40
0.0
 40
0.0
 40
0.0
 40
0.0
 40
1.0
 40
1.0
 40
1.0
 40
2.0
 40
2.0
 40
2.0
 40
2.0
 10
304.327448147944
 20
26.37412133304796
 30
0.0
 10
304.3293945946187
 20
25.98752450590587
 30
0.0
 10
304.068057222753
 20
25.70828897263022
 30
0.0
 10
303.6993639381942
 20
25.70301926806731
 30
0.0
 10
303.3259905717408
 20
25.69768229885988
 30
0.0
 10
303.0628482011429
 20
25.96449808787493
 30
0.0
 10
303.0570519104932
 20
26.35430478392947
 30
0.0
  0
MTEXT
  5
B9
330
1F
100
AcDbEntity
  8
0
  6
Continuous
 62
     7
370
     0
100
AcDbMText
 10
257.9690483454
 20
40.3166048975
 30
0.0
 40
3.7041666667
 41
0.0
 71
     1
 72
     1
  1
ARBRP1 - Arbor Pendant - 01
  7
SLDTEXTSTYLE0
 73
     1
 44
1.0
  0
MTEXT
  5
BA
330
1F
100
AcDbEntity
  8
0
  6
Continuous
 62
     7
370
     0
100
AcDbMText
 10
258.6105142387
 20
44.3546043689
 30
0.0
 40
1.5875
 41
0.0
 71
     1
 72
     1
  1
\LDESCRIPTION
  7
SLDTEXTSTYLE0
 73
     1
 44
1.0
  0
INSERT
  5
C1
330
1F
100
AcDbEntity
  8
0
  6
Continuous
 62
     7
370
     0
100
AcDbBlockReference
  2
SW_NOTE_0
 10
317.1049495712
 20
24.1495665419
 30
0.0
  0
MTEXT
  5
C2
330
1F
100
AcDbEntity
  8
0
  6
Continuous
 62
     7
370
     0
100
AcDbMText
 10
273.8792930731
 20
32.371143085
 30
0.0
 40
1.5875
 41
0.0
 71
     2
 72
     1
  1
\LSCALE
  7
SLDTEXTSTYLE0
 73
     1
 44
1.0
  0
MTEXT
  5
C3
330
1F
100
AcDbEntity
  8
0
  6
Continuous
 62
     7
370
     0
100
AcDbMText
 10
278.3960862508
 20
33.4394651033
 30
0.0
 40
2.6458333333
 41
0.0
 71
     1
 72
     1
  1
1:10
  7
SLDTEXTSTYLE0
 73
     1
 44
1.0
  0
MTEXT
  5
C4
330
1F
100
AcDbEntity
  8
0
  6
Continuous
 62
     7
370
     0
100
AcDbMText
 10
261.5657280329
 20
32.371143085
 30
0.0
 40
1.5875
 41
0.0
 71
     2
 72
     1
  1
\LSIZE
  7
SLDTEXTSTYLE0
 73
     1
 44
1.0
  0
MTEXT
  5
C5
330
1F
100
AcDbEntity
  8
0
  6
Continuous
 62
     7
370
     0
100
AcDbMText
 10
264.7495209372
 20
33.4394651033
 30
0.0
 40
2.6458333333
 41
0.0
 71
     1
 72
     1
  1
B
  7
SLDTEXTSTYLE0
 73
     1
 44
1.0
  0
INSERT
  5
CC
330
1F
100
AcDbEntity
  8
0
  6
Continuous
 62
     7
370
     0
100
AcDbBlockReference
  2
SW_NOTE_1
 10
258.0900415808
 20
15.6806800849
 30
0.0
  0
LINE
  5
CD
330
1F
100
AcDbEntity
  8
0
  6
Continuous
 62
     7
370
    15
100
AcDbLine
 10
60.3033974016
 20
48.2469762252
 30
0.0
 11
68.6443709571
 21
44.5333355348
 31
0.0
  0
LINE
  5
CE
330
1F
100
AcDbEntity
  8
0
  6
Continuous
 62
     7
370
    15
100
AcDbLine
 10
133.3717881773
 20
44.8553490686
 30
0.0
 11
133.4536296016
 21
45.0391678877
 31
0.0
  0
ARC
  5
CF
330
1F
100
AcDbEntity
  8
0
  6
Continuous
 62
     7
370
    15
100
AcDbCircle
 10
72.9456364745
 20
162.490208926
 30
0.0
 40
0.1587500000000404
100
AcDbArc
 50
180.0
 51
270.0
  0
LINE
  5
D0
330
1F
100
AcDbEntity
  8
0
  6
Continuous
 62
     7
370
    15
100
AcDbLine
 10
72.7868864745
 20
166.776458926
 30
0.0
 11
72.7868864745
 21
162.490208926
 31
0.0
  0
LINE
  5
D1
330
1F
100
AcDbEntity
  8
0
  6
Continuous
 62
     7
370
    15
100
AcDbLine
 10
103.4700864745
 20
162.490208926
 30
0.0
 11
103.4700864745
 21
166.776458926
 31
0.0
  0
ARC
  5
D2
330
1F
100
AcDbEntity
  8
0
  6
Continuous
 62
     7
370
    15
100
AcDbCircle
 10
103.3113364745
 20
162.490208926
 30
0.0
 40
0.1587500000000261
100
AcDbArc
 50
270.0
 51
0.0
  0
LINE
  5
D3
330
1F
100
AcDbEntity
  8
0
  6
Continuous
 62
     7
370
    15
100
AcDbLine
 10
77.5507454184
 20
162.261608926
 30
0.0
 11
77.5507454184
 21
161.277358926
 31
0.0
  0
LINE
  5
D4
330
1F
100
AcDbEntity
  8
0
  6
Continuous
 62
     7
370
    15
100
AcDbLine
 10
80.7230275306
 20
161.277358926
 30
0.0
 11
80.7230275306
 21
162.261608926
 31
0.0
  0
LINE
  5
D5
330
1F
100
AcDbEntity
  8
0
  6
Continuous
 62
     7
370
    15
100
AcDbLine
 10
95.5339454184
 20
162.261608926
 30
0.0
 11
95.5339454184
 21
161.277358926
 31
0.0
  0
LINE
  5
D6
330
1F
100
AcDbEntity
  8
0
  6
Continuous
 62
     7
370
    15
100
AcDbLine
 10
98.7062275306
 20
161.277358926
 30
0.0
 11
98.7062275306
 21
162.261608926
 31
0.0
  0
LINE
  5
D7
330
1F
100
AcDbEntity
  8
0
  6
Continuous
 62
     7
370
    15
100
AcDbLine
 10
98.5513764745
 20
162.261608926
 30
0.0
 11
98.5513764745
 21
162.331458926
 31
0.0
  0
LINE
  5
D8
330
1F
100
AcDbEntity
  8
0
  6
Continuous
 62
     7
370
    15
100
AcDbLine
 10
95.6887964745
 20
162.331458926
 30
0.0
 11
95.6887964745
 21
162.261608926
 31
0.0
  0
LINE
  5
D9
330
1F
100
AcDbEntity
  8
0
  6
Continuous
 62
     7
370
    15
100
AcDbLine
 10
80.5681764745
 20
162.261608926
 30
0.0
 11
80.5681764745
 21
162.331458926
 31
0.0
  0
LINE
  5
DA
330
1F
100
AcDbEntity
  8
0
  6
Continuous
 62
     7
370
    15
100
AcDbLine
 10
77.7055964745
 20
162.331458926
 30
0.0
 11
77.7055964745
 21
162.261608926
 31
0.0
  0
LINE
  5
DB
330
1F
100
AcDbEntity
  8
0
  6
Continuous
 62
     7
370
    15
100
AcDbLine
 10
97.290888291
 20
62.0436906034
 30
0.0
 11
97.3414482463
 21
62.1572501222
 31
0.0
  0
LINE
  5
DC
330
1F
100
AcDbEntity
  8
0
  6
Continuous
 62
     7
370
    15
100
AcDbLine
 10
96.906372222
 20
62.3509584485
 30
0.0
 11
96.8558122667
 21
62.2373989297
 31
0.0
  0
LINE
  5
DD
330
1F
100
AcDbEntity
  8
0
  6
Continuous
 62
     7
370
    15
100
AcDbLine
 10
79.3077459573
 20
70.0503014224
 30
0.0
 11
79.3583059126
 21
70.1638609412
 31
0.0
  0
LINE
  5
DE
330
1F
100
AcDbEntity
  8
0
  6
Continuous
 62
     7
370
    15
100
AcDbLine
 10
78.9232298883
 20
70.3575692675
 30
0.0
 11
78.8726699331
 21
70.2440097487
 31
0.0
  0
LINE
  5
DF
330
1F
100
AcDbEntity
  8
0
  6
Continuous
 62
     7
370
    15
100
AcDbLine
 10
96.942374085
 20
161.277358926
 30
0.0
 11
96.942374085
 21
160.8162576502
 31
0.0
  0
LINE
  5
E0
330
1F
100
AcDbEntity
  8
0
  6
Continuous
 62
     7
370
    15
100
AcDbLine
 10
97.2628491294
 20
160.8162576502
 30
0.0
 11
97.2628491294
 21
161.277358926
 31
0.0
  0
LINE
  5
E1
330
1F
100
AcDbEntity
  8
0
  6
Continuous
 62
     7
370
    15
100
AcDbLine
 10
78.9805303783
 20
161.277358926
 30
0.0
 11
78.9805303783
 21
160.8162576502
 31
0.0
  0
LINE
  5
E2
330
1F
100
AcDbEntity
  8
0
  6
Continuous
 62
     7
370
    15
100
AcDbLine
 10
79.3010054225
 20
160.8162576502
 30
0.0
 11
79.3010054225
 21
161.277358926
 31
0.0
  0
LINE
  5
E3
330
1F
100
AcDbEntity
  8
0
  6
Continuous
 62
     7
370
    15
100
AcDbLine
 10
97.0232366072
 20
160.8162576502
 30
0.0
 11
97.0232366072
 21
62.298927072
 31
0.0
  0
LINE
  5
E4
330
1F
100
AcDbEntity
  8
0
  6
Continuous
 62
     7
370
    15
100
AcDbLine
 10
97.1819866072
 20
62.2282470182
 30
0.0
 11
97.1819866072
 21
160.8162576502
 31
0.0
  0
LINE
  5
E5
330
1F
100
AcDbEntity
  8
0
  6
Continuous
 62
     7
370
    15
100
AcDbLine
 10
79.0613929004
 20
160.8162576502
 30
0.0
 11
79.0613929004
 21
70.2960551312
 31
0.0
  0
LINE
  5
E6
330
1F
100
AcDbEntity
  8
0
  6
Continuous
 62
     7
370
    15
100
AcDbLine
 10
79.2201429004
 20
70.2253750774
 30
0.0
 11
79.2201429004
 21
160.8162576502
 31
0.0
  0
LINE
  5
E7
330
1F
100
AcDbEntity
  8
0
  6
Continuous
 62
     7
370
    15
100
AcDbLine
 10
73.5573100171
 20
71.7709243079
 30
0.0
 11
101.9822769449
 21
59.1153136526
 31
0.0
  0
LINE
  5
E8
330
1F
100
AcDbEntity
  8
0
  6
Continuous
 62
     7
370
    15
100
AcDbLine
 10
102.020408742
 20
59.2009590712
 30
0.0
 11
133.5156093592
 21
45.1783923069
 31
0.0
  0
SPLINE
  5
E9
330
1F
100
AcDbEntity
  8
0
  6
Continuous
 62
     7
370
    15
100
AcDbSpline
210
0.0
220
0.0
230
1.0
 70
     8
 71
     3
 72
    79
 73
    75
 74
     0
 42
0.000000001
 43
0.00000001
 40
0.0
 40
0.0
 40
0.0
 40
0.0
 40
0.0020125651598842
 40
0.0100743034019971
 40
0.0166460256273973
 40
0.02326531629787
 40
0.0300205224197356
 40
0.0368164485970309
 40
0.0462023158103931
 40
0.0556629630840644
 40
0.0653132494702484
 40
0.0750121643970292
 40
0.0917257255242738
 40
0.108572240763572
 40
0.1218757851109084
 40
0.135212677806516
 40
0.148631452245176
 40
0.1620710186226258
 40
0.1886824442005573
 40
0.2153871208630882
 40
0.2419919455878427
 40
0.2686478848105031
 40
0.2952500377918783
 40
0.3218855881954932
 40
0.3484864926002993
 40
0.3751122471385807
 40
0.4017125207427983
 40
0.4283333319736404
 40
0.4550131514769905
 40
0.4817116518718979
 40
0.5083115174245544
 40
0.5349294699255961
 40
0.5615294155758462
 40
0.5881294749637295
 40
0.6147297081954052
 40
0.6213791553814572
 40
0.6346783241363968
 40
0.6612790501725322
 40
0.6745782914755818
 40
0.6878775686433672
 40
0.7011768840250677
 40
0.727779088684091
 40
0.7410785802001761
 40
0.7477280776692271
 40
0.7610277015384294
 40
0.7743274426952738
 40
0.7876273287283111
 40
0.7942768849951558
 40
0.8009264547591505
 40
0.8075760408888105
 40
0.8109007671967732
 40
0.8242012991619826
 40
0.837502208053993
 40
0.8508219292263488
 40
0.8641240644680769
 40
0.870773983176051
 40
0.8840777521457699
 40
0.8907279477913365
 40
0.897378277304843
 40
0.9040287660997212
 40
0.9106794517560715
 40
0.9239912664100516
 40
0.9373087162806394
 40
0.9439612413376527
 40
0.9506412378091716
 40
0.957295024624353
 40
0.9639494932779114
 40
0.9672748964308053
 40
0.973930336789434
 40
0.9805862552999511
 40
0.987242443245027
 40
0.9905679938505666
 40
0.9972240756546731
 40
1.0
 40
1.0
 40
1.0
 40
1.0
 10
133.5156093572498
 20
45.17839230771826
 30
0.0
 10
133.5151092643998
 20
45.17838767969513
 30
0.0
 10
133.5126059481345
 20
45.17836451318601
 30
0.0
 10
133.476109398658
 20
45.17800031754309
 30
0.0
 10
133.3790747596594
 20
45.17703423959147
 30
0.0
 10
133.2457847793873
 20
45.1757204721694
 30
0.0
 10
133.0714835665678
 20
45.17397994405651
 30
0.0
 10
132.8318074405304
 20
45.17160891623838
 30
0.0
 10
132.5144090299393
 20
45.16848075589314
 30
0.0
 10
132.1080370885081
 20
45.16443265286795
 30
0.0
 10
131.651339484146
 20
45.15987703646303
 30
0.0
 10
131.0315499514332
 20
45.15376477317643
 30
0.0
 10
130.2228507021808
 20
45.14571105181651
 30
0.0
 10
129.2816366037137
 20
45.13637247982504
 30
0.0
 10
128.3675867746717
 20
45.12728610184539
 30
0.0
 10
127.4986930677398
 20
45.11868421382796
 30
0.0
 10
126.6047501618375
 20
45.10980972669608
 30
0.0
 10
125.391169674988
 20
45.09774179921129
 30
0.0
 10
123.8378260838797
 20
45.08235949761287
 30
0.0
 10
121.9349864640674
 20
45.06345634733832
 30
0.0
 10
119.9986618916038
 20
45.04421930575712
 30
0.0
 10
118.0401962284681
 20
45.0248855367303
 30
0.0
 10
116.0619414609283
 20
45.00517642226522
 30
0.0
 10
114.0701656180415
 20
44.98542990224151
 30
0.0
 10
112.0661693436632
 20
44.96559676910902
 30
0.0
 10
110.0540298564459
 20
44.94551814935415
 30
0.0
 10
108.0344868817244
 20
44.9255007592052
 30
0.0
 10
106.0085062252473
 20
44.90538477749035
 30
0.0
 10
103.9765658823362
 20
44.88522964519493
 30
0.0
 10
101.9431679956327
 20
44.86501207921831
 30
0.0
 10
99.91075994688862
 20
44.84481812669804
 30
0.0
 10
97.88164699064134
 20
44.8247271126839
 30
0.0
 10
95.85471690455078
 20
44.804606990492
 30
0.0
 10
93.83192542484426
 20
44.78453476076398
 30
0.0
 10
92.31878795185904
 20
44.76952192075489
 30
0.0
 10
91.14461088048323
 20
44.75786011653568
 30
0.0
 10
89.97211039115851
 20
44.7461434576656
 30
0.0
 10
88.63641117926613
 20
44.73290744199122
 30
0.0
 10
87.30646553843968
 20
44.71978270100399
 30
0.0
 10
86.31224858474167
 20
44.70988808807423
 30
0.0
 10
84.99141632770396
 20
44.69670772780006
 30
0.0
 10
83.67861044289668
 20
44.68373322899267
 30
0.0
 10
82.53921586604052
 20
44.67246065865617
 30
0.0
 10
81.7291896393194
 20
44.66441148371731
 30
0.0
 10
80.92314364509947
 20
44.65641433503648
 30
0.0
 10
79.96322423572505
 20
44.64689364910746
 30
0.0
 10
79.17032719265265
 20
44.63899425502834
 30
0.0
 10
78.54092134445928
 20
44.63275465977798
 30
0.0
 10
78.07151005499166
 20
44.62812177774386
 30
0.0
 10
77.68271050949569
 20
44.62427520568936
 30
0.0
 10
77.14108098496862
 20
44.61888849300306
 30
0.0
 10
76.45064494313708
 20
44.61200315376644
 30
0.0
 10
75.54478650648139
 20
44.60299457567262
 30
0.0
 10
74.6569938388897
 20
44.59420480894376
 30
0.0
 10
73.9352560568107
 20
44.58707562935054
 30
0.0
 10
73.23072471771256
 20
44.58007167528289
 30
0.0
 10
72.68180901977253
 20
44.57462588104229
 30
0.0
 10
72.15153613058914
 20
44.56936370170416
 30
0.0
 10
71.76430697751051
 20
44.56550516870543
 30
0.0
 10
71.38880596038568
 20
44.56177050679466
 30
0.0
 10
70.90568219304483
 20
44.5569819878011
 30
0.0
 10
70.33890121656277
 20
44.55138699300551
 30
0.0
 10
69.83698396321134
 20
44.54636624192194
 30
0.0
 10
69.48596859986299
 20
44.54288962883199
 30
0.0
 10
69.25151189186276
 20
44.54057886146693
 30
0.0
 10
69.04956229296664
 20
44.53857706066837
 30
0.0
 10
68.91159580899829
 20
44.5371992530496
 30
0.0
 10
68.79840575485717
 20
44.53608238458241
 30
0.0
 10
68.71091754630447
 20
44.53521315548524
 30
0.0
 10
68.650085143274
 20
44.53460735172596
 30
0.0
 10
68.63691490888397
 20
44.53447864755707
 30
0.0
 10
68.65399898582241
 20
44.53464580918161
 30
0.0
 10
68.68284385046384
 20
44.53493405749846
 30
0.0
 10
68.73157445460009
 20
44.53541779574253
 30
0.0
 10
68.7459163102182
 20
44.53556016426385
 30
0.0
  0
SPLINE
  5
EA
330
1F
100
AcDbEntity
  8
0
  6
Continuous
 62
     7
370
    15
100
AcDbSpline
210
0.0
220
0.0
230
1.0
 70
     8
 71
     3
 72
     9
 73
     5
 74
     0
 42
0.000000001
 43
0.00000001
 40
0.0
 40
0.0
 40
0.0
 40
0.0
 40
0.872764514524118
 40
1.0
 40
1.0
 40
1.0
 40
1.0
 10
72.5231801198354
 20
44.57305143146337
 30
0.0
 10
72.77934934102852
 20
44.57559321356848
 30
0.0
 10
73.07286404852415
 20
44.57850554795287
 30
0.0
 10
73.37921986226857
 20
44.58154871660401
 30
0.0
 10
73.4181991929587
 20
44.58193591564471
 30
0.0
  0
LINE
  5
EB
330
1F
100
AcDbEntity
  8
0
  6
Continuous
 62
     7
370
    15
100
AcDbLine
 10
60.3033974016
 20
48.2469762252
 30
0.0
 11
71.2750363601
 21
72.8896807961
 31
0.0
  0
LINE
  5
EC
330
1F
100
AcDbEntity
  8
0
  6
Continuous
 62
     7
370
    15
100
AcDbLine
 10
71.2750363601
 20
72.8896807961
 30
0.0
 11
73.5954418146
 21
71.8565697262
 31
0.0
  0
SPLINE
  5
ED
330
1F
100
AcDbEntity
  8
0
  6
Continuous
 62
     7
370
    15
100
AcDbSpline
210
0.0
220
0.0
230
1.0
 70
     8
 71
     3
 72
    44
 73
    40
 74
     0
 42
0.000000001
 43
0.00000001
 40
0.0
 40
0.0
 40
0.0
 40
0.0
 40
0.0108135437764145
 40
0.032484768695879
 40
0.0546171394892656
 40
0.0705618859640134
 40
0.0866298740663979
 40
0.1025689390643314
 40
0.118587990211921
 40
0.1345231035468378
 40
0.150509419282164
 40
0.1823997581121117
 40
0.214278869604887
 40
0.246150944715769
 40
0.2781331216195215
 40
0.3099977846065707
 40
0.3418604610025636
 40
0.3737706834401642
 40
0.3896992414464103
 40
0.4215591083166708
 40
0.4534183482031403
 40
0.4852770941060367
 40
0.5012054048403836
 40
0.533063625914834
 40
0.5649215740763914
 40
0.5967793155057165
 40
0.6286368920873769
 40
0.6604943284798426
 40
0.7242165588823789
 40
0.7560737148544769
 40
0.7879308079165089
 40
0.8197878505029449
 40
0.8516448517632972
 40
0.8835018210736358
 40
0.9153587652460371
 40
0.9472156924933954
 40
0.9631438142097027
 40
0.9950007265609933
 40
1.0
 40
1.0
 40
1.0
 40
1.0
 10
133.3722820228521
 20
44.85645764906425
 30
0.0
 10
133.3692097778886
 20
44.85645847385499
 30
0.0
 10
133.3599805030938
 20
44.85646095159372
 30
0.0
 10
133.2537380802065
 20
44.85645474099115
 30
0.0
 10
133.0382967642186
 20
44.85646426574154
 30
0.0
 10
132.7707997680988
 20
44.85645690000774
 30
0.0
 10
132.4878620650808
 20
44.85647802764714
 30
0.0
 10
132.1646267242425
 20
44.85647917528102
 30
0.0
 10
131.8084578628905
 20
44.85645543151885
 30
0.0
 10
131.4230500535299
 20
44.85645389834864
 30
0.0
 10
130.8773632040039
 20
44.8564827379978
 30
0.0
 10
130.1430006772265
 20
44.85646000238599
 30
0.0
 10
129.2013314452961
 20
44.85645915006274
 30
0.0
 10
128.2124198179358
 20
44.85644537131621
 30
0.0
 10
127.1878624687673
 20
44.85647309223971
 30
0.0
 10
126.1352697228488
 20
44.85646150440179
 30
0.0
 10
125.0609596172152
 20
44.85643863555628
 30
0.0
 10
124.1503409797082
 20
44.85644526618039
 30
0.0
 10
123.2303358439752
 20
44.85649070806867
 30
0.0
 10
122.3022473745609
 20
44.85645956202097
 30
0.0
 10
121.1769914446043
 20
44.85646076338691
 30
0.0
 10
120.2311276847618
 20
44.85646459813249
 30
0.0
 10
119.2801003263311
 20
44.85645330512173
 30
0.0
 10
118.324209650838
 20
44.8565089111512
 30
0.0
 10
117.1705321426052
 20
44.85653372880147
 30
0.0
 10
116.0111518915555
 20
44.85648063035556
 30
0.0
 10
114.8468314667588
 20
44.85645386887457
 30
0.0
 10
113.2886423181008
 20
44.85645838778869
 30
0.0
 10
111.7229473706457
 20
44.85647954535809
 30
0.0
 10
110.151967345073
 20
44.85645433407281
 30
0.0
 10
108.971460636929
 20
44.85646827479421
 30
0.0
 10
107.7890094154869
 20
44.85645764580671
 30
0.0
 10
106.6049445668388
 20
44.85646433746342
 30
0.0
 10
105.4195836809598
 20
44.85645913441887
 30
0.0
 10
104.2332256791346
 20
44.85647397509014
 30
0.0
 10
103.2439957635445
 20
44.85645764759722
 30
0.0
 10
102.2545069402177
 20
44.85651751739429
 30
0.0
 10
101.5985547507869
 20
44.85647035315406
 30
0.0
 10
101.1405522835783
 20
44.85645739528372
 30
0.0
 10
101.0784275813005
 20
44.85645563764289
 30
0.0
  0
LINE
  5
EE
330
1F
100
AcDbEntity
  8
0
  6
Continuous
 62
     7
370
    15
100
AcDbLine
 10
133.4846160238
 20
45.1087801502
 30
0.0
 11
133.5156093438
 21
45.1783923137
 31
0.0
  0
LINE
  5
EF
330
1F
100
AcDbEntity
  8
0
  6
Continuous
 62
     7
370
    15
100
AcDbLine
 10
133.4846160286
 20
45.1087801519
 30
0.0
 11
133.5156093592
 21
45.1783923069
 31
0.0
  0
LINE
  5
F0
330
1F
100
AcDbEntity
  8
0
  6
Continuous
 62
     7
370
    15
100
AcDbLine
 10
133.4846160238
 20
45.1087801502
 30
0.0
 11
133.4536227
 21
45.0391679962
 31
0.0
  0
LINE
  5
F1
330
1F
100
AcDbEntity
  8
0
  6
Continuous
 62
     7
370
    15
100
AcDbLine
 10
133.4536255691
 20
45.0391667188
 30
0.0
 11
133.4536253925
 21
45.0391667975
 31
0.0
  0
LINE
  5
F2
330
1F
100
AcDbEntity
  8
0
  6
Continuous
 62
     7
370
    15
100
AcDbLine
 10
79.1368864745
 20
162.4902089259
 30
0.0
 11
97.1200864745
 21
162.4902089259
 31
0.0
  0
LINE
  5
F3
330
1F
100
AcDbEntity
  8
0
  6
Continuous
 62
     7
370
    15
100
AcDbLine
 10
79.1368864745
 20
162.4902089259
 30
0.0
 11
79.1368864745
 21
166.776458926
 31
0.0
  0
LINE
  5
F4
330
1F
100
AcDbEntity
  8
0
  6
Continuous
 62
     7
370
    15
100
AcDbLine
 10
79.1368864745
 20
166.776458926
 30
0.0
 11
97.1200864745
 21
166.776458926
 31
0.0
  0
LINE
  5
F5
330
1F
100
AcDbEntity
  8
0
  6
Continuous
 62
     7
370
    15
100
AcDbLine
 10
97.1200864745
 20
166.776458926
 30
0.0
 11
97.1200864745
 21
162.490208926
 31
0.0
  0
LINE
  5
F6
330
1F
100
AcDbEntity
  8
0
  6
Continuous
 62
     7
370
    15
100
AcDbLine
 10
79.1368864821
 20
162.331458926
 30
0.0
 11
79.1368864745
 21
162.4902089259
 31
0.0
  0
SPLINE
  5
F7
330
1F
100
AcDbEntity
  8
0
  6
Continuous
 62
     7
370
    15
100
AcDbSpline
210
0.0
220
0.0
230
1.0
 70
     8
 71
     3
 72
   133
 73
   129
 74
     0
 42
0.000000001
 43
0.00000001
 40
0.0
 40
0.0
 40
0.0
 40
0.0
 40
0.0045003579865757
 40
0.0131391652382243
 40
0.0259163539315186
 40
0.0403024982224172
 40
0.0517799706243695
 40
0.0687539902537493
 40
0.1035172332481638
 40
0.1036967923267209
 40
0.1040009955294662
 40
0.1044298428484755
 40
0.104983334274616
 40
0.105661469797605
 40
0.1064642494060219
 40
0.1073916730873162
 40
0.1084437408278047
 40
0.1096204526126792
 40
0.1109218084259971
 40
0.1123478082506913
 40
0.1138984520685655
 40
0.1155737398602935
 40
0.1173736716054223
 40
0.1192982472823704
 40
0.1213474668684277
 40
0.1235213303397568
 40
0.1258198376713897
 40
0.1282429888372336
 40
0.1307907838100652
 40
0.133463222561534
 40
0.1362603050621602
 40
0.1391820312813381
 40
0.1422284011873318
 40
0.1453994147472779
 40
0.148695071927185
 40
0.1521153726919328
 40
0.1556603170052746
 40
0.1593299048298335
 40
0.1631241361271065
 40
0.1670430108574609
 40
0.1710865289801359
 40
0.175254690453244
 40
0.1795474952337676
 40
0.1839649432775632
 40
0.1885070345393574
 40
0.1931737689727485
 40
0.1979651465302088
 40
0.2028811671630793
 40
0.207921830821577
 40
0.2130871374547867
 40
0.2183770870106674
 40
0.2237916794360495
 40
0.2293309146766351
 40
0.2349947926769982
 40
0.2407833133805855
 40
0.2466964767297135
 40
0.2527342826655727
 40
0.2588967311282251
 40
0.2651838220566025
 40
0.2715955553885114
 40
0.2781319310606301
 40
0.2847929490085056
 40
0.2915786091665605
 40
0.2984889114680871
 40
0.3055238558452498
 40
0.3126834422290867
 40
0.3199676705495056
 40
0.3273765407352854
 40
0.3349100527140798
 40
0.3425682064124134
 40
0.3503510017556813
 40
0.3582584386681527
 40
0.3662905170729662
 40
0.3744472368921343
 40
0.3827285980465417
 40
0.3911346004559412
 40
0.399665244038963
 40
0.4083205287131049
 40
0.4171004543947386
 40
0.4260050209991079
 40
0.4350342284403261
 40
0.4441880766313819
 40
0.4534665654841341
 40
0.4628696949093128
 40
0.47239746481652
 40
0.4820498751142308
 40
0.4918269257097927
 40
0.5017286165094226
 40
0.5117549474182125
 40
0.5219059183401211
 40
0.532181529177986
 40
0.5425817798335117
 40
0.5531066702072763
 40
0.5637562001987299
 40
0.5745303697061935
 40
0.58542917862686
 40
0.5964526268567983
 40
0.6076007142909415
 40
0.6188734408231018
 40
0.6302708063459597
 40
0.6417928107510676
 40
0.6534394539288514
 40
0.6652107357686085
 40
0.6771066561585067
 40
0.6891272149855879
 40
0.701272412135765
 40
0.7135422474938209
 40
0.7259367209434132
 40
0.7384558323670707
 40
0.7510995816461948
 40
0.7638679686610551
 40
0.7767609932907986
 40
0.7897786554134401
 40
0.8029209549058679
 40
0.8161878916438418
 40
0.8295794655019952
 40
0.8430956763538304
 40
0.8567365240717247
 40
0.870502008526925
 40
0.8843921295895512
 40
0.8984068871285943
 40
0.9125462810119191
 40
0.9268103111062616
 40
0.9411989772772268
 40
0.955712279389297
 40
0.9703502173058215
 40
0.9851127908890235
 40
0.9999999999999999
 40
0.9999999999999999
 40
0.9999999999999999
 40
0.9999999999999999
 10
72.94563647714693
 20
162.3314589260133
 30
0.0
 10
72.9456676392591
 20
162.33145892601
 30
0.0
 10
72.94575861960826
 20
162.3314589260003
 30
0.0
 10
72.94695386310072
 20
162.3314589261808
 30
0.0
 10
72.9504776774084
 20
162.3314589280881
 30
0.0
 10
72.95697930494953
 20
162.3314589320334
 30
0.0
 10
72.96699943644927
 20
162.3314589365119
 30
0.0
 10
72.98639052333023
 20
162.3314589298152
 30
0.0
 10
73.00912881059836
 20
162.3314589266296
 30
0.0
 10
73.02765168823444
 20
162.3314589261936
 30
0.0
 10
73.02813225608575
 20
162.3314589261886
 30
0.0
 10
73.02881208785917
 20
162.3314589261826
 30
0.0
 10
73.02969356175703
 20
162.331458926177
 30
0.0
 10
73.03077981017455
 20
162.3314589261714
 30
0.0
 10
73.03207464647646
 20
162.3314589261661
 30
0.0
 10
73.03358259243704
 20
162.3314589261608
 30
0.0
 10
73.03530886701816
 20
162.3314589261555
 30
0.0
 10
73.03725938900571
 20
162.3314589261505
 30
0.0
 10
73.03944077474517
 20
162.3314589261456
 30
0.0
 10
73.04186033732127
 20
162.3314589261408
 30
0.0
 10
73.04452608507168
 20
162.3314589261361
 30
0.0
 10
73.04744672009585
 20
162.3314589261316
 30
0.0
 10
73.05063163653473
 20
162.3314589261273
 30
0.0
 10
73.05409091867563
 20
162.3314589261229
 30
0.0
 10
73.05783533884829
 20
162.3314589261188
 30
0.0
 10
73.06187635510564
 20
162.3314589261147
 30
0.0
 10
73.06622610867203
 20
162.3314589261107
 30
0.0
 10
73.07089742114486
 20
162.331458926107
 30
0.0
 10
73.07590379143281
 20
162.3314589261033
 30
0.0
 10
73.08125939241395
 20
162.3314589260997
 30
0.0
 10
73.0869790672956
 20
162.3314589260962
 30
0.0
 10
73.09307832565717
 20
162.3314589260929
 30
0.0
 10
73.09957333915655
 20
162.3314589260895
 30
0.0
 10
73.10648093687935
 20
162.3314589260864
 30
0.0
 10
73.11381860030973
 20
162.3314589260833
 30
0.0
 10
73.12160445790082
 20
162.3314589260804
 30
0.0
 10
73.12985727922167
 20
162.3314589260775
 30
0.0
 10
73.13859646865711
 20
162.3314589260747
 30
0.0
 10
73.14784205863609
 20
162.331458926072
 30
0.0
 10
73.15761470236308
 20
162.3314589260693
 30
0.0
 10
73.16793566602698
 20
162.3314589260669
 30
0.0
 10
73.17882682046037
 20
162.3314589260644
 30
0.0
 10
73.19031063222238
 20
162.3314589260621
 30
0.0
 10
73.2024101540767
 20
162.3314589260599
 30
0.0
 10
73.21514901483643
 20
162.3314589260576
 30
0.0
 10
73.22855140854645
 20
162.3314589260555
 30
0.0
 10
73.2426420829737
 20
162.3314589260534
 30
0.0
 10
73.25744632737502
 20
162.3314589260515
 30
0.0
 10
73.27298995951166
 20
162.3314589260497
 30
0.0
 10
73.28929931187972
 20
162.3314589260478
 30
0.0
 10
73.30640121712418
 20
162.3314589260461
 30
0.0
 10
73.32432299260546
 20
162.3314589260444
 30
0.0
 10
73.34309242408534
 20
162.3314589260428
 30
0.0
 10
73.36273774850045
 20
162.3314589260413
 30
0.0
 10
73.38328763579014
 20
162.3314589260397
 30
0.0
 10
73.40477116974601
 20
162.3314589260383
 30
0.0
 10
73.42721782785017
 20
162.331458926037
 30
0.0
 10
73.45065746006915
 20
162.3314589260357
 30
0.0
 10
73.47512026657057
 20
162.3314589260343
 30
0.0
 10
73.50063677432973
 20
162.3314589260332
 30
0.0
 10
73.52723781259346
 20
162.331458926032
 30
0.0
 10
73.55495448716889
 20
162.331458926031
 30
0.0
 10
73.58381815350505
 20
162.3314589260299
 30
0.0
 10
73.61386038853585
 20
162.3314589260289
 30
0.0
 10
73.64511296125323
 20
162.3314589260279
 30
0.0
 10
73.67760780198002
 20
162.331458926027
 30
0.0
 10
73.71137697031294
 20
162.3314589260262
 30
0.0
 10
73.74645262170684
 20
162.3314589260252
 30
0.0
 10
73.78286697267188
 20
162.3314589260246
 30
0.0
 10
73.82065226455708
 20
162.3314589260238
 30
0.0
 10
73.85984072589426
 20
162.3314589260231
 30
0.0
 10
73.90046453327776
 20
162.3314589260224
 30
0.0
 10
73.94255577075711
 20
162.3314589260218
 30
0.0
 10
73.98614638772068
 20
162.3314589260212
 30
0.0
 10
74.03126815525049
 20
162.3314589260206
 30
0.0
 10
74.07795262093005
 20
162.3314589260201
 30
0.0
 10
74.12623106208899
 20
162.3314589260195
 30
0.0
 10
74.17613443747007
 20
162.331458926019
 30
0.0
 10
74.22769333730695
 20
162.3314589260186
 30
0.0
 10
74.28093793180287
 20
162.3314589260182
 30
0.0
 10
74.3358979180033
 20
162.3314589260178
 30
0.0
 10
74.39260246505819
 20
162.3314589260174
 30
0.0
 10
74.45108015787216
 20
162.3314589260171
 30
0.0
 10
74.5113589391444
 20
162.3314589260167
 30
0.0
 10
74.57346604980272
 20
162.3314589260164
 30
0.0
 10
74.63742796784001
 20
162.3314589260161
 30
0.0
 10
74.70327034556438
 20
162.3314589260159
 30
0.0
 10
74.77101794527884
 20
162.3314589260156
 30
0.0
 10
74.84069457340914
 20
162.3314589260154
 30
0.0
 10
74.91232301310353
 20
162.3314589260152
 30
0.0
 10
74.9859249553317
 20
162.331458926015
 30
0.0
 10
75.06152092851516
 20
162.3314589260148
 30
0.0
 10
75.13913022672558
 20
162.3314589260146
 30
0.0
 10
75.21877083649261
 20
162.3314589260145
 30
0.0
 10
75.30045936226782
 20
162.3314589260144
 30
0.0
 10
75.38421095059621
 20
162.3314589260142
 30
0.0
 10
75.47003921305297
 20
162.3314589260141
 30
0.0
 10
75.55795614800725
 20
162.331458926014
 30
0.0
 10
75.6479720612826
 20
162.3314589260139
 30
0.0
 10
75.74009548578732
 20
162.3314589260139
 30
0.0
 10
75.83433310019628
 20
162.3314589260137
 30
0.0
 10
75.93068964677005
 20
162.3314589260137
 30
0.0
 10
76.02916784840569
 20
162.3314589260136
 30
0.0
 10
76.12976832501809
 20
162.3314589260136
 30
0.0
 10
76.23248950935934
 20
162.3314589260136
 30
0.0
 10
76.3373275623894
 20
162.3314589260134
 30
0.0
 10
76.44427628831892
 20
162.3314589260135
 30
0.0
 10
76.55332704945215
 20
162.3314589260134
 30
0.0
 10
76.6644686809652
 20
162.3314589260134
 30
0.0
 10
76.7776874057624
 20
162.3314589260134
 30
0.0
 10
76.89296674956123
 20
162.3314589260134
 30
0.0
 10
77.0102874563634
 20
162.3314589260133
 30
0.0
 10
77.12962740447827
 20
162.3314589260133
 30
0.0
 10
77.25096152327171
 20
162.3314589260133
 30
0.0
 10
77.37426171082181
 20
162.3314589260133
 30
0.0
 10
77.49949675267082
 20
162.3314589260133
 30
0.0
 10
77.62663224186997
 20
162.3314589260133
 30
0.0
 10
77.75563050052276
 20
162.3314589260133
 30
0.0
 10
77.88645050303855
 20
162.3314589260133
 30
0.0
 10
78.01904780131883
 20
162.3314589260133
 30
0.0
 10
78.15337445209958
 20
162.3314589260133
 30
0.0
 10
78.28937894670236
 20
162.3314589260133
 30
0.0
 10
78.4270061433757
 20
162.3314589260133
 30
0.0
 10
78.56619720271146
 20
162.3314589260133
 30
0.0
 10
78.70688952550923
 20
162.3314589260133
 30
0.0
 10
78.84901669669954
 20
162.3314589260132
 30
0.0
 10
78.99250842295024
 20
162.3314589260133
 30
0.0
 10
79.08862577803335
 20
162.3314589260133
 30
0.0
 10
79.13688647454755
 20
162.3314589260133
 30
0.0
  0
LINE
  5
F8
330
1F
100
AcDbEntity
  8
0
  6
Continuous
 62
     7
370
    15
100
AcDbLine
 10
97.1200864745
 20
162.4902089259
 30
0.0
 11
97.1200864745
 21
162.331458926
 31
0.0
  0
LINE
  5
F9
330
1F
100
AcDbEntity
  8
0
  6
Continuous
 62
     7
370
    15
100
AcDbLine
 10
79.1368864821
 20
162.331458926
 30
0.0
 11
97.1200864745
 21
162.331458926
 31
0.0
  0
LINE
  5
FA
330
1F
100
AcDbEntity
  8
0
  6
Continuous
 62
     7
370
    15
100
AcDbLine
 10
72.7868864745
 20
166.776458926
 30
0.0
 11
79.1368864745
 21
166.776458926
 31
0.0
  0
LINE
  5
FB
330
1F
100
AcDbEntity
  8
0
  6
Continuous
 62
     7
370
    15
100
AcDbLine
 10
97.1200864745
 20
166.776458926
 30
0.0
 11
103.4700864745
 21
166.776458926
 31
0.0
  0
SPLINE
  5
FC
330
1F
100
AcDbEntity
  8
0
  6
Continuous
 62
     7
370
    15
100
AcDbSpline
210
0.0
220
0.0
230
1.0
 70
     8
 71
     3
 72
    38
 73
    34
 74
     0
 42
0.000000001
 43
0.00000001
 40
0.0
 40
0.0
 40
0.0
 40
0.0
 40
0.0077736809628683
 40
0.015547307075906
 40
0.0233208825976833
 40
0.0310944117866742
 40
0.0388678989012554
 40
0.0550026064250042
 40
0.0776631919788493
 40
0.1164222388855598
 40
0.157726351613788
 40
0.1988857556517604
 40
0.2400441089584893
 40
0.2630928347544108
 40
0.3254766562831312
 40
0.4215077127717209
 40
0.5116929680470578
 40
0.5960303861338805
 40
0.6745180780006602
 40
0.7449780027509071
 40
0.7874261931326935
 40
0.8164601320748459
 40
0.8422608612984184
 40
0.8772144313972121
 40
0.8964385627901617
 40
0.9093837414932053
 40
0.9223289376128377
 40
0.9352741425762048
 40
0.9482193478104639
 40
0.9611645447427858
 40
0.9741097248003515
 40
0.9870548794103544
 40
1.0
 40
1.0
 40
1.0
 40
1.0
 10
97.12008647454756
 20
162.3314589260133
 30
0.0
 10
97.14527710542565
 20
162.3314589260125
 30
0.0
 10
97.19565818944079
 20
162.331458926011
 30
0.0
 10
97.27121839008952
 20
162.3314589260764
 30
0.0
 10
97.34675572907116
 20
162.3314589266262
 30
0.0
 10
97.42225916169463
 20
162.3314589278684
 30
0.0
 10
97.52477178809313
 20
162.3314589331976
 30
0.0
 10
97.67528586747754
 20
162.3314589381227
 30
0.0
 10
97.9252828596983
 20
162.3314589287114
 30
0.0
 10
98.25451069881404
 20
162.3314589258129
 30
0.0
 10
98.6385423636231
 20
162.3314589350965
 30
0.0
 10
99.02381112051802
 20
162.3314589472777
 30
0.0
 10
99.34538154560444
 20
162.3314589231373
 30
0.0
 10
99.72406047155667
 20
162.3314589278409
 30
0.0
 10
100.2512648612626
 20
162.3314589249006
 30
0.0
 10
100.9248922295518
 20
162.3314589272604
 30
0.0
 10
101.5786165630687
 20
162.3314589274162
 30
0.0
 10
102.1088071878472
 20
162.3314589270554
 30
0.0
 10
102.5195499220317
 20
162.3314589255886
 30
0.0
 10
102.793119189942
 20
162.3314589267868
 30
0.0
 10
102.9583530387455
 20
162.3314589246539
 30
0.0
 10
103.0549040932953
 20
162.3314589430907
 30
0.0
 10
103.1319359176832
 20
162.3314589341514
 30
0.0
 10
103.1885485202579
 20
162.3314589259262
 30
0.0
 10
103.2269922792492
 20
162.3314589258304
 30
0.0
 10
103.249215723512
 20
162.3314589275731
 30
0.0
 10
103.2658032216789
 20
162.3314589292387
 30
0.0
 10
103.2798501543927
 20
162.3314589303778
 30
0.0
 10
103.2913440485235
 20
162.331458930601
 30
0.0
 10
103.3002974581336
 20
162.3314589298271
 30
0.0
 10
103.3066440213647
 20
162.3314589283517
 30
0.0
 10
103.310614393309
 20
162.3314589265674
 30
0.0
 10
103.3110957792793
 20
162.331458926198
 30
0.0
 10
103.3113364719482
 20
162.3314589260133
 30
0.0
  0
LINE
  5
FD
330
1F
100
AcDbEntity
  8
0
  6
Continuous
 62
     7
370
    15
100
AcDbLine
 10
73.8692956547
 20
72.4716555007
 30
0.0
 11
73.5573100171
 21
71.7709243079
 31
0.0
  0
LINE
  5
FE
330
1F
100
AcDbEntity
  8
0
  6
Continuous
 62
     7
370
    15
100
AcDbLine
 10
73.8692956547
 20
72.4716555007
 30
0.0
 11
102.2942625693
 21
59.8160448514
 31
0.0
  0
LINE
  5
FF
330
1F
100
AcDbEntity
  8
0
  6
Continuous
 62
     7
370
    15
100
AcDbLine
 10
102.2942625693
 20
59.8160448514
 30
0.0
 11
101.9822769449
 21
59.1153136526
 31
0.0
  0
LINE
  5
100
330
1F
100
AcDbEntity
  8
0
  6
Continuous
 62
     7
370
    15
100
AcDbLine
 10
79.1368864745
 20
161.277358926
 30
0.0
 11
77.5507454184
 21
161.277358926
 31
0.0
  0
LINE
  5
101
330
1F
100
AcDbEntity
  8
0
  6
Continuous
 62
     7
370
    15
100
AcDbLine
 10
80.7230275306
 20
161.277358926
 30
0.0
 11
79.1368864745
 21
161.277358926
 31
0.0
  0
LINE
  5
102
330
1F
100
AcDbEntity
  8
0
  6
Continuous
 62
     7
370
    15
100
AcDbLine
 10
79.1368864745
 20
162.261608926
 30
0.0
 11
80.7230275306
 21
162.261608926
 31
0.0
  0
LINE
  5
103
330
1F
100
AcDbEntity
  8
0
  6
Continuous
 62
     7
370
    15
100
AcDbLine
 10
77.5507454184
 20
162.261608926
 30
0.0
 11
79.1368864745
 21
162.261608926
 31
0.0
  0
LINE
  5
104
330
1F
100
AcDbEntity
  8
0
  6
Continuous
 62
     7
370
    15
100
AcDbLine
 10
97.1200864745
 20
162.261608926
 30
0.0
 11
98.7062275306
 21
162.261608926
 31
0.0
  0
LINE
  5
105
330
1F
100
AcDbEntity
  8
0
  6
Continuous
 62
     7
370
    15
100
AcDbLine
 10
95.5339454184
 20
162.261608926
 30
0.0
 11
97.1200864745
 21
162.261608926
 31
0.0
  0
LINE
  5
106
330
1F
100
AcDbEntity
  8
0
  6
Continuous
 62
     7
370
    15
100
AcDbLine
 10
97.1200864745
 20
161.277358926
 30
0.0
 11
95.5339454184
 21
161.277358926
 31
0.0
  0
LINE
  5
107
330
1F
100
AcDbEntity
  8
0
  6
Continuous
 62
     7
370
    15
100
AcDbLine
 10
98.7062275306
 20
161.277358926
 30
0.0
 11
97.1200864745
 21
161.277358926
 31
0.0
  0
LINE
  5
108
330
1F
100
AcDbEntity
  8
0
  6
Continuous
 62
     7
370
    15
100
AcDbLine
 10
96.906372222
 20
62.3509584485
 30
0.0
 11
97.3414482463
 21
62.1572501222
 31
0.0
  0
LINE
  5
109
330
1F
100
AcDbEntity
  8
0
  6
Continuous
 62
     7
370
    15
100
AcDbLine
 10
78.9232298883
 20
70.3575692675
 30
0.0
 11
79.3583059126
 21
70.1638609412
 31
0.0
  0
LINE
  5
10A
330
1F
100
AcDbEntity
  8
0
  6
Continuous
 62
     7
370
    15
100
AcDbLine
 10
97.1026116072
 20
160.8162576502
 30
0.0
 11
96.942374085
 21
160.8162576502
 31
0.0
  0
LINE
  5
10B
330
1F
100
AcDbEntity
  8
0
  6
Continuous
 62
     7
370
    15
100
AcDbLine
 10
97.2628491294
 20
160.8162576502
 30
0.0
 11
97.1026116072
 21
160.8162576502
 31
0.0
  0
LINE
  5
10C
330
1F
100
AcDbEntity
  8
0
  6
Continuous
 62
     7
370
    15
100
AcDbLine
 10
79.1407679004
 20
160.8162576502
 30
0.0
 11
78.9805303783
 21
160.8162576502
 31
0.0
  0
LINE
  5
10D
330
1F
100
AcDbEntity
  8
0
  6
Continuous
 62
     7
370
    15
100
AcDbLine
 10
79.3010054225
 20
160.8162576502
 30
0.0
 11
79.1407679004
 21
160.8162576502
 31
0.0
  0
SPLINE
  5
10E
330
1F
100
AcDbEntity
  8
0
  6
Continuous
 62
     8
370
    15
100
AcDbSpline
210
0.0
220
0.0
230
1.0
 70
     8
 71
     3
 72
    48
 73
    44
 74
     0
 42
0.000000001
 43
0.00000001
 40
0.0
 40
0.0
 40
0.0
 40
0.0
 40
0.0097380394474518
 40
0.0188637964682833
 40
0.0280506033905859
 40
0.037328448717755
 40
0.0467291953424956
 40
0.0562797212906057
 40
0.0795295467509911
 40
0.1040971924636199
 40
0.127354722576393
 40
0.1520595508313076
 40
0.1783724687727553
 40
0.2064146347314118
 40
0.2384745625995699
 40
0.2728049913160165
 40
0.3095958636394006
 40
0.3489754776523812
 40
0.3910145245560772
 40
0.435876846731601
 40
0.4677978699161529
 40
0.5012259829881865
 40
0.5363424650085933
 40
0.5733187091747408
 40
0.61216028459076
 40
0.6530832462172395
 40
0.6967878193552813
 40
0.7305671712416494
 40
0.7659583247527278
 40
0.8036819338810975
 40
0.8271860372362353
 40
0.8520979309640235
 40
0.8784763107603505
 40
0.907320366682461
 40
0.9172051714809499
 40
0.9274064997640726
 40
0.9381376059251778
 40
0.9497168202056304
 40
0.9621482957706678
 40
0.9744631745408409
 40
0.9849260538293307
 40
0.9942562290099274
 40
1.0
 40
1.0
 40
1.0
 40
1.0
 10
133.4846160286476
 20
45.10878015191328
 30
0.0
 10
133.4821641322342
 20
45.10876073167561
 30
0.0
 10
133.4774145031994
 20
45.10872311225407
 30
0.0
 10
133.4418964112265
 20
45.10844757632417
 30
0.0
 10
133.3877374214235
 20
45.10802493748734
 30
0.0
 10
133.3121104840461
 20
45.10743746458876
 30
0.0
 10
133.2155290718737
 20
45.10668941341083
 30
0.0
 10
133.0424152690167
 20
45.10533405258683
 30
0.0
 10
132.74346957953
 20
45.10301755897211
 30
0.0
 10
132.2790341624073
 20
45.0994193816852
 30
0.0
 10
131.72908643196
 20
45.09509415842354
 30
0.0
 10
131.1034799983723
 20
45.09026085503528
 30
0.0
 10
130.382152926972
 20
45.08463654094492
 30
0.0
 10
129.5431624194499
 20
45.07808560781763
 30
0.0
 10
128.5785847227144
 20
45.07057304753195
 30
0.0
 10
127.4804237219911
 20
45.06203672519533
 30
0.0
 10
126.2652213923584
 20
45.05257822239144
 30
0.0
 10
124.9305258456219
 20
45.0421368558578
 30
0.0
 10
123.4738014842439
 20
45.0308740976751
 30
0.0
 10
122.0789250242894
 20
45.01996246312764
 30
0.0
 10
120.7696348126079
 20
45.00978966992238
 30
0.0
 10
119.5658323598767
 20
45.0003906198363
 30
0.0
 10
118.2918455674408
 20
44.99053590290068
 30
0.0
 10
116.9435241684313
 20
44.980069096554
 30
0.0
 10
115.5162669678654
 20
44.9688547464669
 30
0.0
 10
113.9989290022875
 20
44.9570983872077
 30
0.0
 10
112.5372067112733
 20
44.94577791477684
 30
0.0
 10
111.1391183157766
 20
44.934796776209
 30
0.0
 10
109.811730419996
 20
44.92446150912739
 30
0.0
 10
108.6092494308672
 20
44.91509370473805
 30
0.0
 10
107.5355889326251
 20
44.90673854680053
 30
0.0
 10
106.602372875559
 20
44.89947851907791
 30
0.0
 10
105.6016163544459
 20
44.89167024231863
 30
0.0
 10
104.7878713121411
 20
44.88535029839925
 30
0.0
 10
104.1760674031083
 20
44.88057921708664
 30
0.0
 10
103.7906652144344
 20
44.87757476208913
 30
0.0
 10
103.3840013558694
 20
44.87440961113985
 30
0.0
 10
102.9493725214443
 20
44.87102467932723
 30
0.0
 10
102.4948667662658
 20
44.86748940709334
 30
0.0
 10
102.0542815686483
 20
44.86404483556696
 30
0.0
 10
101.6524777289856
 20
44.86087535290538
 30
0.0
 10
101.3328947564143
 20
44.85837688827033
 30
0.0
 10
101.144248356079
 20
44.85694663679659
 30
0.0
 10
101.0723666000107
 20
44.85640165429297
 30
0.0
  0
SPLINE
  5
10F
330
1F
100
AcDbEntity
  8
0
  6
Continuous
 62
     8
370
    15
100
AcDbSpline
210
0.0
220
0.0
230
1.0
 70
     8
 71
     3
 72
    45
 73
    41
 74
     0
 42
0.000000001
 43
0.00000001
 40
0.0
 40
0.0
 40
0.0
 40
0.0
 40
0.019172581554609
 40
0.0386348852157497
 40
0.0586651681658681
 40
0.0795253185093407
 40
0.1014565420364392
 40
0.1246401521098382
 40
0.1492717146587369
 40
0.1755217243065542
 40
0.2035115693360482
 40
0.23339517170588
 40
0.2652685048065295
 40
0.2992949315379884
 40
0.3302606281901593
 40
0.3629355476851139
 40
0.3973671555430816
 40
0.4336489096581758
 40
0.4719127029142782
 40
0.5123576632453463
 40
0.5553373514268539
 40
0.5886288492434896
 40
0.6233638925810392
 40
0.6597252316761038
 40
0.6981157455906072
 40
0.7234643883475447
 40
0.7497585715064168
 40
0.777231687365128
 40
0.8061267387382511
 40
0.8367435388645776
 40
0.8598188403586756
 40
0.8841985110567201
 40
0.9110363364966445
 40
0.9206964772446155
 40
0.9306704269593871
 40
0.9410956309521683
 40
0.9536073816809144
 40
0.9686810678999345
 40
0.9863167005413566
 40
1.0
 40
1.0
 40
1.0
 40
1.0
 10
133.4536258804765
 20
45.03916789354244
 30
0.0
 10
133.444233395451
 20
45.03911574962029
 30
0.0
 10
133.4253064929983
 20
45.03901067381498
 30
0.0
 10
133.2764805364161
 20
45.03817475588067
 30
0.0
 10
133.0398196386485
 20
45.03683175912062
 30
0.0
 10
132.7063258005942
 20
45.03495921234751
 30
0.0
 10
132.278467422255
 20
45.03256160066826
 30
0.0
 10
131.7553780404955
 20
45.02957258619043
 30
0.0
 10
131.1365552439061
 20
45.02610673214109
 30
0.0
 10
130.4213060861175
 20
45.02207251031475
 30
0.0
 10
129.6084635152381
 20
45.01746063819044
 30
0.0
 10
128.6969287013193
 20
45.01231815394589
 30
0.0
 10
127.6847043186403
 20
45.00661132021938
 30
0.0
 10
126.6277865755578
 20
45.00065669658401
 30
0.0
 10
125.536207220125
 20
44.99447680838535
 30
0.0
 10
124.4192286044266
 20
44.98815415086953
 30
0.0
 10
123.2227312825937
 20
44.98146860571745
 30
0.0
 10
121.9443360575255
 20
44.97420313848065
 30
0.0
 10
120.5796100730127
 20
44.96652519157767
 30
0.0
 10
119.120929674369
 20
44.95826993184053
 30
0.0
 10
117.7097446922179
 20
44.9504051063571
 30
0.0
 10
116.359073533921
 20
44.94273217778156
 30
0.0
 10
115.0827304951568
 20
44.93548267931506
 30
0.0
 10
113.7382533962522
 20
44.92790174852438
 30
0.0
 10
112.5043183722197
 20
44.92095600236378
 30
0.0
 10
111.3914844551902
 20
44.91467378250152
 30
0.0
 10
110.4116835240273
 20
44.90912370893304
 30
0.0
 10
109.3861473822511
 20
44.90335407585508
 30
0.0
 10
108.3052549705892
 20
44.89723860699969
 30
0.0
 10
107.2775400374831
 20
44.8914491308543
 30
0.0
 10
106.3049933501535
 20
44.88595628187385
 30
0.0
 10
105.3787895960395
 20
44.88072762213881
 30
0.0
 10
104.6193011757525
 20
44.87645660396552
 30
0.0
 10
104.0393227080315
 20
44.87317429410094
 30
0.0
 10
103.664109064043
 20
44.87105103277998
 30
0.0
 10
103.2532339389229
 20
44.86872931885892
 30
0.0
 10
102.7786177105547
 20
44.86608850720942
 30
0.0
 10
102.2138864128621
 20
44.86291093796619
 30
0.0
 10
101.6344577424052
 20
44.85960777050095
 30
0.0
 10
101.2432741800471
 20
44.85739285060326
 30
0.0
 10
101.0723653569127
 20
44.85642514799642
 30
0.0
  0
LINE
  5
110
330
1F
100
AcDbEntity
  8
0
  6
Continuous
 62
     8
370
    15
100
AcDbLine
 10
79.1368864745
 20
162.490208926
 30
0.0
 11
72.7868864745
 21
162.490208926
 31
0.0
  0
LINE
  5
111
330
1F
100
AcDbEntity
  8
0
  6
Continuous
 62
     8
370
    15
100
AcDbLine
 10
103.4700864745
 20
162.490208926
 30
0.0
 11
97.1200864745
 21
162.490208926
 31
0.0
  0
LINE
  5
112
330
1F
100
AcDbEntity
  8
0
  6
Continuous
 62
     7
370
    15
100
AcDbLine
 10
101.0786490281
 20
230.6582457681
 30
0.0
 11
65.7892172013
 21
230.6582457681
 31
0.0
  0
LINE
  5
113
330
1F
100
AcDbEntity
  8
0
  6
Continuous
 62
     7
370
    15
100
AcDbLine
 10
65.7892172013
 20
203.6834457683
 30
0.0
 11
101.0787830732
 21
203.6834457683
 31
0.0
  0
LINE
  5
114
330
1F
100
AcDbEntity
  8
0
  6
Continuous
 62
     7
370
    15
100
AcDbLine
 10
79.1368864745
 20
210.8208457682
 30
0.0
 11
97.1200864745
 21
210.8208457682
 31
0.0
  0
LINE
  5
115
330
1F
100
AcDbEntity
  8
0
  6
Continuous
 62
     7
370
    15
100
AcDbLine
 10
97.1200864745
 20
223.5208457682
 30
0.0
 11
79.136886474
 21
223.5208457682
 31
0.0
  0
ARC
  5
116
330
1F
100
AcDbEntity
  8
0
  6
Continuous
 62
     7
370
    15
100
AcDbCircle
 10
97.1200864745
 20
217.1708457682
 30
0.0
 40
6.349999999999994
100
AcDbArc
 50
270.0
 51
90.0
  0
ARC
  5
117
330
1F
100
AcDbEntity
  8
0
  6
Continuous
 62
     7
370
    15
100
AcDbCircle
 10
79.1368864745
 20
217.1708457682
 30
0.0
 40
6.349999999999994
100
AcDbArc
 50
90.0000000051
 51
270.0
  0
LINE
  5
118
330
1F
100
AcDbEntity
  8
0
  6
Continuous
 62
     7
370
    15
100
AcDbLine
 10
103.4700831269
 20
217.1643254063
 30
0.0
 11
133.5156093592
 21
217.1643254065
 31
0.0
  0
SPLINE
  5
119
330
1F
100
AcDbEntity
  8
0
  6
Continuous
 62
     7
370
    15
100
AcDbSpline
210
0.0
220
0.0
230
1.0
 70
     8
 71
     3
 72
    36
 73
    32
 74
     0
 42
0.000000001
 43
0.00000001
 40
0.0
 40
0.0
 40
0.0
 40
0.0
 40
0.0040822151525415
 40
0.020434356521057
 40
0.0337642027201064
 40
0.0471905350509485
 40
0.0608925534197883
 40
0.0746771668919324
 40
0.0937151240830095
 40
0.1129047624724829
 40
0.132479058051718
 40
0.1521519900225729
 40
0.1860531793338747
 40
0.2202240480084272
 40
0.2472084813076341
 40
0.2742605572031349
 40
0.3014787190961814
 40
0.3287390546138488
 40
0.3827167179910733
 40
0.4368835285313963
 40
0.4908478029742421
 40
0.5449157562355553
 40
0.5988746114097365
 40
0.6529012087200928
 40
0.7068575313262403
 40
0.7608642590538901
 40
0.8148193021666965
 40
0.868816003066428
 40
0.9229323942345589
 40
0.9770866770546462
 40
0.9999999999999999
 40
0.9999999999999999
 40
0.9999999999999999
 40
0.9999999999999999
 10
133.5156093572498
 20
217.1643254035024
 30
0.0
 10
133.5151092643998
 20
217.1131473723521
 30
0.0
 10
133.5126059481345
 20
216.8569653497268
 30
0.0
 10
133.476109398658
 20
216.4341487068107
 30
0.0
 10
133.3790747596594
 20
215.9019191463849
 30
0.0
 10
133.2457847793873
 20
215.4118764309218
 30
0.0
 10
133.0714835665679
 20
214.928900685237
 30
0.0
 10
132.8318074405304
 20
214.3965711338731
 30
0.0
 10
132.5144090299393
 20
213.8258203884367
 30
0.0
 10
132.1080370885081
 20
213.2248648107317
 30
0.0
 10
131.651339484146
 20
212.651142625489
 30
0.0
 10
131.0315499514332
 20
211.9744167578462
 30
0.0
 10
130.2228507021808
 20
211.2260301233189
 30
0.0
 10
129.2816366037137
 20
210.4932061543452
 30
0.0
 10
128.3675867746717
 20
209.8699628045626
 30
0.0
 10
127.4986930677398
 20
209.337559830196
 30
0.0
 10
126.6047501618376
 20
208.8413718619612
 30
0.0
 10
125.3911696749876
 20
208.2275983779126
 30
0.0
 10
123.8378260838838
 20
207.5398976213357
 30
0.0
 10
121.9349864640526
 20
206.8236197301234
 30
0.0
 10
119.9986618916588
 20
206.2003988829478
 30
0.0
 10
118.0401962282627
 20
205.661044193371
 30
0.0
 10
116.0619414616935
 20
205.1965439060209
 30
0.0
 10
114.070165615183
 20
204.8014205528283
 30
0.0
 10
112.0661693543193
 20
204.4705026359354
 30
0.0
 10
110.0540298166498
 20
204.2002334691809
 30
0.0
 10
108.0344870301315
 20
203.9879859281962
 30
0.0
 10
106.0085056703725
 20
203.8304971931482
 30
0.0
 10
103.9765679588336
 20
203.7304082036012
 30
0.0
 10
102.3322422870188
 20
203.6832130214648
 30
0.0
 10
101.3660565447949
 20
203.6883643535475
 30
0.0
 10
101.0787954353198
 20
203.6898959196891
 30
0.0
  0
SPLINE
  5
11A
330
1F
100
AcDbEntity
  8
0
  6
Continuous
 62
     7
370
    15
100
AcDbSpline
210
0.0
220
0.0
230
1.0
 70
     8
 71
     3
 72
    47
 73
    43
 74
     0
 42
0.000000001
 43
0.00000001
 40
0.0
 40
0.0
 40
0.0
 40
0.0
 40
0.0272792382066127
 40
0.0812306840593776
 40
0.1351822523837949
 40
0.1891340439932913
 40
0.2430861792615701
 40
0.2700603159095553
 40
0.2970344883853845
 40
0.3509877956042459
 40
0.3779621269401805
 40
0.404936532336113
 40
0.4319110210152636
 40
0.4858675237348197
 40
0.5128423974372333
 40
0.5398174509720606
 40
0.5667927342603759
 40
0.5937683042474559
 40
0.620744225054319
 40
0.6342312988481088
 40
0.6612079848029851
 40
0.6881853478588815
 40
0.701672644285848
 40
0.728651503749743
 40
0.7421390469836422
 40
0.7691203759061217
 40
0.7826083227571459
 40
0.796096462254875
 40
0.8230839250530498
 40
0.8365729180514263
 40
0.8500623295364597
 40
0.8635522575744693
 40
0.8770428216096225
 40
0.8905341397477611
 40
0.9040263538862
 40
0.9175196383448023
 40
0.931014163896672
 40
0.9445100569303978
 40
0.9581221631519833
 40
0.9718274595499827
 40
0.9858528984120604
 40
1.0
 40
1.0
 40
1.0
 40
1.0
 10
101.0786480832183
 20
230.6516457089311
 30
0.0
 10
101.4206657819289
 20
230.6528894102927
 30
0.0
 10
102.4391081378428
 20
230.6565928389446
 30
0.0
 10
104.1335408040146
 20
230.6054828893019
 30
0.0
 10
106.1602117361372
 20
230.5012561046392
 30
0.0
 10
108.1833159303677
 20
230.3400010111521
 30
0.0
 10
109.8649200241964
 20
230.1597548896908
 30
0.0
 10
111.2066014893575
 20
229.9864540382375
 30
0.0
 10
112.5455845665937
 20
229.793379263277
 30
0.0
 10
113.8800700567595
 20
229.5699233946614
 30
0.0
 10
115.2085377019058
 20
229.3142331751885
 30
0.0
 10
116.2014990696283
 20
229.1057223094786
 30
0.0
 10
117.5204448191581
 20
228.804562262928
 30
0.0
 10
118.8310078694371
 20
228.4673321277831
 30
0.0
 10
120.1304026045297
 20
228.0904742576409
 30
0.0
 10
121.0986109493374
 20
227.7869336073345
 30
0.0
 10
122.0596296160618
 20
227.4612881974282
 30
0.0
 10
123.0123655548365
 20
227.112089808008
 30
0.0
 10
123.7983648444296
 20
226.8001852066404
 30
0.0
 10
124.5773810597681
 20
226.4714442824647
 30
0.0
 10
125.3488881925585
 20
226.1251034607511
 30
0.0
 10
126.1085947108217
 20
225.7534739180512
 30
0.0
 10
126.8577171385813
 20
225.361241654587
 30
0.0
 10
127.447871245826
 20
225.0301653807863
 30
0.0
 10
128.1715466344971
 20
224.5926340652394
 30
0.0
 10
128.7382319642543
 20
224.2225735559904
 30
0.0
 10
129.2896392159864
 20
223.8305309056712
 30
0.0
 10
129.8297540653643
 20
223.4229688958726
 30
0.0
 10
130.3510594171308
 20
222.9907549759172
 30
0.0
 10
130.8481464493871
 20
222.5315463981354
 30
0.0
 10
131.2072828281155
 20
222.1729416712469
 30
0.0
 10
131.5509468191826
 20
221.7994268401485
 30
0.0
 10
131.8769825003727
 20
221.4103516789996
 30
0.0
 10
132.1829252184644
 20
221.0052014124096
 30
0.0
 10
132.466012203961
 20
220.5836646260124
 30
0.0
 10
132.7231118560111
 20
220.1456841717806
 30
0.0
 10
132.9507792637787
 20
219.6915728231437
 30
0.0
 10
133.1457509078393
 20
219.2208317834321
 30
0.0
 10
133.3046753134476
 20
218.7337763917782
 30
0.0
 10
133.4230181663407
 20
218.2286297893766
 30
0.0
 10
133.5004213357265
 20
217.7081458855874
 30
0.0
 10
133.5105321289685
 20
217.3548013549518
 30
0.0
 10
133.5156093572498
 20
217.1773661329024
 30
0.0
  0
LINE
  5
11B
330
1F
100
AcDbEntity
  8
0
  6
Continuous
 62
     7
370
    15
100
AcDbLine
 10
133.5156093438
 20
217.1773661327
 30
0.0
 11
103.4700831269
 21
217.1773661325
 31
0.0
  0
LINE
  5
11C
330
1F
100
AcDbEntity
  8
0
  6
Continuous
 62
     7
370
    15
100
AcDbLine
 10
72.7868898222
 20
217.1773661325
 30
0.0
 11
71.2750363588
 21
217.1773661328
 31
0.0
  0
LWPOLYLINE
  5
11D
330
1F
100
AcDbEntity
  8
0
  6
Continuous
 62
     7
370
    15
100
AcDbPolyline
 90
      124
 70
   128
 43
0.0
 10
71.2750363588
 20
217.1773661328
 10
71.2677472271
 20
217.8659263199
 10
71.2461696337
 20
218.5526736791
 10
71.2103598547
 20
219.2358171163
 10
71.1604112851
 20
219.9135749365
 10
71.0964541948
 20
220.5841794911
 10
71.0186553892
 20
221.2458817875
 10
70.9272177742
 20
221.8969560514
 10
70.8223798265
 20
222.5357042267
 10
70.7044149724
 20
223.1604604052
 10
70.5736308739
 20
223.7695951708
 10
70.4303686268
 20
224.3615198495
 10
70.275001871
 20
224.9346906525
 10
70.1079358159
 20
225.4876127026
 10
69.9296061836
 20
226.0188439332
 10
69.7404780728
 20
226.5269988491
 10
69.5410447451
 20
227.01075214
 10
69.3318263393
 20
227.4688421371
 10
69.1133685144
 20
227.9000741037
 10
68.8862410265
 20
228.303323351
 10
68.6510362431
 20
228.6775381713
 10
68.4083675977
 20
229.0217425813
 10
68.1588679903
 20
229.3350388673
 10
67.9031881368
 20
229.6166099265
 10
67.6419948713
 20
229.8657213982
 10
67.3759694076
 20
230.0817235791
 10
67.1058055623
 20
230.2640531174
 10
66.832207945
 20
230.4122344825
 10
66.5558901213
 20
230.5258812051
 10
66.2775727508
 20
230.6046968852
 10
65.9979817084
 20
230.6484759649
 10
65.7178461909
 20
230.6571042647
 10
65.4378968149
 20
230.6305592813
 10
65.1588637116
 20
230.5689102461
 10
64.8814746227
 20
230.4723179451
 10
64.6064530018
 20
230.341034299
 10
64.3345161284
 20
230.1754017064
 10
64.0663732362
 20
229.9758521509
 10
63.8027236643
 20
229.7429060743
 10
63.5442550327
 20
229.4771710194
 10
63.291641449
 20
229.1793400453
 10
63.0455417505
 20
228.8501899198
 10
62.8065977857
 20
228.490579094
 10
62.5754327402
 20
228.1014454627
 10
62.3526495117
 20
227.6838039187
 10
62.1388291375
 20
227.2387437061
 10
61.9345292787
 20
226.7674255786
 10
61.7402827665
 20
226.2710787734
 10
61.5565962119
 20
225.750997804
 10
61.3839486846
 20
225.2085390848
 10
61.2227904638
 20
224.6451173933
 10
61.0735418636
 20
224.0622021801
 10
60.9365921366
 20
223.4613137366
 10
60.8122984592
 20
222.8440192297
 10
60.7009849995
 20
222.2119286148
 10
60.6029420724
 20
221.5666904368
 10
60.518425382
 20
220.9099875305
 10
60.4476553547
 20
220.2435326317
 10
60.3908165648
 20
219.5690639101
 10
60.3480572525
 20
218.8883404363
 10
60.3194889376
 20
218.2031375935
 10
60.3051861287
 20
217.5152424479
 10
60.3051861287
 20
216.8264490872
 10
60.3194889376
 20
216.1385539416
 10
60.3480572525
 20
215.4533510988
 10
60.3908165649
 20
214.772627625
 10
60.4476553548
 20
214.0981589034
 10
60.5184253821
 20
213.4317040046
 10
60.6029420726
 20
212.7750010983
 10
60.7009849997
 20
212.1297629204
 10
60.8122984594
 20
211.4976723055
 10
60.9365921369
 20
210.8803777987
 10
61.0735418639
 20
210.2794893551
 10
61.2227904641
 20
209.696574142
 10
61.3839486849
 20
209.1331524506
 10
61.5565962122
 20
208.5906937315
 10
61.7402827669
 20
208.0706127621
 10
61.9345292791
 20
207.5742659568
 10
62.1388291379
 20
207.1029478295
 10
62.3526495121
 20
206.6578876168
 10
62.5754327406
 20
206.240246073
 10
62.8065977861
 20
205.8511124417
 10
63.045541751
 20
205.4915016159
 10
63.2916414495
 20
205.1623514906
 10
63.5442550332
 20
204.8645205165
 10
63.8027236648
 20
204.5987854616
 10
64.0663732367
 20
204.3658393851
 10
64.3345161289
 20
204.1662898297
 10
64.6064530024
 20
204.0006572371
 10
64.8814746232
 20
203.869373591
 10
65.1588637122
 20
203.7727812901
 10
65.4378968154
 20
203.7111322551
 10
65.7178461914
 20
203.6845872717
 10
65.9979817089
 20
203.6932155715
 10
66.2775727513
 20
203.7369946513
 10
66.5558901218
 20
203.8158103315
 10
66.8322079456
 20
203.9294570542
 10
67.1058055628
 20
204.0776384194
 10
67.3759694081
 20
204.2599679577
 10
67.6419948718
 20
204.4759701386
 10
67.9031881373
 20
204.7250816104
 10
68.1588679908
 20
205.0066526697
 10
68.4083675981
 20
205.3199489558
 10
68.6510362435
 20
205.6641533658
 10
68.8862410269
 20
206.0383681862
 10
69.1133685148
 20
206.4416174334
 10
69.3318263397
 20
206.8728494001
 10
69.5410447455
 20
207.3309393973
 10
69.7404780731
 20
207.8146926883
 10
69.929606184
 20
208.3228476042
 10
70.1079358162
 20
208.8540788349
 10
70.2750018713
 20
209.407000885
 10
70.4303686271
 20
209.980171688
 10
70.5736308741
 20
210.5720963667
 10
70.7044149726
 20
211.1812311324
 10
70.8223798267
 20
211.8059873109
 10
70.9272177744
 20
212.4447354863
 10
71.0186553894
 20
213.0958097501
 10
71.0964541949
 20
213.7575120466
 10
71.1604112852
 20
214.4281166012
 10
71.2103598548
 20
215.1058744214
 10
71.2461696337
 20
215.7890178586
 10
71.2677472271
 20
216.4757652178
 10
71.2750363601
 20
217.1643254049
  0
LINE
  5
11E
330
1F
100
AcDbEntity
  8
0
  6
Continuous
 62
     7
370
    15
100
AcDbLine
 10
71.2750363601
 20
217.1643254049
 30
0.0
 11
72.7868898222
 21
217.1643254063
 31
0.0
  0
LINE
  5
11F
330
1F
100
AcDbEntity
  8
0
  6
Continuous
 62
     7
370
    15
100
AcDbLine
 10
71.2750363601
 20
217.1643254049
 30
0.0
 11
71.2130497029
 21
217.16439908
 31
0.0
  0
LINE
  5
120
330
1F
100
AcDbEntity
  8
0
  6
Continuous
 62
     7
370
    15
100
AcDbLine
 10
71.2750363588
 20
217.1773661328
 30
0.0
 11
71.2130497016
 21
217.1772924564
 31
0.0
  0
LWPOLYLINE
  5
121
330
1F
100
AcDbEntity
  8
0
  6
Continuous
 62
     7
370
    15
100
AcDbPolyline
 90
        9
 70
   128
 43
0.0
 10
71.2130497029
 20
217.16439908
 10
71.2130499802
 20
217.1660107519
 10
71.2130501783
 20
217.167622424
 10
71.2130502971
 20
217.1692340961
 10
71.2130503368
 20
217.1708457682
 10
71.2130502971
 20
217.1724574403
 10
71.2130501783
 20
217.1740691124
 10
71.2130499802
 20
217.1756807845
 10
71.2130497016
 20
217.1772924564
  0
LWPOLYLINE
  5
122
330
1F
100
AcDbEntity
  8
0
  6
Continuous
 62
     7
370
    15
100
AcDbPolyline
 90
      122
 70
   128
 43
0.0
 10
60.4467313946
 20
217.1708457682
 10
60.4539325932
 20
216.489089117
 10
60.4755167758
 20
215.8091703613
 10
60.5114257553
 20
215.1329224417
 10
60.5615627275
 20
214.462168403
 10
60.6257925319
 20
213.7987164797
 10
60.7039420163
 20
213.1443552208
 10
60.7958005036
 20
212.5008486685
 10
60.9011203594
 20
211.8699316027
 10
61.0196176602
 20
211.2533048643
 10
61.150972958
 20
210.65263077
 10
61.2948321423
 20
210.0695286309
 10
61.4508073941
 20
209.5055703874
 10
61.6184782317
 20
208.962276371
 10
61.7973926443
 20
208.4411112065
 10
61.98706831
 20
207.943479863
 10
62.186993897
 20
207.4707238666
 10
62.3966304412
 20
207.0241176838
 10
62.6154127994
 20
206.6048652861
 10
62.8427511732
 20
206.2140969037
 10
63.0780326985
 20
205.8528659791
 10
63.3206230978
 20
205.5221463271
 10
63.5698683905
 20
205.2228295092
 10
63.8250966551
 20
204.9557224308
 10
64.0856198415
 20
204.7215451654
 10
64.3507356252
 20
204.5209290133
 10
64.6197293009
 20
204.3544148004
 10
64.8918757092
 20
204.2224514194
 10
65.1664411915
 20
204.1253946203
 10
65.4426855678
 20
204.0635060512
 10
65.7198641322
 20
204.0369525525
 10
65.9972296601
 20
204.0458057079
 10
66.2740344233
 20
204.0900416509
 10
66.5495322049
 20
204.1695411291
 10
66.8229803117
 20
204.284089826
 10
67.093641576
 20
204.4333789386
 10
67.3607863427
 20
204.6170060098
 10
67.6236944369
 20
204.8344760135
 10
67.8816571048
 20
205.085202689
 10
68.1339789246
 20
205.3685101215
 10
68.3799796814
 20
205.6836345643
 10
68.6189962006
 20
206.0297264977
 10
68.8503841359
 20
206.4058529188
 10
69.0735197063
 20
206.8109998574
 10
69.2878013779
 20
207.2440751091
 10
69.4926514851
 20
207.7039111793
 10
69.6875177881
 20
208.1892684315
 10
69.871874962
 20
208.6988384283
 10
70.0452260124
 20
209.2312474591
 10
70.2071036155
 20
209.7850602432
 10
70.3570713779
 20
210.3587837992
 10
70.494725013
 20
210.95087147
 10
70.619693431
 20
211.5597270918
 10
70.7316397391
 20
212.1837092975
 10
70.8302621498
 20
212.8211359415
 10
70.9152947946
 20
213.4702886341
 10
70.9865084405
 20
214.1294173745
 10
71.0437111081
 20
214.7967452681
 10
71.086748589
 20
215.470473317
 10
71.115504862
 20
216.1487852693
 10
71.1299024051
 20
216.8298525161
 10
71.1299024051
 20
217.5118390203
 10
71.115504862
 20
218.1929062671
 10
71.086748589
 20
218.8712182194
 10
71.0437111081
 20
219.5449462683
 10
70.9865084405
 20
220.2122741619
 10
70.9152947946
 20
220.8714029023
 10
70.8302621498
 20
221.5205555949
 10
70.7316397391
 20
222.1579822389
 10
70.619693431
 20
222.7819644446
 10
70.494725013
 20
223.3908200664
 10
70.3570713779
 20
223.9829077372
 10
70.2071036155
 20
224.5566312933
 10
70.0452260124
 20
225.1104440773
 10
69.871874962
 20
225.6428531081
 10
69.6875177881
 20
226.1524231049
 10
69.4926514851
 20
226.6377803571
 10
69.2878013779
 20
227.0976164273
 10
69.0735197063
 20
227.530691679
 10
68.8503841359
 20
227.9358386176
 10
68.6189962006
 20
228.3119650387
 10
68.3799796814
 20
228.6580569721
 10
68.1339789246
 20
228.9731814149
 10
67.8816571048
 20
229.2564888474
 10
67.6236944369
 20
229.5072155229
 10
67.3607863427
 20
229.7246855266
 10
67.093641576
 20
229.9083125978
 10
66.8229803117
 20
230.0576017104
 10
66.5495322049
 20
230.1721504073
 10
66.2740344233
 20
230.2516498855
 10
65.9972296601
 20
230.2958858285
 10
65.7198641322
 20
230.3047389839
 10
65.4426855678
 20
230.2781854852
 10
65.1664411915
 20
230.2162969161
 10
64.8918757092
 20
230.119240117
 10
64.6197293009
 20
229.987276736
 10
64.3507356252
 20
229.8207625231
 10
64.0856198415
 20
229.620146371
 10
63.8250966551
 20
229.3859691056
 10
63.5698683905
 20
229.1188620272
 10
63.3206230978
 20
228.8195452094
 10
63.0780326985
 20
228.4888255573
 10
62.8427511732
 20
228.1275946327
 10
62.6154127994
 20
227.7368262503
 10
62.3966304412
 20
227.3175738526
 10
62.186993897
 20
226.8709676698
 10
61.98706831
 20
226.3982116734
 10
61.7973926443
 20
225.9005803299
 10
61.6184782317
 20
225.3794151654
 10
61.4508073941
 20
224.8361211491
 10
61.2948321423
 20
224.2721629055
 10
61.150972958
 20
223.6890607664
 10
61.0196176602
 20
223.0883866721
 10
60.9011203594
 20
222.4717599337
 10
60.7958005036
 20
221.840842868
 10
60.7039420163
 20
221.1973363156
 10
60.6257925319
 20
220.5429750567
 10
60.5615627275
 20
219.8795231334
 10
60.5114257553
 20
219.2087690947
 10
60.4755167758
 20
218.5325211751
 10
60.4539325932
 20
217.8526024194
 10
60.4467313946
 20
217.1708457682
  0
LINE
  5
123
330
1F
100
AcDbEntity
  8
0
  6
Continuous
 62
     7
370
    15
100
AcDbLine
 10
71.2130497016
 20
217.1772924564
 30
0.0
 11
72.786889747
 21
217.1772924564
 31
0.0
  0
LINE
  5
124
330
1F
100
AcDbEntity
  8
0
  6
Continuous
 62
     7
370
    15
100
AcDbLine
 10
71.2130497029
 20
217.16439908
 30
0.0
 11
72.786889747
 21
217.16439908
 31
0.0
  0
LWPOLYLINE
  5
125
330
1F
100
AcDbEntity
  8
0
  6
Continuous
 62
     7
370
    15
100
AcDbPolyline
 90
        9
 70
   128
 43
0.0
 10
68.7850360027
 20
217.1771957682
 10
68.7850357295
 20
217.1756082683
 10
68.7850355344
 20
217.1740207684
 10
68.7850354174
 20
217.1724332684
 10
68.7850353783
 20
217.1708457684
 10
68.7850354174
 20
217.1692582684
 10
68.7850355344
 20
217.1676707684
 10
68.7850357295
 20
217.1660832684
 10
68.7850360026
 20
217.1644957685
  0
SPLINE
  5
126
330
1F
100
AcDbEntity
  8
0
  6
Continuous
 62
     7
370
    15
100
AcDbSpline
210
0.0
220
0.0
230
1.0
 70
     8
 71
     3
 72
    15
 73
    11
 74
     0
 42
0.000000001
 43
0.00000001
 40
0.0
 40
0.0
 40
0.0
 40
0.0
 40
0.079207004045826
 40
0.2379604736621644
 40
0.4000873478055588
 40
0.517021136857352
 40
0.6348585616997576
 40
0.790171076889379
 40
0.9467873088909279
 40
0.9999999999999999
 40
0.9999999999999999
 40
0.9999999999999999
 40
0.9999999999999999
 10
68.78503600295471
 20
217.1771957682024
 30
0.0
 10
68.78826460182712
 20
217.3115747560352
 30
0.0
 10
68.79796423541632
 20
217.7152876344624
 30
0.0
 10
68.90500815845134
 20
218.3888041858481
 30
0.0
 10
69.12118861704991
 20
219.101532121781
 30
0.0
 10
69.3896213117418
 20
219.7199610400505
 30
0.0
 10
69.70395042874472
 20
220.3032424454428
 30
0.0
 10
70.10957843550803
 20
220.9098850102404
 30
0.0
 10
70.49003355481246
 20
221.4004507683396
 30
0.0
 10
70.73461021737522
 20
221.6591631272375
 30
0.0
 10
70.79663494782945
 20
221.7247726754163
 30
0.0
  0
SPLINE
  5
127
330
1F
100
AcDbEntity
  8
0
  6
Continuous
 62
     7
370
    15
100
AcDbSpline
210
0.0
220
0.0
230
1.0
 70
     8
 71
     3
 72
    16
 73
    12
 74
     0
 42
0.000000001
 43
0.00000001
 40
0.0
 40
0.0
 40
0.0
 40
0.0
 40
0.0596847804419289
 40
0.1766272178823719
 40
0.2932157402973121
 40
0.4103933945996577
 40
0.5270177785270177
 40
0.6265071020120622
 40
0.7266555172924468
 40
0.8622362858714816
 40
1.0
 40
1.0
 40
1.0
 40
1.0
 10
70.79917394407369
 20
212.6106908664106
 30
0.0
 10
70.73034228089574
 20
212.6851522831793
 30
0.0
 10
70.52664637920495
 20
212.9055085077657
 30
0.0
 10
70.21587834161461
 20
213.2954688852279
 30
0.0
 10
69.87015146759975
 20
213.7809966583885
 30
0.0
 10
69.5617994980509
 20
214.2908619191923
 30
0.0
 10
69.3081617152149
 20
214.7977400906484
 30
0.0
 10
69.10780376264351
 20
215.2969150366525
 30
0.0
 10
68.94077123263239
 20
215.8416726504491
 30
0.0
 10
68.81245658690224
 20
216.4657044785804
 30
0.0
 10
68.79422473116556
 20
216.9303284998291
 30
0.0
 10
68.78503600294665
 20
217.1644957682024
 30
0.0
  0
ARC
  5
128
330
1F
100
AcDbEntity
  8
0
  6
Continuous
 62
     7
370
    15
100
AcDbCircle
 10
93.0852544918
 20
217.1708454897
 30
0.0
 40
32.27520656626168
100
AcDbArc
 50
178.8726583804
 51
181.1273406294
  0
LINE
  5
129
330
1F
100
AcDbEntity
  8
0
  6
Continuous
 62
     7
370
    15
100
AcDbLine
 10
103.4700832021
 20
217.1643990799
 30
0.0
 11
133.4536227027
 21
217.1643990799
 31
0.0
  0
LINE
  5
12A
330
1F
100
AcDbEntity
  8
0
  6
Continuous
 62
     7
370
    15
100
AcDbLine
 10
133.4536227
 20
217.16439908
 30
0.0
 11
133.4846160286
 21
217.1643622417
 31
0.0
  0
LINE
  5
12B
330
1F
100
AcDbEntity
  8
0
  6
Continuous
 62
     7
370
    15
100
AcDbLine
 10
133.4846160286
 20
217.1643622417
 30
0.0
 11
133.5156093592
 21
217.1643254065
 31
0.0
  0
LINE
  5
12C
330
1F
100
AcDbEntity
  8
0
  6
Continuous
 62
     7
370
    15
100
AcDbLine
 10
103.4700832021
 20
217.1772924564
 30
0.0
 11
133.4536226925
 21
217.1772924564
 31
0.0
  0
LINE
  5
12D
330
1F
100
AcDbEntity
  8
0
  6
Continuous
 62
     7
370
    15
100
AcDbLine
 10
133.4846160238
 20
217.1773292946
 30
0.0
 11
133.5156093438
 21
217.1773661327
 31
0.0
  0
LINE
  5
12E
330
1F
100
AcDbEntity
  8
0
  6
Continuous
 62
     7
370
    15
100
AcDbLine
 10
133.4846160238
 20
217.1773292946
 30
0.0
 11
133.4536227
 21
217.1772924564
 31
0.0
  0
SPLINE
  5
12F
330
1F
100
AcDbEntity
  8
0
  6
Continuous
 62
     7
370
    15
100
AcDbSpline
210
0.0
220
0.0
230
1.0
 70
     8
 71
     3
 72
     8
 73
     4
 74
     0
 42
0.000000001
 43
0.00000001
 40
0.0
 40
0.0
 40
0.0
 40
0.0
 40
0.0001289337403453
 40
0.0001289337403453
 40
0.0001289337403453
 40
0.0001289337403453
 10
133.4536257457679
 20
217.1772924553651
 30
0.0
 10
133.4536306710928
 20
217.1729946668432
 30
0.0
 10
133.4536305532829
 20
217.1686968695825
 30
0.0
 10
133.4536253924707
 20
217.1643990813363
 30
0.0
  0
LINE
  5
130
330
1F
100
AcDbEntity
  8
0
  6
Continuous
 62
     7
370
    15
100
AcDbLine
 10
60.8162951927
 20
216.5358457678
 30
0.0
 11
60.9468921478
 21
216.5358457682
 31
0.0
  0
LINE
  5
131
330
1F
100
AcDbEntity
  8
0
  6
Continuous
 62
     7
370
    15
100
AcDbLine
 10
60.8162952037
 20
217.8058457692
 30
0.0
 11
60.9468921483
 21
217.8058457682
 31
0.0
  0
LINE
  5
132
330
1F
100
AcDbEntity
  8
0
  6
Continuous
 62
     7
370
    15
100
AcDbLine
 10
60.9468921478
 20
216.5358457682
 30
0.0
 11
60.9468921483
 21
217.8058457682
 31
0.0
  0
LINE
  5
133
330
1F
100
AcDbEntity
  8
0
  6
Continuous
 62
     7
370
    15
100
AcDbLine
 10
68.3648812638
 20
216.5358457682
 30
0.0
 11
60.9468921478
 21
216.5358457682
 31
0.0
  0
LINE
  5
134
330
1F
100
AcDbEntity
  8
0
  6
Continuous
 62
     7
370
    15
100
AcDbLine
 10
60.9468921483
 20
217.8058457682
 30
0.0
 11
68.3648812638
 21
217.8058457682
 31
0.0
  0
LINE
  5
135
330
1F
100
AcDbEntity
  8
0
  6
Continuous
 62
     7
370
    15
100
AcDbLine
 10
68.3648812638
 20
217.8058457682
 30
0.0
 11
68.3648812638
 21
216.5358457682
 31
0.0
  0
LINE
  5
136
330
1F
100
AcDbEntity
  8
0
  6
Continuous
 62
     7
370
    15
100
AcDbLine
 10
210.6301808331
 20
44.856461893
 30
0.0
 11
210.6301808331
 21
60.5683292305
 31
0.0
  0
LINE
  5
137
330
1F
100
AcDbEntity
  8
0
  6
Continuous
 62
     7
370
    15
100
AcDbLine
 10
183.6553808332
 20
60.5683292305
 30
0.0
 11
183.6553808332
 21
44.8564022123
 31
0.0
  0
LINE
  5
138
330
1F
100
AcDbEntity
  8
0
  6
Continuous
 62
     7
370
    15
100
AcDbLine
 10
195.556639777
 20
162.261608926
 30
0.0
 11
195.556639777
 21
161.277358926
 31
0.0
  0
LINE
  5
139
330
1F
100
AcDbEntity
  8
0
  6
Continuous
 62
     7
370
    15
100
AcDbLine
 10
198.7289218892
 20
161.277358926
 30
0.0
 11
198.7289218892
 21
162.261608926
 31
0.0
  0
LINE
  5
13A
330
1F
100
AcDbEntity
  8
0
  6
Continuous
 62
     7
370
    15
100
AcDbLine
 10
198.5740708331
 20
162.261608926
 30
0.0
 11
198.5740708331
 21
162.331458926
 31
0.0
  0
LINE
  5
13B
330
1F
100
AcDbEntity
  8
0
  6
Continuous
 62
     7
370
    15
100
AcDbLine
 10
195.7114908331
 20
162.331458926
 30
0.0
 11
195.7114908331
 21
162.261608926
 31
0.0
  0
LINE
  5
13C
330
1F
100
AcDbEntity
  8
0
  6
Continuous
 62
     7
370
    15
100
AcDbLine
 10
197.3809058332
 20
62.1405447666
 30
0.0
 11
197.3809058332
 21
62.2541042854
 31
0.0
  0
LINE
  5
13D
330
1F
100
AcDbEntity
  8
0
  6
Continuous
 62
     7
370
    15
100
AcDbLine
 10
196.9046558331
 20
62.2541042854
 30
0.0
 11
196.9046558331
 21
62.1405447666
 31
0.0
  0
LINE
  5
13E
330
1F
100
AcDbEntity
  8
0
  6
Continuous
 62
     7
370
    15
100
AcDbLine
 10
196.9825433109
 20
161.277358926
 30
0.0
 11
196.9825433109
 21
160.8162576502
 31
0.0
  0
LINE
  5
13F
330
1F
100
AcDbEntity
  8
0
  6
Continuous
 62
     7
370
    15
100
AcDbLine
 10
197.3030183553
 20
160.8162576502
 30
0.0
 11
197.3030183553
 21
161.277358926
 31
0.0
  0
LINE
  5
140
330
1F
100
AcDbEntity
  8
0
  6
Continuous
 62
     7
370
    15
100
AcDbLine
 10
197.0634058331
 20
160.8162576502
 30
0.0
 11
197.0634058331
 21
62.2635870451
 31
0.0
  0
LINE
  5
141
330
1F
100
AcDbEntity
  8
0
  6
Continuous
 62
     7
370
    15
100
AcDbLine
 10
197.2221558331
 20
62.2635870451
 30
0.0
 11
197.2221558331
 21
160.8162576502
 31
0.0
  0
LINE
  5
142
330
1F
100
AcDbEntity
  8
0
  6
Continuous
 62
     7
370
    15
100
AcDbLine
 10
197.3809058332
 20
70.1471555856
 30
0.0
 11
197.3809058332
 21
70.2607151043
 31
0.0
  0
LINE
  5
143
330
1F
100
AcDbEntity
  8
0
  6
Continuous
 62
     7
370
    15
100
AcDbLine
 10
196.9046558331
 20
70.2607151043
 30
0.0
 11
196.9046558331
 21
70.1471555856
 31
0.0
  0
ARC
  5
144
330
1F
100
AcDbEntity
  8
0
  6
Continuous
 62
     7
370
    15
100
AcDbCircle
 10
197.1424130818
 20
44.452440688
 30
0.0
 40
14.74851966655642
100
AcDbArc
 50
90.0239019824
 51
96.1777329068
  0
LINE
  5
145
330
1F
100
AcDbEntity
  8
0
  6
Continuous
 62
     7
370
    15
100
AcDbLine
 10
197.1362604673
 20
59.2009590712
 30
0.0
 11
197.1362604714
 21
45.1783923069
 31
0.0
  0
SPLINE
  5
146
330
1F
100
AcDbEntity
  8
0
  6
Continuous
 62
     7
370
    15
100
AcDbSpline
210
0.0
220
0.0
230
1.0
 70
     8
 71
     3
 72
   425
 73
   421
 74
     0
 42
0.000000001
 43
0.00000001
 40
0.0
 40
0.0
 40
0.0
 40
0.0
 40
0.0015353947399578
 40
0.0015353947399578
 40
0.0015353947399578
 40
0.0076942863141528
 40
0.0076942863141528
 40
0.0076942863141528
 40
0.0177791975499878
 40
0.0177791975499878
 40
0.0177791975499878
 40
0.028299033374232
 40
0.028299033374232
 40
0.028299033374232
 40
0.0402861851432977
 40
0.0402861851432977
 40
0.0402861851432977
 40
0.0531281588190526
 40
0.0531281588190526
 40
0.0531281588190526
 40
0.0578118901743634
 40
0.0578118901743634
 40
0.0578118901743634
 40
0.0729815512937656
 40
0.0729815512937656
 40
0.0729815512937656
 40
0.083660747103928
 40
0.083660747103928
 40
0.083660747103928
 40
0.1025560446704754
 40
0.1025560446704754
 40
0.1025560446704754
 40
0.1249077997921279
 40
0.1249077997921279
 40
0.1249077997921279
 40
0.148402273359727
 40
0.148402273359727
 40
0.148402273359727
 40
0.1659889220029467
 40
0.1659889220029467
 40
0.1659889220029467
 40
0.1933806205995804
 40
0.1933806205995804
 40
0.1933806205995804
 40
0.2070153144269194
 40
0.2070153144269194
 40
0.2070153144269194
 40
0.2375663195288205
 40
0.2375663195288205
 40
0.2375663195288205
 40
0.248018692639485
 40
0.248018692639485
 40
0.248018692639485
 40
0.2809790407807252
 40
0.2809790407807252
 40
0.2809790407807252
 40
0.2890109631304898
 40
0.2890109631304898
 40
0.2890109631304898
 40
0.3240169544592347
 40
0.3240169544592347
 40
0.3240169544592347
 40
0.3595763478699092
 40
0.3595763478699092
 40
0.3595763478699092
 40
0.3711677563196679
 40
0.3711677563196679
 40
0.3711677563196679
 40
0.406968084694212
 40
0.406968084694212
 40
0.406968084694212
 40
0.4121541114053454
 40
0.4121541114053454
 40
0.4121541114053454
 40
0.4326369164786476
 40
0.4326369164786476
 40
0.4326369164786476
 40
0.4531198712313076
 40
0.4531198712313076
 40
0.4531198712313076
 40
0.4736030538836154
 40
0.4736030538836154
 40
0.4736030538836154
 40
0.4787228941993453
 40
0.4787228941993453
 40
0.4787228941993453
 40
0.4889629967849922
 40
0.4889629967849922
 40
0.4889629967849922
 40
0.5094468710683575
 40
0.5094468710683575
 40
0.5094468710683575
 40
0.5196870291235581
 40
0.5196870291235581
 40
0.5196870291235581
 40
0.529927233738057
 40
0.529927233738057
 40
0.529927233738057
 40
0.5401674880280751
 40
0.5401674880280751
 40
0.5401674880280751
 40
0.560653478256435
 40
0.560653478256435
 40
0.560653478256435
 40
0.5708938689816472
 40
0.5708938689816472
 40
0.5708938689816472
 40
0.5760136714927294
 40
0.5760136714927294
 40
0.5760136714927294
 40
0.5862542421061833
 40
0.5862542421061833
 40
0.5862542421061833
 40
0.5964949656553246
 40
0.5964949656553246
 40
0.5964949656553246
 40
0.6067358768587893
 40
0.6067358768587893
 40
0.6067358768587893
 40
0.6118557158321701
 40
0.6118557158321701
 40
0.6118557158321701
 40
0.6169755723906648
 40
0.6169755723906648
 40
0.6169755723906648
 40
0.6220954503150453
 40
0.6220954503150453
 40
0.6220954503150453
 40
0.6246552842877361
 40
0.6246552842877361
 40
0.6246552842877361
 40
0.6348971241695897
 40
0.6348971241695897
 40
0.6348971241695897
 40
0.6554032651152107
 40
0.6554032651152107
 40
0.6554032651152107
 40
0.6656463749483685
 40
0.6656463749483685
 40
0.6656463749483685
 40
0.6707660450168155
 40
0.6707660450168155
 40
0.6707660450168155
 40
0.6810114035748507
 40
0.6810114035748507
 40
0.6810114035748507
 40
0.6861312887407734
 40
0.6861312887407734
 40
0.6861312887407734
 40
0.6912513476110834
 40
0.6912513476110834
 40
0.6912513476110834
 40
0.6963716140163143
 40
0.6963716140163143
 40
0.6963716140163143
 40
0.7014921364771767
 40
0.7014921364771767
 40
0.7014921364771767
 40
0.7117491529888845
 40
0.7117491529888845
 40
0.7117491529888845
 40
0.7220135727751844
 40
0.7220135727751844
 40
0.7220135727751844
 40
0.7322885204580631
 40
0.7322885204580631
 40
0.7322885204580631
 40
0.7374109593237498
 40
0.7374109593237498
 40
0.7374109593237498
 40
0.7425342726346708
 40
0.7425342726346708
 40
0.7425342726346708
 40
0.7450930258781443
 40
0.7450930258781443
 40
0.7450930258781443
 40
0.7502176451849456
 40
0.7502176451849456
 40
0.7502176451849456
 40
0.7553428613449525
 40
0.7553428613449525
 40
0.7553428613449525
 40
0.7604684032562515
 40
0.7604684032562515
 40
0.7604684032562515
 40
0.763027246348514
 40
0.763027246348514
 40
0.763027246348514
 40
0.7681526041044922
 40
0.7681526041044922
 40
0.7681526041044922
 40
0.773277457294909
 40
0.773277457294909
 40
0.773277457294909
 40
0.7784015654598231
 40
0.7784015654598231
 40
0.7784015654598231
 40
0.7835248071395775
 40
0.7835248071395775
 40
0.7835248071395775
 40
0.7886471795007032
 40
0.7886471795007032
 40
0.7886471795007032
 40
0.791205814200142
 40
0.791205814200142
 40
0.791205814200142
 40
0.7963268819583222
 40
0.7963268819583222
 40
0.7963268819583222
 40
0.801447248822196
 40
0.801447248822196
 40
0.801447248822196
 40
0.8065670232444471
 40
0.8065670232444471
 40
0.8065670232444471
 40
0.8116863059300649
 40
0.8116863059300649
 40
0.8116863059300649
 40
0.81680516796334
 40
0.81680516796334
 40
0.81680516796334
 40
0.8270542279253766
 40
0.8270542279253766
 40
0.8270542279253766
 40
0.8321725720333235
 40
0.8321725720333235
 40
0.8321725720333235
 40
0.8372907323211157
 40
0.8372907323211157
 40
0.8372907323211157
 40
0.8475331095233909
 40
0.8475331095233909
 40
0.8475331095233909
 40
0.8526510325939117
 40
0.8526510325939117
 40
0.8526510325939117
 40
0.86289092232124
 40
0.86289092232124
 40
0.86289092232124
 40
0.8680087088928609
 40
0.8680087088928609
 40
0.8680087088928609
 40
0.8782471088568801
 40
0.8782471088568801
 40
0.8782471088568801
 40
0.8833648128243328
 40
0.8833648128243328
 40
0.8833648128243328
 40
0.8936022915895981
 40
0.8936022915895981
 40
0.8936022915895981
 40
0.9038393682808815
 40
0.9038393682808815
 40
0.9038393682808815
 40
0.9140761194971225
 40
0.9140761194971225
 40
0.9140761194971225
 40
0.9243126343381146
 40
0.9243126343381146
 40
0.9243126343381146
 40
0.934548960358793
 40
0.934548960358793
 40
0.934548960358793
 40
0.9447851316336571
 40
0.9447851316336571
 40
0.9447851316336571
 40
0.9550211824364478
 40
0.9550211824364478
 40
0.9550211824364478
 40
0.9652571301105918
 40
0.9652571301105918
 40
0.9652571301105918
 40
0.975492994114536
 40
0.975492994114536
 40
0.975492994114536
 40
0.985728789699171
 40
0.985728789699171
 40
0.985728789699171
 40
1.006204693109301
 40
1.006204693109301
 40
1.006204693109301
 40
1.01644039929018
 40
1.01644039929018
 40
1.01644039929018
 40
1.036915318186671
 40
1.036915318186671
 40
1.036915318186671
 40
1.047150972739888
 40
1.047150972739888
 40
1.047150972739888
 40
1.057386605272884
 40
1.057386605272884
 40
1.057386605272884
 40
1.067622220409183
 40
1.067622220409183
 40
1.067622220409183
 40
1.088096279778647
 40
1.088096279778647
 40
1.088096279778647
 40
1.108570181009585
 40
1.108570181009585
 40
1.108570181009585
 40
1.129043990484964
 40
1.129043990484964
 40
1.129043990484964
 40
1.149517767736939
 40
1.149517767736939
 40
1.149517767736939
 40
1.169991565480762
 40
1.169991565480762
 40
1.169991565480762
 40
1.190465443648189
 40
1.190465443648189
 40
1.190465443648189
 40
1.210939466722074
 40
1.210939466722074
 40
1.210939466722074
 40
1.231413712161346
 40
1.231413712161346
 40
1.231413712161346
 40
1.24164934190391
 40
1.24164934190391
 40
1.24164934190391
 40
1.251884994343782
 40
1.251884994343782
 40
1.251884994343782
 40
1.272360055646852
 40
1.272360055646852
 40
1.272360055646852
 40
1.282595769225755
 40
1.282595769225755
 40
1.282595769225755
 40
1.292831529394852
 40
1.292831529394852
 40
1.292831529394852
 40
1.303067342909159
 40
1.303067342909159
 40
1.303067342909159
 40
1.323544657943598
 40
1.323544657943598
 40
1.323544657943598
 40
1.333780618889283
 40
1.333780618889283
 40
1.333780618889283
 40
1.344016695316095
 40
1.344016695316095
 40
1.344016695316095
 40
1.354252919347256
 40
1.354252919347256
 40
1.354252919347256
 40
1.364489326577627
 40
1.364489326577627
 40
1.364489326577627
 40
1.37472595935484
 40
1.37472595935484
 40
1.37472595935484
 40
1.379843576567498
 40
1.379843576567498
 40
1.379843576567498
 40
1.390080728805179
 40
1.390080728805179
 40
1.390080728805179
 40
1.400318317521686
 40
1.400318317521686
 40
1.400318317521686
 40
1.405436008913076
 40
1.405436008913076
 40
1.405436008913076
 40
1.415674613363216
 40
1.415674613363216
 40
1.415674613363216
 40
1.420792399267277
 40
1.420792399267277
 40
1.420792399267277
 40
1.431032681185688
 40
1.431032681185688
 40
1.431032681185688
 40
1.436150622642671
 40
1.436150622642671
 40
1.436150622642671
 40
1.441268687520505
 40
1.441268687520505
 40
1.441268687520505
 40
1.451513250927286
 40
1.451513250927286
 40
1.451513250927286
 40
1.456631642909549
 40
1.456631642909549
 40
1.456631642909549
 40
1.461750303053085
 40
1.461750303053085
 40
1.461750303053085
 40
1.466869294505599
 40
1.466869294505599
 40
1.466869294505599
 40
1.471988693612952
 40
1.471988693612952
 40
1.471988693612952
 40
1.477108575061373
 40
1.477108575061373
 40
1.477108575061373
 40
1.48222902957447
 40
1.48222902957447
 40
1.48222902957447
 40
1.4873501690352
 40
1.4873501690352
 40
1.4873501690352
 40
1.492472100786412
 40
1.492472100786412
 40
1.492472100786412
 40
1.497594900529286
 40
1.497594900529286
 40
1.497594900529286
 40
1.507561499884746
 40
1.507561499884746
 40
1.507561499884746
 40
1.516012097504169
 40
1.516012097504169
 40
1.516012097504169
 40
1.518852431431447
 40
1.518852431431447
 40
1.518852431431447
 40
1.518852431431447
 10
197.1362604684373
 20
45.17839230771826
 30
0.0
 10
197.0850810993574
 20
45.17845695993608
 30
0.0
 10
197.0338968639072
 20
45.17838376790878
 30
0.0
 10
196.9827379534185
 20
45.1783705517161
 30
0.0
 10
196.7778105536343
 20
45.17831761157383
 30
0.0
 10
196.5729096727558
 20
45.17814116896425
 30
0.0
 10
196.3698249008865
 20
45.17786300171255
 30
0.0
 10
196.0403219041796
 20
45.1774116781486
 30
0.0
 10
195.713784595129
 20
45.17667472730636
 30
0.0
 10
195.396437810618
 20
45.17568515063381
 30
0.0
 10
195.0654957168285
 20
45.17465317995705
 30
0.0
 10
194.7423701577127
 20
45.17333859196363
 30
0.0
 10
194.4313266293862
 20
45.17182349774265
 30
0.0
 10
194.0773502181458
 20
45.17009927728412
 30
0.0
 10
193.736821104246
 20
45.16808491034698
 30
0.0
 10
193.4122370175301
 20
45.16584746223783
 30
0.0
 10
193.0657271141347
 20
45.1634588733948
 30
0.0
 10
192.7356031552641
 20
45.16081672305727
 30
0.0
 10
192.4221589917484
 20
45.15803124897552
 30
0.0
 10
192.3070629698662
 20
45.15700842889086
 30
0.0
 10
192.1940893141579
 20
45.15596242682275
 30
0.0
 10
192.0832011905478
 20
45.15489425891177
 30
0.0
 10
191.7244124794371
 20
45.15143810350445
 30
0.0
 10
191.3867192677258
 20
45.14773454762425
 30
0.0
 10
191.0682526556369
 20
45.14389265457226
 30
0.0
 10
190.8439169380056
 20
45.14118633057421
 30
0.0
 10
190.6287600739979
 20
45.13841194880046
 30
0.0
 10
190.4220285772932
 20
45.13557540842569
 30
0.0
 10
190.0567489402346
 20
45.13056344626649
 30
0.0
 10
189.7170339469929
 20
45.12535806748952
 30
0.0
 10
189.3991981734783
 20
45.1200481134238
 30
0.0
 10
189.0233422601355
 20
45.113768840285
 30
0.0
 10
188.6772153559143
 20
45.1072878460312
 30
0.0
 10
188.3560403667833
 20
45.10069330473652
 30
0.0
 10
188.0181485171755
 20
45.09375552368015
 30
0.0
 10
187.7073919391584
 20
45.0867159497469
 30
0.0
 10
187.4196382575024
 20
45.07958598338521
 30
0.0
 10
187.2041918483003
 20
45.07424764803701
 30
0.0
 10
187.0014968284019
 20
45.06882195060259
 30
0.0
 10
186.8102940590351
 20
45.06337863496481
 30
0.0
 10
186.5124767211886
 20
45.0549001292524
 30
0.0
 10
186.2422045302588
 20
45.04631709728732
 30
0.0
 10
185.9958229217505
 20
45.03770439114687
 30
0.0
 10
185.8731453692481
 20
45.033415979702
 30
0.0
 10
185.7563759446276
 20
45.0291257693619
 30
0.0
 10
185.6451505916211
 20
45.02481107901273
 30
0.0
 10
185.3959686317972
 20
45.01514473075513
 30
0.0
 10
185.1743844789947
 20
45.00528627932744
 30
0.0
 10
184.9774895870183
 20
44.99546642107837
 30
0.0
 10
184.9101066172697
 20
44.99210578939977
 30
0.0
 10
184.8456172512349
 20
44.98876037373471
 30
0.0
 10
184.783917473651
 20
44.98540785435173
 30
0.0
 10
184.5893953826879
 20
44.97483830117167
 30
0.0
 10
184.4224284053663
 20
44.96410648397541
 30
0.0
 10
184.2808213245652
 20
44.95336407906007
 30
0.0
 10
184.2463044918585
 20
44.95074560976296
 30
0.0
 10
184.213297225853
 20
44.9481345170786
 30
0.0
 10
184.1817720931802
 20
44.94552278915879
 30
0.0
 10
184.0444946393314
 20
44.93414991524587
 30
0.0
 10
183.9352068970053
 20
44.92273635999555
 30
0.0
 10
183.8524144783236
 20
44.91129264187978
 30
0.0
 10
183.7683433714074
 20
44.89967218115949
 30
0.0
 10
183.7115579286323
 20
44.88804116852486
 30
0.0
 10
183.6812938400449
 20
44.87640559662371
 30
0.0
 10
183.671419403516
 20
44.87260919231819
 30
0.0
 10
183.6643723418844
 20
44.86881894228091
 30
0.0
 10
183.6601425177558
 20
44.8649884799404
 30
0.0
 10
183.6470782058763
 20
44.85315764415688
 30
0.0
 10
183.6608441000338
 20
44.84156173869303
 30
0.0
 10
183.7016220753223
 20
44.82982078682318
 30
0.0
 10
183.707530669629
 20
44.82811956156904
 30
0.0
 10
183.7140078192352
 20
44.82641784325041
 30
0.0
 10
183.7210551663703
 20
44.8247177331113
 30
0.0
 10
183.7488892982959
 20
44.81800299506976
 30
0.0
 10
183.7856136407484
 20
44.81131875508744
 30
0.0
 10
183.831398400839
 20
44.80461425675668
 30
0.0
 10
183.8771833566987
 20
44.7979097297584
 30
0.0
 10
183.9320299199658
 20
44.79123069714915
 30
0.0
 10
183.9961959583583
 20
44.78454396494159
 30
0.0
 10
184.0603624161058
 20
44.77785718903311
 30
0.0
 10
184.1338555818608
 20
44.77118535526197
 30
0.0
 10
184.2170276447324
 20
44.76452410157881
 30
0.0
 10
184.23781874963
 20
44.76285894119569
 30
0.0
 10
184.2592163403315
 20
44.76119240555168
 30
0.0
 10
184.2812274062888
 20
44.75952345396851
 30
0.0
 10
184.3252504464681
 20
44.7561854819345
 30
0.0
 10
184.3717282236905
 20
44.75284048580744
 30
0.0
 10
184.4207146239993
 20
44.74950438103643
 30
0.0
 10
184.5186962225582
 20
44.74283157233113
 30
0.0
 10
184.6267131510228
 20
44.73621899588914
 30
0.0
 10
184.745340780729
 20
44.72963511806989
 30
0.0
 10
184.8046495932226
 20
44.72634345679307
 30
0.0
 10
184.866617393239
 20
44.72306085947198
 30
0.0
 10
184.9313356665058
 20
44.7197741345861
 30
0.0
 10
184.9960541143017
 20
44.71648740083673
 30
0.0
 10
185.0635317975726
 20
44.71318652906376
 30
0.0
 10
185.1338594908824
 20
44.70988976880063
 30
0.0
 10
185.2041873862706
 20
44.70659299906464
 30
0.0
 10
185.2773702955026
 20
44.70330022391818
 30
0.0
 10
185.3535141581792
 20
44.70002064110422
 30
0.0
 10
185.5058223455043
 20
44.69346059416129
 30
0.0
 10
185.669989095729
 20
44.68697220467144
 30
0.0
 10
185.8470951556765
 20
44.6805195563646
 30
0.0
 10
185.9356374615458
 20
44.67729362293115
 30
0.0
 10
186.0274318565214
 20
44.67407338101238
 30
0.0
 10
186.1226448284222
 20
44.6708508991817
 30
0.0
 10
186.1702495368361
 20
44.66923971842705
 30
0.0
 10
186.2187093467826
 20
44.66763085921772
 30
0.0
 10
186.2680460860167
 20
44.6660248886615
 30
0.0
 10
186.3667242309142
 20
44.66281279565111
 30
0.0
 10
186.468917161824
 20
44.65961311213858
 30
0.0
 10
186.5748196730964
 20
44.65642703651496
 30
0.0
 10
186.6807231183092
 20
44.65324093279376
 30
0.0
 10
186.7903499684762
 20
44.650068146374
 30
0.0
 10
186.9039297511425
 20
44.64690057666422
 30
0.0
 10
187.0175107710514
 20
44.6437329724496
 30
0.0
 10
187.1350594446455
 20
44.64057442757285
 30
0.0
 10
187.2568202480242
 20
44.63744087384139
 30
0.0
 10
187.3176971090101
 20
44.63587418809681
 30
0.0
 10
187.379630757091
 20
44.63431438994167
 30
0.0
 10
187.4426557377203
 20
44.63276244393847
 30
0.0
 10
187.5056808462766
 20
44.63121049478517
 30
0.0
 10
187.5698011348509
 20
44.62966525185821
 30
0.0
 10
187.6350561809244
 20
44.62812461207158
 30
0.0
 10
187.7003113876011
 20
44.62658396849319
 30
0.0
 10
187.7667071772548
 20
44.62504483349419
 30
0.0
 10
187.834285874487
 20
44.62350564614656
 30
0.0
 10
187.8680745446635
 20
44.62273606792503
 30
0.0
 10
187.9021594324209
 20
44.62196679545497
 30
0.0
 10
187.93654564913
 20
44.6211981914199
 30
0.0
 10
188.0741073405712
 20
44.61812339921445
 30
0.0
 10
188.2165071079507
 20
44.61506252525599
 30
0.0
 10
188.3641070707025
 20
44.61203262317725
 30
0.0
 10
188.6594700533456
 20
44.6059694718159
 30
0.0
 10
188.975891131485
 20
44.60001953321157
 30
0.0
 10
189.3170402029529
 20
44.59424024415853
 30
0.0
 10
189.4875411219498
 20
44.59135184674783
 30
0.0
 10
189.6643428201084
 20
44.58850272966087
 30
0.0
 10
189.8480212080123
 20
44.58568273502675
 30
0.0
 10
189.9398445375588
 20
44.5842729812742
 30
0.0
 10
190.0334039342752
 20
44.58287318768699
 30
0.0
 10
190.1287733419399
 20
44.58148612755186
 30
0.0
 10
190.3195685414102
 20
44.57871118722624
 30
0.0
 10
190.5177086276754
 20
44.57598692898017
 30
0.0
 10
190.723835419152
 20
44.57332514540101
 30
0.0
 10
190.8268726482434
 20
44.57199459151002
 30
0.0
 10
190.9319395620812
 20
44.57067887159382
 30
0.0
 10
191.0391199705661
 20
44.56937833856328
 30
0.0
 10
191.1463025365846
 20
44.5680777793531
 30
0.0
 10
191.2556283231331
 20
44.56679114527455
 30
0.0
 10
191.3671721824493
 20
44.56552585970537
 30
0.0
 10
191.4787187133413
 20
44.56426054383145
 30
0.0
 10
191.5925190600756
 20
44.56301550664918
 30
0.0
 10
191.7086469206392
 20
44.56179466906173
 30
0.0
 10
191.8247782187097
 20
44.56057379533619
 30
0.0
 10
191.943280064435
 20
44.5593766929238
 30
0.0
 10
192.0642165418591
 20
44.55820670923422
 30
0.0
 10
192.3062793990681
 20
44.55586490467022
 30
0.0
 10
192.5584716993091
 20
44.55362781426393
 30
0.0
 10
192.8210729150283
 20
44.55150281888896
 30
0.0
 10
193.0837852962625
 20
44.54937692395149
 30
0.0
 10
193.357602700986
 20
44.54736840692541
 30
0.0
 10
193.6420205253777
 20
44.54554198299162
 30
0.0
 10
193.9266093745783
 20
44.54371446080103
 30
0.0
 10
194.2228924585603
 20
44.54206404065232
 30
0.0
 10
194.5289659346571
 20
44.54062759799261
 30
0.0
 10
194.6817972806005
 20
44.53991034059464
 30
0.0
 10
194.8373111222885
 20
44.53924351003941
 30
0.0
 10
194.9950644574851
 20
44.53863473569338
 30
0.0
 10
195.152833958255
 20
44.53802589896397
 30
0.0
 10
195.3130737341543
 20
44.53747413478941
 30
0.0
 10
195.4751750598044
 20
44.53699313488364
 30
0.0
 10
195.5561811156549
 20
44.53675276729212
 30
0.0
 10
195.6376988939082
 20
44.53652920188217
 30
0.0
 10
195.7196377627098
 20
44.53632245643903
 30
0.0
 10
195.8836296846781
 20
44.53590867744651
 30
0.0
 10
196.0495380637577
 20
44.53556144223383
 30
0.0
 10
196.2165141698823
 20
44.53528608178829
 30
0.0
 10
196.3835022721989
 20
44.53501070155981
 30
0.0
 10
196.5518737959271
 20
44.53480841462649
 30
0.0
 10
196.7206567485934
 20
44.53468258258308
 30
0.0
 10
196.8894465336692
 20
44.53455674544595
 30
0.0
 10
197.058983282897
 20
44.53450662350293
 30
0.0
 10
197.2282314480356
 20
44.53453181324922
 30
0.0
 10
197.3127908599253
 20
44.5345443984972
 30
0.0
 10
197.3973425290124
 20
44.53457579581129
 30
0.0
 10
197.4817575607197
 20
44.53462624892501
 30
0.0
 10
197.6507140503923
 20
44.53472723071481
 30
0.0
 10
197.8193725195258
 20
44.53490507380593
 30
0.0
 10
197.9867457475832
 20
44.53515649994097
 30
0.0
 10
198.1541094480228
 20
44.53540791176373
 30
0.0
 10
198.3205079425527
 20
44.53573253660615
 30
0.0
 10
198.4850685971007
 20
44.5361243468541
 30
0.0
 10
198.6496151752691
 20
44.53651612358694
 30
0.0
 10
198.8126156948229
 20
44.53697603269707
 30
0.0
 10
198.9733563808249
 20
44.53750126423277
 30
0.0
 10
199.1340808357045
 20
44.53802644273213
 30
0.0
 10
199.2928030225086
 20
44.53861950026273
 30
0.0
 10
199.4489700718143
 20
44.53926709720741
 30
0.0
 10
199.605121252775
 20
44.53991462834888
 30
0.0
 10
199.7589349317543
 20
44.54061720457254
 30
0.0
 10
199.9100202317882
 20
44.54136877161498
 30
0.0
 10
199.9855239645045
 20
44.54174436154383
 30
0.0
 10
200.0603837470277
 20
44.54213275870865
 30
0.0
 10
200.1345641764735
 20
44.54253356368095
 30
0.0
 10
200.2829797889942
 20
44.5433354694654
 30
0.0
 10
200.4287861196653
 20
44.54418778459033
 30
0.0
 10
200.5717849480276
 20
44.54508517310864
 30
0.0
 10
200.7147719136079
 20
44.54598248718212
 30
0.0
 10
200.8550844221757
 20
44.54692570721997
 30
0.0
 10
200.9926145159549
 20
44.54790750448755
 30
0.0
 10
201.1301349505484
 20
44.54888923280031
 30
0.0
 10
201.2649803808966
 20
44.54991052693773
 30
0.0
 10
201.3971080334921
 20
44.55096226233542
 30
0.0
 10
201.5292279763852
 20
44.55201393636392
 30
0.0
 10
201.6587137030728
 20
44.55309437859299
 30
0.0
 10
201.7855766332846
 20
44.5542011915602
 30
0.0
 10
201.9124332316725
 20
44.55530794928556
 30
0.0
 10
202.0367370090143
 20
44.55644248230482
 30
0.0
 10
202.1585321455988
 20
44.55760349675169
 30
0.0
 10
202.4022554734345
 20
44.55992679399156
 30
0.0
 10
202.6362302895849
 20
44.56236068383766
 30
0.0
 10
202.8610001449008
 20
44.56487884221025
 30
0.0
 10
202.9733124473686
 20
44.5661371077566
 30
0.0
 10
203.0833882339488
 20
44.56741746616639
 30
0.0
 10
203.1913021484903
 20
44.56871282238018
 30
0.0
 10
203.2992137130463
 20
44.57000815038569
 30
0.0
 10
203.4049928082676
 20
44.57131853271963
 30
0.0
 10
203.5087236805203
 20
44.57264402130482
 30
0.0
 10
203.7162461100108
 20
44.57529577391703
 30
0.0
 10
203.9157101286787
 20
44.57801013493528
 30
0.0
 10
204.1077623218518
 20
44.58077643658136
 30
0.0
 10
204.2037559243607
 20
44.58215911936276
 30
0.0
 10
204.2979242190565
 20
44.58355525780226
 30
0.0
 10
204.3903411253943
 20
44.58496143724292
 30
0.0
 10
204.5752111083973
 20
44.58777434647775
 30
0.0
 10
204.7531527001444
 20
44.59062456955623
 30
0.0
 10
204.9247380204917
 20
44.59351283972369
 30
0.0
 10
205.0105116105746
 20
44.59495665380344
 30
0.0
 10
205.0947133739531
 20
44.59641181289728
 30
0.0
 10
205.177406088334
 20
44.59787616630649
 30
0.0
 10
205.3428141741776
 20
44.60080527434494
 30
0.0
 10
205.5022360662483
 20
44.60377054011315
 30
0.0
 10
205.6561336616145
 20
44.60676321432134
 30
0.0
 10
205.7330706833479
 20
44.60825932243173
 30
0.0
 10
205.8086367587125
 20
44.60976304819454
 30
0.0
 10
205.8828841179694
 20
44.61127368370028
 30
0.0
 10
206.0313937554037
 20
44.61429525825184
 30
0.0
 10
206.174661929506
 20
44.61734438525671
 30
0.0
 10
206.3130594310168
 20
44.62040863311515
 30
0.0
 10
206.4514536080022
 20
44.62347280736553
 30
0.0
 10
206.585005872786
 20
44.62654581887196
 30
0.0
 10
206.7140523811959
 20
44.62963309982582
 30
0.0
 10
206.8430963934126
 20
44.6327203210613
 30
0.0
 10
206.9676729615036
 20
44.63583793665942
 30
0.0
 10
207.0880628785653
 20
44.63897881242889
 30
0.0
 10
207.2084510967188
 20
44.64211964387523
 30
0.0
 10
207.3246729091522
 20
44.64528357163623
 30
0.0
 10
207.4369666543901
 20
44.64845343217655
 30
0.0
 10
207.5492591423597
 20
44.65162325722633
 30
0.0
 10
207.6576405060348
 20
44.65479920884034
 30
0.0
 10
207.7623350378178
 20
44.65798908834171
 30
0.0
 10
207.8670286037739
 20
44.66117893841584
 30
0.0
 10
207.9680493953236
 20
44.66438414434435
 30
0.0
 10
208.0655856841182
 20
44.66759972967615
 30
0.0
 10
208.1631212729593
 20
44.67081529193182
 30
0.0
 10
208.2571834982988
 20
44.67404185329518
 30
0.0
 10
208.3479315870718
 20
44.67726266493408
 30
0.0
 10
208.4386791262598
 20
44.68048345706722
 30
0.0
 10
208.5261279052681
 20
44.68370910005692
 30
0.0
 10
208.6104314142128
 20
44.68694994552728
 30
0.0
 10
208.6947345026565
 20
44.69019077483249
 30
0.0
 10
208.7758985870997
 20
44.69344468401972
 30
0.0
 10
208.8540539942156
 20
44.69671270700092
 30
0.0
 10
208.9322090837753
 20
44.69998071670371
 30
0.0
 10
209.0073629419229
 20
44.70326538188417
 30
0.0
 10
209.0796263378845
 20
44.70655881593493
 30
0.0
 10
209.224168266871
 20
44.71314637391436
 30
0.0
 10
209.3571746721331
 20
44.71974031424618
 30
0.0
 10
209.479403749435
 20
44.72630803617864
 30
0.0
 10
209.5405113603507
 20
44.72959152489761
 30
0.0
 10
209.5989352008803
 20
44.73288511125901
 30
0.0
 10
209.6547550944036
 20
44.73619258709986
 30
0.0
 10
209.7664044021076
 20
44.74280810290562
 30
0.0
 10
209.8676586046751
 20
44.74946781972591
 30
0.0
 10
209.9590299288754
 20
44.75614939748026
 30
0.0
 10
210.0047114630409
 20
44.75948988449997
 30
0.0
 10
210.0479216220109
 20
44.76282575104169
 30
0.0
 10
210.088714066606
 20
44.76615544170985
 30
0.0
 10
210.1295064583779
 20
44.76948512806631
 30
0.0
 10
210.1678853132688
 20
44.77281656438166
 30
0.0
 10
210.2038978806258
 20
44.77615468478324
 30
0.0
 10
210.2399104106358
 20
44.77949280172297
 30
0.0
 10
210.2735581856072
 20
44.78283737546225
 30
0.0
 10
210.3048789607606
 20
44.78617986807286
 30
0.0
 10
210.36752483018
 20
44.7928653142214
 30
0.0
 10
210.4208775590683
 20
44.79955078345015
 30
0.0
 10
210.4651846877922
 20
44.80625485667731
 30
0.0
 10
210.5094916041234
 20
44.81295889776754
 30
0.0
 10
210.5447555034543
 20
44.81964373446161
 30
0.0
 10
210.5711393497042
 20
44.82636112396433
 30
0.0
 10
210.5975231211481
 20
44.83307849442129
 30
0.0
 10
210.6150241990848
 20
44.83972218712447
 30
0.0
 10
210.6237276121145
 20
44.84645981554792
 30
0.0
 10
210.6324310156623
 20
44.85319743663116
 30
0.0
 10
210.6323319983616
 20
44.85995500941293
 30
0.0
 10
210.623430593586
 20
44.86668732445187
 30
0.0
 10
210.6145291843549
 20
44.8734196428606
 30
0.0
 10
210.5968296168695
 20
44.88006558875448
 30
0.0
 10
210.5702459581041
 20
44.88678309593927
 30
0.0
 10
210.5436622389928
 20
44.89350061837304
 30
0.0
 10
210.5081973066146
 20
44.9001841889941
 30
0.0
 10
210.4636867352861
 20
44.90688918699651
 30
0.0
 10
210.4191759797451
 20
44.91359421274836
 30
0.0
 10
210.3656178157138
 20
44.92027749353672
 30
0.0
 10
210.3027626739986
 20
44.92696347433738
 30
0.0
 10
210.2399071319126
 20
44.93364949772598
 30
0.0
 10
210.1677447988772
 20
44.94032854713388
 30
0.0
 10
210.085934754463
 20
44.94698890436482
 30
0.0
 10
210.045032660297
 20
44.95031884460124
 30
0.0
 10
210.0017115541869
 20
44.95365533196417
 30
0.0
 10
209.955917773329
 20
44.95699618895633
 30
0.0
 10
209.9101239316464
 20
44.96033705038591
 30
0.0
 10
209.8618559866971
 20
44.96367842618176
 30
0.0
 10
209.8110582440552
 20
44.9670035518
 30
0.0
 10
209.7094534138332
 20
44.97365441473875
 30
0.0
 10
209.5977145481609
 20
44.98025685135346
 30
0.0
 10
209.4752418100486
 20
44.98683106352992
 30
0.0
 10
209.4140107124986
 20
44.99011788664907
 30
0.0
 10
209.350089057353
 20
44.99339727212222
 30
0.0
 10
209.2833765876274
 20
44.99669217392533
 30
0.0
 10
209.2166639347379
 20
44.99998708477483
 30
0.0
 10
209.1471594855864
 20
45.00328807089038
 30
0.0
 10
209.0747671071808
 20
45.00658076502636
 30
0.0
 10
209.0023745052645
 20
45.00987346932851
 30
0.0
 10
208.9270878610582
 20
45.0131595960617
 30
0.0
 10
208.848797917883
 20
45.0164273560205
 30
0.0
 10
208.6921961901509
 20
45.02296378758001
 30
0.0
 10
208.5235539822217
 20
45.02943095876252
 30
0.0
 10
208.3417335114461
 20
45.03587469466685
 30
0.0
 10
208.2508346579533
 20
45.03909615924349
 30
0.0
 10
208.1566183473475
 20
45.04232244663907
 30
0.0
 10
208.0589244285239
 20
45.0455376586308
 30
0.0
 10
207.9612298584078
 20
45.04875289205728
 30
0.0
 10
207.8600471617702
 20
45.05195661055379
 30
0.0
 10
207.7551858923809
 20
45.05514637382259
 30
0.0
 10
207.6503237298611
 20
45.05833616425941
 30
0.0
 10
207.5417701967152
 20
45.06151135866886
 30
0.0
 10
207.4292995667826
 20
45.06468090816239
 30
0.0
 10
207.3168277414895
 20
45.06785049134253
 30
0.0
 10
207.2004227454067
 20
45.07101324619126
 30
0.0
 10
207.0798448457483
 20
45.07415297137117
 30
0.0
 10
206.9592653779632
 20
45.07729273738349
 30
0.0
 10
206.8344924216345
 20
45.08040958935435
 30
0.0
 10
206.7052456899428
 20
45.08349461605936
 30
0.0
 10
206.6406265720112
 20
45.08503702801721
 30
0.0
 10
206.5748798990092
 20
45.08657661633384
 30
0.0
 10
206.507963018117
 20
45.08811644899646
 30
0.0
 10
206.3741166620796
 20
45.09119640412963
 30
0.0
 10
206.2355703541321
 20
45.09427414181037
 30
0.0
 10
206.0919845231394
 20
45.09732807379312
 30
0.0
 10
205.9483950882157
 20
45.10038208242801
 30
0.0
 10
205.7997260966633
 20
45.1034140878217
 30
0.0
 10
205.6455821253417
 20
45.10640778948995
 30
0.0
 10
205.5685180539076
 20
45.10790448661822
 30
0.0
 10
205.4900756565178
 20
45.10939158642221
 30
0.0
 10
205.4101986605306
 20
45.11086859885974
 30
0.0
 10
205.2504194000387
 20
45.11382309097716
 30
0.0
 10
205.0848569707912
 20
45.11673786517608
 30
0.0
 10
204.9130063115744
 20
45.11961438461976
 30
0.0
 10
204.8270929986316
 20
45.12105244320085
 30
0.0
 10
204.7395925267251
 20
45.12248125878831
 30
0.0
 10
204.6504329972893
 20
45.12390329463117
 30
0.0
 10
204.4720726726133
 20
45.12674802447933
 30
0.0
 10
204.2869997995405
 20
45.12956677574988
 30
0.0
 10
204.0946376226273
 20
45.13233051739632
 30
0.0
 10
203.998475909251
 20
45.13371210985027
 30
0.0
 10
203.9004675980553
 20
45.13508056238081
 30
0.0
 10
203.8005334567388
 20
45.13643424889491
 30
0.0
 10
203.7005978880752
 20
45.13778795474355
 30
0.0
 10
203.5987160799181
 20
45.13912724661021
 30
0.0
 10
203.4948055345986
 20
45.14045130310733
 30
0.0
 10
203.2868982856693
 20
45.14310051395402
 30
0.0
 10
203.0707014961842
 20
45.14569760001444
 30
0.0
 10
202.8455805392383
 20
45.14821166607098
 30
0.0
 10
202.7330595870191
 20
45.14946825768494
 30
0.0
 10
202.6182604852033
 20
45.15070310589007
 30
0.0
 10
202.5011101524963
 20
45.15191327488149
 30
0.0
 10
202.3839561852814
 20
45.15312348141754
 30
0.0
 10
202.2644063418983
 20
45.1543090837589
 30
0.0
 10
202.1423987663607
 20
45.15546756222378
 30
0.0
 10
202.0203865187602
 20
45.15662608505049
 30
0.0
 10
201.8958605536912
 20
45.15775807566519
 30
0.0
 10
201.7687775102796
 20
45.15886251025439
 30
0.0
 10
201.6416884754014
 20
45.15996699691334
 30
0.0
 10
201.5119711555018
 20
45.16104586898435
 30
0.0
 10
201.3796187058527
 20
45.16209408884339
 30
0.0
 10
201.2472588578934
 20
45.16314236729642
 30
0.0
 10
201.1121775039046
 20
45.16416015128732
 30
0.0
 10
200.9744191817362
 20
45.16513905385992
 30
0.0
 10
200.83665171061
 20
45.16611802144448
 30
0.0
 10
200.6961001066789
 20
45.16705791377204
 30
0.0
 10
200.5528761303598
 20
45.16795104769962
 30
0.0
 10
200.4096407922651
 20
45.16884425247837
 30
0.0
 10
200.2635982615099
 20
45.16969209221328
 30
0.0
 10
200.1149511949449
 20
45.17048949479744
 30
0.0
 10
199.9662904560324
 20
45.17128697072556
 30
0.0
 10
199.8148596865313
 20
45.17203481729943
 30
0.0
 10
199.6609813498561
 20
45.17273075304175
 30
0.0
 10
199.5070874197586
 20
45.17342675930746
 30
0.0
 10
199.3505447089466
 20
45.17407205686472
 30
0.0
 10
199.1918307031831
 20
45.17465656755394
 30
0.0
 10
198.8860215004167
 20
45.1757827992751
 30
0.0
 10
198.5706539684449
 20
45.17667331664197
 30
0.0
 10
198.2508451649886
 20
45.17730294737548
 30
0.0
 10
197.9804211808984
 20
45.17783535064149
 30
0.0
 10
197.7054594879669
 20
45.17817476017036
 30
0.0
 10
197.4301328605286
 20
45.17831893426247
 30
0.0
 10
197.336612768072
 20
45.17836790582235
 30
0.0
 10
197.2429430761869
 20
45.17850779259459
 30
0.0
 10
197.1493011978373
 20
45.17839230771826
 30
0.0
  0
LINE
  5
147
330
1F
100
AcDbEntity
  8
0
  6
Continuous
 62
     7
370
    15
100
AcDbLine
 10
197.1493011976
 20
45.1783923137
 30
0.0
 11
197.1493011992
 21
59.2009590757
 31
0.0
  0
ARC
  5
148
330
1F
100
AcDbEntity
  8
0
  6
Continuous
 62
     7
370
    15
100
AcDbCircle
 10
197.1431486501
 20
44.4524426951
 30
0.0
 40
14.7485176639895
100
AcDbArc
 50
83.8222665005
 51
89.9760982685
  0
LWPOLYLINE
  5
149
330
1F
100
AcDbEntity
  8
0
  6
Continuous
 62
     7
370
    15
100
AcDbPolyline
 90
       32
 70
   128
 43
0.0
 10
197.2221558331
 20
72.8894688611
 10
197.8378613848
 20
72.8733091388
 10
198.524608744
 20
72.8248450705
 10
199.2077521812
 20
72.74441499
 10
199.8855100014
 20
72.6322286658
 10
200.556114556
 20
72.4885786889
 10
201.2178168525
 20
72.3138397107
 10
201.8688911163
 20
72.1084674647
 10
202.5076392916
 20
71.8729975789
 10
203.1323954701
 20
71.6080441784
 10
203.7415302358
 20
71.3142982836
 10
204.3334549145
 20
70.9925260083
 10
204.9066257174
 20
70.6435665612
 10
205.4595477675
 20
70.2683300577
 10
205.9907789981
 20
69.8677951457
 10
206.498933914
 20
69.4430064535
 10
206.9826872049
 20
68.9950718655
 10
207.4407772021
 20
68.5251596321
 10
207.8720091687
 20
68.0344953237
 10
208.2752584159
 20
67.5243586335
 10
208.6494732362
 20
66.9960800403
 10
208.9936776462
 20
66.4510373387
 10
209.3069739322
 20
65.8906520454
 10
209.5885449914
 20
65.3163856918
 10
209.8376564632
 20
64.7297360122
 10
210.053658644
 20
64.1322330378
 10
210.2359881823
 20
63.5254351061
 10
210.3841695474
 20
62.9109247964
 10
210.4978162701
 20
62.2903048027
 10
210.5766319502
 20
61.6651937536
 10
210.6204110298
 20
61.0372219906
 10
210.6301808331
 20
60.5683292305
  0
LWPOLYLINE
  5
14A
330
1F
100
AcDbEntity
  8
0
  6
Continuous
 62
     7
370
    15
100
AcDbPolyline
 90
       32
 70
   128
 43
0.0
 10
183.6553808332
 20
60.5683292305
 10
183.6651506365
 20
61.0372219918
 10
183.7089297162
 20
61.6651937548
 10
183.7877453964
 20
62.2903048039
 10
183.9013921191
 20
62.9109247975
 10
184.0495734843
 20
63.5254351072
 10
184.2319030226
 20
64.132233039
 10
184.4479052035
 20
64.7297360133
 10
184.6970166753
 20
65.3163856929
 10
184.9785877346
 20
65.8906520465
 10
185.2918840207
 20
66.4510373398
 10
185.6360884308
 20
66.9960800413
 10
186.0103032511
 20
67.5243586344
 10
186.4135524984
 20
68.0344953246
 10
186.844784465
 20
68.525159633
 10
187.3028744622
 20
68.9950718663
 10
187.7866277532
 20
69.4430064543
 10
188.2947826691
 20
69.8677951464
 10
188.8260138998
 20
70.2683300584
 10
189.3789359499
 20
70.6435665619
 10
189.9521067529
 20
70.9925260089
 10
190.5440314316
 20
71.3142982842
 10
191.1531661973
 20
71.6080441789
 10
191.7779223759
 20
71.8729975794
 10
192.4166705512
 20
72.1084674651
 10
193.067744815
 20
72.313839711
 10
193.7294471115
 20
72.4885786892
 10
194.4000516661
 20
72.632228666
 10
195.0778094864
 20
72.7444149902
 10
195.7609529235
 20
72.8248450706
 10
196.4477002828
 20
72.8733091388
 10
197.0634058331
 20
72.8894688611
  0
SPLINE
  5
14B
330
1F
100
AcDbEntity
  8
0
  6
Continuous
 62
     7
370
    15
100
AcDbSpline
210
0.0
220
0.0
230
1.0
 70
     8
 71
     3
 72
    98
 73
    94
 74
     0
 42
0.000000001
 43
0.00000001
 40
0.0
 40
0.0
 40
0.0
 40
0.0
 40
0.0073028449966839
 40
0.0153773665670223
 40
0.0234518885713181
 40
0.031526411604646
 40
0.0476760786154557
 40
0.0557506060395292
 40
0.0638251356208976
 40
0.0799748719800332
 40
0.0961246628989595
 40
0.1122745281787847
 40
0.128424484748495
 40
0.1445745643420738
 40
0.152649157138766
 40
0.1687994934687385
 40
0.1768741258608039
 40
0.1930248575495379
 40
0.2010995536150635
 40
0.2091742782032976
 40
0.225325931562326
 40
0.2414783385131991
 40
0.2576319152902574
 40
0.2737872356408107
 40
0.2899454652965745
 40
0.2980215421044429
 40
0.3061125357978988
 40
0.3141896282345243
 40
0.3222912175645579
 40
0.3303702197774516
 40
0.3384507898552295
 40
0.3451542101660343
 40
0.351899962853513
 40
0.3586062330612333
 40
0.3641513610059217
 40
0.3697412974277977
 40
0.3754898419281413
 40
0.3813005079476454
 40
0.3854236965896057
 40
0.3936869033877504
 40
0.4021259444423569
 40
0.408205653270744
 40
0.4143323539539564
 40
0.4204098964434305
 40
0.4265179375363777
 40
0.4325939732624443
 40
0.4386895323899207
 40
0.450849272579691
 40
0.4630047318019943
 40
0.4751575080620326
 40
0.4873522659768559
 40
0.4995022160047698
 40
0.5116514085483799
 40
0.5238187303290633
 40
0.5298922665177648
 40
0.5420403877932661
 40
0.5541882700007527
 40
0.5663359638530153
 40
0.5724094057572982
 40
0.5845568994932315
 40
0.5967042891678724
 40
0.6088516000158114
 40
0.6209988480075737
 40
0.6331460425453982
 40
0.6574432370700256
 40
0.6695903246839685
 40
0.681737388310394
 40
0.6938844326905476
 40
0.7060314613131249
 40
0.7181784777532082
 40
0.7303254846082322
 40
0.7424724850097618
 40
0.748545854841739
 40
0.7606928495634193
 40
0.7728398436707916
 40
0.7849868390407928
 40
0.7971338388484865
 40
0.8092808445392212
 40
0.8214278595830399
 40
0.8335748861309071
 40
0.8578713459553617
 40
0.8700184303755488
 40
0.8821655421664318
 40
0.8943126866964258
 40
0.9064598749998285
 40
0.9186071152548603
 40
0.9307544156378313
 40
0.9429017926629562
 40
0.9550492694180353
 40
0.9671968675598311
 40
0.9793446224056789
 40
0.9914925821562292
 40
1.0
 40
1.0
 40
1.0
 40
1.0
 10
210.2738899324603
 20
44.85645842961458
 30
0.0
 10
210.274895613986
 20
44.8564712961975
 30
0.0
 10
210.2770132453309
 20
44.85649838894863
 30
0.0
 10
210.2644325695825
 20
44.85652561287491
 30
0.0
 10
210.2460627072206
 20
44.85643933847306
 30
0.0
 10
210.2101623320977
 20
44.85648523790297
 30
0.0
 10
210.1586488023059
 20
44.85645266114006
 30
0.0
 10
210.0909631549394
 20
44.85646335625083
 30
0.0
 10
210.0124687443285
 20
44.8564618002626
 30
0.0
 10
209.8938343098803
 20
44.85647025039813
 30
0.0
 10
209.7178289023882
 20
44.85644125830602
 30
0.0
 10
209.5070407024488
 20
44.85652015311454
 30
0.0
 10
209.2601500221222
 20
44.85653498456993
 30
0.0
 10
209.0229614277114
 20
44.85643764100126
 30
0.0
 10
208.760803261985
 20
44.85649613089894
 30
0.0
 10
208.5305405134901
 20
44.85653256381937
 30
0.0
 10
208.2153704188742
 20
44.85649827651147
 30
0.0
 10
207.9405152146871
 20
44.85644997676154
 30
0.0
 10
207.6410434362419
 20
44.85646689319663
 30
0.0
 10
207.324430290728
 20
44.85645260444785
 30
0.0
 10
206.894908739443
 20
44.85650009552207
 30
0.0
 10
206.3199475526745
 20
44.85641786452815
 30
0.0
 10
205.6778960871976
 20
44.85650001975881
 30
0.0
 10
204.9596691818927
 20
44.85650860756956
 30
0.0
 10
204.2877690179965
 20
44.8564427511431
 30
0.0
 10
203.6984218823013
 20
44.85646109188556
 30
0.0
 10
203.2282190154976
 20
44.85645100560255
 30
0.0
 10
202.7267410548898
 20
44.85647210386983
 30
0.0
 10
202.1919983986661
 20
44.85648148548778
 30
0.0
 10
201.6208392088519
 20
44.85644842974386
 30
0.0
 10
201.0456783601098
 20
44.85646546048744
 30
0.0
 10
200.4707375356576
 20
44.85648328473791
 30
0.0
 10
199.9036409640159
 20
44.85646525793396
 30
0.0
 10
199.3425593344394
 20
44.85645281848454
 30
0.0
 10
198.7951244764947
 20
44.85646518956989
 30
0.0
 10
198.2620637225567
 20
44.85645349564576
 30
0.0
 10
197.7091647407424
 20
44.85644889130054
 30
0.0
 10
197.1977473026282
 20
44.85645825506809
 30
0.0
 10
196.6046655168452
 20
44.85646048144608
 30
0.0
 10
195.9309627756701
 20
44.85645490635072
 30
0.0
 10
195.2182579939249
 20
44.85646423470946
 30
0.0
 10
194.599847832718
 20
44.85645690721518
 30
0.0
 10
194.0746556030356
 20
44.85647802572723
 30
0.0
 10
193.5723177077946
 20
44.8564791757966
 30
0.0
 10
193.0949579529297
 20
44.85645543138146
 30
0.0
 10
192.6402113249502
 20
44.85645389838471
 30
0.0
 10
192.0643888508953
 20
44.85648273797702
 30
0.0
 10
191.3965682501316
 20
44.85646000239304
 30
0.0
 10
190.6697796387824
 20
44.85645915006086
 30
0.0
 10
190.0070765159172
 20
44.85644537131672
 30
0.0
 10
189.4017192848692
 20
44.85647309223956
 30
0.0
 10
188.8470747814203
 20
44.85646150440182
 30
0.0
 10
188.3380776736471
 20
44.85643863555627
 30
0.0
 10
187.9479461486951
 20
44.85644526618039
 30
0.0
 10
187.5811255003162
 20
44.85649070806867
 30
0.0
 10
187.2366627269379
 20
44.85645956202097
 30
0.0
 10
186.856050262982
 20
44.85646076338691
 30
0.0
 10
186.5641549712059
 20
44.85646459813249
 30
0.0
 10
186.2899739651202
 20
44.85645330512172
 30
0.0
 10
186.0329752025474
 20
44.85650891115129
 30
0.0
 10
185.7503997815065
 20
44.85653372880111
 30
0.0
 10
185.4922830952914
 20
44.85648063035691
 30
0.0
 10
185.257507699427
 20
44.85645386886959
 30
0.0
 10
184.9742483759322
 20
44.8564583878152
 30
0.0
 10
184.7338477545209
 20
44.85647954519246
 30
0.0
 10
184.5335730960282
 20
44.856454334356
 30
0.0
 10
184.4029209370102
 20
44.85646827371482
 30
0.0
 10
184.291338258606
 20
44.85645764984104
 30
0.0
 10
184.19845516526
 20
44.85646432240557
 30
0.0
 10
184.1239564458619
 20
44.8564591906159
 30
0.0
 10
184.067602181814
 20
44.85647376536011
 30
0.0
 10
184.0356056278483
 20
44.85645826490763
 30
0.0
 10
184.0147619014719
 20
44.85651602656875
 30
0.0
 10
184.0050376432474
 20
44.85645879446122
 30
0.0
 10
184.0111369697979
 20
44.85640501729427
 30
0.0
 10
184.0350117204123
 20
44.85647314959495
 30
0.0
 10
184.0767485100235
 20
44.85643570488357
 30
0.0
 10
184.1364697881212
 20
44.85646759341643
 30
0.0
 10
184.214379938106
 20
44.85644467160058
 30
0.0
 10
184.3428474245248
 20
44.85646518970999
 30
0.0
 10
184.5088253827731
 20
44.856470995113
 30
0.0
 10
184.7140329684106
 20
44.85643644465797
 30
0.0
 10
184.8881393053972
 20
44.85637460128669
 30
0.0
 10
185.083054772953
 20
44.85641177878288
 30
0.0
 10
185.2995595681261
 20
44.85648200877809
 30
0.0
 10
185.5386190965311
 20
44.8564133996131
 30
0.0
 10
185.8012036206296
 20
44.85638735769662
 30
0.0
 10
186.088462793873
 20
44.85642377220718
 30
0.0
 10
186.4019387493403
 20
44.85647000377804
 30
0.0
 10
186.742858813865
 20
44.85644769114561
 30
0.0
 10
187.114768665943
 20
44.85646887780878
 30
0.0
 10
187.4737974836284
 20
44.85642526527761
 30
0.0
 10
187.7255036590422
 20
44.85645065950138
 30
0.0
 10
187.829174947467
 20
44.85646111872787
 30
0.0
  0
LINE
  5
14C
330
1F
100
AcDbEntity
  8
0
  6
Continuous
 62
     7
370
    15
100
AcDbLine
 10
197.1492643596
 20
45.1087801502
 30
0.0
 11
197.1493011976
 21
45.1783923137
 31
0.0
  0
LINE
  5
14D
330
1F
100
AcDbEntity
  8
0
  6
Continuous
 62
     7
370
    15
100
AcDbLine
 10
197.1362973066
 20
45.1087801519
 30
0.0
 11
197.1362604714
 21
45.1783923069
 31
0.0
  0
SPLINE
  5
14E
330
1F
100
AcDbEntity
  8
0
  6
Continuous
 62
     7
370
    15
100
AcDbSpline
210
0.0
220
0.0
230
1.0
 70
     8
 71
     3
 72
   404
 73
   400
 74
     0
 42
0.000000001
 43
0.00000001
 40
0.0
 40
0.0
 40
0.0
 40
0.0
 40
0.001953125
 40
0.001953125
 40
0.00244140625
 40
0.00244140625
 40
0.0029296875
 40
0.0029296875
 40
0.00390625
 40
0.00390625
 40
0.0078125
 40
0.0078125
 40
0.015625
 40
0.015625
 40
0.03125
 40
0.03125
 40
0.046875
 40
0.046875
 40
0.0625
 40
0.0625
 40
0.078125
 40
0.078125
 40
0.09375
 40
0.09375
 40
0.1015625
 40
0.1015625
 40
0.109375
 40
0.109375
 40
0.125
 40
0.125
 40
0.1328125
 40
0.1328125
 40
0.140625
 40
0.140625
 40
0.15625
 40
0.15625
 40
0.171875
 40
0.171875
 40
0.1796875
 40
0.1796875
 40
0.1875
 40
0.1875
 40
0.1953125
 40
0.1953125
 40
0.1992187500000001
 40
0.1992187500000001
 40
0.203125
 40
0.203125
 40
0.2109375
 40
0.2109375
 40
0.21484375
 40
0.21484375
 40
0.21875
 40
0.21875
 40
0.234375
 40
0.234375
 40
0.2421875
 40
0.2421875
 40
0.24609375
 40
0.24609375
 40
0.248046875
 40
0.248046875
 40
0.25
 40
0.25
 40
0.265625
 40
0.265625
 40
0.2695312499999999
 40
0.2695312499999999
 40
0.2714843750000001
 40
0.2714843750000001
 40
0.2734375
 40
0.2734375
 40
0.28125
 40
0.28125
 40
0.283203125
 40
0.283203125
 40
0.2841796875000001
 40
0.2841796875000001
 40
0.28515625
 40
0.28515625
 40
0.2890625000000001
 40
0.2890625000000001
 40
0.2929687500000001
 40
0.2929687500000001
 40
0.2939453125
 40
0.2939453125
 40
0.2949218750000001
 40
0.2949218750000001
 40
0.2968750000000001
 40
0.2968750000000001
 40
0.30078125
 40
0.30078125
 40
0.3012695312500001
 40
0.3012695312500001
 40
0.3015136718750001
 40
0.3015136718750001
 40
0.3017578125
 40
0.3017578125
 40
0.3027343750000001
 40
0.3027343750000001
 40
0.3046875000000001
 40
0.3046875000000001
 40
0.3056640625000001
 40
0.3056640625000001
 40
0.3061523437500001
 40
0.3061523437500001
 40
0.3062744140625001
 40
0.3062744140625001
 40
0.3063964843750001
 40
0.3063964843750001
 40
0.3066406250000001
 40
0.3066406250000001
 40
0.30859375
 40
0.30859375
 40
0.3105468750000001
 40
0.3105468750000001
 40
0.31103515625
 40
0.31103515625
 40
0.3115234375000001
 40
0.3115234375000001
 40
0.3125000000000001
 40
0.3125000000000001
 40
0.3164062500000001
 40
0.3164062500000001
 40
0.3183593750000001
 40
0.3183593750000001
 40
0.3188476562500001
 40
0.3188476562500001
 40
0.3193359375000001
 40
0.3193359375000001
 40
0.3203125000000001
 40
0.3203125000000001
 40
0.3281250000000001
 40
0.3281250000000001
 40
0.3291015625000001
 40
0.3291015625000001
 40
0.3300781250000001
 40
0.3300781250000001
 40
0.33203125
 40
0.33203125
 40
0.3359375000000001
 40
0.3359375000000001
 40
0.3398437500000001
 40
0.3398437500000001
 40
0.3417968750000001
 40
0.3417968750000001
 40
0.3437500000000001
 40
0.3437500000000001
 40
0.3593750000000001
 40
0.3593750000000001
 40
0.36328125
 40
0.36328125
 40
0.3652343750000001
 40
0.3652343750000001
 40
0.3671875000000001
 40
0.3671875000000001
 40
0.3750000000000001
 40
0.3750000000000001
 40
0.3906250000000001
 40
0.3906250000000001
 40
0.39453125
 40
0.39453125
 40
0.3984375000000001
 40
0.3984375000000001
 40
0.40625
 40
0.40625
 40
0.4140625000000001
 40
0.4140625000000001
 40
0.4218750000000001
 40
0.4218750000000001
 40
0.4296875000000001
 40
0.4296875000000001
 40
0.4375000000000001
 40
0.4375000000000001
 40
0.453125
 40
0.453125
 40
0.46875
 40
0.46875
 40
0.4765625000000001
 40
0.4765625000000001
 40
0.4843750000000001
 40
0.4843750000000001
 40
0.5
 40
0.5
 40
0.5078124999999999
 40
0.5078124999999999
 40
0.5156250000000001
 40
0.5156250000000001
 40
0.53125
 40
0.53125
 40
0.5390624999999999
 40
0.5390624999999999
 40
0.5468750000000001
 40
0.5468750000000001
 40
0.5625
 40
0.5625
 40
0.5781250000000001
 40
0.5781250000000001
 40
0.5937500000000001
 40
0.5937500000000001
 40
0.6093750000000001
 40
0.6093750000000001
 40
0.6250000000000001
 40
0.6250000000000001
 40
0.6406250000000002
 40
0.6406250000000002
 40
0.6562500000000001
 40
0.6562500000000001
 40
0.6875000000000001
 40
0.6875000000000001
 40
0.7031250000000001
 40
0.7031250000000001
 40
0.7187500000000001
 40
0.7187500000000001
 40
0.7343750000000001
 40
0.7343750000000001
 40
0.7421875
 40
0.7421875
 40
0.7500000000000001
 40
0.7500000000000001
 40
0.78125
 40
0.78125
 40
0.7890624999999999
 40
0.7890624999999999
 40
0.7968750000000001
 40
0.7968750000000001
 40
0.8046875
 40
0.8046875
 40
0.8125
 40
0.8125
 40
0.8203124999999999
 40
0.8203124999999999
 40
0.82421875
 40
0.82421875
 40
0.8281250000000001
 40
0.8281250000000001
 40
0.8437500000000001
 40
0.8437500000000001
 40
0.8515624999999999
 40
0.8515624999999999
 40
0.85546875
 40
0.85546875
 40
0.8574218750000001
 40
0.8574218750000001
 40
0.8593750000000001
 40
0.8593750000000001
 40
0.8750000000000001
 40
0.8750000000000001
 40
0.8828125
 40
0.8828125
 40
0.8906250000000002
 40
0.8906250000000002
 40
0.892578125
 40
0.892578125
 40
0.8935546875000001
 40
0.8935546875000001
 40
0.8945312500000001
 40
0.8945312500000001
 40
0.8984375
 40
0.8984375
 40
0.90234375
 40
0.90234375
 40
0.9033203125000001
 40
0.9033203125000001
 40
0.90380859375
 40
0.90380859375
 40
0.904296875
 40
0.904296875
 40
0.90625
 40
0.90625
 40
0.91015625
 40
0.91015625
 40
0.9111328125000001
 40
0.9111328125000001
 40
0.9116210937500001
 40
0.9116210937500001
 40
0.9118652343750001
 40
0.9118652343750001
 40
0.912109375
 40
0.912109375
 40
0.9140624999999999
 40
0.9140624999999999
 40
0.916015625
 40
0.916015625
 40
0.91650390625
 40
0.91650390625
 40
0.9166259765625002
 40
0.9166259765625002
 40
0.9167480468750001
 40
0.9167480468750001
 40
0.9169921875
 40
0.9169921875
 40
0.9174804687499999
 40
0.9174804687499999
 40
0.9177246093750001
 40
0.9177246093750001
 40
0.9178466796875001
 40
0.9178466796875001
 40
0.91790771484375
 40
0.91790771484375
 40
0.91796875
 40
0.91796875
 40
0.9189453125000002
 40
0.9189453125000002
 40
0.9191894531250001
 40
0.9191894531250001
 40
0.9194335937499999
 40
0.9194335937499999
 40
0.9199218750000001
 40
0.9199218750000001
 40
0.92041015625
 40
0.92041015625
 40
0.9206542968750001
 40
0.9206542968750001
 40
0.9208984375000002
 40
0.9208984375000002
 40
0.9218750000000001
 40
0.9218750000000001
 40
0.9228515625000001
 40
0.9228515625000001
 40
0.92333984375
 40
0.92333984375
 40
0.9235839843749999
 40
0.9235839843749999
 40
0.923828125
 40
0.923828125
 40
0.9257812500000001
 40
0.9257812500000001
 40
0.92626953125
 40
0.92626953125
 40
0.9267578125000002
 40
0.9267578125000002
 40
0.927734375
 40
0.927734375
 40
0.9296875
 40
0.9296875
 40
0.9316406250000001
 40
0.9316406250000001
 40
0.9326171875
 40
0.9326171875
 40
0.93310546875
 40
0.93310546875
 40
0.93359375
 40
0.93359375
 40
0.9375
 40
0.9375
 40
0.94140625
 40
0.94140625
 40
0.9423828125000001
 40
0.9423828125000001
 40
0.943359375
 40
0.943359375
 40
0.9453124999999999
 40
0.9453124999999999
 40
0.947265625
 40
0.947265625
 40
0.94921875
 40
0.94921875
 40
0.9511718750000001
 40
0.9511718750000001
 40
0.9531250000000001
 40
0.9531250000000001
 40
0.9570312500000001
 40
0.9570312500000001
 40
0.9609375
 40
0.9609375
 40
0.9628906250000001
 40
0.9628906250000001
 40
0.9648437500000001
 40
0.9648437500000001
 40
0.9687500000000001
 40
0.9687500000000001
 40
0.97265625
 40
0.97265625
 40
0.9765624999999998
 40
0.9765624999999998
 40
0.9785156249999999
 40
0.9785156249999999
 40
0.9804687499999999
 40
0.9804687499999999
 40
0.984375
 40
0.984375
 40
0.98828125
 40
0.98828125
 40
0.9921874999999999
 40
0.9921874999999999
 40
0.99609375
 40
0.99609375
 40
0.998046875
 40
0.998046875
 40
0.9990234375000001
 40
0.9990234375000001
 40
0.9992675781249999
 40
0.9992675781249999
 40
0.9993896484375
 40
0.9993896484375
 40
0.9995117187499999
 40
0.9995117187499999
 40
1.0
 40
1.0
 40
1.0
 40
1.0
 10
197.1492643596373
 20
45.10878015191328
 30
0.0
 10
197.1987287047373
 20
45.10884162511328
 30
0.0
 10
197.2426855598373
 20
45.10878877241328
 30
0.0
 10
197.2907460598373
 20
45.10876531341329
 30
0.0
 10
197.2999106211373
 20
45.10876378611329
 30
0.0
 10
197.3183434291373
 20
45.10875964481328
 30
0.0
 10
197.3275548364373
 20
45.10875731701329
 30
0.0
 10
197.3551740107373
 20
45.10874964581328
 30
0.0
 10
197.3735667300373
 20
45.10874361441328
 30
0.0
 10
197.4654292501373
 20
45.10870998281329
 30
0.0
 10
197.5386628785373
 20
45.10867322851328
 30
0.0
 10
197.7586139654373
 20
45.10852844551328
 30
0.0
 10
197.9051898481373
 20
45.10838723631328
 30
0.0
 10
198.3445237734373
 20
45.10782421591328
 30
0.0
 10
198.6368999165373
 20
45.10727288541328
 30
0.0
 10
199.2202430299373
 20
45.10580011561328
 30
0.0
 10
199.5109701221373
 20
45.10487239381329
 30
0.0
 10
200.0903643452373
 20
45.10268336251328
 30
0.0
 10
200.3789801568373
 20
45.10140847471329
 30
0.0
 10
200.9527011312373
 20
45.09846438721328
 30
0.0
 10
201.2377209157373
 20
45.09679388871328
 30
0.0
 10
201.8032438672373
 20
45.09311631421328
 30
0.0
 10
202.0841552258373
 20
45.09111022501328
 30
0.0
 10
202.5016327792373
 20
45.08779724011329
 30
0.0
 10
202.6401433565373
 20
45.08664304191328
 30
0.0
 10
202.9156775735373
 20
45.08423562021328
 30
0.0
 10
203.0526658965373
 20
45.08298155571328
 30
0.0
 10
203.4613681943373
 20
45.07908802131328
 30
0.0
 10
203.7309894647373
 20
45.07631300771328
 30
0.0
 10
204.1298879523373
 20
45.07184731551329
 30
0.0
 10
204.2619313985373
 20
45.07030917151329
 30
0.0
 10
204.5239569929373
 20
45.06713980661328
 30
0.0
 10
204.6539873641373
 20
45.06551239461327
 30
0.0
 10
205.0414093863373
 20
45.06049157671328
 30
0.0
 10
205.2958899545373
 20
45.05694471511328
 30
0.0
 10
205.7951975925373
 20
45.04938206231328
 30
0.0
 10
206.0400242065373
 20
45.04536573581329
 30
0.0
 10
206.3984192623373
 20
45.03906637541328
 30
0.0
 10
206.5163910532373
 20
45.03692560561328
 30
0.0
 10
206.7491878085373
 20
45.03257138131329
 30
0.0
 10
206.8641596364373
 20
45.03032998321329
 30
0.0
 10
207.0909286755373
 20
45.02572486881328
 30
0.0
 10
207.2027258654373
 20
45.02336112611329
 30
0.0
 10
207.3677940599373
 20
45.01973971611328
 30
0.0
 10
207.4223587856373
 20
45.01852101331328
 30
0.0
 10
207.5306680493373
 20
45.01605815721328
 30
0.0
 10
207.5844345603373
 20
45.01481259141328
 30
0.0
 10
207.7444913912373
 20
45.01103027551328
 30
0.0
 10
207.8495394016373
 20
45.00844723201327
 30
0.0
 10
208.0043059542373
 20
45.00447937201328
 30
0.0
 10
208.0554271283373
 20
45.00314136931328
 30
0.0
 10
208.1566795258373
 20
45.00043648381329
 30
0.0
 10
208.2068230965373
 20
44.99907057941329
 30
0.0
 10
208.4555848688373
 20
44.99216994271328
 30
0.0
 10
208.6478015547373
 20
44.98638721801328
 30
0.0
 10
208.9222476410373
 20
44.97718641021329
 30
0.0
 10
209.0114135349373
 20
44.97403581871328
 30
0.0
 10
209.1412017876373
 20
44.96920810151329
 30
0.0
 10
209.1838042747373
 20
44.96758218781328
 30
0.0
 10
209.2466553848373
 20
44.96512403521329
 30
0.0
 10
209.2674332328373
 20
44.96430162551329
 30
0.0
 10
209.3087629511373
 20
44.96264624301327
 30
0.0
 10
209.3292971577373
 20
44.96181359541328
 30
0.0
 10
209.5128485031373
 20
44.95426777901329
 30
0.0
 10
209.6671120270373
 20
44.94713956061329
 30
0.0
 10
209.8427252176373
 20
44.93759927631329
 30
0.0
 10
209.8769845922373
 20
44.93566289841328
 30
0.0
 10
209.9269572533373
 20
44.93272398021328
 30
0.0
 10
209.9433787120373
 20
44.93173866121328
 30
0.0
 10
209.9757288577373
 20
44.92975858031328
 30
0.0
 10
209.9916408830373
 20
44.92876556471329
 30
0.0
 10
210.0702915064373
 20
44.92374602331328
 30
0.0
 10
210.1300698251373
 20
44.91956329191328
 30
0.0
 10
210.1993336032373
 20
44.91411408821328
 30
0.0
 10
210.2129129518373
 20
44.91301366851329
 30
0.0
 10
210.2328418151373
 20
44.91134838961329
 30
0.0
 10
210.2394062790373
 20
44.91079132321328
 30
0.0
 10
210.2524326733373
 20
44.90966840011328
 30
0.0
 10
210.2588895086373
 20
44.90910287091328
 30
0.0
 10
210.2908694519373
 20
44.90625390061329
 30
0.0
 10
210.3154812117373
 20
44.90390552221328
 30
0.0
 10
210.3621645539373
 20
44.89905997031328
 30
0.0
 10
210.3842361069373
 20
44.89656265181328
 30
0.0
 10
210.4098441873373
 20
44.89335827191328
 30
0.0
 10
210.4148536049373
 20
44.89271504841329
 30
0.0
 10
210.4247606714373
 20
44.89140866141329
 30
0.0
 10
210.4296510068373
 20
44.89074610911328
 30
0.0
 10
210.4440950768373
 20
44.88872878181328
 30
0.0
 10
210.4534222501373
 20
44.88734417871328
 30
0.0
 10
210.4801848819373
 20
44.88306370901328
 30
0.0
 10
210.4964073667373
 20
44.88003791301328
 30
0.0
 10
210.5118186737373
 20
44.87645618661328
 30
0.0
 10
210.5134914895373
 20
44.87605581591328
 30
0.0
 10
210.5159385816373
 20
44.87545178981329
 30
0.0
 10
210.5167439233373
 20
44.87524986961328
 30
0.0
 10
210.5183334237373
 20
44.87484489771327
 30
0.0
 10
210.5191111018373
 20
44.87464344111328
 30
0.0
 10
210.5230497753373
 20
44.87360786211328
 30
0.0
 10
210.5263404519373
 20
44.87269299361328
 30
0.0
 10
210.5361383241373
 20
44.86966765981327
 30
0.0
 10
210.5426048756373
 20
44.86727190331329
 30
0.0
 10
210.5496301009373
 20
44.86307427371328
 30
0.0
 10
210.5515176911373
 20
44.86157532011328
 30
0.0
 10
210.5532705313373
 20
44.85918600151328
 30
0.0
 10
210.5536745324373
 20
44.85836619901328
 30
0.0
 10
210.5539089015373
 20
44.85731418681328
 30
0.0
 10
210.5539422336373
 20
44.85710242441328
 30
0.0
 10
210.5539806419373
 20
44.85667624131328
 30
0.0
 10
210.5539856416373
 20
44.85646096551328
 30
0.0
 10
210.5539570325373
 20
44.85581836731328
 30
0.0
 10
210.5538805254373
 20
44.85539521771329
 30
0.0
 10
210.5527170865373
 20
44.85163629761328
 30
0.0
 10
210.5483494634373
 20
44.84865723741328
 30
0.0
 10
210.5371354030373
 20
44.84351048921329
 30
0.0
 10
210.5302891413373
 20
44.84133784731328
 30
0.0
 10
210.5221348149373
 20
44.83907243121328
 30
0.0
 10
210.5205215229373
 20
44.83864165201328
 30
0.0
 10
210.5173684957373
 20
44.83782281361329
 30
0.0
 10
210.5157549505373
 20
44.83741717111329
 30
0.0
 10
210.5107801890373
 20
44.83620502771328
 30
0.0
 10
210.5072975262373
 20
44.83540633831328
 30
0.0
 10
210.4891286408373
 20
44.83146309391328
 30
0.0
 10
210.4721832484373
 20
44.82847309611328
 30
0.0
 10
210.4445035975373
 20
44.82424535611328
 30
0.0
 10
210.4348986108373
 20
44.82287818901327
 30
0.0
 10
210.4225489582373
 20
44.82121772421328
 30
0.0
 10
210.4200618268373
 20
44.82088804441328
 30
0.0
 10
210.4150562836373
 20
44.82023336401328
 30
0.0
 10
210.4125413877373
 20
44.81990875511328
 30
0.0
 10
210.4049152090373
 20
44.81893726911328
 30
0.0
 10
210.3997288432373
 20
44.81829361731328
 30
0.0
 10
210.3521774581373
 20
44.81253900781329
 30
0.0
 10
210.3037166503373
 20
44.80771410251328
 30
0.0
 10
210.2450085684373
 20
44.80260642211329
 30
0.0
 10
210.2384327453373
 20
44.80204352121328
 30
0.0
 10
210.2251446475373
 20
44.80092348811328
 30
0.0
 10
210.2184254977373
 20
44.80036588811328
 30
0.0
 10
210.1980504381373
 20
44.79870071391328
 30
0.0
 10
210.1841769401373
 20
44.79760079141327
 30
0.0
 10
210.1417468117373
 20
44.79433366491328
 30
0.0
 10
210.1123809144373
 20
44.79219948271329
 30
0.0
 10
210.0518060785373
 20
44.78802034711328
 30
0.0
 10
210.0205971502373
 20
44.78597535171329
 30
0.0
 10
209.9726290092373
 20
44.78296703421328
 30
0.0
 10
209.9564053610373
 20
44.78197024441328
 30
0.0
 10
209.9234467944373
 20
44.77998523281328
 30
0.0
 10
209.9067219768373
 20
44.77899789641328
 30
0.0
 10
209.7540827592373
 20
44.77016651171328
 30
0.0
 10
209.6033982187373
 20
44.76276306751328
 30
0.0
 10
209.4026250069373
 20
44.75412760631328
 30
0.0
 10
209.3618469965373
 20
44.75242814021328
 30
0.0
 10
209.2998561251373
 20
44.74991211431328
 30
0.0
 10
209.2790551589373
 20
44.74907893221328
 30
0.0
 10
209.2371966743373
 20
44.74742176341328
 30
0.0
 10
209.2161262708373
 20
44.74659722611328
 30
0.0
 10
209.1098194025373
 20
44.74248968621328
 30
0.0
 10
209.0219703873373
 20
44.73926102471327
 30
0.0
 10
208.7510162183373
 20
44.72981808221328
 30
0.0
 10
208.5605158910373
 20
44.72386437901328
 30
0.0
 10
208.3132379640373
 20
44.71680089241328
 30
0.0
 10
208.2633238268373
 20
44.71540574851328
 30
0.0
 10
208.1626540969373
 20
44.71264405031329
 30
0.0
 10
208.1119176622373
 20
44.71127641101329
 30
0.0
 10
207.9581345670373
 20
44.70721804901328
 30
0.0
 10
207.8536379272373
 20
44.70457300521328
 30
0.0
 10
207.6411356552373
 20
44.69941059581328
 30
0.0
 10
207.5331596240373
 20
44.69689434101328
 30
0.0
 10
207.3140021278373
 20
44.69196938771329
 30
0.0
 10
207.2025872623373
 20
44.68955219911329
 30
0.0
 10
206.9764221724373
 20
44.68483624161328
 30
0.0
 10
206.8616719709373
 20
44.68253744601328
 30
0.0
 10
206.6291659651373
 20
44.67807037301328
 30
0.0
 10
206.5114263528373
 20
44.67590243401329
 30
0.0
 10
206.1535513509373
 20
44.66949866511328
 30
0.0
 10
205.9089547645373
 20
44.66541252511329
 30
0.0
 10
205.4099801267373
 20
44.65768341881328
 30
0.0
 10
205.1556831532373
 20
44.65402662241328
 30
0.0
 10
204.7679572521373
 20
44.64886774511328
 30
0.0
 10
204.6376832588373
 20
44.64720153661329
 30
0.0
 10
204.3753195886373
 20
44.64396141881328
 30
0.0
 10
204.2431037782373
 20
44.64238666901328
 30
0.0
 10
203.8435011002373
 20
44.63781110151329
 30
0.0
 10
203.5732398290373
 20
44.63496306181327
 30
0.0
 10
203.1633494092373
 20
44.63097406731328
 30
0.0
 10
203.0259988479373
 20
44.62968803941328
 30
0.0
 10
202.7496706101373
 20
44.62721408971328
 30
0.0
 10
202.6107276055373
 20
44.62602644971328
 30
0.0
 10
202.1918523753373
 20
44.62261552611328
 30
0.0
 10
201.9098753703373
 20
44.62054742481328
 30
0.0
 10
201.4839574398373
 20
44.61771104401328
 30
0.0
 10
201.3415162093373
 20
44.61680665261328
 30
0.0
 10
201.0554369372373
 20
44.61508933611329
 30
0.0
 10
200.9118447387373
 20
44.61427689301328
 30
0.0
 10
200.4796713681373
 20
44.61198636181328
 30
0.0
 10
200.1896942206373
 20
44.61065778261328
 30
0.0
 10
199.6073913115373
 20
44.60837478321329
 30
0.0
 10
199.3151755749373
 20
44.60740484781329
 30
0.0
 10
198.7287444512373
 20
44.60584252241328
 30
0.0
 10
198.4347143873373
 20
44.60525196321328
 30
0.0
 10
197.8456773192373
 20
44.60442284711328
 30
0.0
 10
197.5505612820373
 20
44.60419211131329
 30
0.0
 10
196.9604223986373
 20
44.60410059131328
 30
0.0
 10
196.6652566171373
 20
44.60423467261328
 30
0.0
 10
196.0756672035373
 20
44.60487735981329
 30
0.0
 10
195.7813647881373
 20
44.60537893401328
 30
0.0
 10
195.1940327417373
 20
44.60674889701328
 30
0.0
 10
194.9012279958373
 20
44.60762938811329
 30
0.0
 10
194.0259846153373
 20
44.61078179921328
 30
0.0
 10
193.4464751746373
 20
44.61363521161328
 30
0.0
 10
192.5914754225373
 20
44.61905368221328
 30
0.0
 10
192.3083525281373
 20
44.62102378361328
 30
0.0
 10
191.7470714679373
 20
44.62536843601329
 30
0.0
 10
191.4689617781373
 20
44.62774444021328
 30
0.0
 10
190.9193541696373
 20
44.63288368251329
 30
0.0
 10
190.6473690442373
 20
44.63562958361329
 30
0.0
 10
190.2448246278373
 20
44.64005490751328
 30
0.0
 10
190.1115533223373
 20
44.64158027751328
 30
0.0
 10
189.8470499677373
 20
44.64472703291329
 30
0.0
 10
189.7158525160373
 20
44.64634669711329
 30
0.0
 10
189.0642432717373
 20
44.65466339111328
 30
0.0
 10
188.5578929541373
 20
44.66218187531328
 30
0.0
 10
187.9542386217373
 20
44.67265467581328
 30
0.0
 10
187.8349753699373
 20
44.67479603141329
 30
0.0
 10
187.5996621607373
 20
44.67914334801328
 30
0.0
 10
187.4835084983373
 20
44.68136740951328
 30
0.0
 10
187.2542930461373
 20
44.68595577011328
 30
0.0
 10
187.1412682247373
 20
44.68831321171328
 30
0.0
 10
186.9187160869373
 20
44.69313440591328
 30
0.0
 10
186.8092731502373
 20
44.69559115121329
 30
0.0
 10
186.5935532053373
 20
44.70062239701328
 30
0.0
 10
186.4873337040373
 20
44.70319909301328
 30
0.0
 10
186.3307895507373
 20
44.70715938761328
 30
0.0
 10
186.2790724522373
 20
44.70849519271328
 30
0.0
 10
186.1766220878373
 20
44.71119674091328
 30
0.0
 10
186.1259207515373
 20
44.71256244701328
 30
0.0
 10
185.8744284669373
 20
44.71945657571329
 30
0.0
 10
185.6799231774373
 20
44.72521962951328
 30
0.0
 10
185.4019271556373
 20
44.73440085931328
 30
0.0
 10
185.3115585339373
 20
44.73754654641328
 30
0.0
 10
185.1799427767373
 20
44.74237291631329
 30
0.0
 10
185.1367272248373
 20
44.74399937931329
 30
0.0
 10
185.0729514370373
 20
44.74646027081327
 30
0.0
 10
185.0518807493373
 20
44.74728371261328
 30
0.0
 10
185.0100368808373
 20
44.74893820471328
 30
0.0
 10
184.9892424067373
 20
44.74976997901328
 30
0.0
 10
184.8033205861373
 20
44.75730481831329
 30
0.0
 10
184.6467492113373
 20
44.76440130581328
 30
0.0
 10
184.4323190253373
 20
44.77583024591328
 30
0.0
 10
184.3642665131373
 20
44.77975986781328
 30
0.0
 10
184.2362652883373
 20
44.78776363351329
 30
0.0
 10
184.1753086948373
 20
44.79192758391327
 30
0.0
 10
184.1044597396373
 20
44.79735988811328
 30
0.0
 10
184.0905577507373
 20
44.79845725791328
 30
0.0
 10
184.0701367493373
 20
44.80011870081328
 30
0.0
 10
184.0634017514373
 20
44.80067507341328
 30
0.0
 10
184.0500808739373
 20
44.80179269401329
 30
0.0
 10
184.0434953345373
 20
44.80235383711328
 30
0.0
 10
184.0108212010373
 20
44.80518277651328
 30
0.0
 10
183.9856042353373
 20
44.80751315511328
 30
0.0
 10
183.9376122156373
 20
44.81232400651328
 30
0.0
 10
183.9148371893373
 20
44.81480462641328
 30
0.0
 10
183.8882897579373
 20
44.81799245241329
 30
0.0
 10
183.8830764233373
 20
44.81863429881328
 30
0.0
 10
183.8754083081373
 20
44.81960313831328
 30
0.0
 10
183.8728810618373
 20
44.81992667451328
 30
0.0
 10
183.8678600542373
 20
44.82057792401328
 30
0.0
 10
183.8653646700373
 20
44.82090586061328
 30
0.0
 10
183.8529710981373
 20
44.82255748281328
 30
0.0
 10
183.8433224806373
 20
44.82391716801327
 30
0.0
 10
183.8154844552373
 20
44.82812180071328
 30
0.0
 10
183.7983968440373
 20
44.83109546421328
 30
0.0
 10
183.7799976145373
 20
44.83501966431329
 30
0.0
 10
183.7764662538373
 20
44.83581461711329
 30
0.0
 10
183.7714143736373
 20
44.83702132311328
 30
0.0
 10
183.7697712794373
 20
44.83742593441328
 30
0.0
 10
183.7673707933373
 20
44.83803627061329
 30
0.0
 10
183.7665867910373
 20
44.83823892971328
 30
0.0
 10
183.7650033646373
 20
44.83865453221328
 30
0.0
 10
183.7642059159373
 20
44.83886708011328
 30
0.0
 10
183.7569959346373
 20
44.84082362801328
 30
0.0
 10
183.7503191522373
 20
44.84287565121328
 30
0.0
 10
183.7390160645373
 20
44.84767735871328
 30
0.0
 10
183.7343898698373
 20
44.85043060461329
 30
0.0
 10
183.7320173841373
 20
44.85427910311329
 30
0.0
 10
183.7317153934373
 20
44.85506868781328
 30
0.0
 10
183.7315917662373
 20
44.85607868241328
 30
0.0
 10
183.7315797354373
 20
44.85628844171328
 30
0.0
 10
183.7315820868373
 20
44.85668022951329
 30
0.0
 10
183.7315965781373
 20
44.85688919501328
 30
0.0
 10
183.7316945121373
 20
44.85755518231328
 30
0.0
 10
183.7318318903373
 20
44.85805133011328
 30
0.0
 10
183.7325952859373
 20
44.85969421991327
 30
0.0
 10
183.7335641895373
 20
44.86099638771329
 30
0.0
 10
183.7363984153373
 20
44.86323859561328
 30
0.0
 10
183.7375753978373
 20
44.86403394231328
 30
0.0
 10
183.7397944093373
 20
44.86529361121328
 30
0.0
 10
183.7406097998373
 20
44.86572458741329
 30
0.0
 10
183.7419607841373
 20
44.86638680561329
 30
0.0
 10
183.7424324367373
 20
44.86661016901328
 30
0.0
 10
183.7434208746373
 20
44.86706197711328
 30
0.0
 10
183.7439304516373
 20
44.86728743821328
 30
0.0
 10
183.7527938641373
 20
44.87109155661328
 30
0.0
 10
183.7643685251373
 20
44.87433042121328
 30
0.0
 10
183.7802811283373
 20
44.87795499571328
 30
0.0
 10
183.7835902508373
 20
44.87867123301329
 30
0.0
 10
183.7904583795373
 20
44.88008952951328
 30
0.0
 10
183.7940144543373
 20
44.88079092191328
 30
0.0
 10
183.8050176733373
 20
44.88287093501328
 30
0.0
 10
183.8127995808373
 20
44.88422526861329
 30
0.0
 10
183.8290962479373
 20
44.88686761081328
 30
0.0
 10
183.8376110053373
 20
44.88815563701328
 30
0.0
 10
183.8508183453373
 20
44.89003952641328
 30
0.0
 10
183.8552933842373
 20
44.89065949211328
 30
0.0
 10
183.8643702752373
 20
44.89188399861328
 30
0.0
 10
183.8689662283373
 20
44.89248782231329
 30
0.0
 10
183.8922829084373
 20
44.89547813791329
 30
0.0
 10
183.9123343264373
 20
44.89781541201328
 30
0.0
 10
183.9547267806373
 20
44.90236291041328
 30
0.0
 10
183.9770677947373
 20
44.90457323511328
 30
0.0
 10
184.0119354290373
 20
44.90779627351328
 30
0.0
 10
184.0237841909373
 20
44.90885536361328
 30
0.0
 10
184.0418533253373
 20
44.91042272781328
 30
0.0
 10
184.0479201402373
 20
44.91094123141329
 30
0.0
 10
184.0601743665373
 20
44.91197369531329
 30
0.0
 10
184.0663652595373
 20
44.91248786821329
 30
0.0
 10
184.1226392149373
 20
44.91709600601328
 30
0.0
 10
184.1766081829373
 20
44.92104804781328
 30
0.0
 10
184.2477637208373
 20
44.92579781061328
 30
0.0
 10
184.2621798766373
 20
44.92673859511329
 30
0.0
 10
184.2913526190373
 20
44.92860290321328
 30
0.0
 10
184.3060926443373
 20
44.92952526571328
 30
0.0
 10
184.3509817220373
 20
44.93228392361328
 30
0.0
 10
184.3817601743373
 20
44.93410705991328
 30
0.0
 10
184.4764561647373
 20
44.93951133681328
 30
0.0
 10
184.5427329440373
 20
44.94302530101328
 30
0.0
 10
184.6805625116373
 20
44.94983526231329
 30
0.0
 10
184.7521151994373
 20
44.95313151271328
 30
0.0
 10
184.8626732008373
 20
44.95792943061328
 30
0.0
 10
184.9000643963373
 20
44.95950479051328
 30
0.0
 10
184.9568713701373
 20
44.96183792801327
 30
0.0
 10
184.9759270820373
 20
44.96261068281328
 30
0.0
 10
185.0142642996373
 20
44.96414758351329
 30
0.0
 10
185.0335327083373
 20
44.96491144941329
 30
0.0
 10
185.2081907029373
 20
44.97176052771328
 30
0.0
 10
185.3731358166373
 20
44.97765741211329
 30
0.0
 10
185.7182554716373
 20
44.98884072701328
 30
0.0
 10
185.8984288179373
 20
44.99412943651328
 30
0.0
 10
186.1307296961373
 20
45.00048426411328
 30
0.0
 10
186.1775364514373
 20
45.00174414361329
 30
0.0
 10
186.2720462552373
 20
45.00423835271329
 30
0.0
 10
186.3197206865373
 20
45.00547274611328
 30
0.0
 10
186.4639373945373
 20
45.00913593701328
 30
0.0
 10
186.5616727890373
 20
45.01152425431328
 30
0.0
 10
186.7599847223373
 20
45.01619550131328
 30
0.0
 10
186.8604801112373
 20
45.01847750571328
 30
0.0
 10
187.0645367923373
 20
45.02296394841328
 30
0.0
 10
187.1680754425373
 20
45.02516395961329
 30
0.0
 10
187.3779094662373
 20
45.02946028571328
 30
0.0
 10
187.4842048249373
 20
45.03155661891328
 30
0.0
 10
187.6992937505373
 20
45.03563960841328
 30
0.0
 10
187.8081111279373
 20
45.03763255521329
 30
0.0
 10
188.1384870982373
 20
45.04351900601328
 30
0.0
 10
188.3638029344373
 20
45.04728434791328
 30
0.0
 10
188.8228045722373
 20
45.05443941781328
 30
0.0
 10
189.0564042970373
 20
45.05784042271328
 30
0.0
 10
189.4122588210373
 20
45.06266634351329
 30
0.0
 10
189.5317804410373
 20
45.06422896521327
 30
0.0
 10
189.7724350960373
 20
45.06727119451329
 30
0.0
 10
189.8935469748373
 20
45.06875263321328
 30
0.0
 10
190.2595838565373
 20
45.07307735841327
 30
0.0
 10
190.5070344934373
 20
45.07579336521329
 30
0.0
 10
191.0074298123373
 20
45.08088895641328
 30
0.0
 10
191.2602391030373
 20
45.08328140891328
 30
0.0
 10
191.7711078984373
 20
45.08773699721328
 30
0.0
 10
192.0290918710373
 20
45.08979251791328
 30
0.0
 10
192.4189915200373
 20
45.09262715861328
 30
0.0
 10
192.5494455856373
 20
45.09353119471328
 30
0.0
 10
192.8111816577373
 20
45.09526617391328
 30
0.0
 10
192.9424491034373
 20
45.09609897631329
 30
0.0
 10
193.3377864368373
 20
45.09848040891328
 30
0.0
 10
193.6032284002373
 20
45.09990935991329
 30
0.0
 10
194.1367940724373
 20
45.10243005591329
 30
0.0
 10
194.4049176402373
 20
45.10352187781329
 30
0.0
 10
194.9427781095373
 20
45.10541162521328
 30
0.0
 10
195.2126218118373
 20
45.10621043421328
 30
0.0
 10
195.7537650384373
 20
45.10747644271328
 30
0.0
 10
196.0248681750373
 20
45.10795293741328
 30
0.0
 10
196.4322495435373
 20
45.10843893331328
 30
0.0
 10
196.5681435730373
 20
45.10856054711328
 30
0.0
 10
196.7721078344373
 20
45.10868640851328
 30
0.0
 10
196.8399786445373
 20
45.10871843371329
 30
0.0
 10
196.9253435182373
 20
45.10874820991328
 30
0.0
 10
196.9424429300373
 20
45.10875349521327
 30
0.0
 10
196.9681315228373
 20
45.10876000871328
 30
0.0
 10
196.9767009661373
 20
45.10876194411328
 30
0.0
 10
196.9938529805373
 20
45.10876527511328
 30
0.0
 10
197.0026074488373
 20
45.10876856061329
 30
0.0
 10
197.0482478549373
 20
45.10879477491328
 30
0.0
 10
197.0897687290373
 20
45.10883937971328
 30
0.0
 10
197.1362973066373
 20
45.10878015191328
 30
0.0
  0
LINE
  5
14F
330
1F
100
AcDbEntity
  8
0
  6
Continuous
 62
     7
370
    15
100
AcDbLine
 10
197.1363341449
 20
59.2009591058
 30
0.0
 11
197.1363341449
 21
45.0391679951
 31
0.0
  0
LINE
  5
150
330
1F
100
AcDbEntity
  8
0
  6
Continuous
 62
     7
370
    15
100
AcDbLine
 10
197.1363341449
 20
45.0391679962
 30
0.0
 11
197.1362973066
 21
45.1087801519
 31
0.0
  0
LINE
  5
151
330
1F
100
AcDbEntity
  8
0
  6
Continuous
 62
     7
370
    15
100
AcDbLine
 10
197.1492275214
 20
59.2009591058
 30
0.0
 11
197.1492275213
 21
45.0391680069
 31
0.0
  0
LINE
  5
152
330
1F
100
AcDbEntity
  8
0
  6
Continuous
 62
     7
370
    15
100
AcDbLine
 10
197.1492643596
 20
45.1087801502
 30
0.0
 11
197.1492275213
 21
45.0391679962
 31
0.0
  0
SPLINE
  5
153
330
1F
100
AcDbEntity
  8
0
  6
Continuous
 62
     7
370
    15
100
AcDbSpline
210
0.0
220
0.0
230
1.0
 70
     8
 71
     3
 72
     8
 73
     4
 74
     0
 42
0.000000001
 43
0.00000001
 40
0.6112499850000049
 40
0.6112499850000049
 40
0.6112499850000049
 40
0.6112499850000049
 40
0.6114788560000002
 40
0.6114788560000002
 40
0.6114788560000002
 40
0.6114788560000002
 10
197.1363341257245
 20
44.6737498223689
 30
0.0
 10
197.1406319244092
 20
44.6737497921297
 30
0.0
 10
197.1449297159675
 20
44.67374978984479
 30
0.0
 10
197.1492274989389
 20
44.67374981549094
 30
0.0
  0
SPLINE
  5
154
330
1F
100
AcDbEntity
  8
0
  6
Continuous
 62
     7
370
    15
100
AcDbSpline
210
0.0
220
0.0
230
1.0
 70
     8
 71
     3
 72
   191
 73
   187
 74
     0
 42
0.000000001
 43
0.00000001
 40
0.0
 40
0.0
 40
0.0
 40
0.0
 40
0.0019531249999631
 40
0.0019531249999631
 40
0.0029296874999446
 40
0.0029296874999446
 40
0.0039062499999262
 40
0.0039062499999262
 40
0.0078124999998523
 40
0.0078124999998523
 40
0.0156249999997047
 40
0.0156249999997047
 40
0.0312499999994094
 40
0.0312499999994094
 40
0.0624999999988189
 40
0.0624999999988189
 40
0.0937499999982284
 40
0.0937499999982284
 40
0.1249999999976379
 40
0.1249999999976379
 40
0.1562499999970474
 40
0.1562499999970474
 40
0.1874999999964569
 40
0.1874999999964569
 40
0.2031249999961617
 40
0.2031249999961617
 40
0.2187499999958664
 40
0.2187499999958664
 40
0.2499999999952757
 40
0.2499999999952757
 40
0.2812499999946851
 40
0.2812499999946851
 40
0.2968749999943897
 40
0.2968749999943897
 40
0.3124999999940944
 40
0.3124999999940944
 40
0.3281249999937991
 40
0.3281249999937991
 40
0.3437499999935038
 40
0.3437499999935038
 40
0.3515624999933561
 40
0.3515624999933561
 40
0.3593749999932084
 40
0.3593749999932084
 40
0.3749999999929131
 40
0.3749999999929131
 40
0.3906249999926177
 40
0.3906249999926177
 40
0.3984374999924701
 40
0.3984374999924701
 40
0.4062499999923224
 40
0.4062499999923224
 40
0.4218749999920271
 40
0.4218749999920271
 40
0.4296874999918794
 40
0.4296874999918794
 40
0.4335937499918056
 40
0.4335937499918056
 40
0.4374999999917318
 40
0.4374999999917318
 40
0.4453124999915841
 40
0.4453124999915841
 40
0.4531249999914365
 40
0.4531249999914365
 40
0.4570312499913626
 40
0.4570312499913626
 40
0.4609374999912887
 40
0.4609374999912887
 40
0.468749999991141
 40
0.468749999991141
 40
0.4707031249911041
 40
0.4707031249911041
 40
0.4726562499910672
 40
0.4726562499910672
 40
0.4765624999909933
 40
0.4765624999909933
 40
0.4804687499909194
 40
0.4804687499909194
 40
0.481445312490901
 40
0.481445312490901
 40
0.4824218749908825
 40
0.4824218749908825
 40
0.4843749999908455
 40
0.4843749999908455
 40
0.4882812499907716
 40
0.4882812499907716
 40
0.4892578124907532
 40
0.4892578124907532
 40
0.4902343749907347
 40
0.4921874999906977
 40
0.4921874999906977
 40
0.4960937499906238
 40
0.4960937499906238
 40
0.4980468749905869
 40
0.4980468749905869
 40
0.4990234374905684
 40
0.4995117187405591
 40
0.4997558593655544
 40
0.4998779296780521
 40
0.4999389648343009
 40
0.4999694824124253
 40
0.4999847412014876
 40
0.4999923705960187
 40
0.4999961852932842
 40
0.499998092641917
 40
0.4999990463162334
 40
0.4999990463162334
 40
0.4999999999905499
 40
0.4999999999905499
 40
0.5019531249905869
 40
0.5019531249905869
 40
0.5029296874906054
 40
0.5029296874906054
 40
0.5031738281156101
 40
0.5031738281156101
 40
0.5034179687406146
 40
0.5034179687406146
 40
0.5039062499906238
 40
0.5039062499906238
 40
0.5078124999906978
 40
0.5078124999906978
 40
0.5097656249907347
 40
0.5097656249907347
 40
0.5107421874907533
 40
0.5107421874907533
 40
0.5117187499907718
 40
0.5117187499907718
 40
0.5156249999908458
 40
0.5156249999908458
 40
0.5175781249908826
 40
0.5175781249908826
 40
0.5195312499909196
 40
0.5195312499909196
 40
0.5234374999909935
 40
0.5234374999909935
 40
0.5273437499910675
 40
0.5273437499910675
 40
0.5292968749911043
 40
0.5292968749911043
 40
0.5312499999911413
 40
0.5312499999911413
 40
0.5468749999914368
 40
0.5468749999914368
 40
0.5507812499915107
 40
0.5507812499915107
 40
0.5546874999915845
 40
0.5546874999915845
 40
0.5624999999917323
 40
0.5624999999917323
 40
0.5781249999920277
 40
0.5781249999920277
 40
0.5859374999921753
 40
0.5859374999921753
 40
0.5937499999923229
 40
0.5937499999923229
 40
0.6015624999924706
 40
0.6015624999924706
 40
0.6093749999926182
 40
0.6093749999926182
 40
0.6249999999929136
 40
0.6249999999929136
 40
0.6562499999935041
 40
0.6562499999935041
 40
0.6718749999937994
 40
0.6718749999937994
 40
0.6874999999940947
 40
0.6874999999940947
 40
0.7187499999946853
 40
0.7187499999946853
 40
0.7499999999952757
 40
0.7499999999952757
 40
0.7812499999958662
 40
0.7812499999958662
 40
0.8124999999964567
 40
0.8124999999964567
 40
0.8437499999970473
 40
0.8437499999970473
 40
0.8749999999976378
 40
0.8749999999976378
 40
0.9062499999982283
 40
0.9062499999982283
 40
0.9374999999988187
 40
0.9374999999988187
 40
0.9687499999994094
 40
0.9687499999994094
 40
1.0
 40
1.0
 40
1.0
 40
1.0
 10
197.1492275213373
 20
44.67374985581328
 30
0.0
 10
197.1802033993091
 20
44.67371064768969
 30
0.0
 10
197.2089798129551
 20
44.67371725581323
 30
0.0
 10
197.2488447280994
 20
44.67373821283113
 30
0.0
 10
197.2615830758283
 20
44.67374693012108
 30
0.0
 10
197.2859598433536
 20
44.67375948620142
 30
0.0
 10
197.2974510554556
 20
44.67376150628277
 30
0.0
 10
197.3548640143181
 20
44.67377055252069
 30
0.0
 10
197.4005710140229
 20
44.67378253957017
 30
0.0
 10
197.5375004647938
 20
44.67382685609471
 30
0.0
 10
197.6286707918246
 20
44.67386753105217
 30
0.0
 10
197.9021819633431
 20
44.67402911758844
 30
0.0
 10
198.0843528227156
 20
44.67418961290666
 30
0.0
 10
198.6301802394359
 20
44.67482233379074
 30
0.0
 10
198.9932341908564
 20
44.67545025267027
 30
0.0
 10
199.7163116533548
 20
44.67711658716249
 30
0.0
 10
200.0764269339515
 20
44.67814227595014
 30
0.0
 10
200.7918894028331
 20
44.68063336781011
 30
0.0
 10
201.147008146911
 20
44.6821078382732
 30
0.0
 10
201.8502280450243
 20
44.68544310719446
 30
0.0
 10
202.1989047145312
 20
44.68729437393042
 30
0.0
 10
202.8876416693669
 20
44.69147969943027
 30
0.0
 10
203.2274765402164
 20
44.69379794838228
 30
0.0
 10
203.7298962688162
 20
44.69757745164962
 30
0.0
 10
203.8960969555934
 20
44.69889276420181
 30
0.0
 10
204.2255395126708
 20
44.7016353895152
 30
0.0
 10
204.3887099899444
 20
44.70306056263698
 30
0.0
 10
204.8737056568561
 20
44.70749170247328
 30
0.0
 10
205.191189105407
 20
44.71067012314673
 30
0.0
 10
205.811447065888
 20
44.71751961080451
 30
0.0
 10
206.1143533851341
 20
44.72120105651913
 30
0.0
 10
206.5546091417304
 20
44.72700324502509
 30
0.0
 10
206.6990216092748
 20
44.72897984244248
 30
0.0
 10
206.9831490658927
 20
44.73309812828866
 30
0.0
 10
207.1228185787349
 20
44.73523555057945
 30
0.0
 10
207.3966778854315
 20
44.73961808026515
 30
0.0
 10
207.530942234081
 20
44.74186112329912
 30
0.0
 10
207.7943441006893
 20
44.74648977273459
 30
0.0
 10
207.9233892412415
 20
44.74887797335938
 30
0.0
 10
208.1123173432046
 20
44.75255946547436
 30
0.0
 10
208.1745904159498
 20
44.75379987015252
 30
0.0
 10
208.297819499832
 20
44.75631386323676
 30
0.0
 10
208.3587689270858
 20
44.75758852702941
 30
0.0
 10
208.5393420754687
 20
44.76148013935478
 30
0.0
 10
208.6567099811325
 20
44.76416324523119
 30
0.0
 10
208.884209495713
 20
44.76973883588345
 30
0.0
 10
208.9943371488573
 20
44.77262526296074
 30
0.0
 10
209.1531454640271
 20
44.77705365126269
 30
0.0
 10
209.2049488538211
 20
44.77854124595914
 30
0.0
 10
209.3070469352802
 20
44.78155944504735
 30
0.0
 10
209.3572481141069
 20
44.78309219775744
 30
0.0
 10
209.504878894108
 20
44.78778915273889
 30
0.0
 10
209.5993454541766
 20
44.79106491071944
 30
0.0
 10
209.7333031238995
 20
44.79619011667932
 30
0.0
 10
209.7766650612864
 20
44.79793352622849
 30
0.0
 10
209.8395389329066
 20
44.80059102614654
 30
0.0
 10
209.8601398723623
 20
44.80148381680903
 30
0.0
 10
209.9005524495833
 20
44.80327676824681
 30
0.0
 10
209.9203708841957
 20
44.80417733702919
 30
0.0
 10
209.9789343365001
 20
44.80691312093487
 30
0.0
 10
210.016735836352
 20
44.80878348564775
 30
0.0
 10
210.0892654749505
 20
44.81262643748595
 30
0.0
 10
210.1239757227237
 20
44.81459957215908
 30
0.0
 10
210.173331670543
 20
44.8176260460591
 30
0.0
 10
210.1893861038432
 20
44.81864890897776
 30
0.0
 10
210.2207571372501
 20
44.82073801347115
 30
0.0
 10
210.2360420474451
 20
44.82180285566648
 30
0.0
 10
210.2804740597822
 20
44.82505939151108
 30
0.0
 10
210.3082033515339
 20
44.82731708648775
 30
0.0
 10
210.3397385741612
 20
44.83023109604716
 30
0.0
 10
210.3459046643375
 20
44.83081913549972
 30
0.0
 10
210.3580634985754
 20
44.83202030657969
 30
0.0
 10
210.3640342491309
 20
44.83263168152763
 30
0.0
 10
210.3815455685489
 20
44.83450037522894
 30
0.0
 10
210.3926873405233
 20
44.83579319536025
 30
0.0
 10
210.4134893813337
 20
44.83847736227567
 30
0.0
 10
210.4231487003948
 20
44.83986834312609
 30
0.0
 10
210.4340188099249
 20
44.84166266976504
 30
0.0
 10
210.4361325068449
 20
44.84202424609885
 30
0.0
 10
210.4402320657896
 20
44.84275253198481
 30
0.0
 10
210.442229455977
 20
44.84312117747864
 30
0.0
 10
210.4479248762296
 20
44.84421927022961
 30
0.0
 10
210.4512589911583
 20
44.84493155581344
 30
0.0
 10
210.4600822219128
 20
44.84698375919372
 30
0.0
 10
210.4643943867744
 20
44.84824085661261
 30
0.0
 10
210.4684360515799
 20
44.84962359084698
 30
0.0
 10
210.4691716994415
 20
44.84988688503804
 30
0.0
 10
210.4705563505572
 20
44.85041858416783
 30
0.0
 10
210.4724971366602
 20
44.85122146960305
 30
0.0
 10
210.4740292830084
 20
44.85203867741365
 30
0.0
 10
210.4765485897847
 20
44.85368768860032
 30
0.0
 10
210.4775032155413
 20
44.85480994817529
 30
0.0
 10
210.4778387345669
 20
44.85649313607448
 30
0.0
 10
210.477767833322
 20
44.85704900133393
 30
0.0
 10
210.4774108530083
 20
44.85785401466176
 30
0.0
 10
210.4771711568183
 20
44.85825174880883
 30
0.0
 10
210.4767924248467
 20
44.85870715902687
 30
0.0
 10
210.4765792902744
 20
44.85893267826636
 30
0.0
 10
210.4764669062189
 20
44.85904488733982
 30
0.0
 10
210.4764092756709
 20
44.85910085373012
 30
0.0
 10
210.4763801027259
 20
44.85912880232494
 30
0.0
 10
210.4763654270805
 20
44.85914276796429
 30
0.0
 10
210.4763580669952
 20
44.85914974861846
 30
0.0
 10
210.4763543813907
 20
44.85915323840405
 30
0.0
 10
210.4763525371985
 20
44.85915498316145
 30
0.0
 10
210.4763517465326
 20
44.8591557308856
 30
0.0
 10
210.4763512193558
 20
44.85915622936192
 30
0.0
 10
210.4763521797291
 20
44.85915532155902
 30
0.0
 10
210.4733039864107
 20
44.86203676788429
 30
0.0
 10
210.4659824272887
 20
44.86445595885817
 30
0.0
 10
210.4541864016594
 20
44.86739271894619
 30
0.0
 10
210.4501092400959
 20
44.86825849507854
 30
0.0
 10
210.4452402861391
 20
44.86921804654569
 30
0.0
 10
210.4442781486225
 20
44.86940372340706
 30
0.0
 10
210.442383224324
 20
44.86976364304765
 30
0.0
 10
210.4414399799921
 20
44.86993965114062
 30
0.0
 10
210.4385397732501
 20
44.8704701605249
 30
0.0
 10
210.4365462094504
 20
44.87082137151447
 30
0.0
 10
210.4180961644168
 20
44.87395773516261
 30
0.0
 10
210.3980951858001
 20
44.87656843995687
 30
0.0
 10
210.3651167447348
 20
44.8801970117442
 30
0.0
 10
210.3536213128579
 20
44.88136055510346
 30
0.0
 10
210.3358987569376
 20
44.88304636277109
 30
0.0
 10
210.3298929622033
 20
44.88360023867972
 30
0.0
 10
210.3175866438448
 20
44.88470093829346
 30
0.0
 10
210.3113025326308
 20
44.88524625490458
 30
0.0
 10
210.2792711943782
 20
44.8879476573747
 30
0.0
 10
210.2516935408099
 20
44.89002819553008
 30
0.0
 10
210.2082194285745
 20
44.89302791829721
 30
0.0
 10
210.1933718186283
 20
44.89400739450057
 30
0.0
 10
210.1631284208056
 20
44.8959270711005
 30
0.0
 10
210.1477117801845
 20
44.8968697352372
 30
0.0
 10
210.100325024327
 20
44.89966798517499
 30
0.0
 10
210.0673186141803
 20
44.90148499001256
 30
0.0
 10
209.9990370468833
 20
44.90501595728051
 30
0.0
 10
209.9637623626541
 20
44.90672952552934
 30
0.0
 10
209.9095370962575
 20
44.9092334009653
 30
0.0
 10
209.8912375254976
 20
44.91005795809854
 30
0.0
 10
209.8540294727001
 20
44.91169914590036
 30
0.0
 10
209.8351432265454
 20
44.91251414868246
 30
0.0
 10
209.6628322047879
 20
44.91978084468091
 30
0.0
 10
209.4931624239564
 20
44.92569242680154
 30
0.0
 10
209.2710543538721
 20
44.93243458046629
 30
0.0
 10
209.2261459266895
 20
44.93375565730317
 30
0.0
 10
209.1354385924699
 20
44.93636202062682
 30
0.0
 10
209.0895080463584
 20
44.93764939582013
 30
0.0
 10
208.9498934377388
 20
44.9414571233397
 30
0.0
 10
208.8545198495152
 20
44.94391998013664
 30
0.0
 10
208.5631754281861
 20
44.95101396065074
 30
0.0
 10
208.3620014988064
 20
44.95535920777796
 30
0.0
 10
208.0555580071972
 20
44.96149124956167
 30
0.0
 10
207.9524469939668
 20
44.96347611172586
 30
0.0
 10
207.7442835766173
 20
44.96731863215914
 30
0.0
 10
207.6393071850844
 20
44.96917548452266
 30
0.0
 10
207.4282673931669
 20
44.97276630687735
 30
0.0
 10
207.3221663270571
 20
44.9745049230479
 30
0.0
 10
207.1087232345498
 20
44.97788886248141
 30
0.0
 10
207.0013996236808
 20
44.97953137756924
 30
0.0
 10
206.6784543371328
 20
44.98426949635402
 30
0.0
 10
206.4618472693147
 20
44.98718436652504
 30
0.0
 10
205.810483750461
 20
44.99555670982731
 30
0.0
 10
205.3747764905869
 20
45.00043784282798
 30
0.0
 10
204.7334408377702
 20
45.00673002204646
 30
0.0
 10
204.5217875496122
 20
45.00867456269258
 30
0.0
 10
204.1035074736855
 20
45.01233203290011
 30
0.0
 10
203.8967157243525
 20
45.01403006350206
 30
0.0
 10
203.2856069805818
 20
45.01874854092942
 30
0.0
 10
202.8909149557936
 20
45.02143176610328
 30
0.0
 10
202.1327226364315
 20
45.02600721933916
 30
0.0
 10
201.7694828144878
 20
45.0278806658594
 30
0.0
 10
201.0803142163423
 20
45.03109347414964
 30
0.0
 10
200.753714075761
 20
45.03241466417523
 30
0.0
 10
200.140240813286
 20
45.03455965992369
 30
0.0
 10
199.853416274867
 20
45.03539191937238
 30
0.0
 10
199.3220112438396
 20
45.0367446661586
 30
0.0
 10
199.0773030169817
 20
45.03726245198988
 30
0.0
 10
198.6309192876212
 20
45.03805436881341
 30
0.0
 10
198.4292549123132
 20
45.03833115658828
 30
0.0
 10
198.0697137927559
 20
45.03874030669425
 30
0.0
 10
197.9118192780444
 20
45.03887088360933
 30
0.0
 10
197.6400965502538
 20
45.03904805916405
 30
0.0
 10
197.5262642918119
 20
45.03909466364461
 30
0.0
 10
197.3427801276749
 20
45.03915017080802
 30
0.0
 10
197.2731254918882
 20
45.0391590774339
 30
0.0
 10
197.1780228168768
 20
45.03916756160629
 30
0.0
 10
197.152573362832
 20
45.03916714119794
 30
0.0
 10
197.1492275121633
 20
45.03916724581815
 30
0.0
  0
SPLINE
  5
155
330
1F
100
AcDbEntity
  8
0
  6
Continuous
 62
     7
370
    15
100
AcDbSpline
210
0.0
220
0.0
230
1.0
 70
     8
 71
     3
 72
   178
 73
   174
 74
     0
 42
0.000000001
 43
0.00000001
 40
0.0
 40
0.0
 40
0.0
 40
0.0
 40
0.001953125
 40
0.001953125
 40
0.00244140625
 40
0.00244140625
 40
0.0029296875
 40
0.0029296875
 40
0.00390625
 40
0.00390625
 40
0.0078125
 40
0.0078125
 40
0.015625
 40
0.015625
 40
0.03125
 40
0.03125
 40
0.046875
 40
0.046875
 40
0.0625
 40
0.0625
 40
0.078125
 40
0.078125
 40
0.09375
 40
0.09375
 40
0.109375
 40
0.109375
 40
0.125
 40
0.125
 40
0.140625
 40
0.140625
 40
0.15625
 40
0.15625
 40
0.171875
 40
0.171875
 40
0.1796875
 40
0.1796875
 40
0.1875
 40
0.1875
 40
0.1953125
 40
0.1953125
 40
0.203125
 40
0.203125
 40
0.2109375
 40
0.2109375
 40
0.21875
 40
0.21875
 40
0.234375
 40
0.234375
 40
0.23828125
 40
0.23828125
 40
0.2421875
 40
0.2421875
 40
0.25
 40
0.25
 40
0.265625
 40
0.265625
 40
0.2675781250000001
 40
0.2675781250000001
 40
0.2695312499999999
 40
0.2695312499999999
 40
0.2734375
 40
0.2734375
 40
0.2753906250000001
 40
0.2753906250000001
 40
0.27734375
 40
0.27734375
 40
0.28125
 40
0.28125
 40
0.28515625
 40
0.28515625
 40
0.2861328125
 40
0.2861328125
 40
0.2871093750000001
 40
0.2871093750000001
 40
0.2890625000000001
 40
0.2890625000000001
 40
0.2929687500000001
 40
0.2929687500000001
 40
0.2939453125
 40
0.2939453125
 40
0.2941894531250001
 40
0.2941894531250001
 40
0.2944335937500001
 40
0.2944335937500001
 40
0.2949218750000001
 40
0.2949218750000001
 40
0.2968750000000001
 40
0.2968750000000001
 40
0.2988281250000001
 40
0.2988281250000001
 40
0.2990722656250001
 40
0.2990722656250001
 40
0.2993164062500001
 40
0.2993164062500001
 40
0.2998046875000001
 40
0.2998046875000001
 40
0.30078125
 40
0.30078125
 40
0.3027343750000001
 40
0.3027343750000001
 40
0.3037109375000001
 40
0.3037109375000001
 40
0.3039550781250001
 40
0.3039550781250001
 40
0.30419921875
 40
0.30419921875
 40
0.3046875000000001
 40
0.3046875000000001
 40
0.30859375
 40
0.30859375
 40
0.3105468750000001
 40
0.3105468750000001
 40
0.3115234375000001
 40
0.3115234375000001
 40
0.3125000000000001
 40
0.3125000000000001
 40
0.3203125000000001
 40
0.3203125000000001
 40
0.3222656250000001
 40
0.3222656250000001
 40
0.3242187500000001
 40
0.3242187500000001
 40
0.3281250000000001
 40
0.3281250000000001
 40
0.33203125
 40
0.33203125
 40
0.3359375000000001
 40
0.3359375000000001
 40
0.3437500000000001
 40
0.3437500000000001
 40
0.3476562500000001
 40
0.3476562500000001
 40
0.3515625000000001
 40
0.3515625000000001
 40
0.3554687500000001
 40
0.3554687500000001
 40
0.3593750000000001
 40
0.3593750000000001
 40
0.3750000000000001
 40
0.3750000000000001
 40
0.3828125000000001
 40
0.3828125000000001
 40
0.3906250000000001
 40
0.3906250000000001
 40
0.3984375000000001
 40
0.3984375000000001
 40
0.40625
 40
0.40625
 40
0.4218750000000001
 40
0.4218750000000001
 40
0.4375000000000001
 40
0.4375000000000001
 40
0.453125
 40
0.453125
 40
0.4609375
 40
0.4609375
 40
0.46875
 40
0.46875
 40
0.4843750000000001
 40
0.4843750000000001
 40
0.5
 40
0.5
 40
0.5156250000000001
 40
0.5156250000000001
 40
0.53125
 40
0.53125
 40
0.5468750000000001
 40
0.5468750000000001
 40
0.5625
 40
0.5625
 40
0.5937500000000001
 40
0.5937500000000001
 40
0.59741428
 40
0.59741428
 40
0.59741428
 40
0.59741428
 10
197.1363341449373
 20
44.67374985581328
 30
0.0
 10
197.0874057472373
 20
44.67369220531328
 30
0.0
 10
197.0435548630373
 20
44.67374016861328
 30
0.0
 10
196.9950894700373
 20
44.67376054581328
 30
0.0
 10
196.9858050788373
 20
44.67376173881328
 30
0.0
 10
196.9671105621373
 20
44.67376508971329
 30
0.0
 10
196.9577638953373
 20
44.67376690391329
 30
0.0
 10
196.9297257312373
 20
44.67377275341328
 30
0.0
 10
196.9110360705373
 20
44.67377719591328
 30
0.0
 10
196.8176008344373
 20
44.67380200221329
 30
0.0
 10
196.7428841852373
 20
44.67382998381328
 30
0.0
 10
196.5187354625373
 20
44.67393912751328
 30
0.0
 10
196.3693533440373
 20
44.67404599111328
 30
0.0
 10
195.9216383945373
 20
44.67447307971328
 30
0.0
 10
195.6236854034373
 20
44.67488980601328
 30
0.0
 10
195.0293215329373
 20
44.67600859181328
 30
0.0
 10
194.7331423697373
 20
44.67671437901328
 30
0.0
 10
194.1429669087373
 20
44.67837231951328
 30
0.0
 10
193.8490586386373
 20
44.67934051501328
 30
0.0
 10
193.2650466852373
 20
44.68158368061329
 30
0.0
 10
192.9751146626373
 20
44.68285920421329
 30
0.0
 10
192.3996930138373
 20
44.68564707361328
 30
0.0
 10
192.1140078551373
 20
44.68716995731328
 30
0.0
 10
191.5482861655373
 20
44.69053482701328
 30
0.0
 10
191.2684182528373
 20
44.69237812391329
 30
0.0
 10
190.7150791857373
 20
44.69632310661328
 30
0.0
 10
190.4415314415373
 20
44.69843703251328
 30
0.0
 10
189.9024946775373
 20
44.70297257431328
 30
0.0
 10
189.6371011268373
 20
44.70537499271328
 30
0.0
 10
189.1141667931373
 20
44.71046279161329
 30
0.0
 10
188.8569020126373
 20
44.71317331581329
 30
0.0
 10
188.3529979742373
 20
44.71896082101328
 30
0.0
 10
188.1063592527373
 20
44.72203840141329
 30
0.0
 10
187.7461053679373
 20
44.72680960671328
 30
0.0
 10
187.6276567385373
 20
44.72841762831328
 30
0.0
 10
187.3937951203373
 20
44.73175369021327
 30
0.0
 10
187.2784476403373
 20
44.73347261241327
 30
0.0
 10
187.0512687921373
 20
44.73699669421327
 30
0.0
 10
186.9395225319373
 20
44.73879776671329
 30
0.0
 10
186.7194817697373
 20
44.74247350201328
 30
0.0
 10
186.6111088453373
 20
44.74435542501327
 30
0.0
 10
186.3981107930373
 20
44.74821724081328
 30
0.0
 10
186.2935075557373
 20
44.75019767491327
 30
0.0
 10
186.0884263475373
 20
44.75424071091328
 30
0.0
 10
185.9875616392373
 20
44.75629570491328
 30
0.0
 10
185.6909518790373
 20
44.76263984321329
 30
0.0
 10
185.5011790523373
 20
44.76712819801327
 30
0.0
 10
185.2773035874373
 20
44.77304730791327
 30
0.0
 10
185.2331964723373
 20
44.77424500501328
 30
0.0
 10
185.1464064077373
 20
44.77666131261328
 30
0.0
 10
185.1037928291373
 20
44.77787776861328
 30
0.0
 10
184.9775356038373
 20
44.78156292861328
 30
0.0
 10
184.8955573237373
 20
44.78407696801328
 30
0.0
 10
184.6580878446373
 20
44.79191323641328
 30
0.0
 10
184.5110296075373
 20
44.79757968151328
 30
0.0
 10
184.3643729700373
 20
44.80421808351328
 30
0.0
 10
184.3483066466373
 20
44.80496025721328
 30
0.0
 10
184.3165703714373
 20
44.80646218421329
 30
0.0
 10
184.3009157644373
 20
44.80722094191328
 30
0.0
 10
184.2546527519373
 20
44.80952232121328
 30
0.0
 10
184.2247447612373
 20
44.81109046151328
 30
0.0
 10
184.1815318458373
 20
44.81349332161328
 30
0.0
 10
184.1674024848373
 20
44.81430261571328
 30
0.0
 10
184.1397361630373
 20
44.81593658401328
 30
0.0
 10
184.1262257217373
 20
44.81675959861328
 30
0.0
 10
184.0864351100373
 20
44.81926153711328
 30
0.0
 10
184.0608530326373
 20
44.82097887791328
 30
0.0
 10
184.0122086612373
 20
44.82452928901327
 30
0.0
 10
183.9891463977373
 20
44.82636252101328
 30
0.0
 10
183.9623106446373
 20
44.82871922491328
 30
0.0
 10
183.9570431885373
 20
44.82919374691328
 30
0.0
 10
183.9467184545373
 20
44.83014865101328
 30
0.0
 10
183.9416561790373
 20
44.83062921171328
 30
0.0
 10
183.9266327217373
 20
44.83209579421328
 30
0.0
 10
183.9168966664373
 20
44.83310212391328
 30
0.0
 10
183.8888552474373
 20
44.83621755311328
 30
0.0
 10
183.8717101142373
 20
44.83842652741328
 30
0.0
 10
183.8534069059373
 20
44.84134359161329
 30
0.0
 10
183.8499031836373
 20
44.84193453071329
 30
0.0
 10
183.8457395667373
 20
44.84268175911328
 30
0.0
 10
183.8449176470373
 20
44.84283163131328
 30
0.0
 10
183.8432959203373
 20
44.84313220231328
 30
0.0
 10
183.8425020120373
 20
44.84328187101328
 30
0.0
 10
183.8400998757373
 20
44.84374150811328
 30
0.0
 10
183.8384735459373
 20
44.84406196001329
 30
0.0
 10
183.8303082353373
 20
44.84573854121328
 30
0.0
 10
183.8236328898373
 20
44.84732108251328
 30
0.0
 10
183.8128880800373
 20
44.85103378221329
 30
0.0
 10
183.8088187919373
 20
44.85316812861328
 30
0.0
 10
183.8078420447373
 20
44.85583095771327
 30
0.0
 10
183.8077841101373
 20
44.85613031181328
 30
0.0
 10
183.8077778261373
 20
44.85673552971328
 30
0.0
 10
183.8078298046373
 20
44.85703612721328
 30
0.0
 10
183.8081386346373
 20
44.85792581101328
 30
0.0
 10
183.8085482161373
 20
44.85850508431328
 30
0.0
 10
183.8102911926373
 20
44.86019706011328
 30
0.0
 10
183.8121370693373
 20
44.86126350001328
 30
0.0
 10
183.8190143258373
 20
44.86426122021328
 30
0.0
 10
183.8253571740373
 20
44.86598742571328
 30
0.0
 10
183.8351655337373
 20
44.86819546311328
 30
0.0
 10
183.8384910351373
 20
44.86886898201328
 30
0.0
 10
183.8425266691373
 20
44.86964068781328
 30
0.0
 10
183.8433251043373
 20
44.86979112181328
 30
0.0
 10
183.8449553502373
 20
44.87009310711328
 30
0.0
 10
183.8457816420373
 20
44.87024368491328
 30
0.0
 10
183.8482932582373
 20
44.87069413351329
 30
0.0
 10
183.8500113215373
 20
44.87099271871328
 30
0.0
 10
183.8658485493373
 20
44.87366370571328
 30
0.0
 10
183.8825816872373
 20
44.87591738911328
 30
0.0
 10
183.9101987869373
 20
44.87909543801328
 30
0.0
 10
183.9198256978373
 20
44.88012194861328
 30
0.0
 10
183.9347295610373
 20
44.88161683281329
 30
0.0
 10
183.9397748692373
 20
44.88210769071328
 30
0.0
 10
183.9499933943373
 20
44.88307574161328
 30
0.0
 10
183.9551822841373
 20
44.88355444011328
 30
0.0
 10
184.0029217024373
 20
44.88784440971328
 30
0.0
 10
184.0519424337373
 20
44.89143954441328
 30
0.0
 10
184.1181418211373
 20
44.89565782851329
 30
0.0
 10
184.1316074173373
 20
44.89648819121329
 30
0.0
 10
184.1591887523373
 20
44.89813710861328
 30
0.0
 10
184.1732834009373
 20
44.89895401001328
 30
0.0
 10
184.2164143498373
 20
44.90137976841329
 30
0.0
 10
184.2462972510373
 20
44.90296326351328
 30
0.0
 10
184.3079840859373
 20
44.90606125511327
 30
0.0
 10
184.3397880080373
 20
44.90757579881328
 30
0.0
 10
184.4049930344373
 20
44.91054709831328
 30
0.0
 10
184.4386055974373
 20
44.91201488301328
 30
0.0
 10
184.5422559048373
 20
44.91635183861328
 30
0.0
 10
184.6150686831373
 20
44.91914952191328
 30
0.0
 10
184.7287151615373
 20
44.92320230271328
 30
0.0
 10
184.7673358606373
 20
44.92453012841328
 30
0.0
 10
184.8458721489373
 20
44.92714863151328
 30
0.0
 10
184.8858359813373
 20
44.92844077901329
 30
0.0
 10
184.9672731304373
 20
44.93099069571328
 30
0.0
 10
185.0087097046373
 20
44.93224799241329
 30
0.0
 10
185.0928910854373
 20
44.93472813681328
 30
0.0
 10
185.1356074761373
 20
44.93595013471329
 30
0.0
 10
185.3529611289373
 20
44.94202570761328
 30
0.0
 10
185.5383879990373
 20
44.94669730841328
 30
0.0
 10
185.8296559540373
 20
44.95326977891328
 30
0.0
 10
185.9289361589373
 20
44.95539345561328
 30
0.0
 10
186.1312181179373
 20
44.95954052631328
 30
0.0
 10
186.2340816810373
 20
44.96157243521328
 30
0.0
 10
186.4439768815373
 20
44.96555109561328
 30
0.0
 10
186.5509393263373
 20
44.96749320581328
 30
0.0
 10
186.7684279547373
 20
44.97128026871329
 30
0.0
 10
186.8788558437373
 20
44.97312352191328
 30
0.0
 10
187.2155890628373
 20
44.97855420671328
 30
0.0
 10
187.4475485278373
 20
44.98202278741329
 30
0.0
 10
187.9235792422373
 20
44.98852402391329
 30
0.0
 10
188.1681410920373
 20
44.99165475731327
 30
0.0
 10
188.6683601818373
 20
44.99760185241328
 30
0.0
 10
188.9238717921373
 20
45.00041378811328
 30
0.0
 10
189.3138795443373
 20
45.00439068001328
 30
0.0
 10
189.4450418566373
 20
45.00567304711329
 30
0.0
 10
189.7094181636373
 20
45.00815975681328
 30
0.0
 10
189.8425732891373
 20
45.00936552131328
 30
0.0
 10
190.2452434891373
 20
45.01288383221329
 30
0.0
 10
190.5179810915373
 20
45.01508296651328
 30
0.0
 10
191.0701898875373
 20
45.01917728651328
 30
0.0
 10
191.3495171424373
 20
45.02109055491328
 30
0.0
 10
191.9145039414373
 20
45.02461403071327
 30
0.0
 10
192.2000387452373
 20
45.02621616851328
 30
0.0
 10
192.7755660686373
 20
45.02913531721328
 30
0.0
 10
193.0654457308373
 20
45.03047137261328
 30
0.0
 10
193.6497488335373
 20
45.03285838641329
 30
0.0
 10
193.9439884357373
 20
45.03390114051328
 30
0.0
 10
194.5351766996373
 20
45.03569078381328
 30
0.0
 10
194.8319854092373
 20
45.03645154101328
 30
0.0
 10
195.7255136098373
 20
45.03832776971328
 30
0.0
 10
196.3251155825373
 20
45.03901221591328
 30
0.0
 10
196.9955921202402
 20
45.03915977684419
 30
0.0
 10
197.0659635732496
 20
45.03916764206689
 30
0.0
 10
197.1363341558084
 20
45.03916789354244
 30
0.0
  0
LINE
  5
156
330
1F
100
AcDbEntity
  8
0
  6
Continuous
 62
     7
370
    15
100
AcDbLine
 10
197.1491308331
 20
44.8564589262
 30
0.0
 11
197.1492275213
 21
44.6737498558
 31
0.0
  0
LINE
  5
157
330
1F
100
AcDbEntity
  8
0
  6
Continuous
 62
     7
370
    15
100
AcDbLine
 10
197.1363341451
 20
44.673750075
 30
0.0
 11
197.1364308335
 21
44.8564589262
 31
0.0
  0
SPLINE
  5
158
330
1F
100
AcDbEntity
  8
0
  6
Continuous
 62
     7
370
    15
100
AcDbSpline
210
0.0
220
0.0
230
1.0
 70
     8
 71
     3
 72
     8
 73
     4
 74
     0
 42
0.000000001
 43
0.00000001
 40
0.0
 40
0.0
 40
0.0
 40
0.0
 40
0.0001289337403453
 40
0.0001289337403453
 40
0.0001289337403453
 40
0.0001289337403453
 10
197.1492275203
 20
45.03916664019255
 30
0.0
 10
197.1449297317782
 20
45.03916672165294
 30
0.0
 10
197.1406319345175
 20
45.0391667741052
 30
0.0
 10
197.1363341462713
 20
45.03916679749077
 30
0.0
  0
SPLINE
  5
159
330
1F
100
AcDbEntity
  8
0
  6
Continuous
 62
     7
370
    15
100
AcDbSpline
210
0.0
220
0.0
230
1.0
 70
     8
 71
     3
 72
   155
 73
   151
 74
     0
 42
0.000000001
 43
0.00000001
 40
0.0
 40
0.0
 40
0.0
 40
0.0
 40
0.0038861980437809
 40
0.0077723686671796
 40
0.011658513999129
 40
0.0155446361685142
 40
0.0194307373041718
 40
0.0274967576509387
 40
0.038825177696851
 40
0.0582014979995684
 40
0.0788501408820417
 40
0.0994264413784979
 40
0.1200022165961675
 40
0.1315246746861768
 40
0.1627114298857421
 40
0.2107190218683279
 40
0.2558041963568347
 40
0.2979659355318903
 40
0.3372032950338446
 40
0.3724274344135407
 40
0.3936480215731755
 40
0.4081625916023803
 40
0.4210608239733385
 40
0.4481396125195504
 40
0.4740190200509745
 40
0.4998983612194471
 40
0.5128584471067043
 40
0.5200529878589264
 40
0.5257929034343047
 40
0.5342816104173526
 40
0.5516668317233404
 40
0.5517566299643587
 40
0.5519087630235651
 40
0.5521232308969968
 40
0.5524000335800863
 40
0.552739171067691
 40
0.5531406433540998
 40
0.553604450433036
 40
0.5541305922976568
 40
0.5547190689405557
 40
0.555369880353761
 40
0.5560830265287368
 40
0.5568585074563829
 40
0.5576963231270347
 40
0.5585964735304633
 40
0.5595589586558758
 40
0.5605837784919149
 40
0.561670933026659
 40
0.5628204222476226
 40
0.5640322461417554
 40
0.5653064046954438
 40
0.5666428978945093
 40
0.5680417257242092
 40
0.569502888169237
 40
0.5710263852137221
 40
0.5726122168412291
 40
0.5742603830347588
 40
0.575970883776748
 40
0.577743719049069
 40
0.5795788888330298
 40
0.5814763931093748
 40
0.5834362318582836
 40
0.585458405059372
 40
0.5875429126916913
 40
0.5896897547337292
 40
0.5918989311634084
 40
0.5941704419580882
 40
0.596504287094563
 40
0.5989004665490638
 40
0.6013589802972571
 40
0.6038798283142447
 40
0.6064630105745649
 40
0.6091085270521915
 40
0.6118163777205342
 40
0.6145865625524388
 40
0.6174190815201864
 40
0.6203139345954944
 40
0.6232711217495156
 40
0.626290642952839
 40
0.629372498175489
 40
0.6325166873869263
 40
0.6357232105560474
 40
0.6389920676511841
 40
0.6423232586401045
 40
0.6457167834900124
 40
0.6491726421675474
 40
0.6526908346387851
 40
0.6562713608692367
 40
0.6599142208238491
 40
0.6636194144670055
 40
0.6673869417625243
 40
0.6712168026736606
 40
0.6751089971631045
 40
0.6790635251929824
 40
0.683080386724856
 40
0.6871595817197238
 40
0.6913011101380193
 40
0.6955049719396119
 40
0.6997711670838073
 40
0.7040996955293461
 40
0.7084905572344062
 40
0.7129437521566002
 40
0.7174592802529769
 40
0.7220371414800207
 40
0.7266773357936519
 40
0.7313798631492272
 40
0.7361447235015381
 40
0.7409719168048129
 40
0.7458614430127153
 40
0.7508133020783452
 40
0.7558274939542371
 40
0.760904018592363
 40
0.7660428759441297
 40
0.7712440659603802
 40
0.7765075885913935
 40
0.7818334437868839
 40
0.787221631496002
 40
0.792672151667334
 40
0.7981850042489019
 40
0.803760189188164
 40
0.809397706432014
 40
0.8150975559267816
 40
0.820859737618232
 40
0.8266842514515669
 40
0.8325710973714232
 40
0.838520275321874
 40
0.8445317852464279
 40
0.8506056270880304
 40
0.8567418007890616
 40
0.8629403062913373
 40
0.8692011435361107
 40
0.8755243124640691
 40
0.881909813015337
 40
0.888357645129474
 40
0.8948678087454758
 40
0.9014403038017736
 40
0.9080751302362351
 40
0.9147722879861632
 40
0.921531776988297
 40
0.9283535971788118
 40
0.9352377484933174
 40
0.9421842308668615
 40
0.9491930442339257
 40
0.9562641885284286
 40
0.9633976636837244
 40
0.970593469632603
 40
0.9778516063072903
 40
0.9851720736394478
 40
0.9925548715601732
 40
1.0
 40
1.0
 40
1.0
 40
1.0
 10
190.9515308331373
 20
162.3314589260133
 30
0.0
 10
190.9516192689463
 20
162.3314589260125
 30
0.0
 10
190.9517961399401
 20
162.331458926011
 30
0.0
 10
190.9532267640069
 20
162.3314589260765
 30
0.0
 10
190.955509977723
 20
162.3314589266261
 30
0.0
 10
190.9587300465003
 20
162.3314589278685
 30
0.0
 10
190.9643414092156
 20
162.3314589331975
 30
0.0
 10
190.9754426706536
 20
162.3314589381227
 30
0.0
 10
191.0016023831424
 20
162.3314589287114
 30
0.0
 10
191.0521835717476
 20
162.3314589258129
 30
0.0
 10
191.1361040871228
 20
162.3314589350965
 30
0.0
 10
191.2468485206033
 20
162.3314589472776
 30
0.0
 10
191.362395929998
 20
162.3314589231374
 30
0.0
 10
191.5202844095223
 20
162.3314589278409
 30
0.0
 10
191.7828563422798
 20
162.3314589249005
 30
0.0
 10
192.2305481059138
 20
162.3314589272606
 30
0.0
 10
192.8190783314664
 20
162.3314589274155
 30
0.0
 10
193.4476206995996
 20
162.3314589270578
 30
0.0
 10
194.0845205027766
 20
162.3314589255808
 30
0.0
 10
194.6426196365597
 20
162.3314589268081
 30
0.0
 10
195.0722145627635
 20
162.3314589246142
 30
0.0
 10
195.3724268727996
 20
162.3314589431847
 30
0.0
 10
195.7131196233059
 20
162.3314589317847
 30
0.0
 10
196.1316224906996
 20
162.3314589223653
 30
0.0
 10
196.6393712150835
 20
162.3314589343653
 30
0.0
 10
197.0590451470324
 20
162.3314589245576
 30
0.0
 10
197.3574485265069
 20
162.331458926694
 30
0.0
 10
197.5250864097446
 20
162.3314589320414
 30
0.0
 10
197.6635979645174
 20
162.331458936509
 30
0.0
 10
197.8676178557905
 20
162.3314589298172
 30
0.0
 10
198.0344837724537
 20
162.3314589266297
 30
0.0
 10
198.1472321527384
 20
162.3314589261935
 30
0.0
 10
198.1501512560284
 20
162.3314589261886
 30
0.0
 10
198.154266039614
 20
162.3314589261826
 30
0.0
 10
198.1595761097879
 20
162.331458926177
 30
0.0
 10
198.1660809418467
 20
162.3314589261715
 30
0.0
 10
198.1737798914587
 20
162.331458926166
 30
0.0
 10
198.1826721853359
 20
162.3314589261608
 30
0.0
 10
198.1927569188856
 20
162.3314589261556
 30
0.0
 10
198.204033050398
 20
162.3314589261505
 30
0.0
 10
198.2164993954987
 20
162.3314589261456
 30
0.0
 10
198.2301546206026
 20
162.3314589261408
 30
0.0
 10
198.24499723579
 20
162.3314589261361
 30
0.0
 10
198.2610255869719
 20
162.3314589261316
 30
0.0
 10
198.2782378473899
 20
162.3314589261272
 30
0.0
 10
198.2966320084407
 20
162.3314589261229
 30
0.0
 10
198.3162058698306
 20
162.3314589261187
 30
0.0
 10
198.3369570290624
 20
162.3314589261147
 30
0.0
 10
198.3588828702599
 20
162.3314589261108
 30
0.0
 10
198.381980552331
 20
162.331458926107
 30
0.0
 10
198.4062469964761
 20
162.3314589261033
 30
0.0
 10
198.4316788730451
 20
162.3314589260997
 30
0.0
 10
198.458272587748
 20
162.3314589260962
 30
0.0
 10
198.4860242672249
 20
162.3314589260928
 30
0.0
 10
198.5149297439822
 20
162.3314589260895
 30
0.0
 10
198.5449845406995
 20
162.3314589260864
 30
0.0
 10
198.5761838539167
 20
162.3314589260833
 30
0.0
 10
198.6085225371076
 20
162.3314589260803
 30
0.0
 10
198.6419950831487
 20
162.3314589260775
 30
0.0
 10
198.6765956061931
 20
162.3314589260746
 30
0.0
 10
198.7123178229575
 20
162.331458926072
 30
0.0
 10
198.7491550334359
 20
162.3314589260693
 30
0.0
 10
198.7871001010483
 20
162.3314589260669
 30
0.0
 10
198.8261454322391
 20
162.3314589260644
 30
0.0
 10
198.8662829555373
 20
162.3314589260621
 30
0.0
 10
198.9075041000932
 20
162.3314589260598
 30
0.0
 10
198.9497997737062
 20
162.3314589260576
 30
0.0
 10
198.9931603403611
 20
162.3314589260555
 30
0.0
 10
199.0375755972896
 20
162.3314589260535
 30
0.0
 10
199.083034751575
 20
162.3314589260515
 30
0.0
 10
199.1295263963216
 20
162.3314589260496
 30
0.0
 10
199.1770384864078
 20
162.3314589260478
 30
0.0
 10
199.2255583138467
 20
162.3314589260461
 30
0.0
 10
199.2750724827778
 20
162.3314589260444
 30
0.0
 10
199.3255668841138
 20
162.3314589260428
 30
0.0
 10
199.3770266698707
 20
162.3314589260412
 30
0.0
 10
199.4294362272084
 20
162.3314589260397
 30
0.0
 10
199.4827791522109
 20
162.3314589260384
 30
0.0
 10
199.53703822344
 20
162.3314589260369
 30
0.0
 10
199.5921953752917
 20
162.3314589260357
 30
0.0
 10
199.6482316711938
 20
162.3314589260343
 30
0.0
 10
199.7051272766788
 20
162.3314589260332
 30
0.0
 10
199.7628614323716
 20
162.331458926032
 30
0.0
 10
199.8214124269315
 20
162.331458926031
 30
0.0
 10
199.8807575699924
 20
162.3314589260299
 30
0.0
 10
199.940873165142
 20
162.3314589260289
 30
0.0
 10
200.0017344829911
 20
162.3314589260279
 30
0.0
 10
200.063315734376
 20
162.331458926027
 30
0.0
 10
200.1255900437486
 20
162.3314589260261
 30
0.0
 10
200.1885294228042
 20
162.3314589260253
 30
0.0
 10
200.2521047444032
 20
162.3314589260245
 30
0.0
 10
200.3162857168418
 20
162.3314589260238
 30
0.0
 10
200.3810408585335
 20
162.3314589260231
 30
0.0
 10
200.4463374731599
 20
162.3314589260223
 30
0.0
 10
200.5121416253571
 20
162.3314589260218
 30
0.0
 10
200.5784181170013
 20
162.3314589260212
 30
0.0
 10
200.6451304641649
 20
162.3314589260205
 30
0.0
 10
200.71224087481
 20
162.3314589260201
 30
0.0
 10
200.7797102272961
 20
162.3314589260195
 30
0.0
 10
200.847498049775
 20
162.3314589260191
 30
0.0
 10
200.9155625005508
 20
162.3314589260186
 30
0.0
 10
200.9838603494865
 20
162.3314589260181
 30
0.0
 10
201.0523469605373
 20
162.3314589260178
 30
0.0
 10
201.1209762754971
 20
162.3314589260174
 30
0.0
 10
201.1897007990443
 20
162.3314589260171
 30
0.0
 10
201.2584715851752
 20
162.3314589260167
 30
0.0
 10
201.3272382251182
 20
162.3314589260164
 30
0.0
 10
201.3959488368195
 20
162.3314589260161
 30
0.0
 10
201.4645500560985
 20
162.3314589260159
 30
0.0
 10
201.5329870295672
 20
162.3314589260156
 30
0.0
 10
201.6012034094155
 20
162.3314589260154
 30
0.0
 10
201.6691413501624
 20
162.3314589260152
 30
0.0
 10
201.7367415074753
 20
162.331458926015
 30
0.0
 10
201.8039430391619
 20
162.3314589260148
 30
0.0
 10
201.8706836084419
 20
162.3314589260147
 30
0.0
 10
201.9368993896036
 20
162.3314589260145
 30
0.0
 10
202.0025250761547
 20
162.3314589260144
 30
0.0
 10
202.0674938915775
 20
162.3314589260142
 30
0.0
 10
202.1317376027963
 20
162.3314589260141
 30
0.0
 10
202.1951865364706
 20
162.3314589260141
 30
0.0
 10
202.2577695982241
 20
162.3314589260139
 30
0.0
 10
202.3194142949208
 20
162.3314589260138
 30
0.0
 10
202.3800467601013
 20
162.3314589260137
 30
0.0
 10
202.4395917826891
 20
162.3314589260137
 30
0.0
 10
202.4979728390803
 20
162.3314589260136
 30
0.0
 10
202.5551121287242
 20
162.3314589260136
 30
0.0
 10
202.6109306133075
 20
162.3314589260135
 30
0.0
 10
202.6653480596478
 20
162.3314589260135
 30
0.0
 10
202.7182830864043
 20
162.3314589260135
 30
0.0
 10
202.7696532147103
 20
162.3314589260134
 30
0.0
 10
202.8193749228294
 20
162.3314589260134
 30
0.0
 10
202.8673637049372
 20
162.3314589260134
 30
0.0
 10
202.9135341341228
 20
162.3314589260134
 30
0.0
 10
202.9577999297051
 20
162.3314589260133
 30
0.0
 10
203.0000740289592
 20
162.3314589260133
 30
0.0
 10
203.0402686633134
 20
162.3314589260133
 30
0.0
 10
203.0782954391909
 20
162.3314589260133
 30
0.0
 10
203.1140654232289
 20
162.3314589260133
 30
0.0
 10
203.1474892332394
 20
162.3314589260133
 30
0.0
 10
203.1784771300836
 20
162.3314589260133
 30
0.0
 10
203.2069391290336
 20
162.3314589260133
 30
0.0
 10
203.2327850606194
 20
162.3314589260133
 30
0.0
 10
203.2559248460186
 20
162.3314589260133
 30
0.0
 10
203.2762679846035
 20
162.3314589260132
 30
0.0
 10
203.2937260448988
 20
162.3314589260133
 30
0.0
 10
203.30820382199
 20
162.3314589260133
 30
0.0
 10
203.3196333721639
 20
162.3314589260133
 30
0.0
 10
203.3278459669792
 20
162.3314589260133
 30
0.0
 10
203.3330567764547
 20
162.3314589260133
 30
0.0
 10
203.333705238953
 20
162.3314589260133
 30
0.0
 10
203.3340308331373
 20
162.3314589260133
 30
0.0
  0
ARC
  5
15A
330
1F
100
AcDbEntity
  8
0
  6
Continuous
 62
     7
370
    15
100
AcDbCircle
 10
190.9515308331
 20
162.490208926
 30
0.0
 40
0.1587499999999977
100
AcDbArc
 50
180.0000000235
 51
270.0
  0
LINE
  5
15B
330
1F
100
AcDbEntity
  8
0
  6
Continuous
 62
     7
370
    15
100
AcDbLine
 10
203.4927808331
 20
162.490208926
 30
0.0
 11
190.7927808331
 21
162.490208926
 31
0.0
  0
ARC
  5
15C
330
1F
100
AcDbEntity
  8
0
  6
Continuous
 62
     7
370
    15
100
AcDbCircle
 10
203.3340308331
 20
162.490208926
 30
0.0
 40
0.1587500000000157
100
AcDbArc
 50
270.000000011
 51
359.9999999765
  0
LINE
  5
15D
330
1F
100
AcDbEntity
  8
0
  6
Continuous
 62
     7
370
    15
100
AcDbLine
 10
203.4927808331
 20
162.4902089259
 30
0.0
 11
203.4927808331
 21
166.776458926
 31
0.0
  0
LINE
  5
15E
330
1F
100
AcDbEntity
  8
0
  6
Continuous
 62
     7
370
    15
100
AcDbLine
 10
190.7927808331
 20
166.776458926
 30
0.0
 11
190.7927808331
 21
162.490208926
 31
0.0
  0
LINE
  5
15F
330
1F
100
AcDbEntity
  8
0
  6
Continuous
 62
     7
370
    15
100
AcDbLine
 10
190.7927808331
 20
166.776458926
 30
0.0
 11
203.4927808331
 21
166.776458926
 31
0.0
  0
LINE
  5
160
330
1F
100
AcDbEntity
  8
0
  6
Continuous
 62
     7
370
    15
100
AcDbLine
 10
195.5552808331
 20
59.8160448514
 30
0.0
 11
195.5552808325
 21
59.1153136526
 31
0.0
  0
LINE
  5
161
330
1F
100
AcDbEntity
  8
0
  6
Continuous
 62
     7
370
    15
100
AcDbLine
 10
198.7302808331
 20
59.8160448514
 30
0.0
 11
195.5552808331
 21
59.8160448514
 31
0.0
  0
LINE
  5
162
330
1F
100
AcDbEntity
  8
0
  6
Continuous
 62
     7
370
    15
100
AcDbLine
 10
198.7302808355
 20
59.1153136524
 30
0.0
 11
198.7302808331
 21
59.8160448514
 31
0.0
  0
LINE
  5
163
330
1F
100
AcDbEntity
  8
0
  6
Continuous
 62
     7
370
    15
100
AcDbLine
 10
197.1493011992
 20
59.2009590757
 30
0.0
 11
197.1362604673
 21
59.2009590712
 31
0.0
  0
LINE
  5
164
330
1F
100
AcDbEntity
  8
0
  6
Continuous
 62
     7
370
    15
100
AcDbLine
 10
195.5552808331
 20
72.4716555007
 30
0.0
 11
195.5552808331
 21
59.8160448514
 31
0.0
  0
LINE
  5
165
330
1F
100
AcDbEntity
  8
0
  6
Continuous
 62
     7
370
    15
100
AcDbLine
 10
198.7302808331
 20
72.4716555007
 30
0.0
 11
197.2221558331
 21
72.4716555007
 31
0.0
  0
LINE
  5
166
330
1F
100
AcDbEntity
  8
0
  6
Continuous
 62
     7
370
    15
100
AcDbLine
 10
197.0634058331
 20
72.4716555007
 30
0.0
 11
195.5552808331
 21
72.4716555007
 31
0.0
  0
LWPOLYLINE
  5
167
330
1F
100
AcDbEntity
  8
0
  6
Continuous
 62
     7
370
    15
100
AcDbPolyline
 90
        5
 70
   128
 43
0.0
 10
197.2221558331
 20
70.0558406048
 10
197.2339073255
 20
70.0576740066
 10
197.3111606354
 20
70.07866935
 10
197.3627796468
 20
70.110091102
 10
197.3809058332
 20
70.1471555856
  0
LWPOLYLINE
  5
168
330
1F
100
AcDbEntity
  8
0
  6
Continuous
 62
     7
370
    15
100
AcDbPolyline
 90
        5
 70
   128
 43
0.0
 10
196.9046558331
 20
70.1471555856
 10
196.9227820194
 20
70.110091102
 10
196.9744010309
 20
70.07866935
 10
197.0516543408
 20
70.0576740066
 10
197.0634058331
 20
70.0558406048
  0
LWPOLYLINE
  5
169
330
1F
100
AcDbEntity
  8
0
  6
Continuous
 62
     7
370
    15
100
AcDbPolyline
 90
        5
 70
   128
 43
0.0
 10
197.1427808331
 20
62.0436906034
 10
197.2339073255
 20
62.0510631876
 10
197.3111606354
 20
62.072058531
 10
197.3627796469
 20
62.103480283
 10
197.3809058332
 20
62.1405447666
  0
LWPOLYLINE
  5
16A
330
1F
100
AcDbEntity
  8
0
  6
Continuous
 62
     7
370
    15
100
AcDbPolyline
 90
        5
 70
   128
 43
0.0
 10
196.9046558331
 20
62.1405447666
 10
196.9227820194
 20
62.103480283
 10
196.9744010308
 20
62.072058531
 10
197.0516543408
 20
62.0510631876
 10
197.1427808331
 20
62.0436906034
  0
LINE
  5
16B
330
1F
100
AcDbEntity
  8
0
  6
Continuous
 62
     7
370
    15
100
AcDbLine
 10
198.7302808331
 20
59.8160448514
 30
0.0
 11
198.7302808331
 21
72.4716555007
 31
0.0
  0
LINE
  5
16C
330
1F
100
AcDbEntity
  8
0
  6
Continuous
 62
     7
370
    15
100
AcDbLine
 10
198.7289218892
 20
161.277358926
 30
0.0
 11
195.556639777
 21
161.277358926
 31
0.0
  0
LINE
  5
16D
330
1F
100
AcDbEntity
  8
0
  6
Continuous
 62
     7
370
    15
100
AcDbLine
 10
195.556639777
 20
162.261608926
 30
0.0
 11
198.7289218892
 21
162.261608926
 31
0.0
  0
LWPOLYLINE
  5
16E
330
1F
100
AcDbEntity
  8
0
  6
Continuous
 62
     7
370
    15
100
AcDbPolyline
 90
        9
 70
   128
 43
0.0
 10
197.1427808331
 20
62.1572501222
 10
197.2339073255
 20
62.1646227064
 10
197.3111606354
 20
62.1856180498
 10
197.3627796469
 20
62.2170398018
 10
197.3809058332
 20
62.2541042854
 10
197.3627796469
 20
62.291168769
 10
197.3111606354
 20
62.3225905209
 10
197.2339073255
 20
62.3435858643
 10
197.2221558331
 20
62.3454192661
  0
LWPOLYLINE
  5
16F
330
1F
100
AcDbEntity
  8
0
  6
Continuous
 62
     7
370
    15
100
AcDbPolyline
 90
        9
 70
   128
 43
0.0
 10
197.0634058331
 20
62.3454192661
 10
197.0516543408
 20
62.3435858643
 10
196.9744010308
 20
62.3225905209
 10
196.9227820194
 20
62.291168769
 10
196.9046558331
 20
62.2541042854
 10
196.9227820194
 20
62.2170398018
 10
196.9744010308
 20
62.1856180498
 10
197.0516543408
 20
62.1646227064
 10
197.1427808331
 20
62.1572501222
  0
ELLIPSE
  5
170
330
1F
100
AcDbEntity
  8
0
  6
Continuous
 62
     7
370
    15
100
AcDbEllipse
 10
197.1427808331
 20
62.2635870451
 30
0.0
 11
0.07937499999999886
 21
0.0
 31
0.0
210
0.0
220
0.0
230
1.0
 40
0.4452286853
 41
3.141592653589793
 42
6.283185307179586
  0
LINE
  5
171
330
1F
100
AcDbEntity
  8
0
  6
Continuous
 62
     7
370
    15
100
AcDbLine
 10
197.3030183553
 20
160.8162576502
 30
0.0
 11
196.9825433109
 21
160.8162576502
 31
0.0
  0
LWPOLYLINE
  5
172
330
1F
100
AcDbEntity
  8
0
  6
Continuous
 62
     7
370
    15
100
AcDbPolyline
 90
        9
 70
   128
 43
0.0
 10
197.2221558331
 20
70.1694001236
 10
197.2339073255
 20
70.1712335254
 10
197.3111606354
 20
70.1922288688
 10
197.3627796468
 20
70.2236506208
 10
197.3809058332
 20
70.2607151043
 10
197.3627796468
 20
70.2977795879
 10
197.3111606354
 20
70.3292013399
 10
197.2339073255
 20
70.3501966833
 10
197.2221558331
 20
70.3520300851
  0
LWPOLYLINE
  5
173
330
1F
100
AcDbEntity
  8
0
  6
Continuous
 62
     7
370
    15
100
AcDbPolyline
 90
        9
 70
   128
 43
0.0
 10
197.0634058331
 20
70.3520300851
 10
197.0516543408
 20
70.3501966833
 10
196.9744010309
 20
70.3292013399
 10
196.9227820194
 20
70.2977795879
 10
196.9046558331
 20
70.2607151043
 10
196.9227820194
 20
70.2236506208
 10
196.9744010309
 20
70.1922288688
 10
197.0516543408
 20
70.1712335254
 10
197.0634058331
 20
70.1694001236
  0
ENDSEC
  0
SECTION
  2
OBJECTS
  0
DICTIONARY
  5
C
330
0
100
AcDbDictionary
281
     1
  3
ACAD_GROUP
350
D
  3
ACAD_LAYOUT
350
1A
  3
ACAD_MLINESTYLE
350
17
  3
ACAD_PLOTSETTINGS
350
19
  3
ACAD_PLOTSTYLENAME
350
E
  3
ACAD_SCALELIST
350
47
  0
DICTIONARY
  5
D
102
{ACAD_REACTORS
330
C
102
}
330
C
100
AcDbDictionary
281
     1
  0
DICTIONARY
  5
1A
102
{ACAD_REACTORS
330
C
102
}
330
C
100
AcDbDictionary
281
     1
  3
Layout1
350
1E
  3
Layout2
350
26
  3
Model
350
22
  0
DICTIONARY
  5
17
102
{ACAD_REACTORS
330
C
102
}
330
C
100
AcDbDictionary
281
     1
  3
Standard
350
18
  0
DICTIONARY
  5
19
102
{ACAD_REACTORS
330
C
102
}
330
C
100
AcDbDictionary
281
     1
  0
ACDBDICTIONARYWDFLT
  5
E
102
{ACAD_REACTORS
330
C
102
}
330
C
100
AcDbDictionary
281
     1
  3
Normal
350
F
100
AcDbDictionaryWithDefault
340
F
  0
DICTIONARY
  5
47
102
{ACAD_REACTORS
330
C
102
}
330
C
100
AcDbDictionary
281
     1
  3
A0
350
48
  3
A1
350
49
  3
A2
350
4A
  3
A3
350
4B
  3
A4
350
4C
  3
A5
350
4D
  3
A6
350
4E
  3
A7
350
4F
  3
A8
350
50
  3
A9
350
51
  3
B0
350
52
  3
B1
350
53
  3
B2
350
54
  3
B3
350
55
  3
B4
350
56
  3
B5
350
57
  3
B6
350
58
  3
B7
350
59
  3
B8
350
5A
  3
B9
350
5B
  3
C0
350
5C
  3
C1
350
5D
  3
C2
350
5E
  3
C3
350
5F
  3
C4
350
60
  3
C5
350
61
  3
C6
350
62
  3
C7
350
63
  3
C8
350
64
  3
C9
350
65
  3
D0
350
66
  3
D1
350
67
  3
D2
350
68
  0
LAYOUT
  5
1E
102
{ACAD_REACTORS
330
1A
102
}
330
1A
100
AcDbPlotSettings
  1

  2
none_device
  4

  6

 40
0.0
 41
0.0
 42
0.0
 43
0.0
 44
0.0
 45
0.0
 46
0.0
 47
0.0
 48
0.0
 49
0.0
140
0.0
141
0.0
142
1.0
143
1.0
 70
   688
 72
     1
 73
     0
 74
     5
  7

 75
    16
147
1.0
148
0.0
149
0.0
100
AcDbLayout
  1
Layout1
 70
     1
 71
     1
 10
0.0
 20
0.0
 11
420.0
 21
297.0
 12
0.0
 22
0.0
 32
0.0
 14
1.0000000000E+20
 24
1.0000000000E+20
 34
1.0000000000E+20
 15
-1.0000000000E+20
 25
-1.0000000000E+20
 35
-1.0000000000E+20
146
0.0
 13
0.0
 23
0.0
 33
0.0
 16
1.0
 26
0.0
 36
0.0
 17
0.0
 27
1.0
 37
0.0
 76
     0
330
1B
  0
LAYOUT
  5
26
102
{ACAD_REACTORS
330
1A
102
}
330
1A
100
AcDbPlotSettings
  1

  2
none_device
  4

  6

 40
0.0
 41
0.0
 42
0.0
 43
0.0
 44
0.0
 45
0.0
 46
0.0
 47
0.0
 48
0.0
 49
0.0
140
0.0
141
0.0
142
1.0
143
1.0
 70
   688
 72
     1
 73
     0
 74
     5
  7

 75
    16
147
1.0
148
0.0
149
0.0
100
AcDbLayout
  1
Layout2
 70
     1
 71
     2
 10
0.0
 20
0.0
 11
0.0
 21
0.0
 12
0.0
 22
0.0
 32
0.0
 14
0.0
 24
0.0
 34
0.0
 15
0.0
 25
0.0
 35
0.0
146
0.0
 13
0.0
 23
0.0
 33
0.0
 16
1.0
 26
0.0
 36
0.0
 17
0.0
 27
1.0
 37
0.0
 76
     0
330
23
  0
LAYOUT
  5
22
102
{ACAD_REACTORS
330
1A
102
}
330
1A
100
AcDbPlotSettings
  1

  2
none_device
  4
Letter_(8.50_x_11.00_Inches)
  6

 40
6.35
 41
6.35
 42
6.35000508
 43
6.35000508
 44
215.9
 45
279.4
 46
0.0
 47
0.0
 48
0.0
 49
0.0
140
0.0
141
0.0
142
1.0
143
1.0
 70
  1712
 72
     1
 73
     0
 74
     0
  7

 75
     0
147
1.0
148
0.0
149
0.0
100
AcDbLayout
  1
Model
 70
     1
 71
     0
 10
0.0
 20
0.0
 11
431.8
 21
279.4
 12
0.0
 22
0.0
 32
0.0
 14
0.0
 24
0.0
 34
0.0
 15
431.8
 25
279.4
 35
0.0
146
0.0
 13
0.0
 23
0.0
 33
0.0
 16
1.0
 26
0.0
 36
0.0
 17
0.0
 27
1.0
 37
0.0
 76
     0
330
1F
331
29
  0
MLINESTYLE
  5
18
102
{ACAD_REACTORS
330
17
102
}
330
17
100
AcDbMlineStyle
  2
Standard
 70
     0
  3

 62
   256
 51
90.0
 52
90.0
 71
     2
 49
0.5
 62
   256
  6
BYLAYER
 49
-0.5
 62
   256
  6
BYLAYER
  0
ACDBPLACEHOLDER
  5
F
102
{ACAD_REACTORS
330
E
102
}
330
E
  0
SCALE
  5
48
102
{ACAD_REACTORS
330
47
102
}
330
47
100
AcDbScale
 70
     0
300
1:1
140
1.0
141
1.0
290
     1
  0
SCALE
  5
49
102
{ACAD_REACTORS
330
47
102
}
330
47
100
AcDbScale
 70
     0
300
1:2
140
1.0
141
2.0
290
     0
  0
SCALE
  5
4A
102
{ACAD_REACTORS
330
47
102
}
330
47
100
AcDbScale
 70
     0
300
1:4
140
1.0
141
4.0
290
     0
  0
SCALE
  5
4B
102
{ACAD_REACTORS
330
47
102
}
330
47
100
AcDbScale
 70
     0
300
1:5
140
1.0
141
5.0
290
     0
  0
SCALE
  5
4C
102
{ACAD_REACTORS
330
47
102
}
330
47
100
AcDbScale
 70
     0
300
1:8
140
1.0
141
8.0
290
     0
  0
SCALE
  5
4D
102
{ACAD_REACTORS
330
47
102
}
330
47
100
AcDbScale
 70
     0
300
1:10
140
1.0
141
10.0
290
     0
  0
SCALE
  5
4E
102
{ACAD_REACTORS
330
47
102
}
330
47
100
AcDbScale
 70
     0
300
1:16
140
1.0
141
16.0
290
     0
  0
SCALE
  5
4F
102
{ACAD_REACTORS
330
47
102
}
330
47
100
AcDbScale
 70
     0
300
1:20
140
1.0
141
20.0
290
     0
  0
SCALE
  5
50
102
{ACAD_REACTORS
330
47
102
}
330
47
100
AcDbScale
 70
     0
300
1:30
140
1.0
141
30.0
290
     0
  0
SCALE
  5
51
102
{ACAD_REACTORS
330
47
102
}
330
47
100
AcDbScale
 70
     0
300
1:40
140
1.0
141
40.0
290
     0
  0
SCALE
  5
52
102
{ACAD_REACTORS
330
47
102
}
330
47
100
AcDbScale
 70
     0
300
1:50
140
1.0
141
50.0
290
     0
  0
SCALE
  5
53
102
{ACAD_REACTORS
330
47
102
}
330
47
100
AcDbScale
 70
     0
300
1:100
140
1.0
141
100.0
290
     0
  0
SCALE
  5
54
102
{ACAD_REACTORS
330
47
102
}
330
47
100
AcDbScale
 70
     0
300
2:1
140
2.0
141
1.0
290
     0
  0
SCALE
  5
55
102
{ACAD_REACTORS
330
47
102
}
330
47
100
AcDbScale
 70
     0
300
4:1
140
4.0
141
1.0
290
     0
  0
SCALE
  5
56
102
{ACAD_REACTORS
330
47
102
}
330
47
100
AcDbScale
 70
     0
300
8:1
140
8.0
141
1.0
290
     0
  0
SCALE
  5
57
102
{ACAD_REACTORS
330
47
102
}
330
47
100
AcDbScale
 70
     0
300
10:1
140
10.0
141
1.0
290
     0
  0
SCALE
  5
58
102
{ACAD_REACTORS
330
47
102
}
330
47
100
AcDbScale
 70
     0
300
100:1
140
100.0
141
1.0
290
     0
  0
SCALE
  5
59
102
{ACAD_REACTORS
330
47
102
}
330
47
100
AcDbScale
 70
     0
300
1/128" = 1'-0"
140
0.0078125
141
12.0
290
     0
  0
SCALE
  5
5A
102
{ACAD_REACTORS
330
47
102
}
330
47
100
AcDbScale
 70
     0
300
1/64" = 1'-0"
140
0.015625
141
12.0
290
     0
  0
SCALE
  5
5B
102
{ACAD_REACTORS
330
47
102
}
330
47
100
AcDbScale
 70
     0
300
1/32" = 1'-0"
140
0.03125
141
12.0
290
     0
  0
SCALE
  5
5C
102
{ACAD_REACTORS
330
47
102
}
330
47
100
AcDbScale
 70
     0
300
1/16" = 1'-0"
140
0.0625
141
12.0
290
     0
  0
SCALE
  5
5D
102
{ACAD_REACTORS
330
47
102
}
330
47
100
AcDbScale
 70
     0
300
3/32" = 1'-0"
140
0.09375
141
12.0
290
     0
  0
SCALE
  5
5E
102
{ACAD_REACTORS
330
47
102
}
330
47
100
AcDbScale
 70
     0
300
1/8" = 1'-0"
140
0.125
141
12.0
290
     0
  0
SCALE
  5
5F
102
{ACAD_REACTORS
330
47
102
}
330
47
100
AcDbScale
 70
     0
300
3/16" = 1'-0"
140
0.1875
141
12.0
290
     0
  0
SCALE
  5
60
102
{ACAD_REACTORS
330
47
102
}
330
47
100
AcDbScale
 70
     0
300
1/4" = 1'-0"
140
0.25
141
12.0
290
     0
  0
SCALE
  5
61
102
{ACAD_REACTORS
330
47
102
}
330
47
100
AcDbScale
 70
     0
300
3/8" = 1'-0"
140
0.375
141
12.0
290
     0
  0
SCALE
  5
62
102
{ACAD_REACTORS
330
47
102
}
330
47
100
AcDbScale
 70
     0
300
1/2" = 1'-0"
140
0.5
141
12.0
290
     0
  0
SCALE
  5
63
102
{ACAD_REACTORS
330
47
102
}
330
47
100
AcDbScale
 70
     0
300
3/4" = 1'-0"
140
0.75
141
12.0
290
     0
  0
SCALE
  5
64
102
{ACAD_REACTORS
330
47
102
}
330
47
100
AcDbScale
 70
     0
300
1" = 1'-0"
140
1.0
141
12.0
290
     0
  0
SCALE
  5
65
102
{ACAD_REACTORS
330
47
102
}
330
47
100
AcDbScale
 70
     0
300
1-1/2" = 1'-0"
140
1.5
141
12.0
290
     0
  0
SCALE
  5
66
102
{ACAD_REACTORS
330
47
102
}
330
47
100
AcDbScale
 70
     0
300
3" = 1'-0"
140
3.0
141
12.0
290
     0
  0
SCALE
  5
67
102
{ACAD_REACTORS
330
47
102
}
330
47
100
AcDbScale
 70
     0
300
6" = 1'-0"
140
6.0
141
12.0
290
     0
  0
SCALE
  5
68
102
{ACAD_REACTORS
330
47
102
}
330
47
100
AcDbScale
 70
     0
300
1'-0" = 1'-0"
140
12.0
141
12.0
290
     0
  0
ENDSEC
  0
EOF
