  0
SECTION
  2
HEADER
  9
$ACADVER
  1
AC1015
  9
$ACADMAINTVER
 70
     6
  9
$DWGCODEPAGE
  3
ANSI_1252
  9
$INSBASE
 10
0.0
 20
0.0
 30
0.0
  9
$EXTMIN
 10
0.0
 20
0.0
 30
0.0
  9
$EXTMAX
 10
431.8
 20
279.4
 30
0.0
  9
$LIMMIN
 10
0.0
 20
0.0
  9
$LIMMAX
 10
431.8
 20
279.4
  9
$ORTHOMODE
 70
     0
  9
$REGENMODE
 70
     1
  9
$FILLMODE
 70
     1
  9
$QTEXTMODE
 70
     0
  9
$MIRRTEXT
 70
     1
  9
$LTSCALE
 40
1.0
  9
$ATTMODE
 70
     1
  9
$TEXTSIZE
 40
3.175
  9
$TRACEWID
 40
1.0
  9
$TEXTSTYLE
  7
Standard
  9
$CLAYER
  8
0
  9
$CELTYPE
  6
ByLayer
  9
$CECOLOR
 62
   256
  9
$CELTSCALE
 40
1.0
  9
$DISPSILH
 70
     0
  9
$DIMSCALE
 40
1.0
  9
$DIMASZ
 40
3.302
  9
$DIMEXO
 40
1.27
  9
$DIMDLI
 40
3.75
  9
$DIMRND
 40
0.0
  9
$DIMDLE
 40
0.0
  9
$DIMEXE
 40
3.175
  9
$DIMTP
 40
0.0
  9
$DIMTM
 40
0.0
  9
$DIMTXT
 40
3.175
  9
$DIMCEN
 40
2.5
  9
$DIMTSZ
 40
0.0
  9
$DIMTOL
 70
     0
  9
$DIMLIM
 70
     0
  9
$DIMTIH
 70
     1
  9
$DIMTOH
 70
     1
  9
$DIMSE1
 70
     0
  9
$DIMSE2
 70
     0
  9
$DIMTAD
 70
     0
  9
$DIMZIN
 70
     0
  9
$DIMBLK
  1

  9
$DIMASO
 70
     1
  9
$DIMSHO
 70
     1
  9
$DIMPOST
  1

  9
$DIMAPOST
  1

  9
$DIMALT
 70
     0
  9
$DIMALTD
 70
     3
  9
$DIMALTF
 40
0.0393700787
  9
$DIMLFAC
 40
15.0
  9
$DIMTOFL
 70
     1
  9
$DIMTVP
 40
0.0
  9
$DIMTIX
 70
     0
  9
$DIMSOXD
 70
     0
  9
$DIMSAH
 70
     0
  9
$DIMBLK1
  1

  9
$DIMBLK2
  1

  9
$DIMSTYLE
  2
ISO-25
  9
$DIMCLRD
 70
     0
  9
$DIMCLRE
 70
     0
  9
$DIMCLRT
 70
     0
  9
$DIMTFAC
 40
1.0
  9
$DIMGAP
 40
1.524
  9
$DIMJUST
 70
     0
  9
$DIMSD1
 70
     0
  9
$DIMSD2
 70
     0
  9
$DIMTOLJ
 70
     0
  9
$DIMTZIN
 70
     0
  9
$DIMALTZ
 70
     0
  9
$DIMALTTZ
 70
     0
  9
$DIMUPT
 70
     0
  9
$DIMDEC
 70
     0
  9
$DIMTDEC
 70
     0
  9
$DIMALTU
 70
     2
  9
$DIMALTTD
 70
     3
  9
$DIMTXSTY
  7
Standard
  9
$DIMAUNIT
 70
     0
  9
$DIMADEC
 70
     0
  9
$DIMALTRND
 40
0.0
  9
$DIMAZIN
 70
     0
  9
$DIMDSEP
 70
    44
  9
$DIMATFIT
 70
     3
  9
$DIMFRAC
 70
     0
  9
$DIMLDRBLK
  1

  9
$DIMLUNIT
 70
     2
  9
$DIMLWD
 70
    -2
  9
$DIMLWE
 70
    -2
  9
$DIMTMOVE
 70
     0
  9
$LUNITS
 70
     2
  9
$LUPREC
 70
     2
  9
$SKETCHINC
 40
1.0
  9
$FILLETRAD
 40
10.0
  9
$AUNITS
 70
     0
  9
$AUPREC
 70
     2
  9
$MENU
  1
.
  9
$ELEVATION
 40
0.0
  9
$PELEVATION
 40
0.0
  9
$THICKNESS
 40
0.0
  9
$LIMCHECK
 70
     0
  9
$CHAMFERA
 40
0.0
  9
$CHAMFERB
 40
0.0
  9
$CHAMFERC
 40
0.0
  9
$CHAMFERD
 40
0.0
  9
$SKPOLY
 70
     0
  9
$TDCREATE
 40
2459153.562064305
  9
$TDUCREATE
 40
2459153.728730972
  9
$TDUPDATE
 40
2459153.562065289
  9
$TDUUPDATE
 40
2459153.728731956
  9
$TDINDWG
 40
0.0000000116
  9
$TDUSRTIMER
 40
0.0000000116
  9
$USRTIMER
 70
     1
  9
$ANGBASE
 50
0.0
  9
$ANGDIR
 70
     0
  9
$PDMODE
 70
     0
  9
$PDSIZE
 40
-1.0
  9
$PLINEWID
 40
0.0
  9
$SPLFRAME
 70
     0
  9
$SPLINETYPE
 70
     6
  9
$SPLINESEGS
 70
     8
  9
$HANDSEED
  5
287
  9
$SURFTAB1
 70
     6
  9
$SURFTAB2
 70
     6
  9
$SURFTYPE
 70
     6
  9
$SURFU
 70
     6
  9
$SURFV
 70
     6
  9
$UCSBASE
  2

  9
$UCSNAME
  2

  9
$UCSORG
 10
0.0
 20
0.0
 30
0.0
  9
$UCSXDIR
 10
1.0
 20
0.0
 30
0.0
  9
$UCSYDIR
 10
0.0
 20
1.0
 30
0.0
  9
$UCSORTHOREF
  2

  9
$UCSORTHOVIEW
 70
     0
  9
$UCSORGTOP
 10
0.0
 20
0.0
 30
0.0
  9
$UCSORGBOTTOM
 10
0.0
 20
0.0
 30
0.0
  9
$UCSORGLEFT
 10
0.0
 20
0.0
 30
0.0
  9
$UCSORGRIGHT
 10
0.0
 20
0.0
 30
0.0
  9
$UCSORGFRONT
 10
0.0
 20
0.0
 30
0.0
  9
$UCSORGBACK
 10
0.0
 20
0.0
 30
0.0
  9
$PUCSBASE
  2

  9
$PUCSNAME
  2

  9
$PUCSORG
 10
0.0
 20
0.0
 30
0.0
  9
$PUCSXDIR
 10
1.0
 20
0.0
 30
0.0
  9
$PUCSYDIR
 10
0.0
 20
1.0
 30
0.0
  9
$PUCSORTHOREF
  2

  9
$PUCSORTHOVIEW
 70
     0
  9
$PUCSORGTOP
 10
0.0
 20
0.0
 30
0.0
  9
$PUCSORGBOTTOM
 10
0.0
 20
0.0
 30
0.0
  9
$PUCSORGLEFT
 10
0.0
 20
0.0
 30
0.0
  9
$PUCSORGRIGHT
 10
0.0
 20
0.0
 30
0.0
  9
$PUCSORGFRONT
 10
0.0
 20
0.0
 30
0.0
  9
$PUCSORGBACK
 10
0.0
 20
0.0
 30
0.0
  9
$USERI1
 70
     0
  9
$USERI2
 70
     0
  9
$USERI3
 70
     0
  9
$USERI4
 70
     0
  9
$USERI5
 70
     0
  9
$USERR1
 40
0.0
  9
$USERR2
 40
0.0
  9
$USERR3
 40
0.0
  9
$USERR4
 40
0.0
  9
$USERR5
 40
0.0
  9
$WORLDVIEW
 70
     1
  9
$SHADEDGE
 70
     3
  9
$SHADEDIF
 70
    70
  9
$TILEMODE
 70
     1
  9
$MAXACTVP
 70
    64
  9
$PINSBASE
 10
0.0
 20
0.0
 30
0.0
  9
$PLIMCHECK
 70
     0
  9
$PEXTMIN
 10
1.0000000000E+20
 20
1.0000000000E+20
 30
1.0000000000E+20
  9
$PEXTMAX
 10
-1.0000000000E+20
 20
-1.0000000000E+20
 30
-1.0000000000E+20
  9
$PLIMMIN
 10
0.0
 20
0.0
  9
$PLIMMAX
 10
420.0
 20
297.0
  9
$UNITMODE
 70
     0
  9
$VISRETAIN
 70
     1
  9
$PLINEGEN
 70
     0
  9
$PSLTSCALE
 70
     1
  9
$TREEDEPTH
 70
  3020
  9
$CMLSTYLE
  2
Standard
  9
$CMLJUST
 70
     0
  9
$CMLSCALE
 40
20.0
  9
$PROXYGRAPHICS
 70
     1
  9
$MEASUREMENT
 70
     1
  9
$CELWEIGHT
370
    -1
  9
$ENDCAPS
280
     0
  9
$JOINSTYLE
280
     0
  9
$LWDISPLAY
290
     1
  9
$INSUNITS
 70
     4
  9
$HYPERLINKBASE
  1

  9
$STYLESHEET
  1

  9
$XEDIT
290
     1
  9
$CEPSNTYPE
380
     0
  9
$PSTYLEMODE
290
     1
  9
$FINGERPRINTGUID
  2
{d312d029-2b4a-4093-864c-5a31475e5059}
  9
$VERSIONGUID
  2
{FAEB1C32-E019-11D5-929B-00C0DF256EC4}
  9
$EXTNAMES
290
     1
  9
$PSVPSCALE
 40
0.0
  9
$OLESTARTUP
290
     0
  0
ENDSEC
  0
SECTION
  2
CLASSES
  0
CLASS
  1
ACDBDICTIONARYWDFLT
  2
AcDbDictionaryWithDefault
  3
ObjectDBX Classes
 90
        0
280
     0
281
     0
  0
CLASS
  1
VISUALSTYLE
  2
AcDbVisualStyle
  3
ObjectDBX Classes
 90
     4095
280
     0
281
     0
  0
CLASS
  1
MATERIAL
  2
AcDbMaterial
  3
ObjectDBX Classes
 90
     1153
280
     0
281
     0
  0
CLASS
  1
SCALE
  2
AcDbScale
  3
ObjectDBX Classes
 90
     1153
280
     0
281
     0
  0
CLASS
  1
TABLESTYLE
  2
AcDbTableStyle
  3
ObjectDBX Classes
 90
     4095
280
     0
281
     0
  0
CLASS
  1
MLEADERSTYLE
  2
AcDbMLeaderStyle
  3
ACDB_MLEADERSTYLE_CLASS
 90
     4095
280
     0
281
     0
  0
CLASS
  1
SUN
  2
AcDbSun
  3
SCENEOE
 90
     1153
280
     0
281
     0
  0
CLASS
  1
ACDBPLACEHOLDER
  2
AcDbPlaceHolder
  3
ObjectDBX Classes
 90
        0
280
     0
281
     0
  0
CLASS
  1
LAYOUT
  2
AcDbLayout
  3
ObjectDBX Classes
 90
        0
280
     0
281
     0
  0
ENDSEC
  0
SECTION
  2
TABLES
  0
TABLE
  2
VPORT
  5
8
330
0
100
AcDbSymbolTable
 70
     1
  0
VPORT
  5
29
330
8
100
AcDbSymbolTableRecord
100
AcDbViewportTableRecord
  2
*Active
 70
     0
 10
0.0
 20
0.0
 11
1.0
 21
1.0
 12
215.9
 22
139.7
 13
0.0
 23
0.0
 14
10.0
 24
10.0
 15
10.0
 25
10.0
 16
0.0
 26
0.0
 36
1.0
 17
0.0
 27
0.0
 37
0.0
 40
279.4
 41
1.5454545455
 42
50.0
 43
0.0
 44
0.0
 50
0.0
 51
0.0
 71
     0
 72
  2000
 73
     1
 74
     3
 75
     0
 76
     0
 77
     0
 78
     0
281
     0
 65
     1
110
0.0
120
0.0
130
0.0
111
1.0
121
0.0
131
0.0
112
0.0
122
1.0
132
0.0
 79
     0
146
0.0
  0
ENDTAB
  0
TABLE
  2
LTYPE
  5
5
330
0
100
AcDbSymbolTable
 70
     6
  0
LTYPE
  5
14
330
5
100
AcDbSymbolTableRecord
100
AcDbLinetypeTableRecord
  2
ByBlock
 70
     0
  3

 72
    65
 73
     0
 40
0.0
  0
LTYPE
  5
15
330
5
100
AcDbSymbolTableRecord
100
AcDbLinetypeTableRecord
  2
ByLayer
 70
     0
  3

 72
    65
 73
     0
 40
0.0
  0
LTYPE
  5
16
330
5
100
AcDbSymbolTableRecord
100
AcDbLinetypeTableRecord
  2
Continuous
 70
     0
  3
Solid line
 72
    65
 73
     0
 40
0.0
  0
LTYPE
  5
6E
330
5
100
AcDbSymbolTableRecord
100
AcDbLinetypeTableRecord
  2
HIDDEN
 70
     0
  3
Hidden __ __ __ __ __ __ __ __ __ __ __ __ __ __
 72
    65
 73
     2
 40
1.905
 49
1.27
 74
     0
 49
-0.635
 74
     0
  0
LTYPE
  5
6F
330
5
100
AcDbSymbolTableRecord
100
AcDbLinetypeTableRecord
  2
PHANTOM
 70
     0
  3
Phantom ______  __  __  ______  __  __  ______
 72
    65
 73
     6
 40
12.7
 49
6.35
 74
     0
 49
-1.27
 74
     0
 49
1.27
 74
     0
 49
-1.27
 74
     0
 49
1.27
 74
     0
 49
-1.27
 74
     0
  0
LTYPE
  5
70
330
5
100
AcDbSymbolTableRecord
100
AcDbLinetypeTableRecord
  2
CENTER
 70
     0
  3
Center ____ _ ____ _ ____ _ ____ _ ____ _ ____
 72
    65
 73
     4
 40
10.16
 49
6.35
 74
     0
 49
-1.27
 74
     0
 49
1.27
 74
     0
 49
-1.27
 74
     0
  0
LTYPE
  5
71
330
5
100
AcDbSymbolTableRecord
100
AcDbLinetypeTableRecord
  2
CENTERX2
 70
     0
  3
Center (2x) ________  __  ________  __  _____
 72
    65
 73
     4
 40
20.32
 49
12.7
 74
     0
 49
-2.54
 74
     0
 49
2.54
 74
     0
 49
-2.54
 74
     0
  0
LTYPE
  5
72
330
5
100
AcDbSymbolTableRecord
100
AcDbLinetypeTableRecord
  2
DOT2
 70
     0
  3
Dot (.5x) ........................................
 72
    65
 73
     2
 40
0.635
 49
0.0
 74
     0
 49
-0.635
 74
     0
  0
ENDTAB
  0
TABLE
  2
LAYER
  5
2
330
0
100
AcDbSymbolTable
 70
     2
  0
LAYER
  5
10
330
2
100
AcDbSymbolTableRecord
100
AcDbLayerTableRecord
  2
0
 70
     0
 62
     7
  6
Continuous
370
    -3
390
F
  0
LAYER
  5
73
330
2
100
AcDbSymbolTableRecord
100
AcDbLayerTableRecord
  2
FORMAT
 70
     0
 62
     7
  6
Continuous
370
    -3
390
F
  0
ENDTAB
  0
TABLE
  2
STYLE
  5
3
330
0
100
AcDbSymbolTable
 70
     2
  0
STYLE
  5
11
330
3
100
AcDbSymbolTableRecord
100
AcDbTextStyleTableRecord
  2
Standard
 70
     0
 40
0.0
 41
1.0
 50
0.0
 71
     0
 42
3.175
  3
txt
  4

  0
STYLE
  5
B8
330
3
100
AcDbSymbolTableRecord
100
AcDbTextStyleTableRecord
  2
SLDTEXTSTYLE0
 70
     0
 40
0.0
 41
0.7
 50
0.0
 71
     0
 42
3.175
  3
TXT
  4

  0
ENDTAB
  0
TABLE
  2
VIEW
  5
6
330
0
100
AcDbSymbolTable
 70
     0
  0
ENDTAB
  0
TABLE
  2
UCS
  5
7
330
0
100
AcDbSymbolTable
 70
     0
  0
ENDTAB
  0
TABLE
  2
APPID
  5
9
330
0
100
AcDbSymbolTable
 70
     1
  0
APPID
  5
12
330
9
100
AcDbSymbolTableRecord
100
AcDbRegAppTableRecord
  2
ACAD
 70
     0
  0
ENDTAB
  0
TABLE
  2
DIMSTYLE
  5
A
330
0
100
AcDbSymbolTable
 70
     1
100
AcDbDimStyleTable
  0
DIMSTYLE
105
27
330
A
100
AcDbSymbolTableRecord
100
AcDbDimStyleTableRecord
  2
ISO-25
 70
     0
 41
2.5
 42
0.625
 43
3.75
 44
1.25
 73
     0
 74
     0
 77
     1
 78
     8
140
2.5
141
2.5
143
0.0393700787
147
0.625
171
     3
172
     1
178
     0
271
     2
272
     2
274
     3
278
    44
283
     0
284
     8
340
11
  0
ENDTAB
  0
TABLE
  2
BLOCK_RECORD
  5
1
330
0
100
AcDbSymbolTable
 70
     5
  0
BLOCK_RECORD
  5
1F
330
1
100
AcDbSymbolTableRecord
100
AcDbBlockTableRecord
  2
*Model_Space
340
22
  0
BLOCK_RECORD
  5
1B
330
1
100
AcDbSymbolTableRecord
100
AcDbBlockTableRecord
  2
*Paper_Space
340
1E
  0
BLOCK_RECORD
  5
23
330
1
100
AcDbSymbolTableRecord
100
AcDbBlockTableRecord
  2
*Paper_Space0
340
26
  0
BLOCK_RECORD
  5
BB
330
1
100
AcDbSymbolTableRecord
100
AcDbBlockTableRecord
  2
SW_NOTE_0
340
0
102
{BLKREFS
331
C1
102
}
  0
BLOCK_RECORD
  5
C6
330
1
100
AcDbSymbolTableRecord
100
AcDbBlockTableRecord
  2
SW_NOTE_0_1
340
0
102
{BLKREFS
331
CC
102
}
  0
BLOCK_RECORD
  5
1DC
330
1
100
AcDbSymbolTableRecord
100
AcDbBlockTableRecord
  2
SW_CENTERMARKSYMBOL_0
340
0
102
{BLKREFS
331
1E7
102
}
  0
BLOCK_RECORD
  5
1E8
330
1
100
AcDbSymbolTableRecord
100
AcDbBlockTableRecord
  2
SW_CENTERMARKSYMBOL_1
340
0
102
{BLKREFS
331
1F3
102
}
  0
ENDTAB
  0
ENDSEC
  0
SECTION
  2
BLOCKS
  0
BLOCK
  5
20
330
1F
100
AcDbEntity
  8
0
100
AcDbBlockBegin
  2
*Model_Space
 70
     0
 10
0.0
 20
0.0
 30
0.0
  3
*Model_Space
  1

  0
ENDBLK
  5
21
330
1F
100
AcDbEntity
  8
0
100
AcDbBlockEnd
  0
BLOCK
  5
1C
330
1B
100
AcDbEntity
 67
     1
  8
0
100
AcDbBlockBegin
  2
*Paper_Space
 70
     0
 10
0.0
 20
0.0
 30
0.0
  3
*Paper_Space
  1

  0
ENDBLK
  5
1D
330
1B
100
AcDbEntity
 67
     1
  8
0
100
AcDbBlockEnd
  0
BLOCK
  5
24
330
23
100
AcDbEntity
  8
0
100
AcDbBlockBegin
  2
*Paper_Space0
 70
     0
 10
0.0
 20
0.0
 30
0.0
  3
*Paper_Space0
  1

  0
ENDBLK
  5
25
330
23
100
AcDbEntity
  8
0
100
AcDbBlockEnd
  0
BLOCK
  5
BC
330
BB
100
AcDbEntity
  8
0
100
AcDbBlockBegin
  2
SW_NOTE_0
 70
     0
 10
0.0
 20
0.0
 30
0.0
  3
SW_NOTE_0
  1

  0
MTEXT
  5
BE
330
BB
100
AcDbEntity
  8
0
  6
Continuous
 62
     0
370
     0
100
AcDbMText
 10
0.0
 20
2.0463950369
 30
0.0
 40
1.5875
 41
0.0
 71
     1
 72
     1
  1
87 34th Street, Unit 11, Brooklyn, NY 11232
  7
SLDTEXTSTYLE0
 73
     1
 44
1.0
  0
MTEXT
  5
BF
330
BB
100
AcDbEntity
  8
0
  6
Continuous
 62
     0
370
     0
100
AcDbMText
 10
0.0
 20
-0.0702716042
 30
0.0
 40
1.5875
 41
0.0
 71
     1
 72
     1
  1
T +1 718-387-6132
  7
SLDTEXTSTYLE0
 73
     1
 44
1.0
  0
MTEXT
  5
C0
330
BB
100
AcDbEntity
  8
0
  6
Continuous
 62
     0
370
     0
100
AcDbMText
 10
0.0
 20
-2.1869382453
 30
0.0
 40
1.5875
 41
0.0
 71
     1
 72
     1
  1
www.rollandhill.com
  7
SLDTEXTSTYLE0
 73
     1
 44
1.0
  0
ENDBLK
  5
BD
330
BB
100
AcDbEntity
  8
0
100
AcDbBlockEnd
  0
BLOCK
  5
C7
330
C6
100
AcDbEntity
  8
0
100
AcDbBlockBegin
  2
SW_NOTE_0_1
 70
     0
 10
0.0
 20
0.0
 30
0.0
  3
SW_NOTE_0_1
  1

  0
MTEXT
  5
C9
330
C6
100
AcDbEntity
  8
0
  6
Continuous
 62
     0
370
     0
100
AcDbMText
 10
0.0
 20
2.0463950369
 30
0.0
 40
1.5875
 41
0.0
 71
     1
 72
     1
  1
\LPROPRIETARY AND CONFIDENTIAL
  7
SLDTEXTSTYLE0
 73
     1
 44
1.0
  0
MTEXT
  5
CA
330
C6
100
AcDbEntity
  8
0
  6
Continuous
 62
     0
370
     0
100
AcDbMText
 10
37.3117625713
 20
2.0463950369
 30
0.0
 40
1.5875
 41
0.0
 71
     1
 72
     1
  1
THE INFORMATION CONTAINED IN THIS DRAWING IS THE SOLE PROPERTY OF ROLL & HILL LLC. ANY REPRODUCTION IN
  7
SLDTEXTSTYLE0
 73
     1
 44
1.0
  0
MTEXT
  5
CB
330
C6
100
AcDbEntity
  8
0
  6
Continuous
 62
     0
370
     0
100
AcDbMText
 10
0.0
 20
-0.0702716042
 30
0.0
 40
1.5875
 41
0.0
 71
     1
 72
     1
  1
PART OR AS A WHOLE WITHOUT THE WRITTEN PERMISSION OF ROLL & HILL LLC. IS PROHIBITED.
  7
SLDTEXTSTYLE0
 73
     1
 44
1.0
  0
ENDBLK
  5
C8
330
C6
100
AcDbEntity
  8
0
100
AcDbBlockEnd
  0
BLOCK
  5
1DD
330
1DC
100
AcDbEntity
  8
0
100
AcDbBlockBegin
  2
SW_CENTERMARKSYMBOL_0
 70
     0
 10
0.0
 20
0.0
 30
0.0
  3
SW_CENTERMARKSYMBOL_0
  1

  0
LINE
  5
1DF
330
1DC
100
AcDbEntity
  8
0
  6
Continuous
 62
     0
370
    18
100
AcDbLine
 10
0.0
 20
0.0
 30
0.0
 11
0.0
 21
0.1693333333
 31
0.0
  0
LINE
  5
1E0
330
1DC
100
AcDbEntity
  8
0
  6
Continuous
 62
     0
370
    18
100
AcDbLine
 10
0.0
 20
0.0
 30
0.0
 11
-0.1693333333
 21
0.0
 31
0.0
  0
LINE
  5
1E1
330
1DC
100
AcDbEntity
  8
0
  6
Continuous
 62
     0
370
    18
100
AcDbLine
 10
0.0
 20
0.0
 30
0.0
 11
0.0
 21
-0.1693333333
 31
0.0
  0
LINE
  5
1E2
330
1DC
100
AcDbEntity
  8
0
  6
Continuous
 62
     0
370
    18
100
AcDbLine
 10
0.0
 20
0.0
 30
0.0
 11
0.1693333333
 21
0.0
 31
0.0
  0
LINE
  5
1E3
330
1DC
100
AcDbEntity
  8
0
  6
Continuous
 62
     0
370
    18
100
AcDbLine
 10
0.0
 20
0.3386666667
 30
0.0
 11
0.0
 21
1.7192575864
 31
0.0
  0
LINE
  5
1E4
330
1DC
100
AcDbEntity
  8
0
  6
Continuous
 62
     0
370
    18
100
AcDbLine
 10
-0.3386666667
 20
0.0
 30
0.0
 11
-1.7192575864
 21
0.0
 31
0.0
  0
LINE
  5
1E5
330
1DC
100
AcDbEntity
  8
0
  6
Continuous
 62
     0
370
    18
100
AcDbLine
 10
0.0
 20
-0.3386666667
 30
0.0
 11
0.0
 21
-1.7192575864
 31
0.0
  0
LINE
  5
1E6
330
1DC
100
AcDbEntity
  8
0
  6
Continuous
 62
     0
370
    18
100
AcDbLine
 10
0.3386666667
 20
0.0
 30
0.0
 11
1.7192575864
 21
0.0
 31
0.0
  0
ENDBLK
  5
1DE
330
1DC
100
AcDbEntity
  8
0
100
AcDbBlockEnd
  0
BLOCK
  5
1E9
330
1E8
100
AcDbEntity
  8
0
100
AcDbBlockBegin
  2
SW_CENTERMARKSYMBOL_1
 70
     0
 10
0.0
 20
0.0
 30
0.0
  3
SW_CENTERMARKSYMBOL_1
  1

  0
LINE
  5
1EB
330
1E8
100
AcDbEntity
  8
0
  6
Continuous
 62
     0
370
    18
100
AcDbLine
 10
0.0
 20
0.0
 30
0.0
 11
0.0
 21
0.1693333333
 31
0.0
  0
LINE
  5
1EC
330
1E8
100
AcDbEntity
  8
0
  6
Continuous
 62
     0
370
    18
100
AcDbLine
 10
0.0
 20
0.0
 30
0.0
 11
-0.1693333333
 21
0.0
 31
0.0
  0
LINE
  5
1ED
330
1E8
100
AcDbEntity
  8
0
  6
Continuous
 62
     0
370
    18
100
AcDbLine
 10
0.0
 20
0.0
 30
0.0
 11
0.0
 21
-0.1693333333
 31
0.0
  0
LINE
  5
1EE
330
1E8
100
AcDbEntity
  8
0
  6
Continuous
 62
     0
370
    18
100
AcDbLine
 10
0.0
 20
0.0
 30
0.0
 11
0.1693333333
 21
0.0
 31
0.0
  0
LINE
  5
1EF
330
1E8
100
AcDbEntity
  8
0
  6
Continuous
 62
     0
370
    18
100
AcDbLine
 10
0.0
 20
0.1693333333
 30
0.0
 11
0.0
 21
0.28448
 31
0.0
  0
LINE
  5
1F0
330
1E8
100
AcDbEntity
  8
0
  6
Continuous
 62
     0
370
    18
100
AcDbLine
 10
-0.1693333333
 20
0.0
 30
0.0
 11
-0.28448
 21
0.0
 31
0.0
  0
LINE
  5
1F1
330
1E8
100
AcDbEntity
  8
0
  6
Continuous
 62
     0
370
    18
100
AcDbLine
 10
0.0
 20
-0.1693333333
 30
0.0
 11
0.0
 21
-0.28448
 31
0.0
  0
LINE
  5
1F2
330
1E8
100
AcDbEntity
  8
0
  6
Continuous
 62
     0
370
    18
100
AcDbLine
 10
0.1693333333
 20
0.0
 30
0.0
 11
0.28448
 21
0.0
 31
0.0
  0
ENDBLK
  5
1EA
330
1E8
100
AcDbEntity
  8
0
100
AcDbBlockEnd
  0
ENDSEC
  0
SECTION
  2
ENTITIES
  0
HATCH
  5
74
330
1F
100
AcDbEntity
  8
0
  6
Continuous
 62
     7
100
AcDbHatch
 10
0.0
 20
0.0
 30
0.0
210
0.0
220
0.0
230
1.0
  2
SOLID
 70
     1
 71
     0
 91
        2
 92
        0
 93
        6
 72
     4
 94
        3
 73
     1
 74
     0
 95
       20
 96
       16
 40
0.0
 40
0.0
 40
0.0
 40
0.0
 40
1.0
 40
1.0
 40
1.0
 40
2.0
 40
2.0
 40
2.0
 40
3.0
 40
3.0
 40
3.0
 40
4.0
 40
4.0
 40
4.0
 40
5.0
 40
5.0
 40
5.0
 40
5.0
 10
261.0219043336847
 20
23.63056361828031
 42
1.0
 10
261.2341319795987
 20
23.68742184709604
 42
1.0
 10
261.3945785321864
 20
23.72473719781129
 42
1.0
 10
261.5515161764629
 20
23.77337299628437
 42
1.0
 10
262.5617362220245
 20
24.08644572151765
 42
1.0
 10
262.9966382899503
 20
24.76217905347502
 42
1.0
 10
262.9131259646454
 20
25.88395655371281
 42
1.0
 10
262.8488620904764
 20
26.74717259793779
 42
1.0
 10
262.3071445332423
 20
27.30037799580671
 42
1.0
 10
261.2989762515715
 20
27.40941936834727
 42
1.0
 10
260.5093946232761
 20
27.49481913962259
 42
1.0
 10
259.7094699986221
 20
27.48819126576296
 42
1.0
 10
258.913837050576
 20
27.51251762112626
 42
1.0
 10
258.5159962651877
 20
27.52468175973202
 42
1.0
 10
258.1174764912431
 20
27.51463645747964
 42
1.0
 10
257.7192638284546
 20
27.51463645747964
 42
1.0
 72
     4
 94
        3
 73
     1
 74
     0
 95
       14
 96
       10
 40
17.0
 40
17.0
 40
17.0
 40
17.0
 40
18.0
 40
18.0
 40
18.0
 40
19.0
 40
19.0
 40
19.0
 40
20.0
 40
20.0
 40
20.0
 40
20.0
 10
257.7192638284546
 20
27.51463645747964
 42
1.0
 10
258.2057453879524
 20
27.36893835120056
 42
1.0
 10
258.4151924094879
 20
27.04153921726714
 42
1.0
 10
258.4151320634913
 20
26.55729487989966
 42
1.0
 10
258.4149081683119
 20
24.76100595804667
 42
1.0
 10
258.4191609275175
 20
22.96470127704905
 42
1.0
 10
258.4124688639662
 20
21.16843695483816
 42
1.0
 10
258.4104423723632
 20
20.62446660851326
 42
1.0
 10
258.2139995287706
 20
20.39587059142628
 42
1.0
 10
257.7053577757453
 20
20.25910042553502
 42
1.0
 72
     1
 10
257.7053577757453
 20
20.25910042553502
 11
260.1134120717832
 21
20.25910042553502
 72
     4
 94
        3
 73
     1
 74
     0
 95
       14
 96
       10
 40
13.0
 40
13.0
 40
13.0
 40
13.0
 40
14.0
 40
14.0
 40
14.0
 40
15.0
 40
15.0
 40
15.0
 40
16.0
 40
16.0
 40
16.0
 40
16.0
 10
260.1134120717832
 20
20.25910042553502
 42
1.0
 10
259.6377614656041
 20
20.40079128856704
 42
1.0
 10
259.4435911100346
 20
20.64162793377141
 42
1.0
 10
259.4408326829897
 20
21.14221143023692
 42
1.0
 10
259.4366701545022
 20
21.89763799307775
 42
1.0
 10
259.4392191002215
 20
22.65310606781492
 42
1.0
 10
259.4405559370167
 20
23.40855338660287
 42
1.0
 10
259.4406539512153
 20
23.46398560492077
 42
1.0
 10
259.4539911852495
 20
23.51939476107442
 42
1.0
 10
259.4607286043899
 20
23.57138302951071
 42
1.0
 72
     4
 94
        3
 73
     1
 74
     0
 95
       20
 96
       16
 40
8.0
 40
8.0
 40
8.0
 40
8.0
 40
9.0
 40
9.0
 40
9.0
 40
10.0
 40
10.0
 40
10.0
 40
11.0
 40
11.0
 40
11.0
 40
12.0
 40
12.0
 40
12.0
 40
13.0
 40
13.0
 40
13.0
 40
13.0
 10
259.4607286043899
 20
23.57138302951071
 42
1.0
 10
260.3725694925604
 20
23.65083910446931
 42
1.0
 10
260.6054131759577
 20
23.52556773374194
 42
1.0
 10
261.0037355762117
 20
22.71920223094413
 42
1.0
 10
261.378026816807
 20
21.9614848264415
 42
1.0
 10
261.7451764738302
 20
21.200166649339
 42
1.0
 10
262.1067370153144
 20
20.43629933433309
 42
1.0
 10
262.1765046750147
 20
20.28890135435546
 42
1.0
 10
262.2549406335689
 20
20.22203337745712
 42
1.0
 10
262.427398730108
 20
20.22724465786873
 42
1.0
 10
262.8718696744063
 20
20.24067529366942
 42
1.0
 10
263.3170171088603
 20
20.2311736819415
 42
1.0
 10
263.7618904879274
 20
20.2323936704376
 42
1.0
 10
263.8264337986554
 20
20.23257048036439
 42
1.0
 10
263.8909540472192
 20
20.24131411562171
 42
1.0
 10
263.9554858268652
 20
20.24609336482204
 42
1.0
 72
     4
 94
        3
 73
     1
 74
     0
 95
       14
 96
       10
 40
5.0
 40
5.0
 40
5.0
 40
5.0
 40
6.0
 40
6.0
 40
6.0
 40
7.0
 40
7.0
 40
7.0
 40
8.0
 40
8.0
 40
8.0
 40
8.0
 10
263.9554858268652
 20
20.24609336482204
 42
1.0
 10
263.5606000734738
 20
20.32757122285868
 42
1.0
 10
263.3178377375433
 20
20.57267359973515
 42
1.0
 10
263.1292772534607
 20
20.88520667032095
 42
1.0
 10
262.8739775562312
 20
21.30835818112304
 42
1.0
 10
262.6276890153665
 20
21.7369354504649
 42
1.0
 10
262.3739921385617
 20
22.16106556577572
 42
1.0
 10
262.033208300972
 20
22.73079019980925
 42
1.0
 10
261.7521543160346
 20
23.35408286053947
 42
1.0
 10
261.0219043336847
 20
23.63056361828031
 42
1.0
 97
        0
 92
        0
 93
        2
 72
     1
 10
259.4558811296203
 20
23.74052094311722
 11
259.4558811296203
 21
27.35855230546976
 72
     4
 94
        3
 73
     1
 74
     0
 95
       20
 96
       16
 40
1.0
 40
1.0
 40
1.0
 40
1.0
 40
2.0
 40
2.0
 40
2.0
 40
3.0
 40
3.0
 40
3.0
 40
4.0
 40
4.0
 40
4.0
 40
5.0
 40
5.0
 40
5.0
 40
6.0
 40
6.0
 40
6.0
 40
6.0
 10
259.4558811296203
 20
27.35855230546976
 42
1.0
 10
259.8103733099057
 20
27.35855230546976
 42
1.0
 10
260.1467440101549
 20
27.38072599997261
 42
1.0
 10
260.4792308497364
 20
27.35420547185249
 42
1.0
 10
261.3230227860075
 20
27.28690123567825
 42
1.0
 10
261.7108519014664
 20
26.95476897687368
 42
1.0
 10
261.8164781518313
 20
26.10478869315943
 42
1.0
 10
261.8719876284001
 20
25.65810454981779
 42
1.0
 10
261.8389787525148
 20
25.18024881635489
 42
1.0
 10
261.7413862071132
 20
24.73962656292206
 42
1.0
 10
261.608259863196
 20
24.13857044109259
 42
1.0
 10
261.1506181168165
 20
23.81517009427841
 42
1.0
 10
260.5489927438957
 20
23.74778168120397
 42
1.0
 10
260.1942113256325
 20
23.70804326575078
 42
1.0
 10
259.8313410453958
 20
23.74052094311722
 42
1.0
 10
259.4558811296203
 20
23.74052094311722
 42
1.0
 97
        0
 75
     0
 76
     1
 98
        1
 10
0.0
 20
0.0
  0
HATCH
  5
75
330
1F
100
AcDbEntity
  8
0
  6
Continuous
 62
     7
100
AcDbHatch
 10
0.0
 20
0.0
 30
0.0
210
0.0
220
0.0
230
1.0
  2
SOLID
 70
     1
 71
     0
 91
        2
 92
        0
 93
        2
 72
     4
 94
        3
 73
     1
 74
     0
 95
       14
 96
       10
 40
0.0
 40
0.0
 40
0.0
 40
0.0
 40
1.0
 40
1.0
 40
1.0
 40
2.0
 40
2.0
 40
2.0
 40
3.0
 40
3.0
 40
3.0
 40
3.0
 10
267.2336118279071
 20
20.23490821509466
 42
1.0
 10
268.1650050112285
 20
19.98240211471103
 42
1.0
 10
269.1482911393735
 20
20.33660467264827
 42
1.0
 10
269.7215189161771
 20
21.13111084177937
 42
1.0
 10
270.3723808569537
 20
22.03321892002499
 42
1.0
 10
270.372934348899
 20
23.32205720159637
 42
1.0
 10
269.7103360726668
 20
24.21398909980579
 42
1.0
 10
269.2464106552308
 20
24.83848445240961
 42
1.0
 10
268.6216197225536
 20
25.16033694362372
 42
1.0
 10
267.7758432870376
 20
25.16748813643033
 42
1.0
 72
     4
 94
        3
 73
     1
 74
     0
 95
       14
 96
       10
 40
3.0
 40
3.0
 40
3.0
 40
3.0
 40
4.0
 40
4.0
 40
4.0
 40
5.0
 40
5.0
 40
5.0
 40
6.0
 40
6.0
 40
6.0
 40
6.0
 10
267.7758432870376
 20
25.16748813643033
 42
1.0
 10
266.9062728477855
 20
25.1505801106106
 42
1.0
 10
266.225828300013
 20
24.723612195973
 42
1.0
 10
265.7739382574312
 20
23.92202056120339
 42
1.0
 10
265.4879189885011
 20
23.41465794151554
 42
1.0
 10
265.4259332718035
 20
22.86561853145873
 42
1.0
 10
265.4837047623288
 20
22.29272284982232
 42
1.0
 10
265.5792320909092
 20
21.34541139190241
 42
1.0
 10
266.3034040398354
 20
20.48709452013179
 42
1.0
 10
267.2336118279071
 20
20.23490821509466
 42
1.0
 97
        0
 92
        0
 93
        2
 72
     4
 94
        3
 73
     1
 74
     0
 95
       17
 96
       13
 40
0.0
 40
0.0
 40
0.0
 40
0.0
 40
1.0
 40
1.0
 40
1.0
 40
2.0
 40
2.0
 40
2.0
 40
3.0
 40
3.0
 40
3.0
 40
4.0
 40
4.0
 40
4.0
 40
4.0
 10
266.4699528411193
 20
22.82140374989816
 42
1.0
 10
266.4968487059656
 20
23.23360918874381
 42
1.0
 10
266.5993976948625
 20
23.64490674705059
 42
1.0
 10
266.7072125446274
 20
24.04607386528146
 42
1.0
 10
266.7597204805012
 20
24.2414496033099
 42
1.0
 10
266.882078331128
 20
24.42789874624283
 42
1.0
 10
267.0072628343699
 20
24.59213287496141
 42
1.0
 10
267.4640605055332
 20
25.19142205062979
 42
1.0
 10
268.2143234497673
 20
25.18405330473933
 42
1.0
 10
268.6683621173312
 20
24.58056604641373
 42
1.0
 10
269.0963628325642
 20
24.01168817818241
 42
1.0
 10
269.195680043492
 20
23.34551372899321
 42
1.0
 10
269.218762963826
 20
22.68351122534059
 42
1.0
 72
     4
 94
        3
 73
     1
 74
     0
 95
       17
 96
       13
 40
4.0
 40
4.0
 40
4.0
 40
4.0
 40
5.0
 40
5.0
 40
5.0
 40
6.0
 40
6.0
 40
6.0
 40
7.0
 40
7.0
 40
7.0
 40
8.0
 40
8.0
 40
8.0
 40
8.0
 10
269.218762963826
 20
22.68351122534059
 42
1.0
 10
269.202432645224
 20
22.05765558940843
 42
1.0
 10
269.1208448575376
 20
21.47214721006825
 42
1.0
 10
268.810867074766
 20
20.94311038392242
 42
1.0
 10
268.6078393105943
 20
20.5966013640246
 42
1.0
 10
268.3388937306983
 20
20.33416469565678
 42
1.0
 10
267.9076604687568
 20
20.30531315927085
 42
1.0
 10
267.4153070900211
 20
20.27237193240103
 42
1.0
 10
267.1048165584612
 20
20.54785025472892
 42
1.0
 10
266.8746830637486
 20
20.93428603108956
 42
1.0
 10
266.5287029361534
 20
21.51524885782822
 42
1.0
 10
266.4269741915698
 20
22.16270989809668
 42
1.0
 10
266.4699528411193
 20
22.82140374989816
 42
1.0
 97
        0
 75
     0
 76
     1
 98
        1
 10
0.0
 20
0.0
  0
HATCH
  5
76
330
1F
100
AcDbEntity
  8
0
  6
Continuous
 62
     7
100
AcDbHatch
 10
0.0
 20
0.0
 30
0.0
210
0.0
220
0.0
230
1.0
  2
SOLID
 70
     1
 71
     0
 91
        1
 92
        0
 93
        4
 72
     1
 10
273.9540333846496
 20
27.87257450949275
 11
272.4594267850394
 21
27.32510813123116
 72
     4
 94
        3
 73
     1
 74
     0
 95
       14
 96
       10
 40
6.0
 40
6.0
 40
6.0
 40
6.0
 40
7.0
 40
7.0
 40
7.0
 40
8.0
 40
8.0
 40
8.0
 40
9.0
 40
9.0
 40
9.0
 40
9.0
 10
272.4594267850394
 20
27.32510813123116
 42
1.0
 10
272.9826104338649
 20
27.28380667758701
 42
1.0
 10
273.0476395875227
 20
27.23250104921648
 42
1.0
 10
273.0527409382852
 20
26.65700799131587
 42
1.0
 10
273.0685846452182
 20
24.86961337752774
 42
1.0
 10
273.0702866329497
 20
23.08209538116094
 42
1.0
 10
273.0783845276048
 20
21.29462927466367
 42
1.0
 10
273.0805785081768
 20
20.81042375860576
 42
1.0
 10
273.0059923935969
 20
20.37668517687364
 42
1.0
 10
272.426404840594
 20
20.2590796695872
 42
1.0
 72
     1
 10
272.426404840594
 20
20.2590796695872
 11
274.6224502449564
 21
20.2590796695872
 72
     4
 94
        3
 73
     1
 74
     0
 95
       17
 96
       13
 40
1.0
 40
1.0
 40
1.0
 40
1.0
 40
2.0
 40
2.0
 40
2.0
 40
3.0
 40
3.0
 40
3.0
 40
4.0
 40
4.0
 40
4.0
 40
5.0
 40
5.0
 40
5.0
 40
5.0
 10
274.6224502449564
 20
20.2590796695872
 42
1.0
 10
274.1836818051716
 20
20.38260600321025
 42
1.0
 10
274.0006220316647
 20
20.58964274029083
 42
1.0
 10
273.9590578615309
 20
21.04279505200226
 42
1.0
 10
273.9506540088286
 20
21.13443409966764
 42
1.0
 10
273.954217881965
 20
21.22727776105204
 42
1.0
 10
273.9542086570993
 20
21.31956562427539
 42
1.0
 10
273.9539872603212
 20
23.41776441505853
 42
1.0
 10
273.9540349221275
 20
25.51596282147274
 42
1.0
 10
273.9540333846496
 20
27.61416161225588
 42
1.0
 10
273.9540333846496
 20
27.71082379150879
 42
1.0
 10
273.9540333846496
 20
27.8074859707617
 42
1.0
 10
273.9540333846496
 20
27.87257450949275
 42
1.0
 97
        0
 75
     0
 76
     1
 98
        1
 10
0.0
 20
0.0
  0
HATCH
  5
77
330
1F
100
AcDbEntity
  8
0
  6
Continuous
 62
     7
100
AcDbHatch
 10
0.0
 20
0.0
 30
0.0
210
0.0
220
0.0
230
1.0
  2
SOLID
 70
     1
 71
     0
 91
        1
 92
        0
 93
        4
 72
     1
 10
276.9460186560295
 20
20.2549177176549
 11
279.1055120673172
 21
20.2549177176549
 72
     4
 94
        3
 73
     1
 74
     0
 95
       14
 96
       10
 40
6.0
 40
6.0
 40
6.0
 40
6.0
 40
7.0
 40
7.0
 40
7.0
 40
8.0
 40
8.0
 40
8.0
 40
9.0
 40
9.0
 40
9.0
 40
9.0
 10
279.1055120673172
 20
20.2549177176549
 42
1.0
 10
278.6550987719953
 20
20.40793364087759
 42
1.0
 10
278.4823339486704
 20
20.63637283524633
 42
1.0
 10
278.4822124879378
 20
21.11904779232805
 42
1.0
 10
278.4816605334703
 20
23.30086999117493
 42
1.0
 10
278.4819664915176
 20
25.48269219002111
 42
1.0
 10
278.4819649540404
 20
27.66451419668386
 42
1.0
 10
278.4819649540404
 20
27.75219577693941
 42
1.0
 10
278.4819664915176
 20
27.83987735719566
 42
1.0
 10
278.4819664915176
 20
27.88441039662488
 42
1.0
 72
     1
 10
278.4819664915176
 20
27.88441039662488
 11
276.9846800684063
 21
27.3296354262854
 72
     4
 94
        3
 73
     1
 74
     0
 95
       17
 96
       13
 40
1.0
 40
1.0
 40
1.0
 40
1.0
 40
2.0
 40
2.0
 40
2.0
 40
3.0
 40
3.0
 40
3.0
 40
4.0
 40
4.0
 40
4.0
 40
5.0
 40
5.0
 40
5.0
 40
5.0
 10
276.9846800684063
 20
27.3296354262854
 42
1.0
 10
277.5366914227135
 20
27.25167954511983
 42
1.0
 10
277.5738092075535
 20
27.20775573119973
 42
1.0
 10
277.5772915943764
 20
26.57154691311976
 42
1.0
 10
277.5773838430334
 20
26.55476419172763
 42
1.0
 10
277.577359243392
 20
26.53798031722657
 42
1.0
 10
277.577359243392
 20
26.52119721146337
 42
1.0
 10
277.5773700057348
 20
24.72538990447762
 42
1.0
 10
277.5776652014392
 20
22.92958298186009
 42
1.0
 10
277.5771993457187
 20
21.13377529050539
 42
1.0
 10
277.5770686601204
 20
20.6342380475635
 42
1.0
 10
277.4179566381115
 20
20.4199152040148
 42
1.0
 10
276.9460186560295
 20
20.2549177176549
 42
1.0
 97
        0
 75
     0
 76
     1
 98
        1
 10
0.0
 20
0.0
  0
HATCH
  5
78
330
1F
100
AcDbEntity
  8
0
  6
Continuous
 62
     7
100
AcDbHatch
 10
0.0
 20
0.0
 30
0.0
210
0.0
220
0.0
230
1.0
  2
SOLID
 70
     1
 71
     0
 91
        3
 92
        0
 93
        9
 72
     4
 94
        3
 73
     1
 74
     0
 95
       14
 96
       10
 40
0.0
 40
0.0
 40
0.0
 40
0.0
 40
1.0
 40
1.0
 40
1.0
 40
2.0
 40
2.0
 40
2.0
 40
3.0
 40
3.0
 40
3.0
 40
3.0
 10
287.0539854214827
 20
21.61211917311517
 42
1.0
 10
287.2972697310664
 20
21.3082559388604
 42
1.0
 10
287.5152010346028
 20
21.01001756649998
 42
1.0
 10
287.7601488949774
 20
20.73592220529573
 42
1.0
 10
288.1784811821614
 20
20.26780485511384
 42
1.0
 10
288.7048673968812
 20
20.09831485913089
 42
1.0
 10
289.3271645408483
 20
20.20870037148624
 42
1.0
 10
289.9739444785289
 20
20.32342848939635
 42
1.0
 10
290.7160910783766
 20
21.04182259740494
 42
1.0
 10
290.8103661314317
 20
21.70506046432864
 42
1.0
 72
     4
 94
        3
 73
     1
 74
     0
 95
       14
 96
       10
 40
24.0
 40
24.0
 40
24.0
 40
24.0
 40
25.0
 40
25.0
 40
25.0
 40
26.0
 40
26.0
 40
26.0
 40
27.0
 40
27.0
 40
27.0
 40
27.0
 10
290.8103661314317
 20
21.70506046432864
 42
1.0
 10
290.6825002672103
 20
21.49939669476813
 42
1.0
 10
290.5884281612034
 20
21.32571784099438
 42
1.0
 10
290.4735170834558
 20
21.16713932372221
 42
1.0
 10
289.9836367374808
 20
20.49110656799653
 42
1.0
 10
289.3841588364346
 20
20.43289382139212
 42
1.0
 10
288.8166481701822
 20
21.05011190802389
 42
1.0
 10
288.4270667146001
 20
21.47381844824843
 42
1.0
 10
288.0996055050067
 20
21.95463920731319
 42
1.0
 10
287.7314564875268
 20
22.4264857094768
 42
1.0
 72
     4
 94
        3
 73
     1
 74
     0
 95
       11
 96
        7
 40
22.0
 40
22.0
 40
22.0
 40
22.0
 40
23.0
 40
23.0
 40
23.0
 40
24.0
 40
24.0
 40
24.0
 40
24.0
 10
287.7314564875268
 20
22.4264857094768
 42
1.0
 10
288.1508588591387
 20
23.00030157147278
 42
1.0
 10
288.5466855488353
 20
23.55949371503118
 42
1.0
 10
288.9612633156569
 20
24.10441845059237
 42
1.0
 10
289.4290162836425
 20
24.71923384406366
 42
1.0
 10
289.9536528488242
 20
25.26443186627322
 42
1.0
 10
290.7742138825406
 20
25.39867403457779
 42
1.0
 72
     1
 10
290.7742138825406
 20
25.39867403457779
 11
287.7715077796773
 21
25.39867403457779
 72
     4
 94
        3
 73
     1
 74
     0
 95
       17
 96
       13
 40
16.0
 40
16.0
 40
16.0
 40
16.0
 40
17.0
 40
17.0
 40
17.0
 40
18.0
 40
18.0
 40
18.0
 40
19.0
 40
19.0
 40
19.0
 40
20.0
 40
20.0
 40
20.0
 40
20.0
 10
287.7715077796773
 20
25.39867403457779
 42
1.0
 10
287.9710693005408
 20
25.34310267453518
 42
1.0
 10
288.1718392788191
 20
25.32949945687163
 42
1.0
 10
288.3670435880915
 20
25.28904726743022
 42
1.0
 10
288.7601181928394
 20
25.20759054971102
 42
1.0
 10
288.9174636530569
 20
24.97387165717582
 42
1.0
 10
288.8543009972361
 20
24.57697987985169
 42
1.0
 10
288.8373887433532
 20
24.47070865762303
 42
1.0
 10
288.8131334963293
 20
24.35736772890119
 42
1.0
 10
288.7595985254019
 20
24.26650702928458
 42
1.0
 10
288.4211781752921
 20
23.692108847638
 42
1.0
 10
288.0735790837579
 20
23.12311989664797
 42
1.0
 10
287.7233847299918
 20
22.54303496963325
 42
1.0
 72
     1
 10
287.7233847299918
 20
22.54303496963325
 11
285.8065406500284
 21
24.86455968857224
 72
     4
 94
        3
 73
     1
 74
     0
 95
       20
 96
       16
 40
10.0
 40
10.0
 40
10.0
 40
10.0
 40
11.0
 40
11.0
 40
11.0
 40
12.0
 40
12.0
 40
12.0
 40
13.0
 40
13.0
 40
13.0
 40
14.0
 40
14.0
 40
14.0
 40
15.0
 40
15.0
 40
15.0
 40
15.0
 10
285.8065406500283
 20
24.86455968857225
 42
1.0
 10
285.9002991106001
 20
24.9215528310502
 42
1.0
 10
286.0025259979348
 20
24.975621306713
 42
1.0
 10
286.0959738880259
 20
25.04203380586477
 42
1.0
 10
286.361711520857
 20
25.23088333574105
 42
1.0
 10
286.6551698752792
 20
25.39378370261948
 42
1.0
 10
286.8815726805328
 20
25.62247811827483
 42
1.0
 10
287.5614237619422
 20
26.30921056516709
 42
1.0
 10
287.361321048954
 20
27.32558686332681
 42
1.0
 10
286.4793408590448
 20
27.71426216803416
 42
1.0
 10
285.840402057257
 20
27.99583274545401
 42
1.0
 10
285.1912113546599
 20
27.99239110178883
 42
1.0
 10
284.558084218296
 20
27.68711127408746
 42
1.0
 10
283.9109291360762
 20
27.37506654483262
 42
1.0
 10
283.6309452355653
 20
26.8393466878164
 42
1.0
 10
283.7149530130354
 20
26.1296866058298
 42
1.0
 72
     4
 94
        3
 73
     1
 74
     0
 95
       11
 96
        7
 40
8.0
 40
8.0
 40
8.0
 40
8.0
 40
9.0
 40
9.0
 40
9.0
 40
10.0
 40
10.0
 40
10.0
 40
10.0
 10
283.7149530130354
 20
26.1296866058298
 42
1.0
 10
283.7707819005811
 20
25.65802498535045
 42
1.0
 10
284.0198409761273
 20
25.28515591156022
 42
1.0
 10
284.3077767109179
 20
24.93075271279267
 42
1.0
 10
284.4323277733789
 20
24.77744812814591
 42
1.0
 10
284.5641388051866
 20
24.6300390014551
 42
1.0
 10
284.7027239634148
 20
24.46818604120849
 42
1.0
 72
     4
 94
        3
 73
     1
 74
     0
 95
       20
 96
       16
 40
3.0
 40
3.0
 40
3.0
 40
3.0
 40
4.0
 40
4.0
 40
4.0
 40
5.0
 40
5.0
 40
5.0
 40
6.0
 40
6.0
 40
6.0
 40
7.0
 40
7.0
 40
7.0
 40
8.0
 40
8.0
 40
8.0
 40
8.0
 10
284.7027239634148
 20
24.46818604120849
 42
1.0
 10
284.5513685160267
 20
24.38851087568819
 42
1.0
 10
284.4255536469583
 20
24.32317807019961
 42
1.0
 10
284.3005597909425
 20
24.25632085564481
 42
1.0
 10
283.8607304915963
 20
24.02105948868024
 42
1.0
 10
283.460866385652
 20
23.73663343094009
 42
1.0
 10
283.1417229300147
 20
23.34576433784628
 42
1.0
 10
282.3522343191156
 20
22.37884389028816
 42
1.0
 10
282.6109241545095
 20
20.5355588898502
 42
1.0
 10
284.198169930981
 20
20.23446388406056
 42
1.0
 10
285.1515567317372
 20
20.05360962220845
 42
1.0
 10
285.9488126796034
 20
20.36759637788916
 42
1.0
 10
286.5896302790503
 20
21.09003174583673
 42
1.0
 10
286.7443651022574
 20
21.26447318851251
 42
1.0
 10
286.8995550188436
 20
21.43851181205056
 42
1.0
 10
287.0539854214827
 20
21.61211917311517
 42
1.0
 97
        0
 92
        0
 93
        2
 72
     4
 94
        3
 73
     1
 74
     0
 95
       14
 96
       10
 40
0.0
 40
0.0
 40
0.0
 40
0.0
 40
1.0
 40
1.0
 40
1.0
 40
2.0
 40
2.0
 40
2.0
 40
3.0
 40
3.0
 40
3.0
 40
3.0
 10
284.688382372121
 20
27.15085253116304
 42
1.0
 10
284.8337724063213
 20
27.5710895609412
 42
1.0
 10
285.1818973152029
 20
27.79269159230804
 42
1.0
 10
285.6158934244382
 20
27.76810636414938
 42
1.0
 10
285.9916529561654
 20
27.74682017860581
 42
1.0
 10
286.2400293916459
 20
27.5110460628537
 42
1.0
 10
286.3549927436335
 20
27.06650131962916
 42
1.0
 10
286.5713650448558
 20
26.2298440482801
 42
1.0
 10
286.3259713159692
 20
25.4295804098103
 42
1.0
 10
285.6520579731507
 20
24.9254318870995
 42
1.0
 72
     4
 94
        3
 73
     1
 74
     0
 95
       11
 96
        7
 40
3.0
 40
3.0
 40
3.0
 40
3.0
 40
4.0
 40
4.0
 40
4.0
 40
5.0
 40
5.0
 40
5.0
 40
5.0
 10
285.6520579731507
 20
24.9254318870995
 42
1.0
 10
285.3510444536752
 20
25.31853032275095
 42
1.0
 10
285.0380140090768
 20
25.68714980838475
 42
1.0
 10
284.7721626029031
 20
26.08712768767229
 42
1.0
 10
284.5571094574822
 20
26.41068293535724
 42
1.0
 10
284.5630810205802
 20
26.788679112661
 42
1.0
 10
284.688382372121
 20
27.15085253116304
 42
1.0
 97
        0
 92
        0
 93
        2
 72
     1
 10
284.845288113738
 20
24.3712657578988
 11
287.0009947176327
 21
21.77781006188367
 72
     4
 94
        3
 73
     1
 74
     0
 95
       14
 96
       10
 40
1.0
 40
1.0
 40
1.0
 40
1.0
 40
2.0
 40
2.0
 40
2.0
 40
3.0
 40
3.0
 40
3.0
 40
4.0
 40
4.0
 40
4.0
 40
4.0
 10
287.0009947176327
 20
21.77781006188367
 42
1.0
 10
286.5509442670314
 20
21.22618922689351
 42
1.0
 10
286.0339581905155
 20
20.90925282038733
 42
1.0
 10
285.3603677179978
 20
20.87638462370451
 42
1.0
 10
284.4974276510072
 20
20.83427541775252
 42
1.0
 10
283.8665083325146
 20
21.39392726712143
 42
1.0
 10
283.7780264951535
 20
22.28619625730053
 42
1.0
 10
283.6988925217564
 20
23.08417174469389
 42
1.0
 10
284.1054815548355
 20
23.90423117633508
 42
1.0
 10
284.845288113738
 20
24.3712657578988
 42
1.0
 97
        0
 75
     0
 76
     1
 98
        1
 10
0.0
 20
0.0
  0
HATCH
  5
79
330
1F
100
AcDbEntity
  8
0
  6
Continuous
 62
     7
100
AcDbHatch
 10
0.0
 20
0.0
 30
0.0
210
0.0
220
0.0
230
1.0
  2
SOLID
 70
     1
 71
     0
 91
        1
 92
        0
 93
        2
 72
     4
 94
        3
 73
     1
 74
     0
 95
       11
 96
        7
 40
0.0
 40
0.0
 40
0.0
 40
0.0
 40
1.0
 40
1.0
 40
1.0
 40
2.0
 40
2.0
 40
2.0
 40
2.0
 10
303.0570519104932
 20
26.35430478392947
 42
1.0
 10
303.0628482011429
 20
25.96449808787493
 42
1.0
 10
303.3259905717408
 20
25.69768229885988
 42
1.0
 10
303.6993639381942
 20
25.70301926806731
 42
1.0
 10
304.0680572227529
 20
25.70828897263022
 42
1.0
 10
304.3293945946187
 20
25.98752450590587
 42
1.0
 10
304.327448147944
 20
26.37412133304796
 42
1.0
 72
     4
 94
        3
 73
     1
 74
     0
 95
       11
 96
        7
 40
2.0
 40
2.0
 40
2.0
 40
2.0
 40
3.0
 40
3.0
 40
3.0
 40
4.0
 40
4.0
 40
4.0
 40
4.0
 10
304.327448147944
 20
26.37412133304796
 42
1.0
 10
304.3255386007336
 20
26.75299425696746
 42
1.0
 10
304.0507636744179
 20
27.04560238626284
 42
1.0
 10
303.6924299141011
 20
27.05034857969325
 42
1.0
 10
303.3266947364936
 20
27.05519259513757
 42
1.0
 10
303.0511172468595
 20
26.75330175249256
 42
1.0
 10
303.0570519104932
 20
26.35430478392947
 42
1.0
 97
        0
 75
     0
 76
     1
 98
        1
 10
0.0
 20
0.0
  0
HATCH
  5
7A
330
1F
100
AcDbEntity
  8
0
  6
Continuous
 62
     7
100
AcDbHatch
 10
0.0
 20
0.0
 30
0.0
210
0.0
220
0.0
230
1.0
  2
SOLID
 70
     1
 71
     0
 91
        1
 92
        0
 93
        4
 72
     1
 10
302.6973344203136
 20
20.2539775500868
 11
304.8038079156778
 21
20.2539775500868
 72
     4
 94
        3
 73
     1
 74
     0
 95
       17
 96
       13
 40
6.0
 40
6.0
 40
6.0
 40
6.0
 40
7.0
 40
7.0
 40
7.0
 40
8.0
 40
8.0
 40
8.0
 40
9.0
 40
9.0
 40
9.0
 40
10.0
 40
10.0
 40
10.0
 40
10.0
 10
304.8038079156778
 20
20.2539775500868
 42
1.0
 10
304.4578262506061
 20
20.33981031349822
 42
1.0
 10
304.2621822227331
 20
20.55023795748124
 42
1.0
 10
304.2107535961514
 20
20.89393877449616
 42
1.0
 10
304.1922454404932
 20
21.01764883669525
 42
1.0
 10
304.1821011631179
 20
21.14380579453512
 42
1.0
 10
304.1818797663412
 20
21.26887114326077
 42
1.0
 10
304.1797703470369
 20
22.46084295323946
 42
1.0
 10
304.1808527312862
 20
23.65282014439031
 42
1.0
 10
304.1800932173391
 20
24.84479541369365
 42
1.0
 10
304.1800409430993
 20
24.93136078519359
 42
1.0
 10
304.1727133247369
 20
25.01792115989102
 42
1.0
 10
304.1706223551654
 20
25.06377258638473
 42
1.0
 72
     1
 10
304.1706223551654
 20
25.06377258638473
 11
302.7125031745686
 21
24.50968064047992
 72
     4
 94
        3
 73
     1
 74
     0
 95
       17
 96
       13
 40
1.0
 40
1.0
 40
1.0
 40
1.0
 40
2.0
 40
2.0
 40
2.0
 40
3.0
 40
3.0
 40
3.0
 40
4.0
 40
4.0
 40
4.0
 40
5.0
 40
5.0
 40
5.0
 40
5.0
 10
302.7125031745686
 20
24.50968064047994
 42
1.0
 10
302.7604109773859
 20
24.50557288463289
 42
1.0
 10
302.8224697242704
 20
24.49650561033552
 42
1.0
 10
302.8846514693661
 20
24.49557889569631
 42
1.0
 10
303.1332831261333
 20
24.4918735746181
 42
1.0
 10
303.2632153602819
 20
24.35030186610297
 42
1.0
 10
303.2668591822546
 20
24.11891186780057
 42
1.0
 10
303.2829750227277
 20
23.09531768874206
 42
1.0
 10
303.296603224403
 20
22.071496731734
 42
1.0
 10
303.2916556214044
 20
21.04785181591346
 42
1.0
 10
303.2897768237453
 20
20.65853557522151
 42
1.0
 10
303.1321361678242
 20
20.3494649042487
 42
1.0
 10
302.6973344203136
 20
20.2539775500868
 42
1.0
 97
        0
 75
     0
 76
     1
 98
        1
 10
0.0
 20
0.0
  0
HATCH
  5
7B
330
1F
100
AcDbEntity
  8
0
  6
Continuous
 62
     7
100
AcDbHatch
 10
0.0
 20
0.0
 30
0.0
210
0.0
220
0.0
230
1.0
  2
SOLID
 70
     1
 71
     0
 91
        1
 92
        0
 93
        4
 72
     1
 10
308.65963267846
 20
27.88697759989075
 11
307.1608133901539
 21
27.32540717062984
 72
     4
 94
        3
 73
     1
 74
     0
 95
       20
 96
       16
 40
5.0
 40
5.0
 40
5.0
 40
5.0
 40
6.0
 40
6.0
 40
6.0
 40
7.0
 40
7.0
 40
7.0
 40
8.0
 40
8.0
 40
8.0
 40
9.0
 40
9.0
 40
9.0
 40
10.0
 40
10.0
 40
10.0
 40
10.0
 10
307.1608133901539
 20
27.32540717062984
 42
1.0
 10
307.6774858212348
 20
27.28280885460759
 42
1.0
 10
307.7501131893193
 20
27.20350460556406
 42
1.0
 10
307.7547502218385
 20
26.63215658734291
 42
1.0
 10
307.7552944889174
 20
26.56503146731187
 42
1.0
 10
307.7550361926765
 20
26.49789904426262
 42
1.0
 10
307.7550361926765
 20
26.43077008053731
 42
1.0
 10
307.7550484924979
 20
24.69380511724257
 42
1.0
 10
307.7587445887104
 20
22.95682170421714
 42
1.0
 10
307.7500732149022
 20
21.21990094340409
 42
1.0
 10
307.7490584796685
 20
21.01681475508336
 42
1.0
 10
307.7285516030971
 20
20.78446498637255
 42
1.0
 10
307.6283941606454
 20
20.61954360515536
 42
1.0
 10
307.5293898264143
 20
20.45652254628292
 42
1.0
 10
307.3179589782804
 20
20.36177625633667
 42
1.0
 10
307.178408284104
 20
20.25443648715803
 42
1.0
 72
     1
 10
307.178408284104
 20
20.25443648715803
 11
309.3620693061908
 21
20.25443648715802
 72
     4
 94
        3
 73
     1
 74
     0
 95
       14
 96
       10
 40
1.0
 40
1.0
 40
1.0
 40
1.0
 40
2.0
 40
2.0
 40
2.0
 40
3.0
 40
3.0
 40
3.0
 40
4.0
 40
4.0
 40
4.0
 40
4.0
 10
309.3620693061908
 20
20.25443648715802
 42
1.0
 10
308.807415027844
 20
20.43200746554105
 42
1.0
 10
308.6597679764911
 20
20.6374237012035
 42
1.0
 10
308.6597187772069
 20
21.15880542625192
 42
1.0
 10
308.6595035303402
 20
23.32371921490944
 42
1.0
 10
308.65963267846
 20
25.48863300356693
 42
1.0
 10
308.65963267846
 20
27.65354698440997
 42
1.0
 10
308.65963267846
 20
27.74275854708867
 42
1.0
 10
308.65963267846
 20
27.83196991758182
 42
1.0
 10
308.65963267846
 20
27.88697759989075
 42
1.0
 97
        0
 75
     0
 76
     1
 98
        1
 10
0.0
 20
0.0
  0
HATCH
  5
7C
330
1F
100
AcDbEntity
  8
0
  6
Continuous
 62
     7
100
AcDbHatch
 10
0.0
 20
0.0
 30
0.0
210
0.0
220
0.0
230
1.0
  2
SOLID
 70
     1
 71
     0
 91
        1
 92
        0
 93
        4
 72
     1
 10
313.1781318226163
 20
27.87703492426926
 11
311.6691528821608
 21
27.32445797038016
 72
     4
 94
        3
 73
     1
 74
     0
 95
       17
 96
       13
 40
6.0
 40
6.0
 40
6.0
 40
6.0
 40
7.0
 40
7.0
 40
7.0
 40
8.0
 40
8.0
 40
8.0
 40
9.0
 40
9.0
 40
9.0
 40
10.0
 40
10.0
 40
10.0
 40
10.0
 10
311.6691528821608
 20
27.32445797038016
 42
1.0
 10
312.2096131670664
 20
27.27631108979181
 42
1.0
 10
312.2683694120104
 20
27.21300429544448
 42
1.0
 10
312.2823973578678
 20
26.60716642601487
 42
1.0
 10
312.2845313768121
 20
26.51487279724974
 42
1.0
 10
312.2871512386867
 20
26.42255802816857
 42
1.0
 10
312.2871819882395
 20
26.33025248395311
 42
1.0
 10
312.2877662297369
 20
24.60974045310045
 42
1.0
 10
312.2890700107628
 20
22.88922803787955
 42
1.0
 10
312.2876555313485
 20
21.16871754450475
 42
1.0
 10
312.2872188877024
 20
20.63608302071405
 42
1.0
 10
312.1185268426077
 20
20.41647125413319
 42
1.0
 10
311.6156486607861
 20
20.25320881127337
 42
1.0
 72
     1
 10
311.6156486607861
 20
20.25320881127337
 11
313.8867245107604
 21
20.25320881127337
 72
     4
 94
        3
 73
     1
 74
     0
 95
       17
 96
       13
 40
1.0
 40
1.0
 40
1.0
 40
1.0
 40
2.0
 40
2.0
 40
2.0
 40
3.0
 40
3.0
 40
3.0
 40
4.0
 40
4.0
 40
4.0
 40
5.0
 40
5.0
 40
5.0
 40
5.0
 10
313.8867245107604
 20
20.25320881127337
 42
1.0
 10
313.3266152617988
 20
20.4348325806782
 42
1.0
 10
313.1888880160859
 20
20.62648762285203
 42
1.0
 10
313.1786115156352
 20
21.17082388885262
 42
1.0
 10
313.1771847363981
 20
21.24633325874564
 42
1.0
 10
313.1781441224363
 20
21.32188875296783
 42
1.0
 10
313.1781441224363
 20
21.39742349124222
 42
1.0
 10
313.1781256727049
 20
23.48721689184593
 42
1.0
 10
313.1781318226163
 20
25.57700952371036
 42
1.0
 10
313.1781318226163
 20
27.66680273212925
 42
1.0
 10
313.1781318226163
 20
27.75161518695077
 42
1.0
 10
313.1781318226163
 20
27.83642744958889
 42
1.0
 10
313.1781318226163
 20
27.87703492426926
 42
1.0
 97
        0
 75
     0
 76
     1
 98
        1
 10
0.0
 20
0.0
  0
HATCH
  5
7D
330
1F
100
AcDbEntity
  8
0
  6
Continuous
 62
     7
100
AcDbHatch
 10
0.0
 20
0.0
 30
0.0
210
0.0
220
0.0
230
1.0
  2
SOLID
 70
     1
 71
     0
 91
        1
 92
        0
 93
       12
 72
     1
 10
296.2715297073844
 20
27.50458020069891
 11
293.841527870193
 21
27.50458020069891
 72
     4
 94
        3
 73
     1
 74
     0
 95
       17
 96
       13
 40
21.0
 40
21.0
 40
21.0
 40
21.0
 40
22.0
 40
22.0
 40
22.0
 40
23.0
 40
23.0
 40
23.0
 40
24.0
 40
24.0
 40
24.0
 40
25.0
 40
25.0
 40
25.0
 40
25.0
 10
293.841527870193
 20
27.50458020069891
 42
1.0
 10
294.4654639653083
 20
27.35271373418588
 42
1.0
 10
294.541848928711
 20
26.88863860486635
 42
1.0
 10
294.5396718603926
 20
26.35648992400541
 42
1.0
 10
294.5326947869268
 20
24.65236702027423
 42
1.0
 10
294.54232862173
 20
22.9481603240125
 42
1.0
 10
294.5304592944584
 20
21.24409084762873
 42
1.0
 10
294.52894334152
 20
21.02641399663968
 42
1.0
 10
294.4888489999954
 20
20.77588586122133
 42
1.0
 10
294.3739502220706
 20
20.60171040217499
 42
1.0
 10
294.2655211499942
 20
20.43733713173098
 42
1.0
 10
294.0348564567621
 20
20.35359533789035
 42
1.0
 10
293.8906841048422
 20
20.25643828302682
 42
1.0
 72
     1
 10
293.8906841048422
 20
20.25643828302682
 11
296.2880237673525
 21
20.25643828302682
 72
     4
 94
        3
 73
     1
 74
     0
 95
       14
 96
       10
 40
17.0
 40
17.0
 40
17.0
 40
17.0
 40
18.0
 40
18.0
 40
18.0
 40
19.0
 40
19.0
 40
19.0
 40
20.0
 40
20.0
 40
20.0
 40
20.0
 10
296.2880237673525
 20
20.25643828302682
 42
1.0
 10
295.7413366980624
 20
20.4024294709773
 42
1.0
 10
295.5628078711177
 20
20.63015527572819
 42
1.0
 10
295.5619960829322
 20
21.2138824872384
 42
1.0
 10
295.560827599936
 20
22.05336910178782
 42
1.0
 10
295.561359567195
 20
22.89285956003151
 42
1.0
 10
295.5621928800676
 20
23.73234771205876
 42
1.0
 10
295.5622759038603
 20
23.81306182808445
 42
1.0
 10
295.5696219719554
 20
23.89376787235267
 42
1.0
 10
295.5733857171835
 20
23.97022240661697
 42
1.0
 72
     1
 10
295.5733857171835
 20
23.97022240661697
 11
298.4851131190222
 21
23.97022240661697
 72
     4
 94
        3
 73
     1
 74
     0
 95
       11
 96
        7
 40
14.0
 40
14.0
 40
14.0
 40
14.0
 40
15.0
 40
15.0
 40
15.0
 40
16.0
 40
16.0
 40
16.0
 40
16.0
 10
298.4851131190222
 20
23.97022240661697
 42
1.0
 10
298.4851131190222
 20
23.04419117651474
 42
1.0
 10
298.4852207424561
 20
22.13796342697173
 42
1.0
 10
298.485073144605
 20
21.23173567742801
 42
1.0
 10
298.4849747460367
 20
20.62384393007452
 42
1.0
 10
298.3307257657572
 20
20.41986831094703
 42
1.0
 10
297.7632396991476
 20
20.25412130424438
 42
1.0
 72
     1
 10
297.7632396991476
 20
20.25412130424438
 11
300.2193725060648
 21
20.25412130424438
 72
     4
 94
        3
 73
     1
 74
     0
 95
       17
 96
       13
 40
9.0
 40
9.0
 40
9.0
 40
9.0
 40
10.0
 40
10.0
 40
10.0
 40
11.0
 40
11.0
 40
11.0
 40
12.0
 40
12.0
 40
12.0
 40
13.0
 40
13.0
 40
13.0
 40
13.0
 10
300.2193725060648
 20
20.25412130424438
 42
1.0
 10
299.739442715284
 20
20.41422423058344
 42
1.0
 10
299.5427163031618
 20
20.62720562490344
 42
1.0
 10
299.542119761843
 20
21.03839632851544
 42
1.0
 10
299.5393769017586
 20
22.92724217217554
 42
1.0
 10
299.5395583241182
 20
24.8160968563317
 42
1.0
 10
299.5421628112159
 20
26.70494346873036
 42
1.0
 10
299.5426363543262
 20
27.0468754177367
 42
1.0
 10
299.7248336028849
 20
27.28837413924314
 42
1.0
 10
300.049118383702
 20
27.40930924651266
 42
1.0
 10
300.1052670665942
 20
27.43024796211264
 42
1.0
 10
300.1600043450263
 20
27.45496618208605
 42
1.0
 10
300.2549312885929
 20
27.49433829349534
 42
1.0
 72
     1
 10
300.2549312885929
 20
27.49433829349534
 11
297.7186989723292
 21
27.49433829349534
 72
     4
 94
        3
 73
     1
 74
     0
 95
       14
 96
       10
 40
5.0
 40
5.0
 40
5.0
 40
5.0
 40
6.0
 40
6.0
 40
6.0
 40
7.0
 40
7.0
 40
7.0
 40
8.0
 40
8.0
 40
8.0
 40
8.0
 10
297.7186989723292
 20
27.49433829349534
 42
1.0
 10
298.3648823686909
 20
27.26685790861022
 42
1.0
 10
298.4850762195593
 20
27.0944786077999
 42
1.0
 10
298.4851069691121
 20
26.45733654080182
 42
1.0
 10
298.4851377186649
 20
25.7773505457302
 42
1.0
 10
298.4851131190222
 20
25.09736416629037
 42
1.0
 10
298.4851131190222
 20
24.41737817121947
 42
1.0
 10
298.4851131190222
 20
24.32893553953832
 42
1.0
 10
298.4851131190222
 20
24.24049329222682
 42
1.0
 10
298.4851131190222
 20
24.16049564077468
 42
1.0
 72
     1
 10
298.4851131190222
 20
24.16049564077468
 11
295.5632814142282
 21
24.16049564077468
 72
     4
 94
        3
 73
     1
 74
     0
 95
       14
 96
       10
 40
1.0
 40
1.0
 40
1.0
 40
1.0
 40
2.0
 40
2.0
 40
2.0
 40
3.0
 40
3.0
 40
3.0
 40
4.0
 40
4.0
 40
4.0
 40
4.0
 10
295.5632814142282
 20
24.16049564077468
 42
1.0
 10
295.5632814142282
 20
25.01272602299438
 42
1.0
 10
295.5627432970579
 20
25.84365465270932
 42
1.0
 10
295.5644406723573
 20
26.67457866999212
 42
1.0
 10
295.5645605956114
 20
26.73240397223375
 42
1.0
 10
295.5792681065788
 20
26.79059327230427
 42
1.0
 10
295.5906023916358
 20
26.8479388815276
 42
1.0
 10
295.6648994604227
 20
27.22384581892186
 42
1.0
 10
295.9411319155254
 20
27.38780204855992
 42
1.0
 10
296.2715297073844
 20
27.50458020069891
 42
1.0
 97
        0
 75
     0
 76
     1
 98
        1
 10
0.0
 20
0.0
  0
SPLINE
  5
7E
330
1F
100
AcDbEntity
  8
0
  6
Continuous
 62
   179
370
    18
100
AcDbSpline
210
0.0
220
0.0
230
1.0
 70
     8
 71
     3
 72
    14
 73
    10
 74
     0
 42
0.00000001
 43
0.00000001
 40
24.0
 40
24.0
 40
24.0
 40
24.0
 40
25.0
 40
25.0
 40
25.0
 40
26.0
 40
26.0
 40
26.0
 40
27.0
 40
27.0
 40
27.0
 40
27.0
 10
287.7314564875268
 20
22.4264857094768
 30
0.0
 10
288.0996055050067
 20
21.95463920731319
 30
0.0
 10
288.4270667146001
 20
21.47381844824843
 30
0.0
 10
288.8166481701822
 20
21.05011190802389
 30
0.0
 10
289.3841588364346
 20
20.43289382139212
 30
0.0
 10
289.9836367374808
 20
20.49110656799653
 30
0.0
 10
290.4735170834558
 20
21.16713932372221
 30
0.0
 10
290.5884281612034
 20
21.32571784099438
 30
0.0
 10
290.6825002672103
 20
21.49939669476813
 30
0.0
 10
290.8103661314317
 20
21.70506046432864
 30
0.0
  0
SPLINE
  5
7F
330
1F
100
AcDbEntity
  8
0
  6
Continuous
 62
   179
370
    18
100
AcDbSpline
210
0.0
220
0.0
230
1.0
 70
     8
 71
     3
 72
    11
 73
     7
 74
     0
 42
0.00000001
 43
0.00000001
 40
22.0
 40
22.0
 40
22.0
 40
22.0
 40
23.0
 40
23.0
 40
23.0
 40
24.0
 40
24.0
 40
24.0
 40
24.0
 10
290.7742138825406
 20
25.39867403457779
 30
0.0
 10
289.9536528488242
 20
25.26443186627322
 30
0.0
 10
289.4290162836425
 20
24.71923384406366
 30
0.0
 10
288.9612633156569
 20
24.10441845059237
 30
0.0
 10
288.5466855488353
 20
23.55949371503118
 30
0.0
 10
288.1508588591387
 20
23.00030157147278
 30
0.0
 10
287.7314564875268
 20
22.4264857094768
 30
0.0
  0
SPLINE
  5
80
330
1F
100
AcDbEntity
  8
0
  6
Continuous
 62
   179
370
    18
100
AcDbSpline
210
0.0
220
0.0
230
1.0
 70
     8
 71
     3
 72
    11
 73
     7
 74
     0
 42
0.00000001
 43
0.00000001
 40
20.0
 40
20.0
 40
20.0
 40
20.0
 40
21.0
 40
21.0
 40
21.0
 40
22.0
 40
22.0
 40
22.0
 40
22.0
 10
287.7715077796773
 20
25.39867403457779
 30
0.0
 10
288.2706160663608
 20
25.39867403457779
 30
0.0
 10
288.76972127809
 20
25.39867441894744
 30
0.0
 10
289.2688295647749
 20
25.39867441894744
 30
0.0
 10
289.7706253623487
 20
25.39867441894744
 30
0.0
 10
290.2724180849667
 20
25.39867403457779
 30
0.0
 10
290.7742138825406
 20
25.39867403457779
 30
0.0
  0
SPLINE
  5
81
330
1F
100
AcDbEntity
  8
0
  6
Continuous
 62
   179
370
    18
100
AcDbSpline
210
0.0
220
0.0
230
1.0
 70
     8
 71
     3
 72
    17
 73
    13
 74
     0
 42
0.00000001
 43
0.00000001
 40
16.0
 40
16.0
 40
16.0
 40
16.0
 40
17.0
 40
17.0
 40
17.0
 40
18.0
 40
18.0
 40
18.0
 40
19.0
 40
19.0
 40
19.0
 40
20.0
 40
20.0
 40
20.0
 40
20.0
 10
287.7233847299918
 20
22.54303496963325
 30
0.0
 10
288.0735790837579
 20
23.12311989664797
 30
0.0
 10
288.4211781752921
 20
23.692108847638
 30
0.0
 10
288.7595985254018
 20
24.26650702928458
 30
0.0
 10
288.8131334963293
 20
24.35736772890119
 30
0.0
 10
288.8373887433532
 20
24.47070865762303
 30
0.0
 10
288.8543009972361
 20
24.57697987985169
 30
0.0
 10
288.9174636530569
 20
24.97387165717582
 30
0.0
 10
288.7601181928394
 20
25.20759054971102
 30
0.0
 10
288.3670435880915
 20
25.28904726743022
 30
0.0
 10
288.1718392788191
 20
25.32949945687163
 30
0.0
 10
287.9710693005408
 20
25.34310267453518
 30
0.0
 10
287.7715077796773
 20
25.39867403457779
 30
0.0
  0
SPLINE
  5
82
330
1F
100
AcDbEntity
  8
0
  6
Continuous
 62
   179
370
    18
100
AcDbSpline
210
0.0
220
0.0
230
1.0
 70
     8
 71
     3
 72
     8
 73
     4
 74
     0
 42
0.00000001
 43
0.00000001
 40
15.0
 40
15.0
 40
15.0
 40
15.0
 40
16.0
 40
16.0
 40
16.0
 40
16.0
 10
285.8065406500282
 20
24.86455968857225
 30
0.0
 10
286.4380688096612
 20
24.09970377545334
 30
0.0
 10
287.0596648638312
 20
23.34687900912474
 30
0.0
 10
287.7233847299918
 20
22.54303496963325
 30
0.0
  0
SPLINE
  5
83
330
1F
100
AcDbEntity
  8
0
  6
Continuous
 62
   179
370
    18
100
AcDbSpline
210
0.0
220
0.0
230
1.0
 70
     8
 71
     3
 72
    26
 73
    22
 74
     0
 42
0.00000001
 43
0.00000001
 40
8.0
 40
8.0
 40
8.0
 40
8.0
 40
9.0
 40
9.0
 40
9.0
 40
10.0
 40
10.0
 40
10.0
 40
11.0
 40
11.0
 40
11.0
 40
12.0
 40
12.0
 40
12.0
 40
13.0
 40
13.0
 40
13.0
 40
14.0
 40
14.0
 40
14.0
 40
15.0
 40
15.0
 40
15.0
 40
15.0
 10
284.7027239634148
 20
24.46818604120849
 30
0.0
 10
284.5641388051866
 20
24.6300390014551
 30
0.0
 10
284.4323277733789
 20
24.77744812814591
 30
0.0
 10
284.3077767109179
 20
24.93075271279267
 30
0.0
 10
284.0198409761273
 20
25.28515591156022
 30
0.0
 10
283.7707819005811
 20
25.65802498535045
 30
0.0
 10
283.7149530130354
 20
26.1296866058298
 30
0.0
 10
283.6309452355653
 20
26.8393466878164
 30
0.0
 10
283.9109291360762
 20
27.37506654483262
 30
0.0
 10
284.558084218296
 20
27.68711127408746
 30
0.0
 10
285.1912113546599
 20
27.99239110178883
 30
0.0
 10
285.840402057257
 20
27.99583274545401
 30
0.0
 10
286.4793408590448
 20
27.71426216803416
 30
0.0
 10
287.361321048954
 20
27.32558686332681
 30
0.0
 10
287.5614237619422
 20
26.30921056516709
 30
0.0
 10
286.8815726805328
 20
25.62247811827483
 30
0.0
 10
286.6551698752792
 20
25.39378370261948
 30
0.0
 10
286.361711520857
 20
25.23088333574105
 30
0.0
 10
286.0959738880259
 20
25.04203380586477
 30
0.0
 10
286.0025259979348
 20
24.975621306713
 30
0.0
 10
285.9002991106001
 20
24.9215528310502
 30
0.0
 10
285.8065406500282
 20
24.86455968857225
 30
0.0
  0
SPLINE
  5
84
330
1F
100
AcDbEntity
  8
0
  6
Continuous
 62
   179
370
    18
100
AcDbSpline
210
0.0
220
0.0
230
1.0
 70
     8
 71
     3
 72
    20
 73
    16
 74
     0
 42
0.00000001
 43
0.00000001
 40
3.0
 40
3.0
 40
3.0
 40
3.0
 40
4.0
 40
4.0
 40
4.0
 40
5.0
 40
5.0
 40
5.0
 40
6.0
 40
6.0
 40
6.0
 40
7.0
 40
7.0
 40
7.0
 40
8.0
 40
8.0
 40
8.0
 40
8.0
 10
287.0539854214827
 20
21.61211917311517
 30
0.0
 10
286.8995550188436
 20
21.43851181205056
 30
0.0
 10
286.7443651022574
 20
21.26447318851251
 30
0.0
 10
286.5896302790503
 20
21.09003174583673
 30
0.0
 10
285.9488126796034
 20
20.36759637788916
 30
0.0
 10
285.1515567317372
 20
20.05360962220845
 30
0.0
 10
284.198169930981
 20
20.23446388406056
 30
0.0
 10
282.6109241545095
 20
20.5355588898502
 30
0.0
 10
282.3522343191156
 20
22.37884389028816
 30
0.0
 10
283.1417229300146
 20
23.34576433784628
 30
0.0
 10
283.460866385652
 20
23.73663343094009
 30
0.0
 10
283.8607304915963
 20
24.02105948868024
 30
0.0
 10
284.3005597909425
 20
24.25632085564481
 30
0.0
 10
284.4255536469583
 20
24.32317807019961
 30
0.0
 10
284.5513685160267
 20
24.38851087568819
 30
0.0
 10
284.7027239634148
 20
24.46818604120849
 30
0.0
  0
SPLINE
  5
85
330
1F
100
AcDbEntity
  8
0
  6
Continuous
 62
   179
370
    18
100
AcDbSpline
210
0.0
220
0.0
230
1.0
 70
     8
 71
     3
 72
    14
 73
    10
 74
     0
 42
0.00000001
 43
0.00000001
 40
0.0
 40
0.0
 40
0.0
 40
0.0
 40
1.0
 40
1.0
 40
1.0
 40
2.0
 40
2.0
 40
2.0
 40
3.0
 40
3.0
 40
3.0
 40
3.0
 10
290.8103661314317
 20
21.70506046432864
 30
0.0
 10
290.7160910783766
 20
21.04182259740494
 30
0.0
 10
289.9739444785289
 20
20.32342848939635
 30
0.0
 10
289.3271645408483
 20
20.20870037148624
 30
0.0
 10
288.7048673968812
 20
20.09831485913089
 30
0.0
 10
288.1784811821614
 20
20.26780485511384
 30
0.0
 10
287.7601488949774
 20
20.73592220529573
 30
0.0
 10
287.5152010346028
 20
21.01001756649998
 30
0.0
 10
287.2972697310664
 20
21.3082559388604
 30
0.0
 10
287.0539854214827
 20
21.61211917311517
 30
0.0
  0
SPLINE
  5
86
330
1F
100
AcDbEntity
  8
0
  6
Continuous
 62
   179
370
    18
100
AcDbSpline
210
0.0
220
0.0
230
1.0
 70
     8
 71
     3
 72
    14
 73
    10
 74
     0
 42
0.00000001
 43
0.00000001
 40
1.0
 40
1.0
 40
1.0
 40
1.0
 40
2.0
 40
2.0
 40
2.0
 40
3.0
 40
3.0
 40
3.0
 40
4.0
 40
4.0
 40
4.0
 40
4.0
 10
284.845288113738
 20
24.3712657578988
 30
0.0
 10
284.1054815548355
 20
23.90423117633508
 30
0.0
 10
283.6988925217564
 20
23.08417174469389
 30
0.0
 10
283.7780264951535
 20
22.28619625730053
 30
0.0
 10
283.8665083325146
 20
21.39392726712143
 30
0.0
 10
284.4974276510072
 20
20.83427541775252
 30
0.0
 10
285.3603677179978
 20
20.87638462370451
 30
0.0
 10
286.0339581905155
 20
20.90925282038733
 30
0.0
 10
286.5509442670314
 20
21.22618922689351
 30
0.0
 10
287.0009947176327
 20
21.77781006188367
 30
0.0
  0
SPLINE
  5
87
330
1F
100
AcDbEntity
  8
0
  6
Continuous
 62
   179
370
    18
100
AcDbSpline
210
0.0
220
0.0
230
1.0
 70
     8
 71
     3
 72
     8
 73
     4
 74
     0
 42
0.00000001
 43
0.00000001
 40
0.0
 40
0.0
 40
0.0
 40
0.0
 40
1.0
 40
1.0
 40
1.0
 40
1.0
 10
287.0009947176327
 20
21.77781006188367
 30
0.0
 10
286.2819902310067
 20
22.64282111123716
 30
0.0
 10
285.5612360948443
 20
23.50993158628786
 30
0.0
 10
284.845288113738
 20
24.3712657578988
 30
0.0
  0
SPLINE
  5
88
330
1F
100
AcDbEntity
  8
0
  6
Continuous
 62
   179
370
    18
100
AcDbSpline
210
0.0
220
0.0
230
1.0
 70
     8
 71
     3
 72
    11
 73
     7
 74
     0
 42
0.00000001
 43
0.00000001
 40
3.0
 40
3.0
 40
3.0
 40
3.0
 40
4.0
 40
4.0
 40
4.0
 40
5.0
 40
5.0
 40
5.0
 40
5.0
 10
284.688382372121
 20
27.15085253116304
 30
0.0
 10
284.5630810205802
 20
26.788679112661
 30
0.0
 10
284.5571094574822
 20
26.41068293535724
 30
0.0
 10
284.7721626029031
 20
26.08712768767229
 30
0.0
 10
285.0380140090768
 20
25.68714980838475
 30
0.0
 10
285.3510444536752
 20
25.31853032275095
 30
0.0
 10
285.6520579731507
 20
24.9254318870995
 30
0.0
  0
SPLINE
  5
89
330
1F
100
AcDbEntity
  8
0
  6
Continuous
 62
   179
370
    18
100
AcDbSpline
210
0.0
220
0.0
230
1.0
 70
     8
 71
     3
 72
    14
 73
    10
 74
     0
 42
0.00000001
 43
0.00000001
 40
0.0
 40
0.0
 40
0.0
 40
0.0
 40
1.0
 40
1.0
 40
1.0
 40
2.0
 40
2.0
 40
2.0
 40
3.0
 40
3.0
 40
3.0
 40
3.0
 10
285.6520579731507
 20
24.9254318870995
 30
0.0
 10
286.3259713159692
 20
25.4295804098103
 30
0.0
 10
286.5713650448558
 20
26.2298440482801
 30
0.0
 10
286.3549927436335
 20
27.06650131962916
 30
0.0
 10
286.2400293916459
 20
27.5110460628537
 30
0.0
 10
285.9916529561654
 20
27.74682017860581
 30
0.0
 10
285.6158934244382
 20
27.76810636414938
 30
0.0
 10
285.1818973152029
 20
27.79269159230804
 30
0.0
 10
284.8337724063213
 20
27.5710895609412
 30
0.0
 10
284.688382372121
 20
27.15085253116304
 30
0.0
  0
SPLINE
  5
8A
330
1F
100
AcDbEntity
  8
0
  6
Continuous
 62
   179
370
    18
100
AcDbSpline
210
0.0
220
0.0
230
1.0
 70
     8
 71
     3
 72
    17
 73
    13
 74
     0
 42
0.00000001
 43
0.00000001
 40
21.0
 40
21.0
 40
21.0
 40
21.0
 40
22.0
 40
22.0
 40
22.0
 40
23.0
 40
23.0
 40
23.0
 40
24.0
 40
24.0
 40
24.0
 40
25.0
 40
25.0
 40
25.0
 40
25.0
 10
293.8906841048422
 20
20.25643828302682
 30
0.0
 10
294.0348564567621
 20
20.35359533789035
 30
0.0
 10
294.2655211499942
 20
20.43733713173098
 30
0.0
 10
294.3739502220706
 20
20.60171040217499
 30
0.0
 10
294.4888489999954
 20
20.77588586122133
 30
0.0
 10
294.52894334152
 20
21.02641399663968
 30
0.0
 10
294.5304592944584
 20
21.24409084762873
 30
0.0
 10
294.54232862173
 20
22.9481603240125
 30
0.0
 10
294.5326947869268
 20
24.65236702027423
 30
0.0
 10
294.5396718603926
 20
26.35648992400541
 30
0.0
 10
294.541848928711
 20
26.88863860486635
 30
0.0
 10
294.4654639653083
 20
27.35271373418588
 30
0.0
 10
293.841527870193
 20
27.50458020069891
 30
0.0
  0
SPLINE
  5
8B
330
1F
100
AcDbEntity
  8
0
  6
Continuous
 62
   179
370
    18
100
AcDbSpline
210
0.0
220
0.0
230
1.0
 70
    24
 71
     3
 72
     8
 73
     4
 74
     0
 42
0.00000001
 43
0.00000001
 40
20.0
 40
20.0
 40
20.0
 40
20.0
 40
21.0
 40
21.0
 40
21.0
 40
21.0
 10
296.2880237673525
 20
20.25643828302682
 30
0.0
 10
295.4693261565182
 20
20.25643828302682
 30
0.0
 10
294.6506254707311
 20
20.25643828302682
 30
0.0
 10
293.8906841048422
 20
20.25643828302682
 30
0.0
  0
SPLINE
  5
8C
330
1F
100
AcDbEntity
  8
0
  6
Continuous
 62
   179
370
    18
100
AcDbSpline
210
0.0
220
0.0
230
1.0
 70
     8
 71
     3
 72
    14
 73
    10
 74
     0
 42
0.00000001
 43
0.00000001
 40
17.0
 40
17.0
 40
17.0
 40
17.0
 40
18.0
 40
18.0
 40
18.0
 40
19.0
 40
19.0
 40
19.0
 40
20.0
 40
20.0
 40
20.0
 40
20.0
 10
295.5733857171835
 20
23.97022240661697
 30
0.0
 10
295.5696219719554
 20
23.89376787235267
 30
0.0
 10
295.5622759038603
 20
23.81306182808445
 30
0.0
 10
295.5621928800676
 20
23.73234771205876
 30
0.0
 10
295.561359567195
 20
22.89285956003151
 30
0.0
 10
295.560827599936
 20
22.05336910178782
 30
0.0
 10
295.5619960829322
 20
21.2138824872384
 30
0.0
 10
295.5628078711177
 20
20.63015527572819
 30
0.0
 10
295.7413366980624
 20
20.4024294709773
 30
0.0
 10
296.2880237673525
 20
20.25643828302682
 30
0.0
  0
SPLINE
  5
8D
330
1F
100
AcDbEntity
  8
0
  6
Continuous
 62
   179
370
    18
100
AcDbSpline
210
0.0
220
0.0
230
1.0
 70
    24
 71
     3
 72
     8
 73
     4
 74
     0
 42
0.00000001
 43
0.00000001
 40
16.0
 40
16.0
 40
16.0
 40
16.0
 40
17.0
 40
17.0
 40
17.0
 40
17.0
 10
298.4851131190222
 20
23.97022240661697
 30
0.0
 10
297.5154382802974
 20
23.97022240661697
 30
0.0
 10
296.5557754958724
 20
23.97022240661697
 30
0.0
 10
295.5733857171835
 20
23.97022240661697
 30
0.0
  0
SPLINE
  5
8E
330
1F
100
AcDbEntity
  8
0
  6
Continuous
 62
   179
370
    18
100
AcDbSpline
210
0.0
220
0.0
230
1.0
 70
     8
 71
     3
 72
    11
 73
     7
 74
     0
 42
0.00000001
 43
0.00000001
 40
14.0
 40
14.0
 40
14.0
 40
14.0
 40
15.0
 40
15.0
 40
15.0
 40
16.0
 40
16.0
 40
16.0
 40
16.0
 10
297.7632396991476
 20
20.25412130424438
 30
0.0
 10
298.3307257657572
 20
20.41986831094703
 30
0.0
 10
298.4849747460367
 20
20.62384393007452
 30
0.0
 10
298.4850731446049
 20
21.23173567742801
 30
0.0
 10
298.4852207424561
 20
22.13796342697173
 30
0.0
 10
298.4851131190222
 20
23.04419117651474
 30
0.0
 10
298.4851131190222
 20
23.97022240661697
 30
0.0
  0
SPLINE
  5
8F
330
1F
100
AcDbEntity
  8
0
  6
Continuous
 62
   179
370
    18
100
AcDbSpline
210
0.0
220
0.0
230
1.0
 70
    24
 71
     3
 72
     8
 73
     4
 74
     0
 42
0.00000001
 43
0.00000001
 40
13.0
 40
13.0
 40
13.0
 40
13.0
 40
14.0
 40
14.0
 40
14.0
 40
14.0
 10
300.2193725060648
 20
20.25412130424438
 30
0.0
 10
299.4006625954106
 20
20.25412130424438
 30
0.0
 10
298.5819526847563
 20
20.25412130424438
 30
0.0
 10
297.7632396991476
 20
20.25412130424438
 30
0.0
  0
SPLINE
  5
90
330
1F
100
AcDbEntity
  8
0
  6
Continuous
 62
   179
370
    18
100
AcDbSpline
210
0.0
220
0.0
230
1.0
 70
     8
 71
     3
 72
    17
 73
    13
 74
     0
 42
0.00000001
 43
0.00000001
 40
9.0
 40
9.0
 40
9.0
 40
9.0
 40
10.0
 40
10.0
 40
10.0
 40
11.0
 40
11.0
 40
11.0
 40
12.0
 40
12.0
 40
12.0
 40
13.0
 40
13.0
 40
13.0
 40
13.0
 10
300.2549312885929
 20
27.49433829349534
 30
0.0
 10
300.1600043450263
 20
27.45496618208605
 30
0.0
 10
300.1052670665942
 20
27.43024796211264
 30
0.0
 10
300.0491183837019
 20
27.40930924651266
 30
0.0
 10
299.7248336028849
 20
27.28837413924314
 30
0.0
 10
299.5426363543262
 20
27.0468754177367
 30
0.0
 10
299.5421628112159
 20
26.70494346873036
 30
0.0
 10
299.5395583241182
 20
24.8160968563317
 30
0.0
 10
299.5393769017586
 20
22.92724217217554
 30
0.0
 10
299.542119761843
 20
21.03839632851544
 30
0.0
 10
299.5427163031618
 20
20.62720562490344
 30
0.0
 10
299.739442715284
 20
20.41422423058344
 30
0.0
 10
300.2193725060648
 20
20.25412130424438
 30
0.0
  0
SPLINE
  5
91
330
1F
100
AcDbEntity
  8
0
  6
Continuous
 62
   179
370
    18
100
AcDbSpline
210
0.0
220
0.0
230
1.0
 70
    24
 71
     3
 72
     8
 73
     4
 74
     0
 42
0.00000001
 43
0.00000001
 40
8.0
 40
8.0
 40
8.0
 40
8.0
 40
9.0
 40
9.0
 40
9.0
 40
9.0
 10
297.7186989723292
 20
27.49433829349534
 30
0.0
 10
298.5854396840106
 20
27.49433829349534
 30
0.0
 10
299.3949493285535
 20
27.49433829349534
 30
0.0
 10
300.2549312885929
 20
27.49433829349534
 30
0.0
  0
SPLINE
  5
92
330
1F
100
AcDbEntity
  8
0
  6
Continuous
 62
   179
370
    18
100
AcDbSpline
210
0.0
220
0.0
230
1.0
 70
     8
 71
     3
 72
    14
 73
    10
 74
     0
 42
0.00000001
 43
0.00000001
 40
5.0
 40
5.0
 40
5.0
 40
5.0
 40
6.0
 40
6.0
 40
6.0
 40
7.0
 40
7.0
 40
7.0
 40
8.0
 40
8.0
 40
8.0
 40
8.0
 10
298.4851131190222
 20
24.16049564077468
 30
0.0
 10
298.4851131190222
 20
24.24049329222682
 30
0.0
 10
298.4851131190222
 20
24.32893553953832
 30
0.0
 10
298.4851131190222
 20
24.41737817121947
 30
0.0
 10
298.4851131190222
 20
25.09736416629037
 30
0.0
 10
298.4851377186649
 20
25.7773505457302
 30
0.0
 10
298.4851069691121
 20
26.45733654080182
 30
0.0
 10
298.4850762195593
 20
27.0944786077999
 30
0.0
 10
298.3648823686909
 20
27.26685790861022
 30
0.0
 10
297.7186989723292
 20
27.49433829349534
 30
0.0
  0
SPLINE
  5
93
330
1F
100
AcDbEntity
  8
0
  6
Continuous
 62
   179
370
    18
100
AcDbSpline
210
0.0
220
0.0
230
1.0
 70
    24
 71
     3
 72
     8
 73
     4
 74
     0
 42
0.00000001
 43
0.00000001
 40
4.0
 40
4.0
 40
4.0
 40
4.0
 40
5.0
 40
5.0
 40
5.0
 40
5.0
 10
295.5632814142282
 20
24.16049564077468
 30
0.0
 10
296.5292663066504
 20
24.16049564077468
 30
0.0
 10
297.4889290910767
 20
24.16049564077468
 30
0.0
 10
298.4851131190222
 20
24.16049564077468
 30
0.0
  0
SPLINE
  5
94
330
1F
100
AcDbEntity
  8
0
  6
Continuous
 62
   179
370
    18
100
AcDbSpline
210
0.0
220
0.0
230
1.0
 70
     8
 71
     3
 72
    14
 73
    10
 74
     0
 42
0.00000001
 43
0.00000001
 40
1.0
 40
1.0
 40
1.0
 40
1.0
 40
2.0
 40
2.0
 40
2.0
 40
3.0
 40
3.0
 40
3.0
 40
4.0
 40
4.0
 40
4.0
 40
4.0
 10
296.2715297073844
 20
27.50458020069891
 30
0.0
 10
295.9411319155254
 20
27.38780204855992
 30
0.0
 10
295.6648994604227
 20
27.22384581892186
 30
0.0
 10
295.5906023916358
 20
26.8479388815276
 30
0.0
 10
295.5792681065788
 20
26.79059327230427
 30
0.0
 10
295.5645605956114
 20
26.73240397223375
 30
0.0
 10
295.5644406723573
 20
26.67457866999212
 30
0.0
 10
295.5627432970579
 20
25.84365465270932
 30
0.0
 10
295.5632814142282
 20
25.01272602299438
 30
0.0
 10
295.5632814142282
 20
24.16049564077468
 30
0.0
  0
SPLINE
  5
95
330
1F
100
AcDbEntity
  8
0
  6
Continuous
 62
   179
370
    18
100
AcDbSpline
210
0.0
220
0.0
230
1.0
 70
    24
 71
     3
 72
     8
 73
     4
 74
     0
 42
0.00000001
 43
0.00000001
 40
0.0
 40
0.0
 40
0.0
 40
0.0
 40
1.0
 40
1.0
 40
1.0
 40
1.0
 10
293.841527870193
 20
27.50458020069891
 30
0.0
 10
294.6515264326192
 20
27.50458020069891
 30
0.0
 10
295.4615280700011
 20
27.50458020069891
 30
0.0
 10
296.2715297073844
 20
27.50458020069891
 30
0.0
  0
SPLINE
  5
96
330
1F
100
AcDbEntity
  8
0
  6
Continuous
 62
   179
370
    18
100
AcDbSpline
210
0.0
220
0.0
230
1.0
 70
     8
 71
     3
 72
    14
 73
    10
 74
     0
 42
0.00000001
 43
0.00000001
 40
17.0
 40
17.0
 40
17.0
 40
17.0
 40
18.0
 40
18.0
 40
18.0
 40
19.0
 40
19.0
 40
19.0
 40
20.0
 40
20.0
 40
20.0
 40
20.0
 10
257.7053577757453
 20
20.25910042553502
 30
0.0
 10
258.2139995287706
 20
20.39587059142628
 30
0.0
 10
258.4104423723632
 20
20.62446660851326
 30
0.0
 10
258.4124688639662
 20
21.16843695483816
 30
0.0
 10
258.4191609275175
 20
22.96470127704905
 30
0.0
 10
258.4149081683119
 20
24.76100595804667
 30
0.0
 10
258.4151320634913
 20
26.55729487989966
 30
0.0
 10
258.4151924094879
 20
27.04153921726714
 30
0.0
 10
258.2057453879524
 20
27.36893835120056
 30
0.0
 10
257.7192638284546
 20
27.51463645747964
 30
0.0
  0
SPLINE
  5
97
330
1F
100
AcDbEntity
  8
0
  6
Continuous
 62
   179
370
    18
100
AcDbSpline
210
0.0
220
0.0
230
1.0
 70
    24
 71
     3
 72
     8
 73
     4
 74
     0
 42
0.00000001
 43
0.00000001
 40
16.0
 40
16.0
 40
16.0
 40
16.0
 40
17.0
 40
17.0
 40
17.0
 40
17.0
 10
260.1134120717832
 20
20.25910042553502
 30
0.0
 10
259.3107272904223
 20
20.25910042553502
 30
0.0
 10
258.5080426051526
 20
20.25910042553502
 30
0.0
 10
257.7053577757453
 20
20.25910042553502
 30
0.0
  0
SPLINE
  5
98
330
1F
100
AcDbEntity
  8
0
  6
Continuous
 62
   179
370
    18
100
AcDbSpline
210
0.0
220
0.0
230
1.0
 70
     8
 71
     3
 72
    14
 73
    10
 74
     0
 42
0.00000001
 43
0.00000001
 40
13.0
 40
13.0
 40
13.0
 40
13.0
 40
14.0
 40
14.0
 40
14.0
 40
15.0
 40
15.0
 40
15.0
 40
16.0
 40
16.0
 40
16.0
 40
16.0
 10
259.4607286043899
 20
23.57138302951071
 30
0.0
 10
259.4539911852495
 20
23.51939476107442
 30
0.0
 10
259.4406539512153
 20
23.46398560492077
 30
0.0
 10
259.4405559370167
 20
23.40855338660287
 30
0.0
 10
259.4392191002215
 20
22.65310606781492
 30
0.0
 10
259.4366701545022
 20
21.89763799307775
 30
0.0
 10
259.4408326829897
 20
21.14221143023692
 30
0.0
 10
259.4435911100346
 20
20.64162793377141
 30
0.0
 10
259.6377614656041
 20
20.40079128856704
 30
0.0
 10
260.1134120717832
 20
20.25910042553502
 30
0.0
  0
SPLINE
  5
99
330
1F
100
AcDbEntity
  8
0
  6
Continuous
 62
   179
370
    18
100
AcDbSpline
210
0.0
220
0.0
230
1.0
 70
     8
 71
     3
 72
    20
 73
    16
 74
     0
 42
0.00000001
 43
0.00000001
 40
8.0
 40
8.0
 40
8.0
 40
8.0
 40
9.0
 40
9.0
 40
9.0
 40
10.0
 40
10.0
 40
10.0
 40
11.0
 40
11.0
 40
11.0
 40
12.0
 40
12.0
 40
12.0
 40
13.0
 40
13.0
 40
13.0
 40
13.0
 10
263.9554858268652
 20
20.24609336482204
 30
0.0
 10
263.8909540472192
 20
20.24131411562171
 30
0.0
 10
263.8264337986554
 20
20.23257048036439
 30
0.0
 10
263.7618904879274
 20
20.2323936704376
 30
0.0
 10
263.3170171088603
 20
20.2311736819415
 30
0.0
 10
262.8718696744063
 20
20.24067529366942
 30
0.0
 10
262.427398730108
 20
20.22724465786873
 30
0.0
 10
262.2549406335689
 20
20.22203337745712
 30
0.0
 10
262.1765046750147
 20
20.28890135435546
 30
0.0
 10
262.1067370153144
 20
20.43629933433309
 30
0.0
 10
261.7451764738302
 20
21.200166649339
 30
0.0
 10
261.378026816807
 20
21.9614848264415
 30
0.0
 10
261.0037355762117
 20
22.71920223094413
 30
0.0
 10
260.6054131759577
 20
23.52556773374194
 30
0.0
 10
260.3725694925604
 20
23.65083910446931
 30
0.0
 10
259.4607286043899
 20
23.57138302951071
 30
0.0
  0
SPLINE
  5
9A
330
1F
100
AcDbEntity
  8
0
  6
Continuous
 62
   179
370
    18
100
AcDbSpline
210
0.0
220
0.0
230
1.0
 70
     8
 71
     3
 72
    14
 73
    10
 74
     0
 42
0.00000001
 43
0.00000001
 40
5.0
 40
5.0
 40
5.0
 40
5.0
 40
6.0
 40
6.0
 40
6.0
 40
7.0
 40
7.0
 40
7.0
 40
8.0
 40
8.0
 40
8.0
 40
8.0
 10
261.0219043336847
 20
23.63056361828031
 30
0.0
 10
261.7521543160346
 20
23.35408286053947
 30
0.0
 10
262.033208300972
 20
22.73079019980925
 30
0.0
 10
262.3739921385617
 20
22.16106556577572
 30
0.0
 10
262.6276890153665
 20
21.7369354504649
 30
0.0
 10
262.8739775562312
 20
21.30835818112304
 30
0.0
 10
263.1292772534607
 20
20.88520667032095
 30
0.0
 10
263.3178377375433
 20
20.57267359973515
 30
0.0
 10
263.5606000734738
 20
20.32757122285868
 30
0.0
 10
263.9554858268652
 20
20.24609336482204
 30
0.0
  0
SPLINE
  5
9B
330
1F
100
AcDbEntity
  8
0
  6
Continuous
 62
   179
370
    18
100
AcDbSpline
210
0.0
220
0.0
230
1.0
 70
     8
 71
     3
 72
    20
 73
    16
 74
     0
 42
0.00000001
 43
0.00000001
 40
0.0
 40
0.0
 40
0.0
 40
0.0
 40
1.0
 40
1.0
 40
1.0
 40
2.0
 40
2.0
 40
2.0
 40
3.0
 40
3.0
 40
3.0
 40
4.0
 40
4.0
 40
4.0
 40
5.0
 40
5.0
 40
5.0
 40
5.0
 10
257.7192638284546
 20
27.51463645747964
 30
0.0
 10
258.1174764912431
 20
27.51463645747964
 30
0.0
 10
258.5159962651877
 20
27.52468175973202
 30
0.0
 10
258.913837050576
 20
27.51251762112626
 30
0.0
 10
259.7094699986221
 20
27.48819126576296
 30
0.0
 10
260.5093946232761
 20
27.49481913962259
 30
0.0
 10
261.2989762515715
 20
27.40941936834727
 30
0.0
 10
262.3071445332423
 20
27.30037799580671
 30
0.0
 10
262.8488620904764
 20
26.74717259793779
 30
0.0
 10
262.9131259646454
 20
25.88395655371281
 30
0.0
 10
262.9966382899503
 20
24.76217905347502
 30
0.0
 10
262.5617362220245
 20
24.08644572151765
 30
0.0
 10
261.5515161764629
 20
23.77337299628437
 30
0.0
 10
261.3945785321864
 20
23.72473719781129
 30
0.0
 10
261.2341319795987
 20
23.68742184709604
 30
0.0
 10
261.0219043336847
 20
23.63056361828031
 30
0.0
  0
SPLINE
  5
9C
330
1F
100
AcDbEntity
  8
0
  6
Continuous
 62
   179
370
    18
100
AcDbSpline
210
0.0
220
0.0
230
1.0
 70
     8
 71
     3
 72
    20
 73
    16
 74
     0
 42
0.00000001
 43
0.00000001
 40
1.0
 40
1.0
 40
1.0
 40
1.0
 40
2.0
 40
2.0
 40
2.0
 40
3.0
 40
3.0
 40
3.0
 40
4.0
 40
4.0
 40
4.0
 40
5.0
 40
5.0
 40
5.0
 40
6.0
 40
6.0
 40
6.0
 40
6.0
 10
259.4558811296203
 20
23.74052094311722
 30
0.0
 10
259.8313410453958
 20
23.74052094311722
 30
0.0
 10
260.1942113256325
 20
23.70804326575078
 30
0.0
 10
260.5489927438957
 20
23.74778168120397
 30
0.0
 10
261.1506181168165
 20
23.81517009427841
 30
0.0
 10
261.608259863196
 20
24.13857044109259
 30
0.0
 10
261.7413862071132
 20
24.73962656292206
 30
0.0
 10
261.8389787525148
 20
25.18024881635489
 30
0.0
 10
261.8719876284001
 20
25.65810454981779
 30
0.0
 10
261.8164781518313
 20
26.10478869315943
 30
0.0
 10
261.7108519014664
 20
26.95476897687368
 30
0.0
 10
261.3230227860075
 20
27.28690123567825
 30
0.0
 10
260.4792308497364
 20
27.35420547185249
 30
0.0
 10
260.1467440101549
 20
27.38072599997261
 30
0.0
 10
259.8103733099057
 20
27.35855230546976
 30
0.0
 10
259.4558811296203
 20
27.35855230546976
 30
0.0
  0
SPLINE
  5
9D
330
1F
100
AcDbEntity
  8
0
  6
Continuous
 62
   179
370
    18
100
AcDbSpline
210
0.0
220
0.0
230
1.0
 70
    24
 71
     3
 72
     8
 73
     4
 74
     0
 42
0.00000001
 43
0.00000001
 40
0.0
 40
0.0
 40
0.0
 40
0.0
 40
1.0
 40
1.0
 40
1.0
 40
1.0
 10
259.4558811296203
 20
27.35855230546976
 30
0.0
 10
259.4558811296203
 20
26.13864548795524
 30
0.0
 10
259.4558811296203
 20
24.94385548148867
 30
0.0
 10
259.4558811296203
 20
23.74052094311722
 30
0.0
  0
SPLINE
  5
9E
330
1F
100
AcDbEntity
  8
0
  6
Continuous
 62
   179
370
    18
100
AcDbSpline
210
0.0
220
0.0
230
1.0
 70
     8
 71
     3
 72
    14
 73
    10
 74
     0
 42
0.00000001
 43
0.00000001
 40
3.0
 40
3.0
 40
3.0
 40
3.0
 40
4.0
 40
4.0
 40
4.0
 40
5.0
 40
5.0
 40
5.0
 40
6.0
 40
6.0
 40
6.0
 40
6.0
 10
267.2336118279071
 20
20.23490821509466
 30
0.0
 10
266.3034040398354
 20
20.48709452013179
 30
0.0
 10
265.5792320909092
 20
21.34541139190241
 30
0.0
 10
265.4837047623288
 20
22.29272284982232
 30
0.0
 10
265.4259332718035
 20
22.86561853145873
 30
0.0
 10
265.4879189885011
 20
23.41465794151554
 30
0.0
 10
265.7739382574312
 20
23.92202056120339
 30
0.0
 10
266.225828300013
 20
24.723612195973
 30
0.0
 10
266.9062728477855
 20
25.1505801106106
 30
0.0
 10
267.7758432870376
 20
25.16748813643033
 30
0.0
  0
SPLINE
  5
9F
330
1F
100
AcDbEntity
  8
0
  6
Continuous
 62
   179
370
    18
100
AcDbSpline
210
0.0
220
0.0
230
1.0
 70
     8
 71
     3
 72
    14
 73
    10
 74
     0
 42
0.00000001
 43
0.00000001
 40
0.0
 40
0.0
 40
0.0
 40
0.0
 40
1.0
 40
1.0
 40
1.0
 40
2.0
 40
2.0
 40
2.0
 40
3.0
 40
3.0
 40
3.0
 40
3.0
 10
267.7758432870376
 20
25.16748813643033
 30
0.0
 10
268.6216197225536
 20
25.16033694362372
 30
0.0
 10
269.2464106552308
 20
24.83848445240961
 30
0.0
 10
269.7103360726668
 20
24.21398909980579
 30
0.0
 10
270.372934348899
 20
23.32205720159637
 30
0.0
 10
270.3723808569537
 20
22.03321892002499
 30
0.0
 10
269.7215189161771
 20
21.13111084177937
 30
0.0
 10
269.1482911393735
 20
20.33660467264827
 30
0.0
 10
268.1650050112285
 20
19.98240211471103
 30
0.0
 10
267.2336118279071
 20
20.23490821509466
 30
0.0
  0
SPLINE
  5
A0
330
1F
100
AcDbEntity
  8
0
  6
Continuous
 62
   179
370
    18
100
AcDbSpline
210
0.0
220
0.0
230
1.0
 70
     8
 71
     3
 72
    17
 73
    13
 74
     0
 42
0.00000001
 43
0.00000001
 40
4.0
 40
4.0
 40
4.0
 40
4.0
 40
5.0
 40
5.0
 40
5.0
 40
6.0
 40
6.0
 40
6.0
 40
7.0
 40
7.0
 40
7.0
 40
8.0
 40
8.0
 40
8.0
 40
8.0
 10
266.4699528411193
 20
22.82140374989816
 30
0.0
 10
266.4269741915698
 20
22.16270989809668
 30
0.0
 10
266.5287029361534
 20
21.51524885782822
 30
0.0
 10
266.8746830637486
 20
20.93428603108956
 30
0.0
 10
267.1048165584611
 20
20.54785025472892
 30
0.0
 10
267.4153070900211
 20
20.27237193240103
 30
0.0
 10
267.9076604687568
 20
20.30531315927085
 30
0.0
 10
268.3388937306983
 20
20.33416469565678
 30
0.0
 10
268.6078393105943
 20
20.5966013640246
 30
0.0
 10
268.810867074766
 20
20.94311038392242
 30
0.0
 10
269.1208448575376
 20
21.47214721006825
 30
0.0
 10
269.202432645224
 20
22.05765558940843
 30
0.0
 10
269.218762963826
 20
22.68351122534059
 30
0.0
  0
SPLINE
  5
A1
330
1F
100
AcDbEntity
  8
0
  6
Continuous
 62
   179
370
    18
100
AcDbSpline
210
0.0
220
0.0
230
1.0
 70
     8
 71
     3
 72
    17
 73
    13
 74
     0
 42
0.00000001
 43
0.00000001
 40
0.0
 40
0.0
 40
0.0
 40
0.0
 40
1.0
 40
1.0
 40
1.0
 40
2.0
 40
2.0
 40
2.0
 40
3.0
 40
3.0
 40
3.0
 40
4.0
 40
4.0
 40
4.0
 40
4.0
 10
269.218762963826
 20
22.68351122534059
 30
0.0
 10
269.195680043492
 20
23.34551372899321
 30
0.0
 10
269.0963628325642
 20
24.01168817818241
 30
0.0
 10
268.6683621173312
 20
24.58056604641373
 30
0.0
 10
268.2143234497673
 20
25.18405330473933
 30
0.0
 10
267.4640605055332
 20
25.19142205062979
 30
0.0
 10
267.0072628343699
 20
24.59213287496141
 30
0.0
 10
266.882078331128
 20
24.42789874624283
 30
0.0
 10
266.7597204805012
 20
24.2414496033099
 30
0.0
 10
266.7072125446274
 20
24.04607386528146
 30
0.0
 10
266.5993976948625
 20
23.64490674705059
 30
0.0
 10
266.4968487059656
 20
23.23360918874381
 30
0.0
 10
266.4699528411193
 20
22.82140374989816
 30
0.0
  0
SPLINE
  5
A2
330
1F
100
AcDbEntity
  8
0
  6
Continuous
 62
   179
370
    18
100
AcDbSpline
210
0.0
220
0.0
230
1.0
 70
     8
 71
     3
 72
    17
 73
    13
 74
     0
 42
0.00000001
 43
0.00000001
 40
6.0
 40
6.0
 40
6.0
 40
6.0
 40
7.0
 40
7.0
 40
7.0
 40
8.0
 40
8.0
 40
8.0
 40
9.0
 40
9.0
 40
9.0
 40
10.0
 40
10.0
 40
10.0
 40
10.0
 10
311.6156486607861
 20
20.25320881127337
 30
0.0
 10
312.1185268426077
 20
20.41647125413319
 30
0.0
 10
312.2872188877024
 20
20.63608302071405
 30
0.0
 10
312.2876555313485
 20
21.16871754450475
 30
0.0
 10
312.2890700107628
 20
22.88922803787955
 30
0.0
 10
312.2877662297369
 20
24.60974045310045
 30
0.0
 10
312.2871819882395
 20
26.33025248395311
 30
0.0
 10
312.2871512386867
 20
26.42255802816857
 30
0.0
 10
312.2845313768121
 20
26.51487279724974
 30
0.0
 10
312.2823973578678
 20
26.60716642601487
 30
0.0
 10
312.2683694120104
 20
27.21300429544448
 30
0.0
 10
312.2096131670664
 20
27.27631108979181
 30
0.0
 10
311.6691528821608
 20
27.32445797038016
 30
0.0
  0
SPLINE
  5
A3
330
1F
100
AcDbEntity
  8
0
  6
Continuous
 62
   179
370
    18
100
AcDbSpline
210
0.0
220
0.0
230
1.0
 70
    24
 71
     3
 72
     8
 73
     4
 74
     0
 42
0.00000001
 43
0.00000001
 40
5.0
 40
5.0
 40
5.0
 40
5.0
 40
6.0
 40
6.0
 40
6.0
 40
6.0
 10
313.8867245107603
 20
20.25320881127337
 30
0.0
 10
313.0865658051385
 20
20.25320881127337
 30
0.0
 10
312.3511103079174
 20
20.25320881127337
 30
0.0
 10
311.6156486607861
 20
20.25320881127337
 30
0.0
  0
SPLINE
  5
A4
330
1F
100
AcDbEntity
  8
0
  6
Continuous
 62
   179
370
    18
100
AcDbSpline
210
0.0
220
0.0
230
1.0
 70
     8
 71
     3
 72
    17
 73
    13
 74
     0
 42
0.00000001
 43
0.00000001
 40
1.0
 40
1.0
 40
1.0
 40
1.0
 40
2.0
 40
2.0
 40
2.0
 40
3.0
 40
3.0
 40
3.0
 40
4.0
 40
4.0
 40
4.0
 40
5.0
 40
5.0
 40
5.0
 40
5.0
 10
313.1781318226163
 20
27.87703492426926
 30
0.0
 10
313.1781318226163
 20
27.83642744958889
 30
0.0
 10
313.1781318226163
 20
27.75161518695077
 30
0.0
 10
313.1781318226163
 20
27.66680273212925
 30
0.0
 10
313.1781318226163
 20
25.57700952371036
 30
0.0
 10
313.1781256727049
 20
23.48721689184593
 30
0.0
 10
313.1781441224363
 20
21.39742349124222
 30
0.0
 10
313.1781441224363
 20
21.32188875296783
 30
0.0
 10
313.1771847363981
 20
21.24633325874564
 30
0.0
 10
313.1786115156352
 20
21.17082388885262
 30
0.0
 10
313.1888880160859
 20
20.62648762285203
 30
0.0
 10
313.3266152617988
 20
20.4348325806782
 30
0.0
 10
313.8867245107603
 20
20.25320881127337
 30
0.0
  0
SPLINE
  5
A5
330
1F
100
AcDbEntity
  8
0
  6
Continuous
 62
   179
370
    18
100
AcDbSpline
210
0.0
220
0.0
230
1.0
 70
     8
 71
     3
 72
     8
 73
     4
 74
     0
 42
0.00000001
 43
0.00000001
 40
0.0
 40
0.0
 40
0.0
 40
0.0
 40
1.0
 40
1.0
 40
1.0
 40
1.0
 10
311.6691528821608
 20
27.32445797038016
 30
0.0
 10
312.1410908642435
 20
27.49727756634619
 30
0.0
 10
312.6458878181427
 20
27.68213176842718
 30
0.0
 10
313.1781318226163
 20
27.87703492426926
 30
0.0
  0
SPLINE
  5
A6
330
1F
100
AcDbEntity
  8
0
  6
Continuous
 62
   179
370
    18
100
AcDbSpline
210
0.0
220
0.0
230
1.0
 70
     8
 71
     3
 72
    14
 73
    10
 74
     0
 42
0.00000001
 43
0.00000001
 40
6.0
 40
6.0
 40
6.0
 40
6.0
 40
7.0
 40
7.0
 40
7.0
 40
8.0
 40
8.0
 40
8.0
 40
9.0
 40
9.0
 40
9.0
 40
9.0
 10
278.4819664915176
 20
27.88441039662488
 30
0.0
 10
278.4819664915176
 20
27.83987735719566
 30
0.0
 10
278.4819649540404
 20
27.75219577693941
 30
0.0
 10
278.4819649540404
 20
27.66451419668386
 30
0.0
 10
278.4819664915176
 20
25.48269219002111
 30
0.0
 10
278.4816605334703
 20
23.30086999117493
 30
0.0
 10
278.4822124879378
 20
21.11904779232805
 30
0.0
 10
278.4823339486704
 20
20.63637283524633
 30
0.0
 10
278.6550987719953
 20
20.40793364087759
 30
0.0
 10
279.1055120673172
 20
20.2549177176549
 30
0.0
  0
SPLINE
  5
A7
330
1F
100
AcDbEntity
  8
0
  6
Continuous
 62
   179
370
    18
100
AcDbSpline
210
0.0
220
0.0
230
1.0
 70
     8
 71
     3
 72
     8
 73
     4
 74
     0
 42
0.00000001
 43
0.00000001
 40
5.0
 40
5.0
 40
5.0
 40
5.0
 40
6.0
 40
6.0
 40
6.0
 40
6.0
 10
276.9846800684063
 20
27.3296354262854
 30
0.0
 10
277.4478728777531
 20
27.5012575193644
 30
0.0
 10
277.9568994326009
 20
27.68986239811422
 30
0.0
 10
278.4819664915176
 20
27.88441039662488
 30
0.0
  0
SPLINE
  5
A8
330
1F
100
AcDbEntity
  8
0
  6
Continuous
 62
   179
370
    18
100
AcDbSpline
210
0.0
220
0.0
230
1.0
 70
     8
 71
     3
 72
    17
 73
    13
 74
     0
 42
0.00000001
 43
0.00000001
 40
1.0
 40
1.0
 40
1.0
 40
1.0
 40
2.0
 40
2.0
 40
2.0
 40
3.0
 40
3.0
 40
3.0
 40
4.0
 40
4.0
 40
4.0
 40
5.0
 40
5.0
 40
5.0
 40
5.0
 10
276.9460186560295
 20
20.2549177176549
 30
0.0
 10
277.4179566381115
 20
20.4199152040148
 30
0.0
 10
277.5770686601204
 20
20.6342380475635
 30
0.0
 10
277.5771993457187
 20
21.13377529050539
 30
0.0
 10
277.5776652014392
 20
22.92958298186009
 30
0.0
 10
277.5773700057348
 20
24.72538990447762
 30
0.0
 10
277.577359243392
 20
26.52119721146337
 30
0.0
 10
277.577359243392
 20
26.53798031722657
 30
0.0
 10
277.5773838430333
 20
26.55476419172763
 30
0.0
 10
277.5772915943764
 20
26.57154691311976
 30
0.0
 10
277.5738092075535
 20
27.20775573119973
 30
0.0
 10
277.5366914227135
 20
27.25167954511983
 30
0.0
 10
276.9846800684063
 20
27.3296354262854
 30
0.0
  0
SPLINE
  5
A9
330
1F
100
AcDbEntity
  8
0
  6
Continuous
 62
   179
370
    18
100
AcDbSpline
210
0.0
220
0.0
230
1.0
 70
    24
 71
     3
 72
     8
 73
     4
 74
     0
 42
0.00000001
 43
0.00000001
 40
0.0
 40
0.0
 40
0.0
 40
0.0
 40
1.0
 40
1.0
 40
1.0
 40
1.0
 10
279.1055120673172
 20
20.2549177176549
 30
0.0
 10
278.3856819552066
 20
20.2549177176549
 30
0.0
 10
277.6658503056181
 20
20.2549177176549
 30
0.0
 10
276.9460186560295
 20
20.2549177176549
 30
0.0
  0
SPLINE
  5
AA
330
1F
100
AcDbEntity
  8
0
  6
Continuous
 62
   179
370
    18
100
AcDbSpline
210
0.0
220
0.0
230
1.0
 70
     8
 71
     3
 72
    20
 73
    16
 74
     0
 42
0.00000001
 43
0.00000001
 40
5.0
 40
5.0
 40
5.0
 40
5.0
 40
6.0
 40
6.0
 40
6.0
 40
7.0
 40
7.0
 40
7.0
 40
8.0
 40
8.0
 40
8.0
 40
9.0
 40
9.0
 40
9.0
 40
10.0
 40
10.0
 40
10.0
 40
10.0
 10
307.178408284104
 20
20.25443648715803
 30
0.0
 10
307.3179589782804
 20
20.36177625633667
 30
0.0
 10
307.5293898264143
 20
20.45652254628291
 30
0.0
 10
307.6283941606454
 20
20.61954360515536
 30
0.0
 10
307.7285516030971
 20
20.78446498637255
 30
0.0
 10
307.7490584796685
 20
21.01681475508336
 30
0.0
 10
307.7500732149022
 20
21.21990094340409
 30
0.0
 10
307.7587445887104
 20
22.95682170421714
 30
0.0
 10
307.7550484924979
 20
24.69380511724257
 30
0.0
 10
307.7550361926765
 20
26.43077008053731
 30
0.0
 10
307.7550361926765
 20
26.49789904426262
 30
0.0
 10
307.7552944889174
 20
26.56503146731187
 30
0.0
 10
307.7547502218385
 20
26.63215658734291
 30
0.0
 10
307.7501131893193
 20
27.20350460556406
 30
0.0
 10
307.6774858212348
 20
27.28280885460759
 30
0.0
 10
307.1608133901539
 20
27.32540717062984
 30
0.0
  0
SPLINE
  5
AB
330
1F
100
AcDbEntity
  8
0
  6
Continuous
 62
   179
370
    18
100
AcDbSpline
210
0.0
220
0.0
230
1.0
 70
    24
 71
     3
 72
     8
 73
     4
 74
     0
 42
0.00000001
 43
0.00000001
 40
4.0
 40
4.0
 40
4.0
 40
4.0
 40
5.0
 40
5.0
 40
5.0
 40
5.0
 10
309.3620693061908
 20
20.25443648715802
 30
0.0
 10
308.5715044609524
 20
20.25443648715802
 30
0.0
 10
307.8517004859624
 20
20.25443648715802
 30
0.0
 10
307.178408284104
 20
20.25443648715803
 30
0.0
  0
SPLINE
  5
AC
330
1F
100
AcDbEntity
  8
0
  6
Continuous
 62
   179
370
    18
100
AcDbSpline
210
0.0
220
0.0
230
1.0
 70
     8
 71
     3
 72
    14
 73
    10
 74
     0
 42
0.00000001
 43
0.00000001
 40
1.0
 40
1.0
 40
1.0
 40
1.0
 40
2.0
 40
2.0
 40
2.0
 40
3.0
 40
3.0
 40
3.0
 40
4.0
 40
4.0
 40
4.0
 40
4.0
 10
308.65963267846
 20
27.88697759989075
 30
0.0
 10
308.65963267846
 20
27.83196991758182
 30
0.0
 10
308.65963267846
 20
27.74275854708867
 30
0.0
 10
308.65963267846
 20
27.65354698440997
 30
0.0
 10
308.65963267846
 20
25.48863300356693
 30
0.0
 10
308.6595035303402
 20
23.32371921490944
 30
0.0
 10
308.6597187772069
 20
21.15880542625192
 30
0.0
 10
308.6597679764911
 20
20.6374237012035
 30
0.0
 10
308.807415027844
 20
20.43200746554105
 30
0.0
 10
309.3620693061908
 20
20.25443648715802
 30
0.0
  0
SPLINE
  5
AD
330
1F
100
AcDbEntity
  8
0
  6
Continuous
 62
   179
370
    18
100
AcDbSpline
210
0.0
220
0.0
230
1.0
 70
     8
 71
     3
 72
     8
 73
     4
 74
     0
 42
0.00000001
 43
0.00000001
 40
0.0
 40
0.0
 40
0.0
 40
0.0
 40
1.0
 40
1.0
 40
1.0
 40
1.0
 10
307.1608133901539
 20
27.32540717062984
 30
0.0
 10
307.6336123597077
 20
27.50255342081908
 30
0.0
 10
308.1420254609839
 20
27.69304267058278
 30
0.0
 10
308.65963267846
 20
27.88697759989075
 30
0.0
  0
SPLINE
  5
AE
330
1F
100
AcDbEntity
  8
0
  6
Continuous
 62
   179
370
    18
100
AcDbSpline
210
0.0
220
0.0
230
1.0
 70
     8
 71
     3
 72
    14
 73
    10
 74
     0
 42
0.00000001
 43
0.00000001
 40
6.0
 40
6.0
 40
6.0
 40
6.0
 40
7.0
 40
7.0
 40
7.0
 40
8.0
 40
8.0
 40
8.0
 40
9.0
 40
9.0
 40
9.0
 40
9.0
 10
272.426404840594
 20
20.2590796695872
 30
0.0
 10
273.0059923935969
 20
20.37668517687364
 30
0.0
 10
273.0805785081768
 20
20.81042375860576
 30
0.0
 10
273.0783845276048
 20
21.29462927466367
 30
0.0
 10
273.0702866329497
 20
23.08209538116094
 30
0.0
 10
273.0685846452182
 20
24.86961337752774
 30
0.0
 10
273.0527409382852
 20
26.65700799131587
 30
0.0
 10
273.0476395875227
 20
27.23250104921648
 30
0.0
 10
272.9826104338649
 20
27.28380667758701
 30
0.0
 10
272.4594267850393
 20
27.32510813123116
 30
0.0
  0
SPLINE
  5
AF
330
1F
100
AcDbEntity
  8
0
  6
Continuous
 62
   179
370
    18
100
AcDbSpline
210
0.0
220
0.0
230
1.0
 70
    24
 71
     3
 72
     8
 73
     4
 74
     0
 42
0.00000001
 43
0.00000001
 40
5.0
 40
5.0
 40
5.0
 40
5.0
 40
6.0
 40
6.0
 40
6.0
 40
6.0
 10
274.6224502449563
 20
20.2590796695872
 30
0.0
 10
273.8904356226618
 20
20.2590796695872
 30
0.0
 10
273.1584194628892
 20
20.2590796695872
 30
0.0
 10
272.426404840594
 20
20.2590796695872
 30
0.0
  0
SPLINE
  5
B0
330
1F
100
AcDbEntity
  8
0
  6
Continuous
 62
   179
370
    18
100
AcDbSpline
210
0.0
220
0.0
230
1.0
 70
     8
 71
     3
 72
    17
 73
    13
 74
     0
 42
0.00000001
 43
0.00000001
 40
1.0
 40
1.0
 40
1.0
 40
1.0
 40
2.0
 40
2.0
 40
2.0
 40
3.0
 40
3.0
 40
3.0
 40
4.0
 40
4.0
 40
4.0
 40
5.0
 40
5.0
 40
5.0
 40
5.0
 10
273.9540333846496
 20
27.87257450949275
 30
0.0
 10
273.9540333846496
 20
27.8074859707617
 30
0.0
 10
273.9540333846496
 20
27.71082379150879
 30
0.0
 10
273.9540333846496
 20
27.61416161225588
 30
0.0
 10
273.9540349221275
 20
25.51596282147274
 30
0.0
 10
273.9539872603212
 20
23.41776441505853
 30
0.0
 10
273.9542086570993
 20
21.31956562427539
 30
0.0
 10
273.954217881965
 20
21.22727776105204
 30
0.0
 10
273.9506540088286
 20
21.13443409966764
 30
0.0
 10
273.9590578615309
 20
21.04279505200226
 30
0.0
 10
274.0006220316647
 20
20.58964274029083
 30
0.0
 10
274.1836818051716
 20
20.38260600321025
 30
0.0
 10
274.6224502449563
 20
20.2590796695872
 30
0.0
  0
SPLINE
  5
B1
330
1F
100
AcDbEntity
  8
0
  6
Continuous
 62
   179
370
    18
100
AcDbSpline
210
0.0
220
0.0
230
1.0
 70
     8
 71
     3
 72
     8
 73
     4
 74
     0
 42
0.00000001
 43
0.00000001
 40
0.0
 40
0.0
 40
0.0
 40
0.0
 40
1.0
 40
1.0
 40
1.0
 40
1.0
 10
272.4594267850393
 20
27.32510813123116
 30
0.0
 10
272.932774634105
 20
27.4984925580398
 30
0.0
 10
273.4351023989377
 20
27.68249307566929
 30
0.0
 10
273.9540333846496
 20
27.87257450949275
 30
0.0
  0
SPLINE
  5
B2
330
1F
100
AcDbEntity
  8
0
  6
Continuous
 62
   179
370
    18
100
AcDbSpline
210
0.0
220
0.0
230
1.0
 70
     8
 71
     3
 72
    17
 73
    13
 74
     0
 42
0.00000001
 43
0.00000001
 40
6.0
 40
6.0
 40
6.0
 40
6.0
 40
7.0
 40
7.0
 40
7.0
 40
8.0
 40
8.0
 40
8.0
 40
9.0
 40
9.0
 40
9.0
 40
10.0
 40
10.0
 40
10.0
 40
10.0
 10
304.1706223551654
 20
25.06377258638473
 30
0.0
 10
304.1727133247369
 20
25.01792115989102
 30
0.0
 10
304.1800409430993
 20
24.93136078519359
 30
0.0
 10
304.1800932173391
 20
24.84479541369365
 30
0.0
 10
304.1808527312862
 20
23.65282014439031
 30
0.0
 10
304.1797703470369
 20
22.46084295323946
 30
0.0
 10
304.1818797663412
 20
21.26887114326077
 30
0.0
 10
304.1821011631179
 20
21.14380579453512
 30
0.0
 10
304.1922454404932
 20
21.01764883669525
 30
0.0
 10
304.2107535961514
 20
20.89393877449616
 30
0.0
 10
304.2621822227331
 20
20.55023795748124
 30
0.0
 10
304.4578262506061
 20
20.33981031349822
 30
0.0
 10
304.8038079156778
 20
20.2539775500868
 30
0.0
  0
SPLINE
  5
B3
330
1F
100
AcDbEntity
  8
0
  6
Continuous
 62
   179
370
    18
100
AcDbSpline
210
0.0
220
0.0
230
1.0
 70
     8
 71
     3
 72
     8
 73
     4
 74
     0
 42
0.00000001
 43
0.00000001
 40
5.0
 40
5.0
 40
5.0
 40
5.0
 40
6.0
 40
6.0
 40
6.0
 40
6.0
 10
302.7125031745686
 20
24.50968064047994
 30
0.0
 10
303.1898069535648
 20
24.69105879783349
 30
0.0
 10
303.6729961969132
 20
24.874672832025
 30
0.0
 10
304.1706223551654
 20
25.06377258638473
 30
0.0
  0
SPLINE
  5
B4
330
1F
100
AcDbEntity
  8
0
  6
Continuous
 62
   179
370
    18
100
AcDbSpline
210
0.0
220
0.0
230
1.0
 70
     8
 71
     3
 72
    17
 73
    13
 74
     0
 42
0.00000001
 43
0.00000001
 40
1.0
 40
1.0
 40
1.0
 40
1.0
 40
2.0
 40
2.0
 40
2.0
 40
3.0
 40
3.0
 40
3.0
 40
4.0
 40
4.0
 40
4.0
 40
5.0
 40
5.0
 40
5.0
 40
5.0
 10
302.6973344203136
 20
20.2539775500868
 30
0.0
 10
303.1321361678242
 20
20.3494649042487
 30
0.0
 10
303.2897768237453
 20
20.65853557522151
 30
0.0
 10
303.2916556214044
 20
21.04785181591346
 30
0.0
 10
303.296603224403
 20
22.071496731734
 30
0.0
 10
303.2829750227277
 20
23.09531768874206
 30
0.0
 10
303.2668591822546
 20
24.11891186780057
 30
0.0
 10
303.2632153602819
 20
24.35030186610297
 30
0.0
 10
303.1332831261333
 20
24.4918735746181
 30
0.0
 10
302.8846514693661
 20
24.49557889569631
 30
0.0
 10
302.8224697242704
 20
24.49650561033552
 30
0.0
 10
302.7604109773859
 20
24.50557288463289
 30
0.0
 10
302.7125031745686
 20
24.50968064047994
 30
0.0
  0
SPLINE
  5
B5
330
1F
100
AcDbEntity
  8
0
  6
Continuous
 62
   179
370
    18
100
AcDbSpline
210
0.0
220
0.0
230
1.0
 70
    24
 71
     3
 72
     8
 73
     4
 74
     0
 42
0.00000001
 43
0.00000001
 40
0.0
 40
0.0
 40
0.0
 40
0.0
 40
1.0
 40
1.0
 40
1.0
 40
1.0
 10
304.8038079156778
 20
20.2539775500868
 30
0.0
 10
304.1016511088749
 20
20.2539775500868
 30
0.0
 10
303.3994912271164
 20
20.2539775500868
 30
0.0
 10
302.6973344203136
 20
20.2539775500868
 30
0.0
  0
SPLINE
  5
B6
330
1F
100
AcDbEntity
  8
0
  6
Continuous
 62
   179
370
    18
100
AcDbSpline
210
0.0
220
0.0
230
1.0
 70
     8
 71
     3
 72
    11
 73
     7
 74
     0
 42
0.00000001
 43
0.00000001
 40
2.0
 40
2.0
 40
2.0
 40
2.0
 40
3.0
 40
3.0
 40
3.0
 40
4.0
 40
4.0
 40
4.0
 40
4.0
 10
303.0570519104932
 20
26.35430478392947
 30
0.0
 10
303.0511172468595
 20
26.75330175249256
 30
0.0
 10
303.3266947364936
 20
27.05519259513757
 30
0.0
 10
303.6924299141011
 20
27.05034857969325
 30
0.0
 10
304.0507636744179
 20
27.04560238626284
 30
0.0
 10
304.3255386007336
 20
26.75299425696746
 30
0.0
 10
304.327448147944
 20
26.37412133304796
 30
0.0
  0
SPLINE
  5
B7
330
1F
100
AcDbEntity
  8
0
  6
Continuous
 62
   179
370
    18
100
AcDbSpline
210
0.0
220
0.0
230
1.0
 70
     8
 71
     3
 72
    11
 73
     7
 74
     0
 42
0.00000001
 43
0.00000001
 40
0.0
 40
0.0
 40
0.0
 40
0.0
 40
1.0
 40
1.0
 40
1.0
 40
2.0
 40
2.0
 40
2.0
 40
2.0
 10
304.327448147944
 20
26.37412133304796
 30
0.0
 10
304.3293945946187
 20
25.98752450590587
 30
0.0
 10
304.0680572227529
 20
25.70828897263022
 30
0.0
 10
303.6993639381942
 20
25.70301926806731
 30
0.0
 10
303.3259905717407
 20
25.69768229885988
 30
0.0
 10
303.0628482011429
 20
25.96449808787493
 30
0.0
 10
303.0570519104932
 20
26.35430478392947
 30
0.0
  0
MTEXT
  5
B9
330
1F
100
AcDbEntity
  8
0
  6
Continuous
 62
     7
370
     0
100
AcDbMText
 10
257.9690483454
 20
40.3166048975
 30
0.0
 40
3.7041666667
 41
0.0
 71
     1
 72
     1
  1
APLOC10V - Apollo - Chandelier - Vertical - 10 Lights
  7
SLDTEXTSTYLE0
 73
     1
 44
1.0
  0
MTEXT
  5
BA
330
1F
100
AcDbEntity
  8
0
  6
Continuous
 62
     7
370
     0
100
AcDbMText
 10
258.6105142387
 20
44.3546043689
 30
0.0
 40
1.5875
 41
0.0
 71
     1
 72
     1
  1
\LDESCRIPTION
  7
SLDTEXTSTYLE0
 73
     1
 44
1.0
  0
INSERT
  5
C1
330
1F
100
AcDbEntity
  8
0
  6
Continuous
 62
     7
370
     0
100
AcDbBlockReference
  2
SW_NOTE_0
 10
317.1049495712
 20
24.1495665419
 30
0.0
  0
MTEXT
  5
C2
330
1F
100
AcDbEntity
  8
0
  6
Continuous
 62
     7
370
     0
100
AcDbMText
 10
273.8048790106
 20
32.371143085
 30
0.0
 40
1.5875
 41
0.0
 71
     2
 72
     1
  1
\LSCALE
  7
SLDTEXTSTYLE0
 73
     1
 44
1.0
  0
MTEXT
  5
C3
330
1F
100
AcDbEntity
  8
0
  6
Continuous
 62
     7
370
     0
100
AcDbMText
 10
278.3960862508
 20
33.4394651033
 30
0.0
 40
2.6458333333
 41
0.0
 71
     1
 72
     1
  1
1:15
  7
SLDTEXTSTYLE0
 73
     1
 44
1.0
  0
MTEXT
  5
C4
330
1F
100
AcDbEntity
  8
0
  6
Continuous
 62
     7
370
     0
100
AcDbMText
 10
261.4913139704
 20
32.371143085
 30
0.0
 40
1.5875
 41
0.0
 71
     2
 72
     1
  1
\LSIZE
  7
SLDTEXTSTYLE0
 73
     1
 44
1.0
  0
MTEXT
  5
C5
330
1F
100
AcDbEntity
  8
0
  6
Continuous
 62
     7
370
     0
100
AcDbMText
 10
264.7495209372
 20
33.4394651033
 30
0.0
 40
2.6458333333
 41
0.0
 71
     1
 72
     1
  1
B
  7
SLDTEXTSTYLE0
 73
     1
 44
1.0
  0
INSERT
  5
CC
330
1F
100
AcDbEntity
  8
0
  6
Continuous
 62
     7
370
     0
100
AcDbBlockReference
  2
SW_NOTE_0_1
 10
258.0900415808
 20
15.6806800849
 30
0.0
  0
ARC
  5
CD
330
1F
100
AcDbEntity
  8
0
  6
Continuous
 62
     7
370
    25
100
AcDbCircle
 10
95.1369123828
 20
85.855898628
 30
0.0
 40
0.423333333333332
100
AcDbArc
 50
90.0
 51
210.0
  0
ARC
  5
CE
330
1F
100
AcDbEntity
  8
0
  6
Continuous
 62
     7
370
    25
100
AcDbCircle
 10
99.1730876172
 20
85.855898628
 30
0.0
 40
0.423333333333332
100
AcDbArc
 50
330.0
 51
90.0
  0
ARC
  5
CF
330
1F
100
AcDbEntity
  8
0
  6
Continuous
 62
     7
370
    25
100
AcDbCircle
 10
99.1730876172
 20
75.8753919613
 30
0.0
 40
0.423333333333332
100
AcDbArc
 50
270.0
 51
30.0
  0
ARC
  5
D0
330
1F
100
AcDbEntity
  8
0
  6
Continuous
 62
     7
370
    25
100
AcDbCircle
 10
95.1369123828
 20
75.8753919613
 30
0.0
 40
0.4233333333333418
100
AcDbArc
 50
150.0
 51
270.0
  0
LINE
  5
D1
330
1F
100
AcDbEntity
  8
0
  6
Continuous
 62
     7
370
    25
100
AcDbLine
 10
94.7702949618
 20
85.6442319613
 30
0.0
 11
96.3100881298
 21
82.9772319613
 31
0.0
  0
LINE
  5
D2
330
1F
100
AcDbEntity
  8
0
  6
Continuous
 62
     7
370
    25
100
AcDbLine
 10
97.9999118702
 20
82.9772319613
 30
0.0
 11
99.5397050382
 21
85.6442319613
 31
0.0
  0
LINE
  5
D3
330
1F
100
AcDbEntity
  8
0
  6
Continuous
 62
     7
370
    25
100
AcDbLine
 10
99.5397050382
 20
76.087058628
 30
0.0
 11
97.9999118702
 21
78.754058628
 31
0.0
  0
LINE
  5
D4
330
1F
100
AcDbEntity
  8
0
  6
Continuous
 62
     7
370
    25
100
AcDbLine
 10
96.3100881298
 20
78.754058628
 30
0.0
 11
94.7702949618
 21
76.087058628
 31
0.0
  0
SPLINE
  5
D5
330
1F
100
AcDbEntity
  8
0
  6
Continuous
 62
     7
370
    25
100
AcDbSpline
210
0.0
220
0.0
230
1.0
 70
     8
 71
     3
 72
    14
 73
    10
 74
     0
 42
0.00000001
 43
0.00000001
 40
0.0
 40
0.0
 40
0.0
 40
0.0
 40
0.0493951644462614
 40
0.0914953843931445
 40
0.1427062342615086
 40
0.2348068237944946
 40
0.4065754909184242
 40
0.6688921762174939
 40
1.0
 40
1.0
 40
1.0
 40
1.0
 10
97.57833333333436
 20
82.135645294633
 30
0.0
 10
97.57822677045714
 20
82.15129719788683
 30
0.0
 10
97.57802938248358
 20
82.18028944683972
 30
0.0
 10
97.57850174798823
 20
82.22596603400953
 30
0.0
 10
97.59906987914896
 20
82.28200512189893
 30
0.0
 10
97.64812239372887
 20
82.36903396295548
 30
0.0
 10
97.73219557977986
 20
82.51346045493251
 30
0.0
 10
97.85492787073146
 20
82.72304301473528
 30
0.0
 10
97.94911429866515
 20
82.8861978828421
 30
0.0
 10
98.00166666666769
 20
82.97723196129965
 30
0.0
  0
SPLINE
  5
D6
330
1F
100
AcDbEntity
  8
0
  6
Continuous
 62
     7
370
    25
100
AcDbSpline
210
0.0
220
0.0
230
1.0
 70
     8
 71
     3
 72
    15
 73
    11
 74
     0
 42
0.00000001
 43
0.00000001
 40
0.0
 40
0.0
 40
0.0
 40
0.0
 40
0.2572749465114558
 40
0.4804104227597548
 40
0.6526499657550968
 40
0.7721239141171803
 40
0.8474341499098947
 40
0.9044668591655696
 40
0.9484726232612509
 40
1.0
 40
1.0
 40
1.0
 40
1.0
 10
96.30833333333436
 20
82.97723196129965
 30
0.0
 10
96.34917495718979
 20
82.90650852410364
 30
0.0
 10
96.42543866669062
 20
82.774446398261
 30
0.0
 10
96.52967005513122
 20
82.59536673406326
 30
0.0
 10
96.61230134878944
 20
82.45442555568216
 30
0.0
 10
96.67085676235237
 20
82.35354581546876
 30
0.0
 10
96.70920700405046
 20
82.28369617735956
 30
0.0
 10
96.73091208046824
 20
82.23111496628535
 30
0.0
 10
96.73212344903034
 20
82.18223374486682
 30
0.0
 10
96.73182671504286
 20
82.15196905485419
 30
0.0
 10
96.7316666666677
 20
82.13564529463298
 30
0.0
  0
SPLINE
  5
D7
330
1F
100
AcDbEntity
  8
0
  6
Continuous
 62
     7
370
    25
100
AcDbSpline
210
0.0
220
0.0
230
1.0
 70
     8
 71
     3
 72
    14
 73
    10
 74
     0
 42
0.00000001
 43
0.00000001
 40
0.0
 40
0.0
 40
0.0
 40
0.0
 40
0.0493951644462671
 40
0.0914953843931404
 40
0.1427062342615081
 40
0.2348068237944941
 40
0.4065754909184217
 40
0.6688921762174945
 40
1.0
 40
1.0
 40
1.0
 40
1.0
 10
96.73166666666721
 20
79.59564529463294
 30
0.0
 10
96.73177322954443
 20
79.5799933913791
 30
0.0
 10
96.73197061751799
 20
79.55100114242622
 30
0.0
 10
96.73149825201332
 20
79.50532455525641
 30
0.0
 10
96.71093012085261
 20
79.44928546736702
 30
0.0
 10
96.6618776062727
 20
79.36225662631044
 30
0.0
 10
96.57780442022171
 20
79.21783013433344
 30
0.0
 10
96.4550721292701
 20
79.00824757453064
 30
0.0
 10
96.36088570133641
 20
78.84509270642384
 30
0.0
 10
96.30833333333388
 20
78.75405862796629
 30
0.0
  0
SPLINE
  5
D8
330
1F
100
AcDbEntity
  8
0
  6
Continuous
 62
     7
370
    25
100
AcDbSpline
210
0.0
220
0.0
230
1.0
 70
     8
 71
     3
 72
    15
 73
    11
 74
     0
 42
0.00000001
 43
0.00000001
 40
0.0
 40
0.0
 40
0.0
 40
0.0
 40
0.2572749465114553
 40
0.4804104227597636
 40
0.6526499657550986
 40
0.7721239141171818
 40
0.8474341499098875
 40
0.9044668591655715
 40
0.9484726232612624
 40
1.0
 40
1.0
 40
1.0
 40
1.0
 10
98.0016666666672
 20
78.75405862796629
 30
0.0
 10
97.96082504281176
 20
78.82478206516228
 30
0.0
 10
97.88456133331094
 20
78.95684419100493
 30
0.0
 10
97.78032994487036
 20
79.13592385520269
 30
0.0
 10
97.69769865121212
 20
79.27686503358379
 30
0.0
 10
97.6391432376492
 20
79.37774477379718
 30
0.0
 10
97.60079299595111
 20
79.44759441190638
 30
0.0
 10
97.57908791953332
 20
79.50017562298059
 30
0.0
 10
97.57787655097123
 20
79.54905684439913
 30
0.0
 10
97.57817328495871
 20
79.57932153441175
 30
0.0
 10
97.57833333333386
 20
79.59564529463296
 30
0.0
  0
LINE
  5
D9
330
1F
100
AcDbEntity
  8
0
  6
Continuous
 62
     7
370
    25
100
AcDbLine
 10
96.7316666667
 20
80.8656452946
 30
0.0
 11
96.7316666667
 21
79.5956452946
 31
0.0
  0
LINE
  5
DA
330
1F
100
AcDbEntity
  8
0
  6
Continuous
 62
     7
370
    25
100
AcDbLine
 10
96.7316666667
 20
82.1356452946
 30
0.0
 11
96.7316666667
 21
80.8656452946
 31
0.0
  0
LINE
  5
DB
330
1F
100
AcDbEntity
  8
0
  6
Continuous
 62
     7
370
    25
100
AcDbLine
 10
97.5783333333
 20
80.8656452946
 30
0.0
 11
97.5783333333
 21
82.1356452946
 31
0.0
  0
LINE
  5
DC
330
1F
100
AcDbEntity
  8
0
  6
Continuous
 62
     7
370
    25
100
AcDbLine
 10
97.5783333333
 20
79.5956452946
 30
0.0
 11
97.5783333333
 21
80.8656452946
 31
0.0
  0
SPLINE
  5
DD
330
1F
100
AcDbEntity
  8
0
  6
Continuous
 62
     7
370
    25
100
AcDbSpline
210
0.0
220
0.0
230
1.0
 70
     8
 71
     3
 72
    11
 73
     7
 74
     0
 42
0.00000001
 43
0.00000001
 40
0.0
 40
0.0
 40
0.0
 40
0.0
 40
0.245883192393507
 40
0.4999999999999785
 40
0.7541168076064642
 40
1.0
 40
1.0
 40
1.0
 40
1.0
 10
108.4019065105243
 20
145.7595514677843
 30
0.0
 10
108.488536354177
 20
145.8216876149191
 30
0.0
 10
108.6646969180801
 20
145.9480405927902
 30
0.0
 10
108.8573765497984
 20
146.2157101635492
 30
0.0
 10
108.9849275455802
 20
146.5198535229448
 30
0.0
 10
109.0006175276001
 20
146.7360743446891
 30
0.0
 10
109.0083333333353
 20
146.842404476514
 30
0.0
  0
SPLINE
  5
DE
330
1F
100
AcDbEntity
  8
0
  6
Continuous
 62
     7
370
    25
100
AcDbSpline
210
0.0
220
0.0
230
1.0
 70
     8
 71
     3
 72
    11
 73
     7
 74
     0
 42
0.00000001
 43
0.00000001
 40
0.0
 40
0.0
 40
0.0
 40
0.0
 40
0.2458831923935737
 40
0.5000000000000859
 40
0.7541168076065622
 40
1.0
 40
1.0
 40
1.0
 40
1.0
 10
85.3016666666672
 20
146.8424044765137
 30
0.0
 10
85.30938247240249
 20
146.7360743446888
 30
0.0
 10
85.32507245442238
 20
146.5198535229445
 30
0.0
 10
85.45262345020427
 20
146.215710163549
 30
0.0
 10
85.6453030819226
 20
145.9480405927901
 30
0.0
 10
85.82146364582563
 20
145.8216876149191
 30
0.0
 10
85.90809348947826
 20
145.7595514677844
 30
0.0
  0
LINE
  5
DF
330
1F
100
AcDbEntity
  8
0
  6
Continuous
 62
     7
370
    25
100
AcDbLine
 10
85.3016666667
 20
147.3906011669
 30
0.0
 11
85.3016666667
 21
146.8424044765
 31
0.0
  0
LINE
  5
E0
330
1F
100
AcDbEntity
  8
0
  6
Continuous
 62
     7
370
    25
100
AcDbLine
 10
109.0083333333
 20
146.8424044765
 30
0.0
 11
109.0083333333
 21
147.3906011669
 31
0.0
  0
LINE
  5
E1
330
1F
100
AcDbEntity
  8
0
  6
Continuous
 62
     7
370
    25
100
AcDbLine
 10
105.537
 20
144.0039345002
 30
0.0
 11
108.4019065105
 21
145.7595514678
 31
0.0
  0
LINE
  5
E2
330
1F
100
AcDbEntity
  8
0
  6
Continuous
 62
     7
370
    25
100
AcDbLine
 10
85.9080934895
 20
145.7595514678
 30
0.0
 11
88.773
 21
144.0039345002
 31
0.0
  0
ARC
  5
E3
330
1F
100
AcDbEntity
  8
0
  6
Continuous
 62
     7
370
    25
100
AcDbCircle
 10
141.2802457161
 20
85.855898628
 30
0.0
 40
0.423333333333332
100
AcDbArc
 50
90.0
 51
210.0
  0
ARC
  5
E4
330
1F
100
AcDbEntity
  8
0
  6
Continuous
 62
     7
370
    25
100
AcDbCircle
 10
145.3164209506
 20
85.855898628
 30
0.0
 40
0.4233333333333418
100
AcDbArc
 50
330.0
 51
90.0
  0
ARC
  5
E5
330
1F
100
AcDbEntity
  8
0
  6
Continuous
 62
     7
370
    25
100
AcDbCircle
 10
95.1369123828
 20
94.6104319613
 30
0.0
 40
0.4233333333333462
100
AcDbArc
 50
90.0
 51
210.0
  0
ARC
  5
E6
330
1F
100
AcDbEntity
  8
0
  6
Continuous
 62
     7
370
    25
100
AcDbCircle
 10
99.1730876172
 20
94.6104319613
 30
0.0
 40
0.4233333333333462
100
AcDbArc
 50
330.0
 51
90.0
  0
ARC
  5
E7
330
1F
100
AcDbEntity
  8
0
  6
Continuous
 62
     7
370
    25
100
AcDbCircle
 10
99.1730876172
 20
63.8527252946
 30
0.0
 40
0.4233333333333331
100
AcDbArc
 50
270.0
 51
30.0
  0
ARC
  5
E8
330
1F
100
AcDbEntity
  8
0
  6
Continuous
 62
     7
370
    25
100
AcDbCircle
 10
95.1369123828
 20
63.8527252946
 30
0.0
 40
0.4233333333333331
100
AcDbArc
 50
150.0
 51
270.0
  0
ARC
  5
E9
330
1F
100
AcDbEntity
  8
0
  6
Continuous
 62
     7
370
    25
100
AcDbCircle
 10
48.9935790494
 20
85.855898628
 30
0.0
 40
0.423333333333332
100
AcDbArc
 50
90.0
 51
210.0
  0
ARC
  5
EA
330
1F
100
AcDbEntity
  8
0
  6
Continuous
 62
     7
370
    25
100
AcDbCircle
 10
53.0297542839
 20
85.855898628
 30
0.0
 40
0.423333333333332
100
AcDbArc
 50
330.0
 51
90.0
  0
ARC
  5
EB
330
1F
100
AcDbEntity
  8
0
  6
Continuous
 62
     7
370
    25
100
AcDbCircle
 10
145.3164209506
 20
75.8753919613
 30
0.0
 40
0.4233333333333462
100
AcDbArc
 50
270.0
 51
30.0
  0
ARC
  5
EC
330
1F
100
AcDbEntity
  8
0
  6
Continuous
 62
     7
370
    25
100
AcDbCircle
 10
141.2802457161
 20
75.8753919613
 30
0.0
 40
0.4233333333333462
100
AcDbArc
 50
150.0
 51
270.0
  0
ARC
  5
ED
330
1F
100
AcDbEntity
  8
0
  6
Continuous
 62
     7
370
    25
100
AcDbCircle
 10
53.0297542839
 20
75.8753919613
 30
0.0
 40
0.423333333333332
100
AcDbArc
 50
270.0
 51
30.0
  0
ARC
  5
EE
330
1F
100
AcDbEntity
  8
0
  6
Continuous
 62
     7
370
    25
100
AcDbCircle
 10
48.9935790494
 20
75.8753919613
 30
0.0
 40
0.4233333333333367
100
AcDbArc
 50
150.0
 51
270.0
  0
LINE
  5
EF
330
1F
100
AcDbEntity
  8
0
  6
Continuous
 62
     7
370
    25
100
AcDbLine
 10
140.9136282952
 20
85.6442319613
 30
0.0
 11
142.4534214631
 21
82.9772319613
 31
0.0
  0
LINE
  5
F0
330
1F
100
AcDbEntity
  8
0
  6
Continuous
 62
     7
370
    25
100
AcDbLine
 10
144.1432452036
 20
82.9772319613
 30
0.0
 11
145.6830383715
 21
85.6442319613
 31
0.0
  0
LINE
  5
F1
330
1F
100
AcDbEntity
  8
0
  6
Continuous
 62
     7
370
    25
100
AcDbLine
 10
94.7702949618
 20
94.3987652946
 30
0.0
 11
96.3100881298
 21
91.7317652946
 31
0.0
  0
LINE
  5
F2
330
1F
100
AcDbEntity
  8
0
  6
Continuous
 62
     7
370
    25
100
AcDbLine
 10
97.9999118702
 20
91.7317652946
 30
0.0
 11
99.5397050382
 21
94.3987652946
 31
0.0
  0
LINE
  5
F3
330
1F
100
AcDbEntity
  8
0
  6
Continuous
 62
     7
370
    25
100
AcDbLine
 10
99.5397050382
 20
64.0643919613
 30
0.0
 11
97.9999118702
 21
66.7313919613
 31
0.0
  0
LINE
  5
F4
330
1F
100
AcDbEntity
  8
0
  6
Continuous
 62
     7
370
    25
100
AcDbLine
 10
96.3100881298
 20
66.7313919613
 30
0.0
 11
94.7702949618
 21
64.0643919613
 31
0.0
  0
LINE
  5
F5
330
1F
100
AcDbEntity
  8
0
  6
Continuous
 62
     7
370
    25
100
AcDbLine
 10
48.6269616285
 20
85.6442319613
 30
0.0
 11
50.1667547964
 21
82.9772319613
 31
0.0
  0
LINE
  5
F6
330
1F
100
AcDbEntity
  8
0
  6
Continuous
 62
     7
370
    25
100
AcDbLine
 10
51.8565785369
 20
82.9772319613
 30
0.0
 11
53.3963717048
 21
85.6442319613
 31
0.0
  0
LINE
  5
F7
330
1F
100
AcDbEntity
  8
0
  6
Continuous
 62
     7
370
    25
100
AcDbLine
 10
145.6830383715
 20
76.087058628
 30
0.0
 11
144.1432452036
 21
78.754058628
 31
0.0
  0
LINE
  5
F8
330
1F
100
AcDbEntity
  8
0
  6
Continuous
 62
     7
370
    25
100
AcDbLine
 10
142.4534214631
 20
78.754058628
 30
0.0
 11
140.9136282952
 21
76.087058628
 31
0.0
  0
LINE
  5
F9
330
1F
100
AcDbEntity
  8
0
  6
Continuous
 62
     7
370
    25
100
AcDbLine
 10
53.3963717048
 20
76.087058628
 30
0.0
 11
51.8565785369
 21
78.754058628
 31
0.0
  0
LINE
  5
FA
330
1F
100
AcDbEntity
  8
0
  6
Continuous
 62
     7
370
    25
100
AcDbLine
 10
50.1667547964
 20
78.754058628
 30
0.0
 11
48.6269616285
 21
76.087058628
 31
0.0
  0
SPLINE
  5
FB
330
1F
100
AcDbEntity
  8
0
  6
Continuous
 62
     7
370
    25
100
AcDbSpline
210
0.0
220
0.0
230
1.0
 70
     8
 71
     3
 72
    14
 73
    10
 74
     0
 42
0.00000001
 43
0.00000001
 40
0.0
 40
0.0
 40
0.0
 40
0.0
 40
0.0493951644462614
 40
0.0914953843931425
 40
0.1427062342615096
 40
0.2348068237944888
 40
0.4065754909184205
 40
0.6688921762174947
 40
1.0
 40
1.0
 40
1.0
 40
1.0
 10
143.721666666667
 20
82.13564529463297
 30
0.0
 10
143.7215601037898
 20
82.1512971978868
 30
0.0
 10
143.7213627158163
 20
82.1802894468397
 30
0.0
 10
143.7218350813209
 20
82.2259660340095
 30
0.0
 10
143.7424032124816
 20
82.2820051218989
 30
0.0
 10
143.7914557270615
 20
82.36903396295548
 30
0.0
 10
143.8755289131125
 20
82.51346045493248
 30
0.0
 10
143.9982612040641
 20
82.72304301473527
 30
0.0
 10
144.0924476319978
 20
82.88619788284207
 30
0.0
 10
144.1450000000004
 20
82.97723196129964
 30
0.0
  0
SPLINE
  5
FC
330
1F
100
AcDbEntity
  8
0
  6
Continuous
 62
     7
370
    25
100
AcDbSpline
210
0.0
220
0.0
230
1.0
 70
     8
 71
     3
 72
    15
 73
    11
 74
     0
 42
0.00000001
 43
0.00000001
 40
0.0
 40
0.0
 40
0.0
 40
0.0
 40
0.2572749465114549
 40
0.480410422759761
 40
0.6526499657550997
 40
0.7721239141171786
 40
0.8474341499098973
 40
0.9044668591655699
 40
0.9484726232612527
 40
1.0
 40
1.0
 40
1.0
 40
1.0
 10
142.451666666667
 20
82.97723196129964
 30
0.0
 10
142.4925082905225
 20
82.90650852410363
 30
0.0
 10
142.5687720000233
 20
82.77444639826098
 30
0.0
 10
142.6730033884639
 20
82.59536673406323
 30
0.0
 10
142.7556346821221
 20
82.45442555568214
 30
0.0
 10
142.814190095685
 20
82.35354581546872
 30
0.0
 10
142.8525403373831
 20
82.28369617735954
 30
0.0
 10
142.8742454138009
 20
82.23111496628532
 30
0.0
 10
142.875456782363
 20
82.1822337448668
 30
0.0
 10
142.8751600483755
 20
82.15196905485419
 30
0.0
 10
142.8750000000004
 20
82.13564529463297
 30
0.0
  0
SPLINE
  5
FD
330
1F
100
AcDbEntity
  8
0
  6
Continuous
 62
     7
370
    25
100
AcDbSpline
210
0.0
220
0.0
230
1.0
 70
     8
 71
     3
 72
    14
 73
    10
 74
     0
 42
0.00000001
 43
0.00000001
 40
0.0
 40
0.0
 40
0.0
 40
0.0
 40
0.0493951644462623
 40
0.0914953843931444
 40
0.1427062342615084
 40
0.2348068237944944
 40
0.406575490918423
 40
0.6688921762174942
 40
1.0
 40
1.0
 40
1.0
 40
1.0
 10
97.57833333333353
 20
90.89017862796446
 30
0.0
 10
97.57822677045633
 20
90.9058305312183
 30
0.0
 10
97.57802938248278
 20
90.9348227801712
 30
0.0
 10
97.57850174798742
 20
90.980499367341
 30
0.0
 10
97.59906987914816
 20
91.03653845523041
 30
0.0
 10
97.64812239372807
 20
91.12356729628696
 30
0.0
 10
97.73219557977905
 20
91.267993788264
 30
0.0
 10
97.85492787073063
 20
91.47757634806676
 30
0.0
 10
97.94911429866434
 20
91.64073121617356
 30
0.0
 10
98.00166666666689
 20
91.73176529463113
 30
0.0
  0
SPLINE
  5
FE
330
1F
100
AcDbEntity
  8
0
  6
Continuous
 62
     7
370
    25
100
AcDbSpline
210
0.0
220
0.0
230
1.0
 70
     8
 71
     3
 72
    15
 73
    11
 74
     0
 42
0.00000001
 43
0.00000001
 40
0.0
 40
0.0
 40
0.0
 40
0.0
 40
0.2572749465114547
 40
0.4804104227597575
 40
0.6526499657550977
 40
0.7721239141171811
 40
0.8474341499098912
 40
0.9044668591655706
 40
0.9484726232612548
 40
1.0
 40
1.0
 40
1.0
 40
1.0
 10
96.30833333333354
 20
91.73176529463113
 30
0.0
 10
96.34917495718899
 20
91.66104185743512
 30
0.0
 10
96.42543866668981
 20
91.52897973159247
 30
0.0
 10
96.5296700551304
 20
91.34990006739473
 30
0.0
 10
96.61230134878863
 20
91.20895888901362
 30
0.0
 10
96.67085676235158
 20
91.10807914880024
 30
0.0
 10
96.70920700404966
 20
91.03822951069102
 30
0.0
 10
96.73091208046743
 20
90.98564829961683
 30
0.0
 10
96.73212344902954
 20
90.9367670781983
 30
0.0
 10
96.73182671504205
 20
90.90650238818567
 30
0.0
 10
96.7316666666669
 20
90.89017862796446
 30
0.0
  0
SPLINE
  5
FF
330
1F
100
AcDbEntity
  8
0
  6
Continuous
 62
     7
370
    25
100
AcDbSpline
210
0.0
220
0.0
230
1.0
 70
     8
 71
     3
 72
    14
 73
    10
 74
     0
 42
0.00000001
 43
0.00000001
 40
0.0
 40
0.0
 40
0.0
 40
0.0
 40
0.0493951644462632
 40
0.0914953843931405
 40
0.1427062342615045
 40
0.2348068237944939
 40
0.4065754909184215
 40
0.668892176217491
 40
1.0
 40
1.0
 40
1.0
 40
1.0
 10
96.73166666666701
 20
67.57297862796446
 30
0.0
 10
96.73177322954422
 20
67.55732672471062
 30
0.0
 10
96.73197061751776
 20
67.52833447575772
 30
0.0
 10
96.73149825201311
 20
67.48265788858792
 30
0.0
 10
96.7109301208524
 20
67.42661880069853
 30
0.0
 10
96.66187760627247
 20
67.33958995964196
 30
0.0
 10
96.57780442022148
 20
67.19516346766494
 30
0.0
 10
96.45507212926991
 20
66.98558090786216
 30
0.0
 10
96.36088570133619
 20
66.82242603975536
 30
0.0
 10
96.30833333333366
 20
66.73139196129779
 30
0.0
  0
SPLINE
  5
100
330
1F
100
AcDbEntity
  8
0
  6
Continuous
 62
     7
370
    25
100
AcDbSpline
210
0.0
220
0.0
230
1.0
 70
     8
 71
     3
 72
    15
 73
    11
 74
     0
 42
0.00000001
 43
0.00000001
 40
0.0
 40
0.0
 40
0.0
 40
0.0
 40
0.2572749465114517
 40
0.48041042275976
 40
0.652649965755095
 40
0.7721239141171815
 40
0.8474341499098839
 40
0.9044668591655678
 40
0.9484726232612626
 40
1.0
 40
1.0
 40
1.0
 40
1.0
 10
98.001666666667
 20
66.73139196129779
 30
0.0
 10
97.96082504281155
 20
66.80211539849378
 30
0.0
 10
97.88456133331073
 20
66.93417752433646
 30
0.0
 10
97.78032994487015
 20
67.11325718853418
 30
0.0
 10
97.69769865121191
 20
67.25419836691532
 30
0.0
 10
97.63914323764898
 20
67.35507810712868
 30
0.0
 10
97.60079299595088
 20
67.42492774523788
 30
0.0
 10
97.5790879195331
 20
67.47750895631209
 30
0.0
 10
97.577876550971
 20
67.52639017773063
 30
0.0
 10
97.5781732849585
 20
67.55665486774325
 30
0.0
 10
97.57833333333366
 20
67.57297862796446
 30
0.0
  0
SPLINE
  5
101
330
1F
100
AcDbEntity
  8
0
  6
Continuous
 62
     7
370
    25
100
AcDbSpline
210
0.0
220
0.0
230
1.0
 70
     8
 71
     3
 72
    14
 73
    10
 74
     0
 42
0.00000001
 43
0.00000001
 40
0.0
 40
0.0
 40
0.0
 40
0.0
 40
0.049395164446271
 40
0.0914953843931481
 40
0.1427062342615133
 40
0.2348068237944977
 40
0.4065754909184229
 40
0.6688921762174899
 40
1.0
 40
1.0
 40
1.0
 40
1.0
 10
142.8750000000002
 20
79.59564529463248
 30
0.0
 10
142.8751065628774
 20
79.57999339137862
 30
0.0
 10
142.875303950851
 20
79.55100114242572
 30
0.0
 10
142.8748315853463
 20
79.50532455525592
 30
0.0
 10
142.8542634541856
 20
79.44928546736652
 30
0.0
 10
142.8052109396057
 20
79.36225662630996
 30
0.0
 10
142.7211377535547
 20
79.21783013433296
 30
0.0
 10
142.5984054626031
 20
79.00824757453017
 30
0.0
 10
142.5042190346694
 20
78.84509270642337
 30
0.0
 10
142.4516666666669
 20
78.7540586279658
 30
0.0
  0
SPLINE
  5
102
330
1F
100
AcDbEntity
  8
0
  6
Continuous
 62
     7
370
    25
100
AcDbSpline
210
0.0
220
0.0
230
1.0
 70
     8
 71
     3
 72
    15
 73
    11
 74
     0
 42
0.00000001
 43
0.00000001
 40
0.0
 40
0.0
 40
0.0
 40
0.0
 40
0.257274946511461
 40
0.4804104227597604
 40
0.6526499657551008
 40
0.7721239141171764
 40
0.8474341499098826
 40
0.9044668591655701
 40
0.9484726232612624
 40
1.0
 40
1.0
 40
1.0
 40
1.0
 10
144.1450000000002
 20
78.75405862796579
 30
0.0
 10
144.1041583761448
 20
78.8247820651618
 30
0.0
 10
144.027894666644
 20
78.95684419100444
 30
0.0
 10
143.9236632782033
 20
79.1359238552022
 30
0.0
 10
143.8410319845451
 20
79.27686503358329
 30
0.0
 10
143.7824765709821
 20
79.37774477379669
 30
0.0
 10
143.7441263292841
 20
79.44759441190588
 30
0.0
 10
143.7224212528663
 20
79.50017562298011
 30
0.0
 10
143.7212098843042
 20
79.54905684439862
 30
0.0
 10
143.7215066182917
 20
79.57932153441125
 30
0.0
 10
143.7216666666669
 20
79.59564529463246
 30
0.0
  0
SPLINE
  5
103
330
1F
100
AcDbEntity
  8
0
  6
Continuous
 62
     7
370
    25
100
AcDbSpline
210
0.0
220
0.0
230
1.0
 70
     8
 71
     3
 72
    14
 73
    10
 74
     0
 42
0.00000001
 43
0.00000001
 40
0.0
 40
0.0
 40
0.0
 40
0.0
 40
0.0493951644462633
 40
0.0914953843931463
 40
0.1427062342615135
 40
0.234806823794498
 40
0.4065754909184274
 40
0.6688921762174949
 40
1.0
 40
1.0
 40
1.0
 40
1.0
 10
51.43499999999968
 20
82.13564529463346
 30
0.0
 10
51.43489343712247
 20
82.15129719788732
 30
0.0
 10
51.43469604914893
 20
82.18028944684022
 30
0.0
 10
51.43516841465356
 20
82.22596603401003
 30
0.0
 10
51.45573654581428
 20
82.28200512189942
 30
0.0
 10
51.50478906039421
 20
82.369033962956
 30
0.0
 10
51.5888622464452
 20
82.51346045493301
 30
0.0
 10
51.71159453739678
 20
82.72304301473577
 30
0.0
 10
51.80578096533048
 20
82.88619788284257
 30
0.0
 10
51.85833333333303
 20
82.97723196130013
 30
0.0
  0
SPLINE
  5
104
330
1F
100
AcDbEntity
  8
0
  6
Continuous
 62
     7
370
    25
100
AcDbSpline
210
0.0
220
0.0
230
1.0
 70
     8
 71
     3
 72
    15
 73
    11
 74
     0
 42
0.00000001
 43
0.00000001
 40
0.0
 40
0.0
 40
0.0
 40
0.0
 40
0.257274946511455
 40
0.48041042275976
 40
0.6526499657550991
 40
0.77212391411718
 40
0.8474341499098915
 40
0.9044668591655675
 40
0.9484726232612507
 40
1.0
 40
1.0
 40
1.0
 40
1.0
 10
50.16499999999969
 20
82.97723196130016
 30
0.0
 10
50.20584162385514
 20
82.90650852410415
 30
0.0
 10
50.28210533335597
 20
82.7744463982615
 30
0.0
 10
50.38633672179656
 20
82.59536673406376
 30
0.0
 10
50.46896801545478
 20
82.45442555568265
 30
0.0
 10
50.52752342901771
 20
82.35354581546927
 30
0.0
 10
50.5658736707158
 20
82.28369617736006
 30
0.0
 10
50.58757874713356
 20
82.23111496628584
 30
0.0
 10
50.58879011569571
 20
82.18223374486733
 30
0.0
 10
50.58849338170821
 20
82.1519690548547
 30
0.0
 10
50.58833333333303
 20
82.13564529463348
 30
0.0
  0
SPLINE
  5
105
330
1F
100
AcDbEntity
  8
0
  6
Continuous
 62
     7
370
    25
100
AcDbSpline
210
0.0
220
0.0
230
1.0
 70
     8
 71
     3
 72
    14
 73
    10
 74
     0
 42
0.00000001
 43
0.00000001
 40
0.0
 40
0.0
 40
0.0
 40
0.0
 40
0.0493951644462673
 40
0.0914953843931486
 40
0.1427062342615163
 40
0.2348068237944975
 40
0.4065754909184274
 40
0.6688921762174989
 40
0.9999999999999999
 40
0.9999999999999999
 40
0.9999999999999999
 40
0.9999999999999999
 10
50.588333333333
 20
79.59564529463348
 30
0.0
 10
50.5884398962102
 20
79.57999339137965
 30
0.0
 10
50.58863728418375
 20
79.55100114242673
 30
0.0
 10
50.58816491867913
 20
79.50532455525693
 30
0.0
 10
50.56759678751835
 20
79.44928546736753
 30
0.0
 10
50.51854427293848
 20
79.36225662631097
 30
0.0
 10
50.43447108688747
 20
79.21783013433395
 30
0.0
 10
50.31173879593589
 20
79.0082475745312
 30
0.0
 10
50.21755236800219
 20
78.84509270642438
 30
0.0
 10
50.16499999999964
 20
78.75405862796681
 30
0.0
  0
SPLINE
  5
106
330
1F
100
AcDbEntity
  8
0
  6
Continuous
 62
     7
370
    25
100
AcDbSpline
210
0.0
220
0.0
230
1.0
 70
     8
 71
     3
 72
    15
 73
    11
 74
     0
 42
0.00000001
 43
0.00000001
 40
0.0
 40
0.0
 40
0.0
 40
0.0
 40
0.2572749465114582
 40
0.4804104227597578
 40
0.6526499657550912
 40
0.7721239141171814
 40
0.8474341499098881
 40
0.904466859165568
 40
0.9484726232612625
 40
1.0
 40
1.0
 40
1.0
 40
1.0
 10
51.85833333333299
 20
78.7540586279668
 30
0.0
 10
51.81749170947754
 20
78.82478206516282
 30
0.0
 10
51.74122799997673
 20
78.95684419100546
 30
0.0
 10
51.63699661153611
 20
79.1359238552032
 30
0.0
 10
51.55436531787792
 20
79.2768650335843
 30
0.0
 10
51.49580990431495
 20
79.37774477379769
 30
0.0
 10
51.45745966261685
 20
79.44759441190688
 30
0.0
 10
51.4357545861991
 20
79.5001756229811
 30
0.0
 10
51.434543217637
 20
79.54905684439964
 30
0.0
 10
51.43483995162448
 20
79.57932153441224
 30
0.0
 10
51.43499999999964
 20
79.59564529463347
 30
0.0
  0
LINE
  5
107
330
1F
100
AcDbEntity
  8
0
  6
Continuous
 62
     7
370
    25
100
AcDbLine
 10
88.8338530293
 20
144.0039345002
 30
0.0
 11
88.8338530293
 21
143.7283692149
 31
0.0
  0
LINE
  5
108
330
1F
100
AcDbEntity
  8
0
  6
Continuous
 62
     7
370
    25
100
AcDbLine
 10
90.2361469707
 20
143.7283692149
 30
0.0
 11
90.2361469707
 21
144.0039345002
 31
0.0
  0
LINE
  5
109
330
1F
100
AcDbEntity
  8
0
  6
Continuous
 62
     7
370
    25
100
AcDbLine
 10
104.0738530293
 20
144.0039345002
 30
0.0
 11
104.0738530293
 21
143.7283692149
 31
0.0
  0
LINE
  5
10A
330
1F
100
AcDbEntity
  8
0
  6
Continuous
 62
     7
370
    25
100
AcDbLine
 10
105.4761469707
 20
143.7283692149
 30
0.0
 11
105.4761469707
 21
144.0039345002
 31
0.0
  0
LINE
  5
10B
330
1F
100
AcDbEntity
  8
0
  6
Continuous
 62
     7
370
    25
100
AcDbLine
 10
89.0018303266
 20
143.7283692149
 30
0.0
 11
89.0018303266
 21
143.5925494236
 31
0.0
  0
LINE
  5
10C
330
1F
100
AcDbEntity
  8
0
  6
Continuous
 62
     7
370
    25
100
AcDbLine
 10
90.0681696733
 20
143.5925494236
 30
0.0
 11
90.0681696733
 21
143.7283692149
 31
0.0
  0
LINE
  5
10D
330
1F
100
AcDbEntity
  8
0
  6
Continuous
 62
     7
370
    25
100
AcDbLine
 10
104.2418303267
 20
143.7283692149
 30
0.0
 11
104.2418303267
 21
143.5925494236
 31
0.0
  0
LINE
  5
10E
330
1F
100
AcDbEntity
  8
0
  6
Continuous
 62
     7
370
    25
100
AcDbLine
 10
105.3081696733
 20
143.5925494236
 30
0.0
 11
105.3081696733
 21
143.7283692149
 31
0.0
  0
LINE
  5
10F
330
1F
100
AcDbEntity
  8
0
  6
Continuous
 62
     7
370
    25
100
AcDbLine
 10
89.0693333333
 20
143.1402102849
 30
0.0
 11
89.0693333333
 21
141.793978628
 31
0.0
  0
LINE
  5
110
330
1F
100
AcDbEntity
  8
0
  6
Continuous
 62
     7
370
    25
100
AcDbLine
 10
90.0006666666
 20
141.793978628
 30
0.0
 11
90.0006666666
 21
143.1401568788
 31
0.0
  0
LINE
  5
111
330
1F
100
AcDbEntity
  8
0
  6
Continuous
 62
     7
370
    25
100
AcDbLine
 10
89.1201259086
 20
143.190978628
 30
0.0
 11
89.0688169904
 21
143.139670628
 31
0.0
  0
LINE
  5
112
330
1F
100
AcDbEntity
  8
0
  6
Continuous
 62
     7
370
    25
100
AcDbLine
 10
104.3093333333
 20
143.1402102849
 30
0.0
 11
104.3093333333
 21
141.793978628
 31
0.0
  0
LINE
  5
113
330
1F
100
AcDbEntity
  8
0
  6
Continuous
 62
     7
370
    25
100
AcDbLine
 10
105.2406666667
 20
141.793978628
 30
0.0
 11
105.2406666667
 21
143.1401568788
 31
0.0
  0
LINE
  5
114
330
1F
100
AcDbEntity
  8
0
  6
Continuous
 62
     7
370
    25
100
AcDbLine
 10
104.3601259086
 20
143.190978628
 30
0.0
 11
104.3088169904
 21
143.139670628
 31
0.0
  0
LINE
  5
115
330
1F
100
AcDbEntity
  8
0
  6
Continuous
 62
     7
370
    25
100
AcDbLine
 10
143.7216666667
 20
79.5956452946
 30
0.0
 11
143.7216666667
 21
82.1356452946
 31
0.0
  0
LINE
  5
116
330
1F
100
AcDbEntity
  8
0
  6
Continuous
 62
     7
370
    25
100
AcDbLine
 10
142.875
 20
80.4423119613
 30
0.0
 11
142.875
 21
79.5956452946
 31
0.0
  0
LINE
  5
117
330
1F
100
AcDbEntity
  8
0
  6
Continuous
 62
     7
370
    25
100
AcDbLine
 10
142.875
 20
82.1356452946
 30
0.0
 11
142.875
 21
81.288978628
 31
0.0
  0
LINE
  5
118
330
1F
100
AcDbEntity
  8
0
  6
Continuous
 62
     7
370
    25
100
AcDbLine
 10
97.5783333333
 20
80.4423119613
 30
0.0
 11
142.875
 21
80.4423119613
 31
0.0
  0
LINE
  5
119
330
1F
100
AcDbEntity
  8
0
  6
Continuous
 62
     7
370
    25
100
AcDbLine
 10
104.3516666667
 20
81.288978628
 30
0.0
 11
97.5783333333
 21
81.288978628
 31
0.0
  0
LINE
  5
11A
330
1F
100
AcDbEntity
  8
0
  6
Continuous
 62
     7
370
    25
100
AcDbLine
 10
142.875
 20
81.288978628
 30
0.0
 11
105.1983333333
 21
81.288978628
 31
0.0
  0
LINE
  5
11B
330
1F
100
AcDbEntity
  8
0
  6
Continuous
 62
     7
370
    25
100
AcDbLine
 10
97.5783333333
 20
86.2792319613
 30
0.0
 11
97.5783333333
 21
90.890178628
 31
0.0
  0
LINE
  5
11C
330
1F
100
AcDbEntity
  8
0
  6
Continuous
 62
     7
370
    25
100
AcDbLine
 10
96.7316666667
 20
90.890178628
 30
0.0
 11
96.7316666667
 21
86.2792319613
 31
0.0
  0
LINE
  5
11D
330
1F
100
AcDbEntity
  8
0
  6
Continuous
 62
     7
370
    25
100
AcDbLine
 10
96.7316666667
 20
75.452058628
 30
0.0
 11
96.7316666667
 21
67.572978628
 31
0.0
  0
LINE
  5
11E
330
1F
100
AcDbEntity
  8
0
  6
Continuous
 62
     7
370
    25
100
AcDbLine
 10
97.5783333333
 20
67.572978628
 30
0.0
 11
97.5783333333
 21
75.452058628
 31
0.0
  0
LINE
  5
11F
330
1F
100
AcDbEntity
  8
0
  6
Continuous
 62
     7
370
    25
100
AcDbLine
 10
105.1983333333
 20
81.288978628
 30
0.0
 11
105.1983333333
 21
141.793978628
 31
0.0
  0
LINE
  5
120
330
1F
100
AcDbEntity
  8
0
  6
Continuous
 62
     7
370
    25
100
AcDbLine
 10
104.3516666667
 20
141.793978628
 30
0.0
 11
104.3516666667
 21
81.288978628
 31
0.0
  0
LINE
  5
121
330
1F
100
AcDbEntity
  8
0
  6
Continuous
 62
     7
370
    25
100
AcDbLine
 10
89.9583333333
 20
81.288978628
 30
0.0
 11
89.9583333333
 21
141.793978628
 31
0.0
  0
LINE
  5
122
330
1F
100
AcDbEntity
  8
0
  6
Continuous
 62
     7
370
    25
100
AcDbLine
 10
89.1116666667
 20
141.793978628
 30
0.0
 11
89.1116666667
 21
81.288978628
 31
0.0
  0
LINE
  5
123
330
1F
100
AcDbEntity
  8
0
  6
Continuous
 62
     7
370
    25
100
AcDbLine
 10
89.1116666667
 20
81.288978628
 30
0.0
 11
51.435
 21
81.288978628
 31
0.0
  0
LINE
  5
124
330
1F
100
AcDbEntity
  8
0
  6
Continuous
 62
     7
370
    25
100
AcDbLine
 10
96.7316666667
 20
81.288978628
 30
0.0
 11
89.9583333333
 21
81.288978628
 31
0.0
  0
LINE
  5
125
330
1F
100
AcDbEntity
  8
0
  6
Continuous
 62
     7
370
    25
100
AcDbLine
 10
51.435
 20
80.4423119613
 30
0.0
 11
96.7316666667
 21
80.4423119613
 31
0.0
  0
LINE
  5
126
330
1F
100
AcDbEntity
  8
0
  6
Continuous
 62
     7
370
    25
100
AcDbLine
 10
50.5883333333
 20
82.1356452946
 30
0.0
 11
50.5883333333
 21
79.5956452946
 31
0.0
  0
LINE
  5
127
330
1F
100
AcDbEntity
  8
0
  6
Continuous
 62
     7
370
    25
100
AcDbLine
 10
51.435
 20
81.288978628
 30
0.0
 11
51.435
 21
82.1356452946
 31
0.0
  0
LINE
  5
128
330
1F
100
AcDbEntity
  8
0
  6
Continuous
 62
     7
370
    25
100
AcDbLine
 10
51.435
 20
79.5956452946
 30
0.0
 11
51.435
 21
80.4423119613
 31
0.0
  0
SPLINE
  5
129
330
1F
100
AcDbEntity
  8
0
  6
Continuous
 62
     7
370
    25
100
AcDbSpline
210
0.0
220
0.0
230
1.0
 70
     8
 71
     3
 72
     9
 73
     5
 74
     0
 42
0.00000001
 43
0.00000001
 40
0.0
 40
0.0
 40
0.0
 40
0.0
 40
0.7439132737898315
 40
0.9999999999999999
 40
0.9999999999999999
 40
0.9999999999999999
 40
0.9999999999999999
 10
89.81253506589175
 20
143.19165205934
 30
0.0
 10
89.80862914230819
 20
143.1972713096711
 30
0.0
 10
89.80337863297979
 20
143.2048249460009
 30
0.0
 10
89.79597838746842
 20
143.2101445913756
 30
0.0
 10
89.79408328282226
 20
143.2115068819442
 30
0.0
  0
SPLINE
  5
12A
330
1F
100
AcDbEntity
  8
0
  6
Continuous
 62
     7
370
    25
100
AcDbSpline
210
0.0
220
0.0
230
1.0
 70
     8
 71
     3
 72
     9
 73
     5
 74
     0
 42
0.00000001
 43
0.00000001
 40
0.0
 40
0.0
 40
0.0
 40
0.0
 40
0.7439132737893825
 40
1.0
 40
1.0
 40
1.0
 40
1.0
 10
105.0525350659121
 20
143.1916520593422
 30
0.0
 10
105.0486291423286
 20
143.1972713096733
 30
0.0
 10
105.0433786330002
 20
143.204824946003
 30
0.0
 10
105.0359783874888
 20
143.2101445913777
 30
0.0
 10
105.0340832828427
 20
143.2115068819463
 30
0.0
  0
LINE
  5
12B
330
1F
100
AcDbEntity
  8
0
  6
Continuous
 62
     7
370
    25
100
AcDbLine
 10
90.0011312545
 20
143.139670628
 30
0.0
 11
89.9498280334
 21
143.190978628
 31
0.0
  0
LINE
  5
12C
330
1F
100
AcDbEntity
  8
0
  6
Continuous
 62
     7
370
    25
100
AcDbLine
 10
105.2411312545
 20
143.139670628
 30
0.0
 11
105.1898280334
 21
143.190978628
 31
0.0
  0
LINE
  5
12D
330
1F
100
AcDbEntity
  8
0
  6
Continuous
 62
     7
370
    25
100
AcDbLine
 10
89.7974666667
 20
143.2093434082
 30
0.0
 11
89.7974666667
 21
143.5925494236
 31
0.0
  0
LINE
  5
12E
330
1F
100
AcDbEntity
  8
0
  6
Continuous
 62
     7
370
    25
100
AcDbLine
 10
89.2725333333
 20
143.5925494236
 30
0.0
 11
89.2725333333
 21
143.2093434082
 31
0.0
  0
LINE
  5
12F
330
1F
100
AcDbEntity
  8
0
  6
Continuous
 62
     7
370
    25
100
AcDbLine
 10
105.0374666667
 20
143.2093434082
 30
0.0
 11
105.0374666667
 21
143.5925494236
 31
0.0
  0
LINE
  5
130
330
1F
100
AcDbEntity
  8
0
  6
Continuous
 62
     7
370
    25
100
AcDbLine
 10
104.5125333334
 20
143.5925494236
 30
0.0
 11
104.5125333334
 21
143.2093434082
 31
0.0
  0
LINE
  5
131
330
1F
100
AcDbEntity
  8
0
  6
Continuous
 62
     7
370
    25
100
AcDbLine
 10
95.1369123828
 20
86.2792319613
 30
0.0
 11
99.1730876172
 21
86.2792319613
 31
0.0
  0
LINE
  5
132
330
1F
100
AcDbEntity
  8
0
  6
Continuous
 62
     7
370
    25
100
AcDbLine
 10
99.1730876172
 20
75.452058628
 30
0.0
 11
95.1369123828
 21
75.452058628
 31
0.0
  0
LINE
  5
133
330
1F
100
AcDbEntity
  8
0
  6
Continuous
 62
     7
370
    25
100
AcDbLine
 10
98.0016666665
 20
82.9772319613
 30
0.0
 11
96.3083333333
 21
82.9772319613
 31
0.0
  0
LINE
  5
134
330
1F
100
AcDbEntity
  8
0
  6
Continuous
 62
     7
370
    25
100
AcDbLine
 10
96.3083333335
 20
78.754058628
 30
0.0
 11
98.0016666667
 21
78.754058628
 31
0.0
  0
LINE
  5
135
330
1F
100
AcDbEntity
  8
0
  6
Continuous
 62
     7
370
    25
100
AcDbLine
 10
104.775
 20
145.7595514678
 30
0.0
 11
104.775
 21
146.8424044765
 31
0.0
  0
LINE
  5
136
330
1F
100
AcDbEntity
  8
0
  6
Continuous
 62
     7
370
    25
100
AcDbLine
 10
89.535
 20
145.7595514678
 30
0.0
 11
89.535
 21
146.8424044765
 31
0.0
  0
LINE
  5
137
330
1F
100
AcDbEntity
  8
0
  6
Continuous
 62
     7
370
    25
100
AcDbLine
 10
104.775
 20
146.8424044765
 30
0.0
 11
104.775
 21
147.3906011669
 31
0.0
  0
LINE
  5
138
330
1F
100
AcDbEntity
  8
0
  6
Continuous
 62
     7
370
    25
100
AcDbLine
 10
89.535
 20
146.8424044765
 30
0.0
 11
104.775
 21
146.8424044765
 31
0.0
  0
LINE
  5
139
330
1F
100
AcDbEntity
  8
0
  6
Continuous
 62
     7
370
    25
100
AcDbLine
 10
89.535
 20
146.8424044765
 30
0.0
 11
89.535
 21
147.3906011669
 31
0.0
  0
LINE
  5
13A
330
1F
100
AcDbEntity
  8
0
  6
Continuous
 62
     7
370
    25
100
AcDbLine
 10
104.775
 20
147.3906011669
 30
0.0
 11
89.535
 21
147.3906011669
 31
0.0
  0
LWPOLYLINE
  5
13B
330
1F
100
AcDbEntity
  8
0
  6
Continuous
 62
     7
370
    25
100
AcDbPolyline
 90
        3
 70
   128
 43
0.0
 10
104.775
 20
145.75955146
 10
97.155
 20
145.7595534074
 10
89.535
 20
145.7595514575
  0
SPLINE
  5
13C
330
1F
100
AcDbEntity
  8
0
  6
Continuous
 62
     7
370
    25
100
AcDbSpline
210
0.0
220
0.0
230
1.0
 70
    24
 71
     3
 72
    16
 73
    12
 74
     0
 42
0.00000001
 43
0.00000001
 40
0.500000000000015
 40
0.500000000000015
 40
0.500000000000015
 40
0.500000000000015
 40
0.5499999999999998
 40
0.6000000000000001
 40
0.6500000000000001
 40
0.7000000000000002
 40
0.7499999999996597
 40
0.8124999999999998
 40
0.875
 40
0.9375000000000006
 40
1.0
 40
1.0
 40
1.0
 40
1.0
 10
85.30166666666703
 20
147.3906011668554
 30
0.0
 10
85.30166666666702
 20
147.3906011668554
 30
0.0
 10
85.36283526827403
 20
147.3906011668557
 30
0.0
 10
85.59716755183707
 20
147.3906011668555
 30
0.0
 10
85.99064388521795
 20
147.3906011668552
 30
0.0
 10
86.45547798235853
 20
147.3906011668553
 30
0.0
 10
87.03750578570599
 20
147.3906011668557
 30
0.0
 10
87.68214643082993
 20
147.3906011668554
 30
0.0
 10
88.35684105310995
 20
147.3906011668544
 30
0.0
 10
88.9884893567348
 20
147.3906011668565
 30
0.0
 10
89.34721712750702
 20
147.3906011668554
 30
0.0
 10
89.53500000000129
 20
147.3906011668554
 30
0.0
  0
SPLINE
  5
13D
330
1F
100
AcDbEntity
  8
0
  6
Continuous
 62
     7
370
    25
100
AcDbSpline
210
0.0
220
0.0
230
1.0
 70
    24
 71
     3
 72
    16
 73
    12
 74
     0
 42
0.00000001
 43
0.00000001
 40
0.0
 40
0.0
 40
0.0
 40
0.0
 40
0.0624999999999996
 40
0.125
 40
0.1875000000000007
 40
0.2500000000003404
 40
0.2999999999999999
 40
0.3499999999999999
 40
0.4
 40
0.45
 40
0.4999999999999921
 40
0.4999999999999921
 40
0.4999999999999921
 40
0.4999999999999921
 10
104.7750000000015
 20
147.390601166856
 30
0.0
 10
104.9627828724958
 20
147.390601166856
 30
0.0
 10
105.3215106432699
 20
147.3906011668541
 30
0.0
 10
105.9531589468868
 20
147.3906011668549
 30
0.0
 10
106.6278535691944
 20
147.3906011668555
 30
0.0
 10
107.2724942142222
 20
147.3906011668554
 30
0.0
 10
107.8545220178615
 20
147.3906011668558
 30
0.0
 10
108.3193561139654
 20
147.3906011668547
 30
0.0
 10
108.7128324512252
 20
147.3906011668561
 30
0.0
 10
108.9471647203077
 20
147.390601166855
 30
0.0
 10
109.0083333579452
 20
147.3906011668554
 30
0.0
 10
109.0083333333354
 20
147.3906011668554
 30
0.0
  0
LINE
  5
13E
330
1F
100
AcDbEntity
  8
0
  6
Continuous
 62
     7
370
    25
100
AcDbLine
 10
89.535
 20
145.7595514575
 30
0.0
 11
89.535
 21
144.0039068428
 31
0.0
  0
SPLINE
  5
13F
330
1F
100
AcDbEntity
  8
0
  6
Continuous
 62
     7
370
    25
100
AcDbSpline
210
0.0
220
0.0
230
1.0
 70
    24
 71
     3
 72
    12
 73
     8
 74
     0
 42
0.00000001
 43
0.00000001
 40
0.0
 40
0.0
 40
0.0
 40
0.0
 40
0.2500000000000009
 40
0.2500000000000009
 40
0.5000000000000018
 40
0.5000000000000018
 40
1.0
 40
1.0
 40
1.0
 40
1.0
 10
104.7750000000014
 20
144.0039069111421
 30
0.0
 10
104.7750000000014
 20
144.1503387473686
 30
0.0
 10
104.7750000000014
 20
144.2965390379264
 30
0.0
 10
104.7750000000014
 20
144.5891487440121
 30
0.0
 10
104.7750000000014
 20
144.7354397775589
 30
0.0
 10
104.7750000000014
 20
145.1743435049072
 30
0.0
 10
104.7750000000014
 20
145.4669486592967
 30
0.0
 10
104.7750000000014
 20
145.7595514599986
 30
0.0
  0
SPLINE
  5
140
330
1F
100
AcDbEntity
  8
0
  6
Continuous
 62
     7
370
    25
100
AcDbSpline
210
0.0
220
0.0
230
1.0
 70
    24
 71
     3
 72
    37
 73
    33
 74
     0
 42
0.00000001
 43
0.00000001
 40
0.0
 40
0.0
 40
0.0
 40
0.0
 40
0.0124502065097638
 40
0.0249691252955442
 40
0.0375568859883227
 40
0.0502136161038324
 40
0.0629394410845378
 40
0.0933512346046917
 40
0.1256852656406489
 40
0.1552659747315579
 40
0.188277831759662
 40
0.2143732083949843
 40
0.2507491357365538
 40
0.2871251919381902
 40
0.3131268415432888
 40
0.3754386818196479
 40
0.4377164518428394
 40
0.5000001204586128
 40
0.5623341283552314
 40
0.6247341226276132
 40
0.687196910229023
 40
0.7133312843268647
 40
0.7497111616450515
 40
0.7862219426967831
 40
0.8122615183416122
 40
0.8452833848499179
 40
0.8748325211871559
 40
0.9070988997066544
 40
0.9374129790823656
 40
0.9584853128798646
 40
0.9793474559725326
 40
1.0
 40
1.0
 40
1.0
 40
1.0
 10
104.7750000000014
 20
144.0039345001894
 30
0.0
 10
104.7117293773395
 20
144.0039345001894
 30
0.0
 10
104.5848389435517
 20
144.0039345001895
 30
0.0
 10
104.3939812529374
 20
144.0039345001894
 30
0.0
 10
104.2020783186352
 20
144.0039345001895
 30
0.0
 10
104.0091301053422
 20
144.0039345001894
 30
0.0
 10
103.7256201919759
 20
144.0039345001895
 30
0.0
 10
103.3421538644957
 20
144.0039345001895
 30
0.0
 10
102.8731107947006
 20
144.0039345001895
 30
0.0
 10
102.3909250273192
 20
144.0039345001895
 30
0.0
 10
101.9404789734369
 20
144.0039345001895
 30
0.0
 10
101.4555642641874
 20
144.0039345001895
 30
0.0
 10
100.9535845693312
 20
144.0039345001895
 30
0.0
 10
100.4520811221334
 20
144.0039345001896
 30
0.0
 10
99.81884125169796
 20
144.0039345001895
 30
0.0
 10
99.0539593362455
 20
144.0039345001896
 30
0.0
 10
98.10453403758625
 20
144.0039345001896
 30
0.0
 10
97.15474414138598
 20
144.0039345001896
 30
0.0
 10
96.2043333371592
 20
144.0039345001896
 30
0.0
 10
95.25326354656278
 20
144.0039345001896
 30
0.0
 10
94.4863180486562
 20
144.0039345001897
 30
0.0
 10
93.85161611425518
 20
144.0039345001896
 30
0.0
 10
93.34873296209442
 20
144.0039345001897
 30
0.0
 10
92.8463312231977
 20
144.0039345001897
 30
0.0
 10
92.36096364751815
 20
144.0039345001897
 30
0.0
 10
91.91091048448254
 20
144.0039345001897
 30
0.0
 10
91.42917834792843
 20
144.0039345001897
 30
0.0
 10
90.96113634947275
 20
144.0039345001897
 30
0.0
 10
90.53610305844128
 20
144.0039345001897
 30
0.0
 10
90.16897766089066
 20
144.0039345001897
 30
0.0
 10
89.85092736164309
 20
144.0039345001897
 30
0.0
 10
89.63995406704508
 20
144.0039345001897
 30
0.0
 10
89.53500000000138
 20
144.0039345001897
 30
0.0
  0
SPLINE
  5
141
330
1F
100
AcDbEntity
  8
0
  6
Continuous
 62
     7
370
    25
100
AcDbSpline
210
0.0
220
0.0
230
1.0
 70
    24
 71
     3
 72
    16
 73
    12
 74
     0
 42
0.00000001
 43
0.00000001
 40
0.0
 40
0.0
 40
0.0
 40
0.0
 40
0.0624999999999996
 40
0.125
 40
0.1875000000000007
 40
0.2500000000003404
 40
0.2999999999999999
 40
0.3499999999999999
 40
0.4
 40
0.45
 40
0.4999999999999921
 40
0.4999999999999921
 40
0.4999999999999921
 40
0.4999999999999921
 10
104.7750000000014
 20
144.0039345001894
 30
0.0
 10
104.8088178489314
 20
144.0039345001894
 30
0.0
 10
104.8734658432472
 20
144.0039345001894
 30
0.0
 10
104.987032975246
 20
144.0039345001894
 30
0.0
 10
105.1085622557773
 20
144.0039345001894
 30
0.0
 10
105.2247814319292
 20
144.0039345001894
 30
0.0
 10
105.3285677266181
 20
144.0039345001894
 30
0.0
 10
105.4140463670523
 20
144.0039345001894
 30
0.0
 10
105.4823282900256
 20
144.0039345001895
 30
0.0
 10
105.5262958915392
 20
144.0039345001895
 30
0.0
 10
105.5370000043685
 20
144.0039345001895
 30
0.0
 10
105.5370000000014
 20
144.0039345001895
 30
0.0
  0
SPLINE
  5
142
330
1F
100
AcDbEntity
  8
0
  6
Continuous
 62
     7
370
    25
100
AcDbSpline
210
0.0
220
0.0
230
1.0
 70
    24
 71
     3
 72
    16
 73
    12
 74
     0
 42
0.00000001
 43
0.00000001
 40
0.500000000000015
 40
0.500000000000015
 40
0.500000000000015
 40
0.500000000000015
 40
0.5499999999999998
 40
0.6000000000000001
 40
0.6500000000000001
 40
0.7000000000000002
 40
0.7499999999996597
 40
0.8124999999999998
 40
0.875
 40
0.9375000000000006
 40
1.0
 40
1.0
 40
1.0
 40
1.0
 10
88.77300000000137
 20
144.0039345001898
 30
0.0
 10
88.77300000000174
 20
144.0039345001898
 30
0.0
 10
88.78370410643794
 20
144.0039345001898
 30
0.0
 10
88.82767171052016
 20
144.0039345001898
 30
0.0
 10
88.89595363280507
 20
144.0039345001898
 30
0.0
 10
88.98143227342337
 20
144.0039345001898
 30
0.0
 10
89.08521856806026
 20
144.0039345001898
 30
0.0
 10
89.2014377442294
 20
144.0039345001898
 30
0.0
 10
89.3229670247557
 20
144.0039345001897
 30
0.0
 10
89.43653415675584
 20
144.0039345001897
 30
0.0
 10
89.5011821510714
 20
144.0039345001897
 30
0.0
 10
89.53500000000136
 20
144.0039345001897
 30
0.0
  0
LINE
  5
143
330
1F
100
AcDbEntity
  8
0
  6
Continuous
 62
     7
370
    25
100
AcDbLine
 10
141.2802457161
 20
86.2792319613
 30
0.0
 11
145.3164209506
 21
86.2792319613
 31
0.0
  0
LINE
  5
144
330
1F
100
AcDbEntity
  8
0
  6
Continuous
 62
     7
370
    25
100
AcDbLine
 10
95.1369123828
 20
95.0337652946
 30
0.0
 11
99.1730876172
 21
95.0337652946
 31
0.0
  0
LINE
  5
145
330
1F
100
AcDbEntity
  8
0
  6
Continuous
 62
     7
370
    25
100
AcDbLine
 10
99.1730876172
 20
63.4293919613
 30
0.0
 11
95.1369123828
 21
63.4293919613
 31
0.0
  0
LINE
  5
146
330
1F
100
AcDbEntity
  8
0
  6
Continuous
 62
     7
370
    25
100
AcDbLine
 10
51.0116666667
 20
86.2792319613
 30
0.0
 11
53.0297542839
 21
86.2792319613
 31
0.0
  0
LINE
  5
147
330
1F
100
AcDbEntity
  8
0
  6
Continuous
 62
     7
370
    25
100
AcDbLine
 10
48.9935790494
 20
86.2792319613
 30
0.0
 11
51.0116666667
 21
86.2792319613
 31
0.0
  0
LINE
  5
148
330
1F
100
AcDbEntity
  8
0
  6
Continuous
 62
     7
370
    25
100
AcDbLine
 10
145.3164209506
 20
75.452058628
 30
0.0
 11
141.2802457161
 21
75.452058628
 31
0.0
  0
LINE
  5
149
330
1F
100
AcDbEntity
  8
0
  6
Continuous
 62
     7
370
    25
100
AcDbLine
 10
51.0116666667
 20
75.452058628
 30
0.0
 11
48.9935790494
 21
75.452058628
 31
0.0
  0
LINE
  5
14A
330
1F
100
AcDbEntity
  8
0
  6
Continuous
 62
     7
370
    25
100
AcDbLine
 10
53.0297542839
 20
75.452058628
 30
0.0
 11
51.0116666667
 21
75.452058628
 31
0.0
  0
LINE
  5
14B
330
1F
100
AcDbEntity
  8
0
  6
Continuous
 62
     7
370
    25
100
AcDbLine
 10
144.1449999999
 20
82.9772319613
 30
0.0
 11
142.4516666667
 21
82.9772319613
 31
0.0
  0
LINE
  5
14C
330
1F
100
AcDbEntity
  8
0
  6
Continuous
 62
     7
370
    25
100
AcDbLine
 10
98.0016666665
 20
91.7317652946
 30
0.0
 11
96.3083333333
 21
91.7317652946
 31
0.0
  0
LINE
  5
14D
330
1F
100
AcDbEntity
  8
0
  6
Continuous
 62
     7
370
    25
100
AcDbLine
 10
96.3083333335
 20
66.7313919613
 30
0.0
 11
98.0016666667
 21
66.7313919613
 31
0.0
  0
LINE
  5
14E
330
1F
100
AcDbEntity
  8
0
  6
Continuous
 62
     7
370
    25
100
AcDbLine
 10
143.2983333333
 20
78.754058628
 30
0.0
 11
144.144999998
 21
78.754058628
 31
0.0
  0
LINE
  5
14F
330
1F
100
AcDbEntity
  8
0
  6
Continuous
 62
     7
370
    25
100
AcDbLine
 10
142.4516666689
 20
78.754058628
 30
0.0
 11
143.2983333333
 21
78.754058628
 31
0.0
  0
LINE
  5
150
330
1F
100
AcDbEntity
  8
0
  6
Continuous
 62
     7
370
    25
100
AcDbLine
 10
51.8583333333
 20
82.9772319613
 30
0.0
 11
50.1650000001
 21
82.9772319613
 31
0.0
  0
LINE
  5
151
330
1F
100
AcDbEntity
  8
0
  6
Continuous
 62
     7
370
    25
100
AcDbLine
 10
50.165
 20
78.754058628
 30
0.0
 11
51.8583333332
 21
78.754058628
 31
0.0
  0
LINE
  5
152
330
1F
100
AcDbEntity
  8
0
  6
Continuous
 62
     7
370
    25
100
AcDbLine
 10
89.535
 20
143.7283692149
 30
0.0
 11
90.2361469707
 21
143.7283692149
 31
0.0
  0
LINE
  5
153
330
1F
100
AcDbEntity
  8
0
  6
Continuous
 62
     7
370
    25
100
AcDbLine
 10
88.8338530293
 20
143.7283692149
 30
0.0
 11
89.535
 21
143.7283692149
 31
0.0
  0
LINE
  5
154
330
1F
100
AcDbEntity
  8
0
  6
Continuous
 62
     7
370
    25
100
AcDbLine
 10
104.775
 20
143.7283692149
 30
0.0
 11
105.4761469707
 21
143.7283692149
 31
0.0
  0
LINE
  5
155
330
1F
100
AcDbEntity
  8
0
  6
Continuous
 62
     7
370
    25
100
AcDbLine
 10
104.0738530293
 20
143.7283692149
 30
0.0
 11
104.775
 21
143.7283692149
 31
0.0
  0
LINE
  5
156
330
1F
100
AcDbEntity
  8
0
  6
Continuous
 62
     7
370
    25
100
AcDbLine
 10
89.535
 20
143.5925494236
 30
0.0
 11
90.0681696733
 21
143.5925494236
 31
0.0
  0
LINE
  5
157
330
1F
100
AcDbEntity
  8
0
  6
Continuous
 62
     7
370
    25
100
AcDbLine
 10
89.0018303266
 20
143.5925494236
 30
0.0
 11
89.535
 21
143.5925494236
 31
0.0
  0
LINE
  5
158
330
1F
100
AcDbEntity
  8
0
  6
Continuous
 62
     7
370
    25
100
AcDbLine
 10
104.775
 20
143.5925494236
 30
0.0
 11
105.3081696733
 21
143.5925494236
 31
0.0
  0
LINE
  5
159
330
1F
100
AcDbEntity
  8
0
  6
Continuous
 62
     7
370
    25
100
AcDbLine
 10
104.2418303267
 20
143.5925494236
 30
0.0
 11
104.775
 21
143.5925494236
 31
0.0
  0
LINE
  5
15A
330
1F
100
AcDbEntity
  8
0
  6
Continuous
 62
     7
370
    25
100
AcDbLine
 10
89.0693333333
 20
141.793978628
 30
0.0
 11
90.0006666666
 21
141.793978628
 31
0.0
  0
SPLINE
  5
15B
330
1F
100
AcDbEntity
  8
0
  6
Continuous
 62
     7
370
    25
100
AcDbSpline
210
0.0
220
0.0
230
1.0
 70
     8
 71
     3
 72
    15
 73
    11
 74
     0
 42
0.00000001
 43
0.00000001
 40
0.0
 40
0.0
 40
0.0
 40
0.0
 40
0.1308303213531394
 40
0.2616611196985581
 40
0.3932658776478468
 40
0.5248457691433821
 40
0.6564301544869486
 40
0.7880107897460567
 40
0.9196147511155435
 40
1.0
 40
1.0
 40
1.0
 40
1.0
 10
89.92484174623947
 20
143.1404378935156
 30
0.0
 10
89.89211838157107
 20
143.1401777247368
 30
0.0
 10
89.8266715329287
 20
143.1396573862307
 30
0.0
 10
89.68411470460588
 20
143.1406017000787
 30
0.0
 10
89.52760268637536
 20
143.1400272526161
 30
0.0
 10
89.37094752241143
 20
143.1399924615491
 30
0.0
 10
89.23241079349295
 20
143.1406292919207
 30
0.0
 10
89.13013675452949
 20
143.1394899530412
 30
0.0
 10
89.07357971569552
 20
143.1406706253749
 30
0.0
 10
89.07505548464326
 20
143.1403368506498
 30
0.0
 10
89.0756150888515
 20
143.1402102849424
 30
0.0
  0
SPLINE
  5
15C
330
1F
100
AcDbEntity
  8
0
  6
Continuous
 62
     7
370
    25
100
AcDbSpline
210
0.0
220
0.0
230
1.0
 70
     8
 71
     3
 72
    10
 73
     6
 74
     0
 42
0.00000001
 43
0.00000001
 40
0.0
 40
0.0
 40
0.0
 40
0.0
 40
0.226850644498493
 40
0.8094512553914683
 40
1.0
 40
1.0
 40
1.0
 40
1.0
 10
89.99438436276158
 20
143.1401568787854
 30
0.0
 10
89.99597941973937
 20
143.1400696897024
 30
0.0
 10
90.00167092163463
 20
143.1397585805456
 30
0.0
 10
89.96899700612964
 20
143.1402635890715
 30
0.0
 10
89.9335724154594
 20
143.1404034288913
 30
0.0
 10
89.92484174623947
 20
143.1404378935156
 30
0.0
  0
SPLINE
  5
15D
330
1F
100
AcDbEntity
  8
0
  6
Continuous
 62
     7
370
    25
100
AcDbSpline
210
0.0
220
0.0
230
1.0
 70
    24
 71
     3
 72
    15
 73
    11
 74
     0
 42
0.00000001
 43
0.00000001
 40
0.0
 40
0.0
 40
0.0
 40
0.0
 40
0.1282664599504064
 40
0.2563745493024197
 40
0.3902446969787334
 40
0.518108584509141
 40
0.6528428017075891
 40
0.7810653877923363
 40
0.9143518544331748
 40
1.0
 40
1.0
 40
1.0
 40
1.0
 10
89.882507036368
 20
143.1909786279641
 30
0.0
 10
89.85375424204098
 20
143.1909786279641
 30
0.0
 10
89.7962841544622
 20
143.1909786279641
 30
0.0
 10
89.67101939458942
 20
143.1909786279642
 30
0.0
 10
89.53250338630426
 20
143.1909786279641
 30
0.0
 10
89.39202454399575
 20
143.1909786279641
 30
0.0
 10
89.26828447944685
 20
143.1909786279641
 30
0.0
 10
89.17646570042874
 20
143.1909786279641
 30
0.0
 10
89.12365274300451
 20
143.1909786279641
 30
0.0
 10
89.12496341688943
 20
143.1909786279641
 30
0.0
 10
89.12547615805244
 20
143.1909786279641
 30
0.0
  0
LINE
  5
15E
330
1F
100
AcDbEntity
  8
0
  6
Continuous
 62
     7
370
    25
100
AcDbLine
 10
89.9248417462
 20
143.1404378935
 30
0.0
 11
89.8825070364
 21
143.190978628
 31
0.0
  0
LINE
  5
15F
330
1F
100
AcDbEntity
  8
0
  6
Continuous
 62
     7
370
    25
100
AcDbLine
 10
104.3093333333
 20
141.793978628
 30
0.0
 11
105.2406666667
 21
141.793978628
 31
0.0
  0
SPLINE
  5
160
330
1F
100
AcDbEntity
  8
0
  6
Continuous
 62
     7
370
    25
100
AcDbSpline
210
0.0
220
0.0
230
1.0
 70
     8
 71
     3
 72
    15
 73
    11
 74
     0
 42
0.00000001
 43
0.00000001
 40
0.0
 40
0.0
 40
0.0
 40
0.0
 40
0.1308303213531395
 40
0.2616611196985582
 40
0.3932658776478468
 40
0.5248457691433821
 40
0.6564301544869487
 40
0.7880107897460568
 40
0.9196147511155436
 40
1.0
 40
1.0
 40
1.0
 40
1.0
 10
105.1648417462599
 20
143.1404378935177
 30
0.0
 10
105.1321183815915
 20
143.1401777247389
 30
0.0
 10
105.0666715329491
 20
143.1396573862328
 30
0.0
 10
104.9241147046263
 20
143.1406017000809
 30
0.0
 10
104.7676026863957
 20
143.1400272526183
 30
0.0
 10
104.6109475224318
 20
143.1399924615512
 30
0.0
 10
104.4724107935133
 20
143.1406292919229
 30
0.0
 10
104.3701367545499
 20
143.1394899530434
 30
0.0
 10
104.3135797157159
 20
143.140670625377
 30
0.0
 10
104.3150554846637
 20
143.1403368506519
 30
0.0
 10
104.3156150888719
 20
143.1402102849445
 30
0.0
  0
SPLINE
  5
161
330
1F
100
AcDbEntity
  8
0
  6
Continuous
 62
     7
370
    25
100
AcDbSpline
210
0.0
220
0.0
230
1.0
 70
     8
 71
     3
 72
    10
 73
     6
 74
     0
 42
0.00000001
 43
0.00000001
 40
0.0
 40
0.0
 40
0.0
 40
0.0
 40
0.2268506444984928
 40
0.8094512553914682
 40
1.0
 40
1.0
 40
1.0
 40
1.0
 10
105.234384362782
 20
143.1401568787875
 30
0.0
 10
105.2359794197598
 20
143.1400696897045
 30
0.0
 10
105.241670921655
 20
143.1397585805477
 30
0.0
 10
105.2089970061501
 20
143.1402635890736
 30
0.0
 10
105.1735724154798
 20
143.1404034288934
 30
0.0
 10
105.1648417462599
 20
143.1404378935177
 30
0.0
  0
SPLINE
  5
162
330
1F
100
AcDbEntity
  8
0
  6
Continuous
 62
     7
370
    25
100
AcDbSpline
210
0.0
220
0.0
230
1.0
 70
    24
 71
     3
 72
    15
 73
    11
 74
     0
 42
0.00000001
 43
0.00000001
 40
0.0
 40
0.0
 40
0.0
 40
0.0
 40
0.1282664599504012
 40
0.2563745493024092
 40
0.3902446969787173
 40
0.5181085845091196
 40
0.6528428017075621
 40
0.781065387792304
 40
0.9143518544331369
 40
1.0
 40
1.0
 40
1.0
 40
1.0
 10
105.1225070363884
 20
143.1909786279663
 30
0.0
 10
105.0937542420614
 20
143.1909786279663
 30
0.0
 10
105.0362841544826
 20
143.1909786279662
 30
0.0
 10
104.9110193946098
 20
143.1909786279663
 30
0.0
 10
104.7725033863246
 20
143.1909786279663
 30
0.0
 10
104.6320245440161
 20
143.1909786279663
 30
0.0
 10
104.5082844794672
 20
143.1909786279663
 30
0.0
 10
104.4164657004491
 20
143.1909786279663
 30
0.0
 10
104.3636527430249
 20
143.1909786279663
 30
0.0
 10
104.3649634169098
 20
143.1909786279662
 30
0.0
 10
104.3654761580728
 20
143.1909786279663
 30
0.0
  0
LINE
  5
163
330
1F
100
AcDbEntity
  8
0
  6
Continuous
 62
     7
370
    25
100
AcDbLine
 10
105.1648417463
 20
143.1404378935
 30
0.0
 11
105.1225070364
 21
143.190978628
 31
0.0
  0
LINE
  5
164
330
1F
100
AcDbEntity
  8
0
  6
Continuous
 62
     7
370
    25
100
AcDbLine
 10
143.2983333333
 20
80.8656452946
 30
0.0
 11
142.875
 21
81.288978628
 31
0.0
  0
LINE
  5
165
330
1F
100
AcDbEntity
  8
0
  6
Continuous
 62
     7
370
    25
100
AcDbLine
 10
142.875
 20
80.4423119613
 30
0.0
 11
143.2983333333
 21
80.8656452946
 31
0.0
  0
LINE
  5
166
330
1F
100
AcDbEntity
  8
0
  6
Continuous
 62
     7
370
    25
100
AcDbLine
 10
104.775
 20
80.8656452946
 30
0.0
 11
105.1983333333
 21
81.288978628
 31
0.0
  0
LINE
  5
167
330
1F
100
AcDbEntity
  8
0
  6
Continuous
 62
     7
370
    25
100
AcDbLine
 10
104.3516666667
 20
81.288978628
 30
0.0
 11
104.775
 21
80.8656452946
 31
0.0
  0
LINE
  5
168
330
1F
100
AcDbEntity
  8
0
  6
Continuous
 62
     7
370
    25
100
AcDbLine
 10
89.535
 20
80.8656452946
 30
0.0
 11
89.9583333333
 21
81.288978628
 31
0.0
  0
LINE
  5
169
330
1F
100
AcDbEntity
  8
0
  6
Continuous
 62
     7
370
    25
100
AcDbLine
 10
89.1116666667
 20
81.288978628
 30
0.0
 11
89.535
 21
80.8656452946
 31
0.0
  0
LINE
  5
16A
330
1F
100
AcDbEntity
  8
0
  6
Continuous
 62
     7
370
    25
100
AcDbLine
 10
51.435
 20
81.288978628
 30
0.0
 11
51.0116666667
 21
80.8656452946
 31
0.0
  0
LINE
  5
16B
330
1F
100
AcDbEntity
  8
0
  6
Continuous
 62
     7
370
    25
100
AcDbLine
 10
51.0116666667
 20
80.8656452946
 30
0.0
 11
51.435
 21
80.4423119613
 31
0.0
  0
SPLINE
  5
16C
330
1F
100
AcDbEntity
  8
0
  6
Continuous
 62
     7
370
    25
100
AcDbSpline
210
0.0
220
0.0
230
1.0
 70
    24
 71
     3
 72
    10
 73
     6
 74
     0
 42
0.00000001
 43
0.00000001
 40
0.0
 40
0.0
 40
0.0
 40
0.0
 40
0.1868807320761441
 40
0.7696842653476158
 40
1.0
 40
1.0
 40
1.0
 40
1.0
 10
89.94470767583208
 20
143.1909786279641
 30
0.0
 10
89.94599017703919
 20
143.1909786279642
 30
0.0
 10
89.95127226785951
 20
143.1909786279641
 30
0.0
 10
89.92389213735582
 20
143.1909786279641
 30
0.0
 10
89.8916419033354
 20
143.1909786279642
 30
0.0
 10
89.882507036368
 20
143.1909786279641
 30
0.0
  0
SPLINE
  5
16D
330
1F
100
AcDbEntity
  8
0
  6
Continuous
 62
     7
370
    25
100
AcDbSpline
210
0.0
220
0.0
230
1.0
 70
    24
 71
     3
 72
    10
 73
     6
 74
     0
 42
0.00000001
 43
0.00000001
 40
0.0
 40
0.0
 40
0.0
 40
0.0
 40
0.1868807320760913
 40
0.7696842653476009
 40
1.0
 40
1.0
 40
1.0
 40
1.0
 10
105.1847076758525
 20
143.1909786279663
 30
0.0
 10
105.1859901770596
 20
143.1909786279663
 30
0.0
 10
105.1912722678799
 20
143.1909786279663
 30
0.0
 10
105.1638921373762
 20
143.1909786279663
 30
0.0
 10
105.1316419033558
 20
143.1909786279663
 30
0.0
 10
105.1225070363884
 20
143.1909786279663
 30
0.0
  0
LINE
  5
16E
330
1F
100
AcDbEntity
  8
0
  6
Continuous
 62
     8
370
    25
100
AcDbLine
 10
97.155
 20
85.6442319613
 30
0.0
 11
94.7702949618
 21
85.6442319613
 31
0.0
  0
LINE
  5
16F
330
1F
100
AcDbEntity
  8
0
  6
Continuous
 62
     8
370
    25
100
AcDbLine
 10
99.5397050382
 20
85.6442319613
 30
0.0
 11
97.155
 21
85.6442319613
 31
0.0
  0
LINE
  5
170
330
1F
100
AcDbEntity
  8
0
  6
Continuous
 62
     8
370
    25
100
AcDbLine
 10
97.155
 20
76.087058628
 30
0.0
 11
99.5397050382
 21
76.087058628
 31
0.0
  0
LINE
  5
171
330
1F
100
AcDbEntity
  8
0
  6
Continuous
 62
     8
370
    25
100
AcDbLine
 10
94.7702949618
 20
76.087058628
 30
0.0
 11
97.155
 21
76.087058628
 31
0.0
  0
LINE
  5
172
330
1F
100
AcDbEntity
  8
0
  6
Continuous
 62
     8
370
    25
100
AcDbLine
 10
97.5783332823
 20
82.1356452946
 30
0.0
 11
96.7316666667
 21
82.1356452946
 31
0.0
  0
LINE
  5
173
330
1F
100
AcDbEntity
  8
0
  6
Continuous
 62
     8
370
    25
100
AcDbLine
 10
96.7316667177
 20
79.5956452946
 30
0.0
 11
97.5783333333
 21
79.5956452946
 31
0.0
  0
SPLINE
  5
174
330
1F
100
AcDbEntity
  8
0
  6
Continuous
 62
     8
370
    25
100
AcDbSpline
210
0.0
220
0.0
230
1.0
 70
    24
 71
     3
 72
    16
 73
    12
 74
     0
 42
0.00000001
 43
0.00000001
 40
0.0
 40
0.0
 40
0.0
 40
0.0
 40
0.0624999999999996
 40
0.125
 40
0.1875000000000007
 40
0.2500000000003404
 40
0.2999999999999999
 40
0.3499999999999999
 40
0.4
 40
0.45
 40
0.4999999999999921
 40
0.4999999999999921
 40
0.4999999999999921
 40
0.4999999999999921
 10
104.7750000000014
 20
146.8424044765145
 30
0.0
 10
104.9627828724957
 20
146.8424044765145
 30
0.0
 10
105.3215106432699
 20
146.8424044765126
 30
0.0
 10
105.9531589468868
 20
146.8424044765134
 30
0.0
 10
106.6278535691944
 20
146.842404476514
 30
0.0
 10
107.2724942142221
 20
146.8424044765139
 30
0.0
 10
107.8545220178614
 20
146.8424044765143
 30
0.0
 10
108.3193561139652
 20
146.8424044765132
 30
0.0
 10
108.7128324512252
 20
146.8424044765146
 30
0.0
 10
108.9471647203075
 20
146.8424044765135
 30
0.0
 10
109.0083333579451
 20
146.8424044765139
 30
0.0
 10
109.0083333333353
 20
146.8424044765139
 30
0.0
  0
SPLINE
  5
175
330
1F
100
AcDbEntity
  8
0
  6
Continuous
 62
     8
370
    25
100
AcDbSpline
210
0.0
220
0.0
230
1.0
 70
    24
 71
     3
 72
    16
 73
    12
 74
     0
 42
0.00000001
 43
0.00000001
 40
0.0
 40
0.0
 40
0.0
 40
0.0
 40
0.0624999999999996
 40
0.125
 40
0.1875000000000007
 40
0.2500000000003404
 40
0.2999999999999999
 40
0.3499999999999999
 40
0.4
 40
0.45
 40
0.4999999999999921
 40
0.4999999999999921
 40
0.4999999999999921
 40
0.4999999999999921
 10
104.7750000000014
 20
145.7595514677848
 30
0.0
 10
104.9358858527173
 20
145.7595514677848
 30
0.0
 10
105.2432391671886
 20
145.7595514677833
 30
0.0
 10
105.784380945089
 20
145.759551467784
 30
0.0
 10
106.3624399901439
 20
145.7595514677844
 30
0.0
 10
106.9147677047337
 20
145.7595514677843
 30
0.0
 10
107.4132487985216
 20
145.7595514677847
 30
0.0
 10
107.8118111478323
 20
145.7595514677838
 30
0.0
 10
108.1484774364701
 20
145.7595514677849
 30
0.0
 10
108.3495538267748
 20
145.759551467784
 30
0.0
 10
108.4019065315977
 20
145.7595514677843
 30
0.0
 10
108.4019065105243
 20
145.7595514677843
 30
0.0
  0
SPLINE
  5
176
330
1F
100
AcDbEntity
  8
0
  6
Continuous
 62
     8
370
    25
100
AcDbSpline
210
0.0
220
0.0
230
1.0
 70
    24
 71
     3
 72
    16
 73
    12
 74
     0
 42
0.00000001
 43
0.00000001
 40
0.500000000000015
 40
0.500000000000015
 40
0.500000000000015
 40
0.500000000000015
 40
0.5499999999999998
 40
0.6000000000000001
 40
0.6500000000000001
 40
0.7000000000000002
 40
0.7499999999996597
 40
0.8124999999999998
 40
0.875
 40
0.9375000000000006
 40
1.0
 40
1.0
 40
1.0
 40
1.0
 10
85.3016666666672
 20
146.8424044765137
 30
0.0
 10
85.30166666666719
 20
146.8424044765137
 30
0.0
 10
85.36283526827414
 20
146.842404476514
 30
0.0
 10
85.5971675518372
 20
146.8424044765138
 30
0.0
 10
85.9906438852181
 20
146.8424044765135
 30
0.0
 10
86.45547798235864
 20
146.8424044765136
 30
0.0
 10
87.03750578570607
 20
146.8424044765139
 30
0.0
 10
87.68214643083
 20
146.8424044765137
 30
0.0
 10
88.35684105311003
 20
146.8424044765127
 30
0.0
 10
88.9884893567348
 20
146.8424044765148
 30
0.0
 10
89.34721712750704
 20
146.8424044765137
 30
0.0
 10
89.5350000000013
 20
146.8424044765137
 30
0.0
  0
SPLINE
  5
177
330
1F
100
AcDbEntity
  8
0
  6
Continuous
 62
     8
370
    25
100
AcDbSpline
210
0.0
220
0.0
230
1.0
 70
    24
 71
     3
 72
    16
 73
    12
 74
     0
 42
0.00000001
 43
0.00000001
 40
0.500000000000015
 40
0.500000000000015
 40
0.500000000000015
 40
0.500000000000015
 40
0.5499999999999998
 40
0.6000000000000001
 40
0.6500000000000001
 40
0.7000000000000002
 40
0.7499999999996597
 40
0.8124999999999998
 40
0.875
 40
0.9375000000000006
 40
1.0
 40
1.0
 40
1.0
 40
1.0
 10
85.90809348947826
 20
145.7595514677844
 30
0.0
 10
85.90809348947826
 20
145.7595514677844
 30
0.0
 10
85.96044616344797
 20
145.7595514677847
 30
0.0
 10
86.16152256615275
 20
145.7595514677845
 30
0.0
 10
86.49818885146874
 20
145.7595514677842
 30
0.0
 10
86.89675120166741
 20
145.7595514677843
 30
0.0
 10
87.39523229520515
 20
145.7595514677846
 30
0.0
 10
87.94756000987744
 20
145.7595514677844
 30
0.0
 10
88.5256190549087
 20
145.7595514677835
 30
0.0
 10
89.0667608328157
 20
145.7595514677853
 30
0.0
 10
89.37411414728547
 20
145.7595514677844
 30
0.0
 10
89.53500000000133
 20
145.7595514677844
 30
0.0
  0
LINE
  5
178
330
1F
100
AcDbEntity
  8
0
  6
Continuous
 62
     8
370
    25
100
AcDbLine
 10
143.2983333333
 20
85.6442319613
 30
0.0
 11
140.9136282952
 21
85.6442319613
 31
0.0
  0
LINE
  5
179
330
1F
100
AcDbEntity
  8
0
  6
Continuous
 62
     8
370
    25
100
AcDbLine
 10
145.6830383715
 20
85.6442319613
 30
0.0
 11
143.2983333333
 21
85.6442319613
 31
0.0
  0
LINE
  5
17A
330
1F
100
AcDbEntity
  8
0
  6
Continuous
 62
     8
370
    25
100
AcDbLine
 10
97.155
 20
94.3987652946
 30
0.0
 11
94.7702949618
 21
94.3987652946
 31
0.0
  0
LINE
  5
17B
330
1F
100
AcDbEntity
  8
0
  6
Continuous
 62
     8
370
    25
100
AcDbLine
 10
99.5397050382
 20
94.3987652946
 30
0.0
 11
97.155
 21
94.3987652946
 31
0.0
  0
LINE
  5
17C
330
1F
100
AcDbEntity
  8
0
  6
Continuous
 62
     8
370
    25
100
AcDbLine
 10
97.155
 20
64.0643919613
 30
0.0
 11
99.5397050382
 21
64.0643919613
 31
0.0
  0
LINE
  5
17D
330
1F
100
AcDbEntity
  8
0
  6
Continuous
 62
     8
370
    25
100
AcDbLine
 10
94.7702949618
 20
64.0643919613
 30
0.0
 11
97.155
 21
64.0643919613
 31
0.0
  0
LINE
  5
17E
330
1F
100
AcDbEntity
  8
0
  6
Continuous
 62
     8
370
    25
100
AcDbLine
 10
53.3963717048
 20
85.6442319613
 30
0.0
 11
48.6269616285
 21
85.6442319613
 31
0.0
  0
LINE
  5
17F
330
1F
100
AcDbEntity
  8
0
  6
Continuous
 62
     8
370
    25
100
AcDbLine
 10
140.9136282952
 20
76.087058628
 30
0.0
 11
145.6830383715
 21
76.087058628
 31
0.0
  0
LINE
  5
180
330
1F
100
AcDbEntity
  8
0
  6
Continuous
 62
     8
370
    25
100
AcDbLine
 10
48.6269616285
 20
76.087058628
 30
0.0
 11
53.3963717048
 21
76.087058628
 31
0.0
  0
LINE
  5
181
330
1F
100
AcDbEntity
  8
0
  6
Continuous
 62
     8
370
    25
100
AcDbLine
 10
143.7216666157
 20
82.1356452946
 30
0.0
 11
142.875
 21
82.1356452946
 31
0.0
  0
LINE
  5
182
330
1F
100
AcDbEntity
  8
0
  6
Continuous
 62
     8
370
    25
100
AcDbLine
 10
97.5783332823
 20
90.890178628
 30
0.0
 11
96.7316666667
 21
90.890178628
 31
0.0
  0
LINE
  5
183
330
1F
100
AcDbEntity
  8
0
  6
Continuous
 62
     8
370
    25
100
AcDbLine
 10
96.7316667177
 20
67.572978628
 30
0.0
 11
97.5783333333
 21
67.572978628
 31
0.0
  0
LINE
  5
184
330
1F
100
AcDbEntity
  8
0
  6
Continuous
 62
     8
370
    25
100
AcDbLine
 10
143.2983333333
 20
79.5956452946
 30
0.0
 11
143.7216666435
 21
79.5956452946
 31
0.0
  0
LINE
  5
185
330
1F
100
AcDbEntity
  8
0
  6
Continuous
 62
     8
370
    25
100
AcDbLine
 10
142.8750000553
 20
79.5956452946
 30
0.0
 11
143.2983333333
 21
79.5956452946
 31
0.0
  0
LINE
  5
186
330
1F
100
AcDbEntity
  8
0
  6
Continuous
 62
     8
370
    25
100
AcDbLine
 10
51.435
 20
82.1356452946
 30
0.0
 11
50.5883333333
 21
82.1356452946
 31
0.0
  0
LINE
  5
187
330
1F
100
AcDbEntity
  8
0
  6
Continuous
 62
     8
370
    25
100
AcDbLine
 10
50.5883333333
 20
79.5956452946
 30
0.0
 11
51.435
 21
79.5956452946
 31
0.0
  0
LINE
  5
188
330
1F
100
AcDbEntity
  8
0
  6
Continuous
 62
     7
370
    25
100
AcDbLine
 10
108.3225232412
 20
214.8602467941
 30
0.0
 11
108.362487504
 21
214.9244946006
 31
0.0
  0
LINE
  5
189
330
1F
100
AcDbEntity
  8
0
  6
Continuous
 62
     7
370
    25
100
AcDbLine
 10
108.6525939398
 20
215.4783936269
 30
0.0
 11
108.7243085438
 21
215.64503385
 31
0.0
  0
SPLINE
  5
18A
330
1F
100
AcDbEntity
  8
0
  6
Continuous
 62
     7
370
    25
100
AcDbSpline
210
0.0
220
0.0
230
1.0
 70
     8
 71
     3
 72
    11
 73
     7
 74
     0
 42
0.00000001
 43
0.00000001
 40
0.0
 40
0.0
 40
0.0
 40
0.0
 40
0.2477754929672604
 40
0.4961444454738755
 40
0.7469005372420342
 40
1.0
 40
1.0
 40
1.0
 40
1.0
 10
106.973087442797
 20
213.5517260433925
 30
0.0
 10
107.0445345374105
 20
213.5967716856737
 30
0.0
 10
107.1875998531656
 20
213.6869708613186
 30
0.0
 10
107.4013103570703
 20
213.8468919104229
 30
0.0
 10
107.6115439995009
 20
214.0231663199781
 30
0.0
 10
107.7443070943684
 20
214.1542520492348
 30
0.0
 10
107.8109973743171
 20
214.2200997457663
 30
0.0
  0
LINE
  5
18B
330
1F
100
AcDbEntity
  8
0
  6
Continuous
 62
     7
370
    25
100
AcDbLine
 10
108.3225233092
 20
214.8602468995
 30
0.0
 11
108.32243829
 21
214.860115396
 31
0.0
  0
LINE
  5
18C
330
1F
100
AcDbEntity
  8
0
  6
Continuous
 62
     7
370
    25
100
AcDbLine
 10
107.7826261855
 20
214.191295733
 30
0.0
 11
107.8514257676
 21
214.2620876087
 31
0.0
  0
LINE
  5
18D
330
1F
100
AcDbEntity
  8
0
  6
Continuous
 62
     7
370
    25
100
AcDbLine
 10
107.8215118791
 20
214.2309116094
 30
0.0
 11
107.8514257416
 21
214.2620875814
 31
0.0
  0
LINE
  5
18E
330
1F
100
AcDbEntity
  8
0
  6
Continuous
 62
     7
370
    25
100
AcDbLine
 10
86.5028583095
 20
214.2163701932
 30
0.0
 11
86.5172445872
 21
214.2015182731
 31
0.0
  0
LINE
  5
18F
330
1F
100
AcDbEntity
  8
0
  6
Continuous
 62
     7
370
    25
100
AcDbLine
 10
85.9874676795
 20
219.4797391512
 30
0.0
 11
85.947512
 21
219.4155047043
 31
0.0
  0
LINE
  5
190
330
1F
100
AcDbEntity
  8
0
  6
Continuous
 62
     7
370
    25
100
AcDbLine
 10
85.6574062106
 20
218.8616067804
 30
0.0
 11
85.5856914553
 21
218.6949661489
 31
0.0
  0
SPLINE
  5
191
330
1F
100
AcDbEntity
  8
0
  6
Continuous
 62
     7
370
    25
100
AcDbSpline
210
0.0
220
0.0
230
1.0
 70
     8
 71
     3
 72
    11
 73
     7
 74
     0
 42
0.00000001
 43
0.00000001
 40
0.0
 40
0.0
 40
0.0
 40
0.0
 40
0.247775491467238
 40
0.4961444445635746
 40
0.7469005373267907
 40
1.0
 40
1.0
 40
1.0
 40
1.0
 10
87.33691255554614
 20
220.788273955581
 30
0.0
 10
87.26546546103798
 20
220.7432283133099
 30
0.0
 10
87.12240014489018
 20
220.6530291373049
 30
0.0
 10
86.9086896424413
 20
220.4931080891412
 30
0.0
 10
86.69845600107007
 20
220.3168336805601
 30
0.0
 10
86.5656929057453
 20
220.1857479508676
 30
0.0
 10
86.49900262570972
 20
220.1199002542583
 30
0.0
  0
LINE
  5
192
330
1F
100
AcDbEntity
  8
0
  6
Continuous
 62
     7
370
    25
100
AcDbLine
 10
85.9874676124
 20
219.4797390474
 30
0.0
 11
85.9875531194
 21
219.4798713065
 31
0.0
  0
LINE
  5
193
330
1F
100
AcDbEntity
  8
0
  6
Continuous
 62
     7
370
    25
100
AcDbLine
 10
86.4585737938
 20
214.2620880704
 30
0.0
 11
86.4884881724
 21
214.2309115562
 31
0.0
  0
LINE
  5
194
330
1F
100
AcDbEntity
  8
0
  6
Continuous
 62
     7
370
    25
100
AcDbLine
 10
86.5273737004
 20
220.1487041523
 30
0.0
 11
86.4585737484
 21
220.0779118817
 31
0.0
  0
LINE
  5
195
330
1F
100
AcDbEntity
  8
0
  6
Continuous
 62
     7
370
    25
100
AcDbLine
 10
86.4884881627
 20
220.1090884337
 30
0.0
 11
86.458573787
 21
220.0779119224
 31
0.0
  0
CIRCLE
  5
196
330
1F
100
AcDbEntity
  8
0
  6
Continuous
 62
     7
370
    25
100
AcDbCircle
 10
97.155
 20
263.3133333333
 30
0.0
 40
2.44142095055679
  0
CIRCLE
  5
197
330
1F
100
AcDbEntity
  8
0
  6
Continuous
 62
     7
370
    25
100
AcDbCircle
 10
51.0116666667
 20
217.17
 30
0.0
 40
2.441420950556818
  0
CIRCLE
  5
198
330
1F
100
AcDbEntity
  8
0
  6
Continuous
 62
     7
370
    25
100
AcDbCircle
 10
143.2983333333
 20
217.17
 30
0.0
 40
2.441420950556818
  0
CIRCLE
  5
199
330
1F
100
AcDbEntity
  8
0
  6
Continuous
 62
     7
370
    25
100
AcDbCircle
 10
97.155
 20
171.0266666667
 30
0.0
 40
2.441420950556818
  0
LINE
  5
19A
330
1F
100
AcDbEntity
  8
0
  6
Continuous
 62
     7
370
    25
100
AcDbLine
 10
85.3244897985
 20
217.5933333333
 30
0.0
 11
53.4161053011
 21
217.5933333333
 31
0.0
  0
LINE
  5
19B
330
1F
100
AcDbEntity
  8
0
  6
Continuous
 62
     7
370
    25
100
AcDbLine
 10
53.4161053011
 20
216.7466666667
 30
0.0
 11
85.3241080353
 21
216.7466666667
 31
0.0
  0
LINE
  5
19C
330
1F
100
AcDbEntity
  8
0
  6
Continuous
 62
     7
370
    25
100
AcDbLine
 10
97.5783333333
 20
221.4033333333
 30
0.0
 11
97.5783333333
 21
260.9088946989
 31
0.0
  0
LINE
  5
19D
330
1F
100
AcDbEntity
  8
0
  6
Continuous
 62
     7
370
    25
100
AcDbLine
 10
96.7316666667
 20
260.9088946989
 30
0.0
 11
96.7316666667
 21
221.4033333333
 31
0.0
  0
LINE
  5
19E
330
1F
100
AcDbEntity
  8
0
  6
Continuous
 62
     7
370
    25
100
AcDbLine
 10
97.5783333333
 20
173.4311053011
 30
0.0
 11
97.5783333333
 21
212.9366666667
 31
0.0
  0
LINE
  5
19F
330
1F
100
AcDbEntity
  8
0
  6
Continuous
 62
     7
370
    25
100
AcDbLine
 10
96.7316666667
 20
212.9366666667
 30
0.0
 11
96.7316666667
 21
173.4311053011
 31
0.0
  0
LINE
  5
1A0
330
1F
100
AcDbEntity
  8
0
  6
Continuous
 62
     7
370
    25
100
AcDbLine
 10
108.9863513021
 20
216.7466666667
 30
0.0
 11
140.8938946989
 21
216.7466666667
 31
0.0
  0
LINE
  5
1A1
330
1F
100
AcDbEntity
  8
0
  6
Continuous
 62
     7
370
    25
100
AcDbLine
 10
140.8938946989
 20
217.5933333333
 30
0.0
 11
108.9774108627
 21
217.5933333333
 31
0.0
  0
CIRCLE
  5
1A2
330
1F
100
AcDbEntity
  8
0
  6
Continuous
 62
     7
370
    25
100
AcDbCircle
 10
97.155
 20
217.17
 30
0.0
 40
1.549924253103569
  0
ARC
  5
1A3
330
1F
100
AcDbEntity
  8
0
  6
Continuous
 62
     7
370
    25
100
AcDbCircle
 10
97.155
 20
217.17
 30
0.0
 40
2.178473333333329
100
AcDbArc
 50
103.1365587869
 51
166.8634412131
  0
ARC
  5
1A4
330
1F
100
AcDbEntity
  8
0
  6
Continuous
 62
     7
370
    25
100
AcDbCircle
 10
96.6258333333
 20
219.4374035261
 30
0.0
 40
0.1498600000000197
100
AcDbArc
 50
283.1365587869
 51
103.1365587869
  0
ARC
  5
1A5
330
1F
100
AcDbEntity
  8
0
  6
Continuous
 62
     7
370
    25
100
AcDbCircle
 10
97.155
 20
217.17
 30
0.0
 40
2.478193333333337
100
AcDbArc
 50
103.1365587869
 51
166.8634412131
  0
ARC
  5
1A6
330
1F
100
AcDbEntity
  8
0
  6
Continuous
 62
     7
370
    25
100
AcDbCircle
 10
94.8875964739
 20
217.6991666667
 30
0.0
 40
0.1498600000000027
100
AcDbArc
 50
166.8634412131
 51
346.8634412131
  0
LINE
  5
1A7
330
1F
100
AcDbEntity
  8
0
  6
Continuous
 62
     7
370
    25
100
AcDbLine
 10
94.8266666667
 20
217.02014
 30
0.0
 11
94.1916666667
 21
217.02014
 31
0.0
  0
ARC
  5
1A8
330
1F
100
AcDbEntity
  8
0
  6
Continuous
 62
     7
370
    25
100
AcDbCircle
 10
94.8266666667
 20
217.17
 30
0.0
 40
0.1498600000000181
100
AcDbArc
 50
270.0
 51
90.0
  0
LINE
  5
1A9
330
1F
100
AcDbEntity
  8
0
  6
Continuous
 62
     7
370
    25
100
AcDbLine
 10
94.8266666667
 20
217.31986
 30
0.0
 11
94.1916666667
 21
217.31986
 31
0.0
  0
ARC
  5
1AA
330
1F
100
AcDbEntity
  8
0
  6
Continuous
 62
     7
370
    25
100
AcDbCircle
 10
94.1916666667
 20
217.17
 30
0.0
 40
0.1498600000000181
100
AcDbArc
 50
90.0
 51
270.0
  0
ARC
  5
1AB
330
1F
100
AcDbEntity
  8
0
  6
Continuous
 62
     7
370
    25
100
AcDbCircle
 10
97.155
 20
217.17
 30
0.0
 40
2.178473333333323
100
AcDbArc
 50
193.1365587869
 51
256.8634412131
  0
ARC
  5
1AC
330
1F
100
AcDbEntity
  8
0
  6
Continuous
 62
     7
370
    25
100
AcDbCircle
 10
94.8875964739
 20
216.6408333333
 30
0.0
 40
0.1498600000000027
100
AcDbArc
 50
13.1365587869
 51
193.1365587869
  0
ARC
  5
1AD
330
1F
100
AcDbEntity
  8
0
  6
Continuous
 62
     7
370
    25
100
AcDbCircle
 10
97.155
 20
217.17
 30
0.0
 40
2.478193333333321
100
AcDbArc
 50
193.1365587869
 51
256.8634412131
  0
ARC
  5
1AE
330
1F
100
AcDbEntity
  8
0
  6
Continuous
 62
     7
370
    25
100
AcDbCircle
 10
96.6258333333
 20
214.9025964739
 30
0.0
 40
0.1498599999999953
100
AcDbArc
 50
256.8634412131
 51
76.8634412131
  0
ARC
  5
1AF
330
1F
100
AcDbEntity
  8
0
  6
Continuous
 62
     7
370
    25
100
AcDbCircle
 10
97.155
 20
217.17
 30
0.0
 40
2.813473333333321
100
AcDbArc
 50
190.2865606115
 51
259.7134393885
  0
ARC
  5
1B0
330
1F
100
AcDbEntity
  8
0
  6
Continuous
 62
     7
370
    25
100
AcDbCircle
 10
94.2392964685
 20
216.6408333333
 30
0.0
 40
0.1498600000000115
100
AcDbArc
 50
10.2865606115
 51
190.2865606115
  0
ARC
  5
1B1
330
1F
100
AcDbEntity
  8
0
  6
Continuous
 62
     7
370
    25
100
AcDbCircle
 10
97.155
 20
217.17
 30
0.0
 40
3.113193333333325
100
AcDbArc
 50
190.2865606115
 51
259.7134393885
  0
ARC
  5
1B2
330
1F
100
AcDbEntity
  8
0
  6
Continuous
 62
     7
370
    25
100
AcDbCircle
 10
96.6258333333
 20
214.2542964685
 30
0.0
 40
0.1498600000000229
100
AcDbArc
 50
259.7134393885
 51
79.7134393885
  0
LINE
  5
1B3
330
1F
100
AcDbEntity
  8
0
  6
Continuous
 62
     7
370
    25
100
AcDbLine
 10
99.4833333333
 20
217.31986
 30
0.0
 11
100.1183333333
 21
217.31986
 31
0.0
  0
ARC
  5
1B4
330
1F
100
AcDbEntity
  8
0
  6
Continuous
 62
     7
370
    25
100
AcDbCircle
 10
99.4833333333
 20
217.17
 30
0.0
 40
0.1498600000000181
100
AcDbArc
 50
90.0
 51
270.0
  0
LINE
  5
1B5
330
1F
100
AcDbEntity
  8
0
  6
Continuous
 62
     7
370
    25
100
AcDbLine
 10
99.4833333333
 20
217.02014
 30
0.0
 11
100.1183333333
 21
217.02014
 31
0.0
  0
ARC
  5
1B6
330
1F
100
AcDbEntity
  8
0
  6
Continuous
 62
     7
370
    25
100
AcDbCircle
 10
100.1183333333
 20
217.17
 30
0.0
 40
0.1498600000000181
100
AcDbArc
 50
270.0
 51
90.0
  0
ARC
  5
1B7
330
1F
100
AcDbEntity
  8
0
  6
Continuous
 62
     7
370
    25
100
AcDbCircle
 10
97.155
 20
217.17
 30
0.0
 40
2.813473333333329
100
AcDbArc
 50
280.2865606115
 51
349.7134393885
  0
ARC
  5
1B8
330
1F
100
AcDbEntity
  8
0
  6
Continuous
 62
     7
370
    25
100
AcDbCircle
 10
97.6841666667
 20
214.2542964685
 30
0.0
 40
0.1498600000000229
100
AcDbArc
 50
100.2865606115
 51
280.2865606115
  0
ARC
  5
1B9
330
1F
100
AcDbEntity
  8
0
  6
Continuous
 62
     7
370
    25
100
AcDbCircle
 10
97.155
 20
217.17
 30
0.0
 40
3.113193333333334
100
AcDbArc
 50
280.2865606115
 51
349.7134393885
  0
ARC
  5
1BA
330
1F
100
AcDbEntity
  8
0
  6
Continuous
 62
     7
370
    25
100
AcDbCircle
 10
100.0707035315
 20
216.6408333333
 30
0.0
 40
0.1498600000000064
100
AcDbArc
 50
349.7134393885
 51
169.7134393885
  0
ARC
  5
1BB
330
1F
100
AcDbEntity
  8
0
  6
Continuous
 62
     7
370
    25
100
AcDbCircle
 10
97.155
 20
217.17
 30
0.0
 40
2.178473333333336
100
AcDbArc
 50
283.1365587869
 51
346.8634412131
  0
ARC
  5
1BC
330
1F
100
AcDbEntity
  8
0
  6
Continuous
 62
     7
370
    25
100
AcDbCircle
 10
97.6841666667
 20
214.9025964739
 30
0.0
 40
0.1498600000000197
100
AcDbArc
 50
103.1365587869
 51
283.1365587869
  0
ARC
  5
1BD
330
1F
100
AcDbEntity
  8
0
  6
Continuous
 62
     7
370
    25
100
AcDbCircle
 10
97.155
 20
217.17
 30
0.0
 40
2.478193333333334
100
AcDbArc
 50
283.1365587869
 51
346.8634412131
  0
ARC
  5
1BE
330
1F
100
AcDbEntity
  8
0
  6
Continuous
 62
     7
370
    25
100
AcDbCircle
 10
99.4224035261
 20
216.6408333333
 30
0.0
 40
0.1498600000000027
100
AcDbArc
 50
346.8634412131
 51
166.8634412131
  0
LINE
  5
1BF
330
1F
100
AcDbEntity
  8
0
  6
Continuous
 62
     7
370
    25
100
AcDbLine
 10
97.30486
 20
214.8416666667
 30
0.0
 11
97.30486
 21
214.2066666667
 31
0.0
  0
ARC
  5
1C0
330
1F
100
AcDbEntity
  8
0
  6
Continuous
 62
     7
370
    25
100
AcDbCircle
 10
97.155
 20
214.8416666667
 30
0.0
 40
0.1498600000000039
100
AcDbArc
 50
0.0
 51
180.0
  0
LINE
  5
1C1
330
1F
100
AcDbEntity
  8
0
  6
Continuous
 62
     7
370
    25
100
AcDbLine
 10
97.00514
 20
214.8416666667
 30
0.0
 11
97.00514
 21
214.2066666667
 31
0.0
  0
ARC
  5
1C2
330
1F
100
AcDbEntity
  8
0
  6
Continuous
 62
     7
370
    25
100
AcDbCircle
 10
97.155
 20
214.2066666667
 30
0.0
 40
0.1498600000000039
100
AcDbArc
 50
180.0
 51
0.0
  0
ARC
  5
1C3
330
1F
100
AcDbEntity
  8
0
  6
Continuous
 62
     7
370
    25
100
AcDbCircle
 10
97.155
 20
217.17
 30
0.0
 40
2.81347333333334
100
AcDbArc
 50
10.2865606115
 51
79.7134393885
  0
ARC
  5
1C4
330
1F
100
AcDbEntity
  8
0
  6
Continuous
 62
     7
370
    25
100
AcDbCircle
 10
100.0707035315
 20
217.6991666667
 30
0.0
 40
0.1498600000000115
100
AcDbArc
 50
190.2865606115
 51
10.2865606115
  0
ARC
  5
1C5
330
1F
100
AcDbEntity
  8
0
  6
Continuous
 62
     7
370
    25
100
AcDbCircle
 10
97.155
 20
217.17
 30
0.0
 40
3.113193333333353
100
AcDbArc
 50
10.2865606115
 51
79.7134393885
  0
ARC
  5
1C6
330
1F
100
AcDbEntity
  8
0
  6
Continuous
 62
     7
370
    25
100
AcDbCircle
 10
97.6841666667
 20
220.0857035315
 30
0.0
 40
0.1498600000000229
100
AcDbArc
 50
79.7134393885
 51
259.7134393885
  0
ARC
  5
1C7
330
1F
100
AcDbEntity
  8
0
  6
Continuous
 62
     7
370
    25
100
AcDbCircle
 10
97.155
 20
217.17
 30
0.0
 40
2.178473333333343
100
AcDbArc
 50
13.1365587869
 51
76.8634412131
  0
ARC
  5
1C8
330
1F
100
AcDbEntity
  8
0
  6
Continuous
 62
     7
370
    25
100
AcDbCircle
 10
99.4224035261
 20
217.6991666667
 30
0.0
 40
0.1498600000000091
100
AcDbArc
 50
193.1365587869
 51
13.1365587869
  0
ARC
  5
1C9
330
1F
100
AcDbEntity
  8
0
  6
Continuous
 62
     7
370
    25
100
AcDbCircle
 10
97.155
 20
217.17
 30
0.0
 40
2.478193333333341
100
AcDbArc
 50
13.1365587869
 51
76.8634412131
  0
ARC
  5
1CA
330
1F
100
AcDbEntity
  8
0
  6
Continuous
 62
     7
370
    25
100
AcDbCircle
 10
97.6841666667
 20
219.4374035261
 30
0.0
 40
0.1498600000000229
100
AcDbArc
 50
76.8634412131
 51
256.8634412131
  0
LINE
  5
1CB
330
1F
100
AcDbEntity
  8
0
  6
Continuous
 62
     7
370
    25
100
AcDbLine
 10
97.00514
 20
219.4983333333
 30
0.0
 11
97.00514
 21
220.1333333333
 31
0.0
  0
ARC
  5
1CC
330
1F
100
AcDbEntity
  8
0
  6
Continuous
 62
     7
370
    25
100
AcDbCircle
 10
97.155
 20
219.4983333333
 30
0.0
 40
0.1498600000000039
100
AcDbArc
 50
180.0
 51
0.0
  0
LINE
  5
1CD
330
1F
100
AcDbEntity
  8
0
  6
Continuous
 62
     7
370
    25
100
AcDbLine
 10
97.30486
 20
219.4983333333
 30
0.0
 11
97.30486
 21
220.1333333333
 31
0.0
  0
ARC
  5
1CE
330
1F
100
AcDbEntity
  8
0
  6
Continuous
 62
     7
370
    25
100
AcDbCircle
 10
97.155
 20
220.1333333333
 30
0.0
 40
0.1498600000000039
100
AcDbArc
 50
360.0
 51
180.0
  0
ARC
  5
1CF
330
1F
100
AcDbEntity
  8
0
  6
Continuous
 62
     7
370
    25
100
AcDbCircle
 10
97.155
 20
217.17
 30
0.0
 40
2.813473333333335
100
AcDbArc
 50
100.2865606115
 51
169.7134393885
  0
ARC
  5
1D0
330
1F
100
AcDbEntity
  8
0
  6
Continuous
 62
     7
370
    25
100
AcDbCircle
 10
96.6258333333
 20
220.0857035315
 30
0.0
 40
0.1498600000000229
100
AcDbArc
 50
280.2865606115
 51
100.2865606115
  0
ARC
  5
1D1
330
1F
100
AcDbEntity
  8
0
  6
Continuous
 62
     7
370
    25
100
AcDbCircle
 10
97.155
 20
217.17
 30
0.0
 40
3.113193333333353
100
AcDbArc
 50
100.2865606115
 51
169.7134393885
  0
ARC
  5
1D2
330
1F
100
AcDbEntity
  8
0
  6
Continuous
 62
     7
370
    25
100
AcDbCircle
 10
94.2392964685
 20
217.6991666667
 30
0.0
 40
0.1498600000000064
100
AcDbArc
 50
169.7134393885
 51
349.7134393885
  0
CIRCLE
  5
1D3
330
1F
100
AcDbEntity
  8
0
  6
Continuous
 62
     7
370
    25
100
AcDbCircle
 10
99.0245269234
 20
217.17
 30
0.0
 40
0.1151466666666749
  0
LINE
  5
1D4
330
1F
100
AcDbEntity
  8
0
  6
Continuous
 62
     7
370
    25
100
AcDbLine
 10
89.535
 20
221.4033333333
 30
0.0
 11
104.775
 21
221.4033333333
 31
0.0
  0
SPLINE
  5
1D5
330
1F
100
AcDbEntity
  8
0
  6
Continuous
 62
     7
370
    25
100
AcDbSpline
210
0.0
220
0.0
230
1.0
 70
     8
 71
     3
 72
    25
 73
    21
 74
     0
 42
0.00000001
 43
0.00000001
 40
0.0
 40
0.0
 40
0.0
 40
0.0
 40
0.0624999999999996
 40
0.125
 40
0.1875000000000007
 40
0.2500000000003404
 40
0.2999999999999999
 40
0.3499999999999999
 40
0.4
 40
0.45
 40
0.4999999999999921
 40
0.55
 40
0.5999999999999999
 40
0.65
 40
0.6999999999999996
 40
0.7499999999996595
 40
0.8124999999999997
 40
0.875
 40
0.9375000000000001
 40
1.0
 40
1.0
 40
1.0
 40
1.0
 10
104.7750000000015
 20
212.9366666666648
 30
0.0
 10
104.9627828724958
 20
212.9366666666648
 30
0.0
 10
105.3215106432699
 20
212.9585644497508
 30
0.0
 10
105.9531589468868
 20
213.0846370898655
 30
0.0
 10
106.6278535691944
 20
213.3388871907703
 30
0.0
 10
107.2724942142222
 20
213.7222336192671
 30
0.0
 10
107.8545220178615
 20
214.2359975871669
 30
0.0
 10
108.3193561139654
 20
214.8102718984898
 30
0.0
 10
108.7128324512252
 20
215.5455286950194
 30
0.0
 10
108.9471647203076
 20
216.3127679309738
 30
0.0
 10
109.038917676764
 20
217.1700000554323
 30
0.0
 10
108.9471645726489
 20
218.0272318472851
 30
0.0
 10
108.7128330418602
 20
218.7944720810568
 30
0.0
 10
108.3193538990854
 20
219.5297252189239
 30
0.0
 10
107.854530286745
 20
220.1040131670775
 30
0.0
 10
107.2724600927747
 20
220.6177220055972
 30
0.0
 10
106.6280168242601
 20
221.0013251224728
 30
0.0
 10
105.9525541463953
 20
221.2545763671613
 30
0.0
 10
105.3237665901695
 20
221.3843694088723
 30
0.0
 10
104.9579221967242
 20
221.3970120251792
 30
0.0
 10
104.7750000000015
 20
221.4033333333327
 30
0.0
  0
LINE
  5
1D6
330
1F
100
AcDbEntity
  8
0
  6
Continuous
 62
     7
370
    25
100
AcDbLine
 10
104.775
 20
212.9366666667
 30
0.0
 11
89.535
 21
212.9366666667
 31
0.0
  0
SPLINE
  5
1D7
330
1F
100
AcDbEntity
  8
0
  6
Continuous
 62
     7
370
    25
100
AcDbSpline
210
0.0
220
0.0
230
1.0
 70
     8
 71
     3
 72
    25
 73
    21
 74
     0
 42
0.00000001
 43
0.00000001
 40
0.0
 40
0.0
 40
0.0
 40
0.0
 40
0.0625000000000002
 40
0.125
 40
0.1875000000000005
 40
0.2500000000003408
 40
0.3
 40
0.3500000000000004
 40
0.3999999999999999
 40
0.45
 40
0.500000000000015
 40
0.5499999999999998
 40
0.6000000000000001
 40
0.6500000000000001
 40
0.7000000000000002
 40
0.7499999999996597
 40
0.8124999999999998
 40
0.875
 40
0.9375000000000006
 40
1.0
 40
1.0
 40
1.0
 40
1.0
 10
89.53500000000153
 20
221.4033333333327
 30
0.0
 10
89.34721712750722
 20
221.4033333333327
 30
0.0
 10
88.98848935673479
 20
221.3814355502476
 30
0.0
 10
88.35684105311014
 20
221.2553629101236
 30
0.0
 10
87.68214643083027
 20
221.0011128092548
 30
0.0
 10
87.03750578570573
 20
220.6177663806321
 30
0.0
 10
86.45547798235876
 20
220.1040024131132
 30
0.0
 10
85.9906438852181
 20
219.5297281004405
 30
0.0
 10
85.59716755183705
 20
218.7944713089572
 30
0.0
 10
85.3628352682741
 20
218.0272320541687
 30
0.0
 10
85.2710823658635
 20
217.1699999999983
 30
0.0
 10
85.36283526827405
 20
216.3127679458275
 30
0.0
 10
85.59716755183707
 20
215.5455286910393
 30
0.0
 10
85.99064388521795
 20
214.8102718995559
 30
0.0
 10
86.45547798235853
 20
214.2359975868831
 30
0.0
 10
87.03750578570599
 20
213.7222336193642
 30
0.0
 10
87.68214643082993
 20
213.3388871907416
 30
0.0
 10
88.35684105310995
 20
213.0846370898723
 30
0.0
 10
88.9884893567348
 20
212.9585644497506
 30
0.0
 10
89.34721712750702
 20
212.936666666664
 30
0.0
 10
89.53500000000129
 20
212.936666666664
 30
0.0
  0
CIRCLE
  5
1D8
330
1F
100
AcDbEntity
  8
0
  6
Continuous
 62
     7
370
    25
100
AcDbCircle
 10
97.155
 20
263.3133333333
 30
0.0
 40
2.018087617223486
  0
CIRCLE
  5
1D9
330
1F
100
AcDbEntity
  8
0
  6
Continuous
 62
     7
370
    25
100
AcDbCircle
 10
51.0116666667
 20
217.17
 30
0.0
 40
2.018087617223472
  0
CIRCLE
  5
1DA
330
1F
100
AcDbEntity
  8
0
  6
Continuous
 62
     7
370
    25
100
AcDbCircle
 10
143.2983333333
 20
217.17
 30
0.0
 40
2.018087617223472
  0
CIRCLE
  5
1DB
330
1F
100
AcDbEntity
  8
0
  6
Continuous
 62
     7
370
    25
100
AcDbCircle
 10
97.155
 20
171.0266666667
 30
0.0
 40
2.018087617223472
  0
INSERT
  5
1E7
330
1F
100
AcDbEntity
  8
0
  6
Continuous
 62
     7
370
     0
100
AcDbBlockReference
  2
SW_CENTERMARKSYMBOL_0
 10
97.155
 20
217.17
 30
0.0
  0
INSERT
  5
1F3
330
1F
100
AcDbEntity
  8
0
  6
Continuous
 62
     7
370
     0
100
AcDbBlockReference
  2
SW_CENTERMARKSYMBOL_1
 10
99.0245269234
 20
217.17
 30
0.0
  0
ARC
  5
1F4
330
1F
100
AcDbEntity
  8
0
  6
Continuous
 62
     7
370
    25
100
AcDbCircle
 10
246.2669123828
 20
85.855898628
 30
0.0
 40
0.423333333333356
100
AcDbArc
 50
90.0
 51
210.0
  0
ARC
  5
1F5
330
1F
100
AcDbEntity
  8
0
  6
Continuous
 62
     7
370
    25
100
AcDbCircle
 10
250.3030876172
 20
85.855898628
 30
0.0
 40
0.4233333333333418
100
AcDbArc
 50
330.0
 51
90.0
  0
ARC
  5
1F6
330
1F
100
AcDbEntity
  8
0
  6
Continuous
 62
     7
370
    25
100
AcDbCircle
 10
250.3030876172
 20
75.8753919613
 30
0.0
 40
0.4233333333333418
100
AcDbArc
 50
270.0
 51
30.0
  0
ARC
  5
1F7
330
1F
100
AcDbEntity
  8
0
  6
Continuous
 62
     7
370
    25
100
AcDbCircle
 10
246.2669123828
 20
75.8753919613
 30
0.0
 40
0.423333333333332
100
AcDbArc
 50
150.0
 51
270.0
  0
LINE
  5
1F8
330
1F
100
AcDbEntity
  8
0
  6
Continuous
 62
     7
370
    25
100
AcDbLine
 10
245.9002949618
 20
85.6442319613
 30
0.0
 11
247.4400881297
 21
82.9772319613
 31
0.0
  0
LINE
  5
1F9
330
1F
100
AcDbEntity
  8
0
  6
Continuous
 62
     7
370
    25
100
AcDbLine
 10
249.1299118702
 20
82.9772319613
 30
0.0
 11
250.6697050381
 21
85.6442319613
 31
0.0
  0
LINE
  5
1FA
330
1F
100
AcDbEntity
  8
0
  6
Continuous
 62
     7
370
    25
100
AcDbLine
 10
250.6697050382
 20
76.087058628
 30
0.0
 11
249.1299118702
 21
78.754058628
 31
0.0
  0
LINE
  5
1FB
330
1F
100
AcDbEntity
  8
0
  6
Continuous
 62
     7
370
    25
100
AcDbLine
 10
247.4400881298
 20
78.754058628
 30
0.0
 11
245.9002949618
 21
76.087058628
 31
0.0
  0
SPLINE
  5
1FC
330
1F
100
AcDbEntity
  8
0
  6
Continuous
 62
     7
370
    25
100
AcDbSpline
210
0.0
220
0.0
230
1.0
 70
     8
 71
     3
 72
    14
 73
    10
 74
     0
 42
0.00000001
 43
0.00000001
 40
0.0
 40
0.0
 40
0.0
 40
0.0
 40
0.0493951644462614
 40
0.0914953843931406
 40
0.1427062342615063
 40
0.2348068237944915
 40
0.4065754909184214
 40
0.6688921762174914
 40
1.0
 40
1.0
 40
1.0
 40
1.0
 10
248.7083333333118
 20
82.13564529463297
 30
0.0
 10
248.7082267704346
 20
82.15129719788682
 30
0.0
 10
248.708029382461
 20
82.18028944683972
 30
0.0
 10
248.7085017479657
 20
82.2259660340095
 30
0.0
 10
248.7290698791264
 20
82.28200512189892
 30
0.0
 10
248.7781223937063
 20
82.36903396295547
 30
0.0
 10
248.8621955797573
 20
82.51346045493248
 30
0.0
 10
248.9849278707089
 20
82.72304301473527
 30
0.0
 10
249.0791142986426
 20
82.88619788284207
 30
0.0
 10
249.1316666666451
 20
82.97723196129964
 30
0.0
  0
SPLINE
  5
1FD
330
1F
100
AcDbEntity
  8
0
  6
Continuous
 62
     7
370
    25
100
AcDbSpline
210
0.0
220
0.0
230
1.0
 70
     8
 71
     3
 72
    15
 73
    11
 74
     0
 42
0.00000001
 43
0.00000001
 40
0.0
 40
0.0
 40
0.0
 40
0.0
 40
0.257274946511455
 40
0.4804104227597563
 40
0.6526499657550991
 40
0.7721239141171813
 40
0.8474341499098942
 40
0.9044668591655693
 40
0.9484726232612507
 40
0.9999999999999999
 40
0.9999999999999999
 40
0.9999999999999999
 40
0.9999999999999999
 10
247.4383333333118
 20
82.97723196129962
 30
0.0
 10
247.4791749571673
 20
82.90650852410361
 30
0.0
 10
247.5554386666681
 20
82.77444639826096
 30
0.0
 10
247.6596700551087
 20
82.59536673406323
 30
0.0
 10
247.7423013487669
 20
82.45442555568212
 30
0.0
 10
247.8008567623298
 20
82.35354581546875
 30
0.0
 10
247.8392070040279
 20
82.28369617735953
 30
0.0
 10
247.8609120804457
 20
82.23111496628532
 30
0.0
 10
247.8621234490078
 20
82.1822337448668
 30
0.0
 10
247.8618267150203
 20
82.15196905485418
 30
0.0
 10
247.8616666666452
 20
82.13564529463295
 30
0.0
  0
SPLINE
  5
1FE
330
1F
100
AcDbEntity
  8
0
  6
Continuous
 62
     7
370
    25
100
AcDbSpline
210
0.0
220
0.0
230
1.0
 70
     8
 71
     3
 72
    14
 73
    10
 74
     0
 42
0.00000001
 43
0.00000001
 40
0.0
 40
0.0
 40
0.0
 40
0.0
 40
0.0493951644462671
 40
0.0914953843931443
 40
0.1427062342615083
 40
0.2348068237944942
 40
0.4065754909184252
 40
0.6688921762174944
 40
1.0
 40
1.0
 40
1.0
 40
1.0
 10
247.8616666666669
 20
79.59564529463248
 30
0.0
 10
247.8617732295441
 20
79.57999339137862
 30
0.0
 10
247.8619706175176
 20
79.55100114242572
 30
0.0
 10
247.861498252013
 20
79.50532455525592
 30
0.0
 10
247.8409301208522
 20
79.44928546736652
 30
0.0
 10
247.7918776062723
 20
79.36225662630996
 30
0.0
 10
247.7078044202214
 20
79.21783013433296
 30
0.0
 10
247.5850721292697
 20
79.00824757453016
 30
0.0
 10
247.490885701336
 20
78.84509270642336
 30
0.0
 10
247.4383333333335
 20
78.7540586279658
 30
0.0
  0
SPLINE
  5
1FF
330
1F
100
AcDbEntity
  8
0
  6
Continuous
 62
     7
370
    25
100
AcDbSpline
210
0.0
220
0.0
230
1.0
 70
     8
 71
     3
 72
    15
 73
    11
 74
     0
 42
0.00000001
 43
0.00000001
 40
0.0
 40
0.0
 40
0.0
 40
0.0
 40
0.2572749465114552
 40
0.480410422759757
 40
0.6526499657550986
 40
0.7721239141171817
 40
0.8474341499098874
 40
0.9044668591655677
 40
0.9484726232612626
 40
1.0
 40
1.0
 40
1.0
 40
1.0
 10
249.1316666666669
 20
78.7540586279658
 30
0.0
 10
249.0908250428114
 20
78.8247820651618
 30
0.0
 10
249.0145613333106
 20
78.95684419100445
 30
0.0
 10
248.91032994487
 20
79.1359238552022
 30
0.0
 10
248.8276986512118
 20
79.2768650335833
 30
0.0
 10
248.7691432376488
 20
79.37774477379669
 30
0.0
 10
248.7307929959507
 20
79.44759441190588
 30
0.0
 10
248.7090879195329
 20
79.50017562298011
 30
0.0
 10
248.7078765509709
 20
79.54905684439863
 30
0.0
 10
248.7081732849583
 20
79.57932153441125
 30
0.0
 10
248.7083333333335
 20
79.59564529463248
 30
0.0
  0
LINE
  5
200
330
1F
100
AcDbEntity
  8
0
  6
Continuous
 62
     7
370
    25
100
AcDbLine
 10
248.7083333333
 20
80.8656452946
 30
0.0
 11
248.7083333333
 21
82.1356452946
 31
0.0
  0
LINE
  5
201
330
1F
100
AcDbEntity
  8
0
  6
Continuous
 62
     7
370
    25
100
AcDbLine
 10
248.7083333333
 20
79.5956452946
 30
0.0
 11
248.7083333333
 21
80.8656452946
 31
0.0
  0
LINE
  5
202
330
1F
100
AcDbEntity
  8
0
  6
Continuous
 62
     7
370
    25
100
AcDbLine
 10
247.8616666666
 20
80.8656452946
 30
0.0
 11
247.8616666666
 21
79.5956452946
 31
0.0
  0
LINE
  5
203
330
1F
100
AcDbEntity
  8
0
  6
Continuous
 62
     7
370
    25
100
AcDbLine
 10
247.8616666666
 20
82.1356452946
 30
0.0
 11
247.8616666666
 21
80.8656452946
 31
0.0
  0
LINE
  5
204
330
1F
100
AcDbEntity
  8
0
  6
Continuous
 62
     7
370
    25
100
AcDbLine
 10
247.5838530293
 20
144.0039345002
 30
0.0
 11
247.5838530293
 21
143.7283692149
 31
0.0
  0
LINE
  5
205
330
1F
100
AcDbEntity
  8
0
  6
Continuous
 62
     7
370
    25
100
AcDbLine
 10
248.9861469707
 20
143.7283692149
 30
0.0
 11
248.9861469707
 21
144.0039345002
 31
0.0
  0
LINE
  5
206
330
1F
100
AcDbEntity
  8
0
  6
Continuous
 62
     7
370
    25
100
AcDbLine
 10
247.7518303267
 20
143.7283692149
 30
0.0
 11
247.7518303267
 21
143.5925494236
 31
0.0
  0
LINE
  5
207
330
1F
100
AcDbEntity
  8
0
  6
Continuous
 62
     7
370
    25
100
AcDbLine
 10
248.8181696733
 20
143.5925494236
 30
0.0
 11
248.8181696733
 21
143.7283692149
 31
0.0
  0
LINE
  5
208
330
1F
100
AcDbEntity
  8
0
  6
Continuous
 62
     7
370
    25
100
AcDbLine
 10
248.7510886196
 20
143.139670628
 30
0.0
 11
248.6997900909
 21
143.190978628
 31
0.0
  0
LINE
  5
209
330
1F
100
AcDbEntity
  8
0
  6
Continuous
 62
     7
370
    25
100
AcDbLine
 10
247.8193333333
 20
143.140128117
 30
0.0
 11
247.8193333333
 21
141.793978628
 31
0.0
  0
LINE
  5
20A
330
1F
100
AcDbEntity
  8
0
  6
Continuous
 62
     7
370
    25
100
AcDbLine
 10
248.7506666667
 20
141.793978628
 30
0.0
 11
248.7506666667
 21
143.1400739016
 31
0.0
  0
LINE
  5
20B
330
1F
100
AcDbEntity
  8
0
  6
Continuous
 62
     7
370
    25
100
AcDbLine
 10
248.7083333333
 20
82.1356452948
 30
0.0
 11
248.7083333333
 21
82.185640035
 31
0.0
  0
LINE
  5
20C
330
1F
100
AcDbEntity
  8
0
  6
Continuous
 62
     7
370
    25
100
AcDbLine
 10
248.7083333333
 20
86.2792319613
 30
0.0
 11
248.7083333333
 21
141.793978628
 31
0.0
  0
LINE
  5
20D
330
1F
100
AcDbEntity
  8
0
  6
Continuous
 62
     7
370
    25
100
AcDbLine
 10
247.8616666667
 20
141.793978628
 30
0.0
 11
247.8616666667
 21
86.2792319613
 31
0.0
  0
LINE
  5
20E
330
1F
100
AcDbEntity
  8
0
  6
Continuous
 62
     7
370
    25
100
AcDbLine
 10
247.870158062
 20
143.190978628
 30
0.0
 11
247.81885312
 21
143.139670628
 31
0.0
  0
LINE
  5
20F
330
1F
100
AcDbEntity
  8
0
  6
Continuous
 62
     7
370
    25
100
AcDbLine
 10
248.0267296426
 20
143.2102586977
 30
0.0
 11
248.0071496854
 21
143.1923097669
 31
0.0
  0
LINE
  5
210
330
1F
100
AcDbEntity
  8
0
  6
Continuous
 62
     7
370
    25
100
AcDbLine
 10
248.5629628865
 20
143.1914851779
 30
0.0
 11
248.5439183937
 21
143.210808958
 31
0.0
  0
LINE
  5
211
330
1F
100
AcDbEntity
  8
0
  6
Continuous
 62
     7
370
    25
100
AcDbLine
 10
248.5474666667
 20
143.2093434082
 30
0.0
 11
248.5474666667
 21
143.5925494236
 31
0.0
  0
LINE
  5
212
330
1F
100
AcDbEntity
  8
0
  6
Continuous
 62
     7
370
    25
100
AcDbLine
 10
248.0225333333
 20
143.5925494236
 30
0.0
 11
248.0225333333
 21
143.2093434082
 31
0.0
  0
LWPOLYLINE
  5
213
330
1F
100
AcDbEntity
  8
0
  6
Continuous
 62
     7
370
    25
100
AcDbPolyline
 90
        3
 70
   128
 43
0.0
 10
244.6683222114
 20
145.7532832693
 10
245.4290951396
 20
145.2871148205
 10
246.1501416241
 20
144.8452256534
  0
SPLINE
  5
214
330
1F
100
AcDbEntity
  8
0
  6
Continuous
 62
     7
370
    25
100
AcDbSpline
210
0.0
220
0.0
230
1.0
 70
     8
 71
     3
 72
    31
 73
    27
 74
     0
 42
0.00000001
 43
0.00000001
 40
0.0
 40
0.0
 40
0.0
 40
0.0
 40
0.0254074327698516
 40
0.1037884325599702
 40
0.173256734545445
 40
0.2339288873933202
 40
0.2859799416160012
 40
0.322971486713367
 40
0.3544285292028387
 40
0.3807757732921989
 40
0.3976165397018003
 40
0.4124699671357486
 40
0.4260930544296205
 40
0.4401850424491386
 40
0.4713299859660105
 40
0.5065669442680376
 40
0.5460022139830009
 40
0.5873992827500124
 40
0.6305422676029551
 40
0.6772081189839778
 40
0.7288112544197639
 40
0.7864034988930735
 40
0.8373137857776579
 40
0.8928319323984217
 40
0.9531793686966826
 40
1.0
 40
1.0
 40
1.0
 40
1.0
 10
249.0455692762842
 20
144.0032653195633
 30
0.0
 10
249.0534396243901
 20
144.0081587691722
 30
0.0
 10
249.0855897082266
 20
144.0281483316485
 30
0.0
 10
249.1509701976078
 20
144.0676620769104
 30
0.0
 10
249.2391249526634
 20
144.1236122516399
 30
0.0
 10
249.3313138124496
 20
144.1825404468615
 30
0.0
 10
249.4228085764649
 20
144.240811707843
 30
0.0
 10
249.5127372732181
 20
144.2974332870328
 30
0.0
 10
249.5986216999825
 20
144.3508736383992
 30
0.0
 10
249.6820172348258
 20
144.4021546748841
 30
0.0
 10
249.7610334823572
 20
144.4502507884755
 30
0.0
 10
249.8327724649572
 20
144.4936292660568
 30
0.0
 10
249.9098687665197
 20
144.5398925539765
 30
0.0
 10
250.0155688260445
 20
144.6034842207949
 30
0.0
 10
250.1569184341277
 20
144.6889743384319
 30
0.0
 10
250.3372807407306
 20
144.7985399440542
 30
0.0
 10
250.5331908697799
 20
144.9178188160959
 30
0.0
 10
250.7262078670038
 20
145.0356845081584
 30
0.0
 10
250.8926863657263
 20
145.1375897427486
 30
0.0
 10
251.0323613792212
 20
145.2232000616587
 30
0.0
 10
251.1451861291358
 20
145.2924772384559
 30
0.0
 10
251.2253563056965
 20
145.3418408324086
 30
0.0
 10
251.2806669476392
 20
145.3760537486615
 30
0.0
 10
251.3155332768885
 20
145.397819306349
 30
0.0
 10
251.3338995344293
 20
145.4095301379673
 30
0.0
 10
251.3339786204361
 20
145.4099460031886
 30
0.0
 10
251.3340131723026
 20
145.4101276904452
 30
0.0
  0
SPLINE
  5
215
330
1F
100
AcDbEntity
  8
0
  6
Continuous
 62
     7
370
    25
100
AcDbSpline
210
0.0
220
0.0
230
1.0
 70
     8
 71
     3
 72
    27
 73
    23
 74
     0
 42
0.00000001
 43
0.00000001
 40
0.0
 40
0.0
 40
0.0
 40
0.0
 40
0.0137892991050803
 40
0.0619854424174586
 40
0.1115627305847443
 40
0.1602457344861377
 40
0.2017534444404889
 40
0.2358105165460126
 40
0.262557751324061
 40
0.27346111829654
 40
0.2879387356277821
 40
0.3070032929739434
 40
0.3310842229111384
 40
0.3713387213469864
 40
0.4211339299534021
 40
0.480602221876391
 40
0.5498205014475677
 40
0.6288372190514427
 40
0.7176848042564978
 40
0.8163859986970928
 40
0.9249573492373115
 40
1.0
 40
1.0
 40
1.0
 40
1.0
 10
249.0186351555802
 20
144.0038137828212
 30
0.0
 10
249.0547637000302
 20
144.0254919907495
 30
0.0
 10
249.2171681699428
 20
144.1229395331528
 30
0.0
 10
249.5084397115197
 20
144.2985765308606
 30
0.0
 10
249.8894382246262
 20
144.5287518282844
 30
0.0
 10
250.2508813988699
 20
144.7476683732581
 30
0.0
 10
250.5711735254289
 20
144.9420010316001
 30
0.0
 10
250.8301540691376
 20
145.0994132796649
 30
0.0
 10
251.0130698090946
 20
145.2107174025666
 30
0.0
 10
251.1321544002893
 20
145.2833262306878
 30
0.0
 10
251.1990413651004
 20
145.3242366627033
 30
0.0
 10
251.2653463667204
 20
145.364840183276
 30
0.0
 10
251.33836259315
 20
145.4096199429387
 30
0.0
 10
251.4147234351525
 20
145.4564969764724
 30
0.0
 10
251.4923753326169
 20
145.504170357222
 30
0.0
 10
251.5665698137774
 20
145.5496480252164
 30
0.0
 10
251.6371726779226
 20
145.5927820354143
 30
0.0
 10
251.7040955506058
 20
145.6334888837464
 30
0.0
 10
251.7673269998582
 20
145.6718098969699
 30
0.0
 10
251.8264605674428
 20
145.7076267170227
 30
0.0
 10
251.8752775939079
 20
145.7372499926686
 30
0.0
 10
251.9012734366677
 20
145.7530913199589
 30
0.0
 10
251.9118978821656
 20
145.7595656366397
 30
0.0
  0
ARC
  5
216
330
1F
100
AcDbEntity
  8
0
  6
Continuous
 62
     7
370
    25
100
AcDbCircle
 10
200.1235790494
 20
85.855898628
 30
0.0
 40
0.4233333333333665
100
AcDbArc
 50
90.0
 51
210.0
  0
ARC
  5
217
330
1F
100
AcDbEntity
  8
0
  6
Continuous
 62
     7
370
    25
100
AcDbCircle
 10
204.1597542839
 20
85.855898628
 30
0.0
 40
0.4233333333333418
100
AcDbArc
 50
330.0
 51
90.0
  0
ARC
  5
218
330
1F
100
AcDbEntity
  8
0
  6
Continuous
 62
     7
370
    25
100
AcDbCircle
 10
204.1597542839
 20
75.8753919613
 30
0.0
 40
0.4233333333333665
100
AcDbArc
 50
270.0
 51
30.0
  0
ARC
  5
219
330
1F
100
AcDbEntity
  8
0
  6
Continuous
 62
     7
370
    25
100
AcDbCircle
 10
200.1235790494
 20
75.8753919613
 30
0.0
 40
0.4233333333333665
100
AcDbArc
 50
150.0
 51
270.0
  0
ARC
  5
21A
330
1F
100
AcDbEntity
  8
0
  6
Continuous
 62
     7
370
    25
100
AcDbCircle
 10
296.4464209506
 20
75.8753919613
 30
0.0
 40
0.4233333333333418
100
AcDbArc
 50
270.0
 51
30.0
  0
ARC
  5
21B
330
1F
100
AcDbEntity
  8
0
  6
Continuous
 62
     7
370
    25
100
AcDbCircle
 10
292.4102457161
 20
75.8753919613
 30
0.0
 40
0.4233333333333911
100
AcDbArc
 50
150.0
 51
270.0
  0
ARC
  5
21C
330
1F
100
AcDbEntity
  8
0
  6
Continuous
 62
     7
370
    25
100
AcDbCircle
 10
292.4102457161
 20
85.855898628
 30
0.0
 40
0.4233333333333489
100
AcDbArc
 50
90.0
 51
210.0
  0
ARC
  5
21D
330
1F
100
AcDbEntity
  8
0
  6
Continuous
 62
     7
370
    25
100
AcDbCircle
 10
296.4464209506
 20
85.855898628
 30
0.0
 40
0.4233333333333489
100
AcDbArc
 50
330.0
 51
90.0
  0
ARC
  5
21E
330
1F
100
AcDbEntity
  8
0
  6
Continuous
 62
     7
370
    25
100
AcDbCircle
 10
250.3030876172
 20
63.8527252946
 30
0.0
 40
0.4233333333333249
100
AcDbArc
 50
270.0
 51
30.0
  0
ARC
  5
21F
330
1F
100
AcDbEntity
  8
0
  6
Continuous
 62
     7
370
    25
100
AcDbCircle
 10
246.2669123828
 20
63.8527252946
 30
0.0
 40
0.4233333333333249
100
AcDbArc
 50
150.0
 51
270.0
  0
ARC
  5
220
330
1F
100
AcDbEntity
  8
0
  6
Continuous
 62
     7
370
    25
100
AcDbCircle
 10
246.2669123828
 20
94.6104319613
 30
0.0
 40
0.423333333333332
100
AcDbArc
 50
90.0
 51
210.0
  0
ARC
  5
221
330
1F
100
AcDbEntity
  8
0
  6
Continuous
 62
     7
370
    25
100
AcDbCircle
 10
250.3030876172
 20
94.6104319613
 30
0.0
 40
0.4233333333333462
100
AcDbArc
 50
330.0
 51
90.0
  0
LINE
  5
222
330
1F
100
AcDbEntity
  8
0
  6
Continuous
 62
     7
370
    25
100
AcDbLine
 10
199.7569616285
 20
85.6442319613
 30
0.0
 11
201.2967547964
 21
82.9772319613
 31
0.0
  0
LINE
  5
223
330
1F
100
AcDbEntity
  8
0
  6
Continuous
 62
     7
370
    25
100
AcDbLine
 10
202.9865785369
 20
82.9772319613
 30
0.0
 11
204.5263717048
 21
85.6442319613
 31
0.0
  0
LINE
  5
224
330
1F
100
AcDbEntity
  8
0
  6
Continuous
 62
     7
370
    25
100
AcDbLine
 10
204.5263717048
 20
76.087058628
 30
0.0
 11
202.9865785369
 21
78.754058628
 31
0.0
  0
LINE
  5
225
330
1F
100
AcDbEntity
  8
0
  6
Continuous
 62
     7
370
    25
100
AcDbLine
 10
201.2967547964
 20
78.754058628
 30
0.0
 11
199.7569616285
 21
76.087058628
 31
0.0
  0
LINE
  5
226
330
1F
100
AcDbEntity
  8
0
  6
Continuous
 62
     7
370
    25
100
AcDbLine
 10
296.8130383715
 20
76.087058628
 30
0.0
 11
295.2732452036
 21
78.754058628
 31
0.0
  0
LINE
  5
227
330
1F
100
AcDbEntity
  8
0
  6
Continuous
 62
     7
370
    25
100
AcDbLine
 10
293.5834214631
 20
78.754058628
 30
0.0
 11
292.0436282952
 21
76.087058628
 31
0.0
  0
LINE
  5
228
330
1F
100
AcDbEntity
  8
0
  6
Continuous
 62
     7
370
    25
100
AcDbLine
 10
292.0436282952
 20
85.6442319613
 30
0.0
 11
293.5834214631
 21
82.9772319613
 31
0.0
  0
LINE
  5
229
330
1F
100
AcDbEntity
  8
0
  6
Continuous
 62
     7
370
    25
100
AcDbLine
 10
295.2732452036
 20
82.9772319613
 30
0.0
 11
296.8130383715
 21
85.6442319613
 31
0.0
  0
LINE
  5
22A
330
1F
100
AcDbEntity
  8
0
  6
Continuous
 62
     7
370
    25
100
AcDbLine
 10
250.6697050381
 20
64.0643919613
 30
0.0
 11
249.1299118702
 21
66.7313919613
 31
0.0
  0
LINE
  5
22B
330
1F
100
AcDbEntity
  8
0
  6
Continuous
 62
     7
370
    25
100
AcDbLine
 10
247.4400881298
 20
66.7313919613
 30
0.0
 11
245.9002949618
 21
64.0643919613
 31
0.0
  0
LINE
  5
22C
330
1F
100
AcDbEntity
  8
0
  6
Continuous
 62
     7
370
    25
100
AcDbLine
 10
245.9002949618
 20
94.3987652946
 30
0.0
 11
247.4400881298
 21
91.7317652946
 31
0.0
  0
LINE
  5
22D
330
1F
100
AcDbEntity
  8
0
  6
Continuous
 62
     7
370
    25
100
AcDbLine
 10
249.1299118702
 20
91.7317652946
 30
0.0
 11
250.6697050381
 21
94.3987652946
 31
0.0
  0
SPLINE
  5
22E
330
1F
100
AcDbEntity
  8
0
  6
Continuous
 62
     7
370
    25
100
AcDbSpline
210
0.0
220
0.0
230
1.0
 70
     8
 71
     3
 72
    14
 73
    10
 74
     0
 42
0.00000001
 43
0.00000001
 40
0.0
 40
0.0
 40
0.0
 40
0.0
 40
0.0493951644462593
 40
0.0914953843931422
 40
0.1427062342615073
 40
0.234806823794488
 40
0.4065754909184185
 40
0.6688921762174846
 40
1.0
 40
1.0
 40
1.0
 40
1.0
 10
202.5649999999999
 20
82.135645294633
 30
0.0
 10
202.5648934371226
 20
82.15129719788683
 30
0.0
 10
202.5646960491491
 20
82.18028944683972
 30
0.0
 10
202.5651684146537
 20
82.22596603400953
 30
0.0
 10
202.5857365458145
 20
82.28200512189895
 30
0.0
 10
202.6347890603943
 20
82.3690339629555
 30
0.0
 10
202.7188622464454
 20
82.51346045493251
 30
0.0
 10
202.8415945373969
 20
82.7230430147353
 30
0.0
 10
202.9357809653307
 20
82.8861978828421
 30
0.0
 10
202.9883333333332
 20
82.97723196129967
 30
0.0
  0
SPLINE
  5
22F
330
1F
100
AcDbEntity
  8
0
  6
Continuous
 62
     7
370
    25
100
AcDbSpline
210
0.0
220
0.0
230
1.0
 70
     8
 71
     3
 72
    15
 73
    11
 74
     0
 42
0.00000001
 43
0.00000001
 40
0.0
 40
0.0
 40
0.0
 40
0.0
 40
0.2572749465114527
 40
0.4804104227597555
 40
0.6526499657550925
 40
0.772123914117181
 40
0.8474341499098834
 40
0.9044668591655706
 40
0.9484726232612507
 40
1.0
 40
1.0
 40
1.0
 40
1.0
 10
201.2949999999999
 20
82.97723196129967
 30
0.0
 10
201.3358416238553
 20
82.90650852410364
 30
0.0
 10
201.4121053333561
 20
82.774446398261
 30
0.0
 10
201.5163367217967
 20
82.59536673406326
 30
0.0
 10
201.598968015455
 20
82.45442555568215
 30
0.0
 10
201.6575234290179
 20
82.35354581546878
 30
0.0
 10
201.6958736707159
 20
82.28369617735956
 30
0.0
 10
201.7175787471338
 20
82.23111496628535
 30
0.0
 10
201.7187901156959
 20
82.18223374486683
 30
0.0
 10
201.7184933817084
 20
82.1519690548542
 30
0.0
 10
201.7183333333332
 20
82.135645294633
 30
0.0
  0
SPLINE
  5
230
330
1F
100
AcDbEntity
  8
0
  6
Continuous
 62
     7
370
    25
100
AcDbSpline
210
0.0
220
0.0
230
1.0
 70
     8
 71
     3
 72
    14
 73
    10
 74
     0
 42
0.00000001
 43
0.00000001
 40
0.0
 40
0.0
 40
0.0
 40
0.0
 40
0.0493951644462635
 40
0.0914953843931486
 40
0.1427062342615102
 40
0.2348068237944949
 40
0.406575490918418
 40
0.6688921762174922
 40
1.0
 40
1.0
 40
1.0
 40
1.0
 10
294.0050000000001
 20
79.59564529463343
 30
0.0
 10
294.0051065628772
 20
79.57999339137957
 30
0.0
 10
294.0053039508508
 20
79.55100114242667
 30
0.0
 10
294.0048315853462
 20
79.50532455525688
 30
0.0
 10
293.9842634541855
 20
79.44928546736747
 30
0.0
 10
293.9352109396056
 20
79.36225662631088
 30
0.0
 10
293.8511377535546
 20
79.2178301343339
 30
0.0
 10
293.728405462603
 20
79.00824757453111
 30
0.0
 10
293.6342190346692
 20
78.84509270642428
 30
0.0
 10
293.5816666666668
 20
78.75405862796676
 30
0.0
  0
SPLINE
  5
231
330
1F
100
AcDbEntity
  8
0
  6
Continuous
 62
     7
370
    25
100
AcDbSpline
210
0.0
220
0.0
230
1.0
 70
     8
 71
     3
 72
    15
 73
    11
 74
     0
 42
0.00000001
 43
0.00000001
 40
0.0
 40
0.0
 40
0.0
 40
0.0
 40
0.2572749465114594
 40
0.4804104227597558
 40
0.652649965755094
 40
0.7721239141171808
 40
0.8474341499098839
 40
0.9044668591655691
 40
0.9484726232612621
 40
1.0
 40
1.0
 40
1.0
 40
1.0
 10
295.2750000000001
 20
78.75405862796677
 30
0.0
 10
295.2341583761446
 20
78.82478206516278
 30
0.0
 10
295.1578946666438
 20
78.9568441910054
 30
0.0
 10
295.0536632782032
 20
79.13592385520316
 30
0.0
 10
294.971031984545
 20
79.27686503358426
 30
0.0
 10
294.912476570982
 20
79.37774477379763
 30
0.0
 10
294.874126329284
 20
79.44759441190685
 30
0.0
 10
294.8524212528661
 20
79.50017562298105
 30
0.0
 10
294.851209884304
 20
79.5490568443996
 30
0.0
 10
294.8515066182915
 20
79.5793215344122
 30
0.0
 10
294.8516666666667
 20
79.59564529463343
 30
0.0
  0
SPLINE
  5
232
330
1F
100
AcDbEntity
  8
0
  6
Continuous
 62
     7
370
    25
100
AcDbSpline
210
0.0
220
0.0
230
1.0
 70
     8
 71
     3
 72
    14
 73
    10
 74
     0
 42
0.00000001
 43
0.00000001
 40
0.0
 40
0.0
 40
0.0
 40
0.0
 40
0.0493951644462634
 40
0.0914953843931446
 40
0.1427062342615099
 40
0.2348068237944946
 40
0.4065754909184165
 40
0.6688921762174926
 40
1.0
 40
1.0
 40
1.0
 40
1.0
 10
294.8516666666667
 20
82.13564529463342
 30
0.0
 10
294.8515601037894
 20
82.15129719788727
 30
0.0
 10
294.8513627158159
 20
82.18028944684016
 30
0.0
 10
294.8518350813206
 20
82.22596603400997
 30
0.0
 10
294.8724032124813
 20
82.28200512189937
 30
0.0
 10
294.9214557270612
 20
82.36903396295594
 30
0.0
 10
295.0055289131121
 20
82.51346045493297
 30
0.0
 10
295.1282612040638
 20
82.72304301473574
 30
0.0
 10
295.2224476319975
 20
82.88619788284254
 30
0.0
 10
295.275
 20
82.9772319613001
 30
0.0
  0
SPLINE
  5
233
330
1F
100
AcDbEntity
  8
0
  6
Continuous
 62
     7
370
    25
100
AcDbSpline
210
0.0
220
0.0
230
1.0
 70
     8
 71
     3
 72
    15
 73
    11
 74
     0
 42
0.00000001
 43
0.00000001
 40
0.0
 40
0.0
 40
0.0
 40
0.0
 40
0.2572749465114526
 40
0.4804104227597631
 40
0.6526499657550985
 40
0.7721239141171791
 40
0.8474341499098994
 40
0.9044668591655719
 40
0.9484726232612528
 40
1.0
 40
1.0
 40
1.0
 40
1.0
 10
293.5816666666667
 20
82.97723196130008
 30
0.0
 10
293.6225082905221
 20
82.90650852410408
 30
0.0
 10
293.6987720000229
 20
82.77444639826143
 30
0.0
 10
293.8030033884635
 20
82.59536673406369
 30
0.0
 10
293.8856346821217
 20
82.45442555568259
 30
0.0
 10
293.9441900956847
 20
82.35354581546919
 30
0.0
 10
293.9825403373828
 20
82.28369617736
 30
0.0
 10
294.0042454138006
 20
82.23111496628579
 30
0.0
 10
294.0054567823627
 20
82.18223374486726
 30
0.0
 10
294.0051600483752
 20
82.15196905485465
 30
0.0
 10
294.005
 20
82.1356452946334
 30
0.0
  0
SPLINE
  5
234
330
1F
100
AcDbEntity
  8
0
  6
Continuous
 62
     7
370
    25
100
AcDbSpline
210
0.0
220
0.0
230
1.0
 70
     8
 71
     3
 72
    14
 73
    10
 74
     0
 42
0.00000001
 43
0.00000001
 40
0.0
 40
0.0
 40
0.0
 40
0.0
 40
0.0493951644462673
 40
0.0914953843931408
 40
0.1427062342615099
 40
0.2348068237944912
 40
0.4065754909184211
 40
0.6688921762174922
 40
1.0
 40
1.0
 40
1.0
 40
1.0
 10
201.7183333333332
 20
79.59564529463296
 30
0.0
 10
201.7184398962104
 20
79.5799933913791
 30
0.0
 10
201.718637284184
 20
79.55100114242622
 30
0.0
 10
201.7181649186793
 20
79.50532455525641
 30
0.0
 10
201.6975967875186
 20
79.44928546736702
 30
0.0
 10
201.6485442729387
 20
79.36225662631044
 30
0.0
 10
201.5644710868877
 20
79.21783013433344
 30
0.0
 10
201.4417387959361
 20
79.00824757453066
 30
0.0
 10
201.3475523680024
 20
78.84509270642384
 30
0.0
 10
201.2949999999999
 20
78.75405862796629
 30
0.0
  0
SPLINE
  5
235
330
1F
100
AcDbEntity
  8
0
  6
Continuous
 62
     7
370
    25
100
AcDbSpline
210
0.0
220
0.0
230
1.0
 70
     8
 71
     3
 72
    15
 73
    11
 74
     0
 42
0.00000001
 43
0.00000001
 40
0.0
 40
0.0
 40
0.0
 40
0.0
 40
0.2572749465114538
 40
0.4804104227597627
 40
0.6526499657550959
 40
0.7721239141171823
 40
0.8474341499098885
 40
0.9044668591655733
 40
0.9484726232612627
 40
1.0
 40
1.0
 40
1.0
 40
1.0
 10
202.9883333333332
 20
78.75405862796629
 30
0.0
 10
202.9474917094778
 20
78.82478206516228
 30
0.0
 10
202.8712279999769
 20
78.95684419100493
 30
0.0
 10
202.7669966115363
 20
79.13592385520268
 30
0.0
 10
202.6843653178781
 20
79.27686503358379
 30
0.0
 10
202.6258099043152
 20
79.37774477379718
 30
0.0
 10
202.5874596626171
 20
79.44759441190638
 30
0.0
 10
202.5657545861993
 20
79.50017562298059
 30
0.0
 10
202.5645432176373
 20
79.54905684439913
 30
0.0
 10
202.5648399516247
 20
79.57932153441175
 30
0.0
 10
202.5649999999999
 20
79.59564529463296
 30
0.0
  0
SPLINE
  5
236
330
1F
100
AcDbEntity
  8
0
  6
Continuous
 62
     7
370
    25
100
AcDbSpline
210
0.0
220
0.0
230
1.0
 70
     8
 71
     3
 72
    14
 73
    10
 74
     0
 42
0.00000001
 43
0.00000001
 40
0.0
 40
0.0
 40
0.0
 40
0.0
 40
0.0493951644462632
 40
0.0914953843931405
 40
0.1427062342615045
 40
0.2348068237944939
 40
0.4065754909184215
 40
0.668892176217491
 40
1.0
 40
1.0
 40
1.0
 40
1.0
 10
247.8616666666553
 20
67.57297862796446
 30
0.0
 10
247.8617732295325
 20
67.55732672471062
 30
0.0
 10
247.861970617506
 20
67.52833447575772
 30
0.0
 10
247.8614982520014
 20
67.48265788858792
 30
0.0
 10
247.8409301208407
 20
67.42661880069853
 30
0.0
 10
247.7918776062607
 20
67.33958995964196
 30
0.0
 10
247.7078044202098
 20
67.19516346766494
 30
0.0
 10
247.5850721292582
 20
66.98558090786216
 30
0.0
 10
247.4908857013245
 20
66.82242603975536
 30
0.0
 10
247.4383333333219
 20
66.73139196129779
 30
0.0
  0
SPLINE
  5
237
330
1F
100
AcDbEntity
  8
0
  6
Continuous
 62
     7
370
    25
100
AcDbSpline
210
0.0
220
0.0
230
1.0
 70
     8
 71
     3
 72
    15
 73
    11
 74
     0
 42
0.00000001
 43
0.00000001
 40
0.0
 40
0.0
 40
0.0
 40
0.0
 40
0.2572749465114518
 40
0.4804104227597601
 40
0.652649965755095
 40
0.7721239141171815
 40
0.8474341499098839
 40
0.9044668591655678
 40
0.9484726232612626
 40
1.0
 40
1.0
 40
1.0
 40
1.0
 10
249.1316666666553
 20
66.73139196129779
 30
0.0
 10
249.0908250427998
 20
66.8021153984938
 30
0.0
 10
249.014561333299
 20
66.93417752433645
 30
0.0
 10
248.9103299448584
 20
67.11325718853419
 30
0.0
 10
248.8276986512002
 20
67.25419836691532
 30
0.0
 10
248.7691432376373
 20
67.35507810712868
 30
0.0
 10
248.7307929959391
 20
67.42492774523788
 30
0.0
 10
248.7090879195214
 20
67.47750895631209
 30
0.0
 10
248.7078765509593
 20
67.52639017773063
 30
0.0
 10
248.7081732849468
 20
67.55665486774325
 30
0.0
 10
248.7083333333219
 20
67.57297862796446
 30
0.0
  0
SPLINE
  5
238
330
1F
100
AcDbEntity
  8
0
  6
Continuous
 62
     7
370
    25
100
AcDbSpline
210
0.0
220
0.0
230
1.0
 70
     8
 71
     3
 72
    13
 73
     9
 74
     0
 42
0.00000001
 43
0.00000001
 40
0.0
 40
0.0
 40
0.0
 40
0.0
 40
0.0411541208489491
 40
0.0952026215616333
 40
0.1924066084473766
 40
0.3736931707936041
 40
0.6505451189409097
 40
1.0
 40
1.0
 40
1.0
 40
1.0
 10
248.708333333333
 20
90.94017336849735
 30
0.0
 10
248.7084475265935
 20
90.952626442323
 30
0.0
 10
248.7087116920657
 20
90.9814343782051
 30
0.0
 10
248.7291452909285
 20
91.03654068561661
 30
0.0
 10
248.7780739188582
 20
91.12356586259004
 30
0.0
 10
248.8622209309378
 20
91.26799453805258
 30
0.0
 10
248.9849182035915
 20
91.4775760621509
 30
0.0
 10
249.0791108365113
 20
91.64073111377697
 30
0.0
 10
249.1316666666551
 20
91.73176529463113
 30
0.0
  0
SPLINE
  5
239
330
1F
100
AcDbEntity
  8
0
  6
Continuous
 62
     7
370
    25
100
AcDbSpline
210
0.0
220
0.0
230
1.0
 70
     8
 71
     3
 72
    14
 73
    10
 74
     0
 42
0.00000001
 43
0.00000001
 40
0.0
 40
0.0
 40
0.0
 40
0.0
 40
0.2719726801099167
 40
0.5078555529886858
 40
0.6899348839322615
 40
0.8162342005969834
 40
0.8958467977269615
 40
0.9561377005160762
 40
0.9999999999999999
 40
0.9999999999999999
 40
0.9999999999999999
 40
0.9999999999999999
 10
247.4383333333218
 20
91.73176529463113
 30
0.0
 10
247.4791742241748
 20
91.66104189474189
 30
0.0
 10
247.5554365649377
 20
91.5289798385623
 30
0.0
 10
247.6596765104744
 20
91.34989973884404
 30
0.0
 10
247.7422854342651
 20
91.2089596989959
 30
0.0
 10
247.8008906101625
 20
91.10807742608725
 30
0.0
 10
247.8391381063456
 20
91.03823301729622
 30
0.0
 10
247.8607725705677
 20
90.986389193593
 30
0.0
 10
247.8614017139392
 20
90.95489911305054
 30
0.0
 10
247.8616666666664
 20
90.94163761639578
 30
0.0
  0
LINE
  5
23A
330
1F
100
AcDbEntity
  8
0
  6
Continuous
 62
     7
370
    25
100
AcDbLine
 10
202.565
 20
80.4423119613
 30
0.0
 11
247.8616666667
 21
80.4423119613
 31
0.0
  0
LINE
  5
23B
330
1F
100
AcDbEntity
  8
0
  6
Continuous
 62
     7
370
    25
100
AcDbLine
 10
247.8616666667
 20
81.288978628
 30
0.0
 11
202.565
 21
81.288978628
 31
0.0
  0
LINE
  5
23C
330
1F
100
AcDbEntity
  8
0
  6
Continuous
 62
     7
370
    25
100
AcDbLine
 10
201.7183333333
 20
82.1356452946
 30
0.0
 11
201.7183333333
 21
79.5956452946
 31
0.0
  0
LINE
  5
23D
330
1F
100
AcDbEntity
  8
0
  6
Continuous
 62
     7
370
    25
100
AcDbLine
 10
202.565
 20
81.288978628
 30
0.0
 11
202.565
 21
82.1356452946
 31
0.0
  0
LINE
  5
23E
330
1F
100
AcDbEntity
  8
0
  6
Continuous
 62
     7
370
    25
100
AcDbLine
 10
202.565
 20
79.5956452946
 30
0.0
 11
202.565
 21
80.4423119613
 31
0.0
  0
LINE
  5
23F
330
1F
100
AcDbEntity
  8
0
  6
Continuous
 62
     7
370
    25
100
AcDbLine
 10
248.7083333333
 20
80.4423119613
 30
0.0
 11
294.005
 21
80.4423119613
 31
0.0
  0
LINE
  5
240
330
1F
100
AcDbEntity
  8
0
  6
Continuous
 62
     7
370
    25
100
AcDbLine
 10
294.005
 20
81.288978628
 30
0.0
 11
248.7083333333
 21
81.288978628
 31
0.0
  0
LINE
  5
241
330
1F
100
AcDbEntity
  8
0
  6
Continuous
 62
     7
370
    25
100
AcDbLine
 10
247.8616666667
 20
75.452058628
 30
0.0
 11
247.8616666667
 21
67.572978628
 31
0.0
  0
LINE
  5
242
330
1F
100
AcDbEntity
  8
0
  6
Continuous
 62
     7
370
    25
100
AcDbLine
 10
248.7083333333
 20
67.572978628
 30
0.0
 11
248.7083333333
 21
75.452058628
 31
0.0
  0
LINE
  5
243
330
1F
100
AcDbEntity
  8
0
  6
Continuous
 62
     7
370
    25
100
AcDbLine
 10
294.8516666667
 20
79.5956452946
 30
0.0
 11
294.8516666667
 21
82.1356452946
 31
0.0
  0
LINE
  5
244
330
1F
100
AcDbEntity
  8
0
  6
Continuous
 62
     7
370
    25
100
AcDbLine
 10
294.005
 20
80.4423119613
 30
0.0
 11
294.005
 21
79.5956452946
 31
0.0
  0
LINE
  5
245
330
1F
100
AcDbEntity
  8
0
  6
Continuous
 62
     7
370
    25
100
AcDbLine
 10
294.005
 20
82.1356452946
 30
0.0
 11
294.005
 21
81.288978628
 31
0.0
  0
LINE
  5
246
330
1F
100
AcDbEntity
  8
0
  6
Continuous
 62
     7
370
    25
100
AcDbLine
 10
246.2669123844
 20
86.2792319613
 30
0.0
 11
250.3030876172
 21
86.2792319613
 31
0.0
  0
LINE
  5
247
330
1F
100
AcDbEntity
  8
0
  6
Continuous
 62
     7
370
    25
100
AcDbLine
 10
248.285
 20
75.452058628
 30
0.0
 11
246.2669123828
 21
75.452058628
 31
0.0
  0
LINE
  5
248
330
1F
100
AcDbEntity
  8
0
  6
Continuous
 62
     7
370
    25
100
AcDbLine
 10
250.3030876172
 20
75.452058628
 30
0.0
 11
248.285
 21
75.452058628
 31
0.0
  0
LINE
  5
249
330
1F
100
AcDbEntity
  8
0
  6
Continuous
 62
     7
370
    25
100
AcDbLine
 10
249.1316666646
 20
82.9772319613
 30
0.0
 11
247.4383333356
 21
82.9772319613
 31
0.0
  0
LINE
  5
24A
330
1F
100
AcDbEntity
  8
0
  6
Continuous
 62
     7
370
    25
100
AcDbLine
 10
247.4383333333
 20
78.754058628
 30
0.0
 11
249.1316666665
 21
78.754058628
 31
0.0
  0
SPLINE
  5
24B
330
1F
100
AcDbEntity
  8
0
  6
Continuous
 62
     7
370
    25
100
AcDbSpline
210
0.0
220
0.0
230
1.0
 70
    24
 71
     3
 72
    25
 73
    21
 74
     0
 42
0.00000001
 43
0.00000001
 40
0.0
 40
0.0
 40
0.0
 40
0.0
 40
0.0624999999999996
 40
0.125
 40
0.1875000000000007
 40
0.2500000000003404
 40
0.2999999999999999
 40
0.3499999999999999
 40
0.4
 40
0.45
 40
0.4999999999999921
 40
0.55
 40
0.5999999999999999
 40
0.65
 40
0.6999999999999996
 40
0.7499999999996595
 40
0.8124999999999997
 40
0.875
 40
0.9375000000000001
 40
1.0
 40
1.0
 40
1.0
 40
1.0
 10
244.0516666666648
 20
146.8424044765145
 30
0.0
 10
244.0516666666648
 20
146.8424044765145
 30
0.0
 10
244.0735644497511
 20
146.8424044765126
 30
0.0
 10
244.1996370898656
 20
146.8424044765134
 30
0.0
 10
244.4538871907704
 20
146.842404476514
 30
0.0
 10
244.8372336192672
 20
146.8424044765139
 30
0.0
 10
245.350997587167
 20
146.8424044765143
 30
0.0
 10
245.9252718984899
 20
146.8424044765132
 30
0.0
 10
246.6605286950195
 20
146.8424044765146
 30
0.0
 10
247.4277679309739
 20
146.8424044765135
 30
0.0
 10
248.2850000554323
 20
146.8424044765141
 30
0.0
 10
249.1422318472851
 20
146.8424044765138
 30
0.0
 10
249.9094720810568
 20
146.842404476514
 30
0.0
 10
250.6447252189238
 20
146.8424044765143
 30
0.0
 10
251.2190131670774
 20
146.8424044765139
 30
0.0
 10
251.7327220055973
 20
146.842404476515
 30
0.0
 10
252.1163251224725
 20
146.8424044765133
 30
0.0
 10
252.3695763671612
 20
146.8424044765148
 30
0.0
 10
252.4993694088722
 20
146.8424044765142
 30
0.0
 10
252.512012025179
 20
146.8424044765138
 30
0.0
 10
252.5183333333325
 20
146.8424044765135
 30
0.0
  0
ARC
  5
24C
330
1F
100
AcDbEntity
  8
0
  6
Continuous
 62
     7
370
    25
100
AcDbCircle
 10
251.2483333333
 20
146.8424044765
 30
0.0
 40
1.270000000000039
100
AcDbArc
 50
301.5
 51
360.0
  0
SPLINE
  5
24D
330
1F
100
AcDbEntity
  8
0
  6
Continuous
 62
     7
370
    25
100
AcDbSpline
210
0.0
220
0.0
230
1.0
 70
    24
 71
     3
 72
    25
 73
    21
 74
     0
 42
0.00000001
 43
0.00000001
 40
0.0
 40
0.0
 40
0.0
 40
0.0
 40
0.0624999999999996
 40
0.125
 40
0.1875000000000007
 40
0.2500000000003404
 40
0.2999999999999999
 40
0.3499999999999999
 40
0.4
 40
0.45
 40
0.4999999999999921
 40
0.55
 40
0.5999999999999999
 40
0.65
 40
0.6999999999999996
 40
0.7499999999996595
 40
0.8124999999999997
 40
0.875
 40
0.9375000000000001
 40
1.0
 40
1.0
 40
1.0
 40
1.0
 10
244.6580934894756
 20
145.7595514677848
 30
0.0
 10
244.6580934894756
 20
145.7595514677848
 30
0.0
 10
244.6768432172715
 20
145.7595514677833
 30
0.0
 10
244.7848718863045
 20
145.759551467784
 30
0.0
 10
245.0026877368866
 20
145.7595514677844
 30
0.0
 10
245.3311724573101
 20
145.7595514677843
 30
0.0
 10
245.7711611584032
 20
145.7595514677847
 30
0.0
 10
246.2636349514751
 20
145.7595514677838
 30
0.0
 10
246.8926533934612
 20
145.7595514677849
 30
0.0
 10
247.5509452499852
 20
145.759551467784
 30
0.0
 10
248.285000047463
 20
145.7595514677845
 30
0.0
 10
249.0190545601511
 20
145.7595514677842
 30
0.0
 10
249.6773472710447
 20
145.7595514677845
 30
0.0
 10
250.3063625803429
 20
145.7595514677846
 30
0.0
 10
250.7988480497957
 20
145.7595514677843
 30
0.0
 10
251.2387895469843
 20
145.7595514677853
 30
0.0
 10
251.567494053913
 20
145.7595514677838
 30
0.0
 10
251.7844546452173
 20
145.7595514677851
 30
0.0
 10
251.8956688658172
 20
145.7595514677846
 30
0.0
 10
251.9064939622866
 20
145.7595514677842
 30
0.0
 10
251.9119065105214
 20
145.759551467784
 30
0.0
  0
ARC
  5
24E
330
1F
100
AcDbEntity
  8
0
  6
Continuous
 62
     7
370
    25
100
AcDbCircle
 10
245.3216666667
 20
146.8424044765
 30
0.0
 40
1.27000000000001
100
AcDbArc
 50
180.0
 51
238.5
  0
LINE
  5
24F
330
1F
100
AcDbEntity
  8
0
  6
Continuous
 62
     7
370
    25
100
AcDbLine
 10
252.5183333333
 20
146.8424044765
 30
0.0
 11
252.5183333333
 21
147.3906011669
 31
0.0
  0
LINE
  5
250
330
1F
100
AcDbEntity
  8
0
  6
Continuous
 62
     7
370
    25
100
AcDbLine
 10
244.0516666667
 20
146.8424044765
 30
0.0
 11
244.0516666667
 21
147.3906011669
 31
0.0
  0
SPLINE
  5
251
330
1F
100
AcDbEntity
  8
0
  6
Continuous
 62
     7
370
    25
100
AcDbSpline
210
0.0
220
0.0
230
1.0
 70
    24
 71
     3
 72
    25
 73
    21
 74
     0
 42
0.00000001
 43
0.00000001
 40
0.0
 40
0.0
 40
0.0
 40
0.0
 40
0.0624999999999996
 40
0.125
 40
0.1875000000000007
 40
0.2500000000003404
 40
0.2999999999999999
 40
0.3499999999999999
 40
0.4
 40
0.45
 40
0.4999999999999921
 40
0.55
 40
0.5999999999999999
 40
0.65
 40
0.6999999999999996
 40
0.7499999999996595
 40
0.8124999999999997
 40
0.875
 40
0.9375000000000001
 40
1.0
 40
1.0
 40
1.0
 40
1.0
 10
244.0516666666647
 20
147.390601166856
 30
0.0
 10
244.0516666666647
 20
147.390601166856
 30
0.0
 10
244.0735644497507
 20
147.3906011668541
 30
0.0
 10
244.1996370898654
 20
147.3906011668549
 30
0.0
 10
244.4538871907703
 20
147.3906011668555
 30
0.0
 10
244.8372336192671
 20
147.3906011668554
 30
0.0
 10
245.3509975871669
 20
147.3906011668558
 30
0.0
 10
245.9252718984898
 20
147.3906011668547
 30
0.0
 10
246.6605286950194
 20
147.3906011668561
 30
0.0
 10
247.4277679309738
 20
147.390601166855
 30
0.0
 10
248.2850000554323
 20
147.3906011668556
 30
0.0
 10
249.1422318472851
 20
147.3906011668552
 30
0.0
 10
249.9094720810568
 20
147.3906011668556
 30
0.0
 10
250.6447252189238
 20
147.3906011668558
 30
0.0
 10
251.2190131670775
 20
147.3906011668554
 30
0.0
 10
251.7327220055972
 20
147.3906011668565
 30
0.0
 10
252.1163251224727
 20
147.3906011668548
 30
0.0
 10
252.3695763671612
 20
147.3906011668563
 30
0.0
 10
252.4993694088722
 20
147.3906011668557
 30
0.0
 10
252.5120120251792
 20
147.3906011668552
 30
0.0
 10
252.5183333333327
 20
147.390601166855
 30
0.0
  0
LINE
  5
252
330
1F
100
AcDbEntity
  8
0
  6
Continuous
 62
     7
370
    25
100
AcDbLine
 10
249.047
 20
144.0039345002
 30
0.0
 11
251.9119065105
 21
145.7595514678
 31
0.0
  0
SPLINE
  5
253
330
1F
100
AcDbEntity
  8
0
  6
Continuous
 62
     7
370
    25
100
AcDbSpline
210
0.0
220
0.0
230
1.0
 70
    24
 71
     3
 72
    25
 73
    21
 74
     0
 42
0.00000001
 43
0.00000001
 40
0.0
 40
0.0
 40
0.0
 40
0.0
 40
0.0624999999999996
 40
0.125
 40
0.1875000000000007
 40
0.2500000000003404
 40
0.2999999999999999
 40
0.3499999999999999
 40
0.4
 40
0.45
 40
0.4999999999999921
 40
0.55
 40
0.5999999999999999
 40
0.65
 40
0.6999999999999996
 40
0.7499999999996595
 40
0.8124999999999997
 40
0.875
 40
0.9375000000000001
 40
1.0
 40
1.0
 40
1.0
 40
1.0
 10
247.5229999999982
 20
144.0039345001894
 30
0.0
 10
247.5229999999982
 20
144.0039345001894
 30
0.0
 10
247.5268775556563
 20
144.0039345001894
 30
0.0
 10
247.549662155195
 20
144.0039345001894
 30
0.0
 10
247.5953538235532
 20
144.0039345001894
 30
0.0
 10
247.6646586087801
 20
144.0039345001894
 30
0.0
 10
247.7561151634713
 20
144.0039345001894
 30
0.0
 10
247.8621435875605
 20
144.0039345001894
 30
0.0
 10
247.9892664303592
 20
144.0039345001895
 30
0.0
 10
248.1328646010266
 20
144.0039345001895
 30
0.0
 10
248.2850000098143
 20
144.0039345001895
 30
0.0
 10
248.4371353597056
 20
144.0039345001895
 30
0.0
 10
248.5807337070618
 20
144.0039345001895
 30
0.0
 10
248.7078559020019
 20
144.0039345001895
 30
0.0
 10
248.8138867408364
 20
144.0039345001895
 30
0.0
 10
248.9053335334783
 20
144.0039345001895
 30
0.0
 10
248.9746837718667
 20
144.0039345001895
 30
0.0
 10
249.0201985674999
 20
144.0039345001895
 30
0.0
 10
249.0436419581228
 20
144.0039345001895
 30
0.0
 10
249.0458806527064
 20
144.0039345001895
 30
0.0
 10
249.0469999999982
 20
144.0039345001895
 30
0.0
  0
SPLINE
  5
254
330
1F
100
AcDbEntity
  8
0
  6
Continuous
 62
     7
370
    25
100
AcDbSpline
210
0.0
220
0.0
230
1.0
 70
     8
 71
     3
 72
    12
 73
     8
 74
     0
 42
0.00000001
 43
0.00000001
 40
0.0
 40
0.0
 40
0.0
 40
0.0
 40
0.2500000000000009
 40
0.2500000000000009
 40
0.5000000000000018
 40
0.5000000000000018
 40
1.0
 40
1.0
 40
1.0
 40
1.0
 10
247.5229836370179
 20
144.0039069111421
 30
0.0
 10
247.284318780858
 20
144.1503387473686
 30
0.0
 10
247.045516595664
 20
144.2965390379264
 30
0.0
 10
246.5680362566618
 20
144.5891487440121
 30
0.0
 10
246.3292878908595
 20
144.7354397775589
 30
0.0
 10
245.6130609580602
 20
145.1743435049072
 30
0.0
 10
245.1355779194285
 20
145.4669486592967
 30
0.0
 10
244.6580934848576
 20
145.7595514599986
 30
0.0
  0
LINE
  5
255
330
1F
100
AcDbEntity
  8
0
  6
Continuous
 62
     7
370
    25
100
AcDbLine
 10
247.5838530293
 20
143.7283692149
 30
0.0
 11
248.9861469707
 21
143.7283692149
 31
0.0
  0
LINE
  5
256
330
1F
100
AcDbEntity
  8
0
  6
Continuous
 62
     7
370
    25
100
AcDbLine
 10
247.7518303267
 20
143.5925494236
 30
0.0
 11
248.8181696733
 21
143.5925494236
 31
0.0
  0
LINE
  5
257
330
1F
100
AcDbEntity
  8
0
  6
Continuous
 62
     7
370
    25
100
AcDbLine
 10
248.0303063461
 20
143.1404378935
 30
0.0
 11
248.0579647025
 21
143.190978628
 31
0.0
  0
SPLINE
  5
258
330
1F
100
AcDbEntity
  8
0
  6
Continuous
 62
     7
370
    25
100
AcDbSpline
210
0.0
220
0.0
230
1.0
 70
    24
 71
     3
 72
    14
 73
    10
 74
     0
 42
0.00000001
 43
0.00000001
 40
0.0
 40
0.0
 40
0.0
 40
0.0
 40
0.1531032787256076
 40
0.3140980292291648
 40
0.4674704338886331
 40
0.6265721339331896
 40
0.7835672659446287
 40
0.9386955073957799
 40
1.0
 40
1.0
 40
1.0
 40
1.0
 10
248.6997713074545
 20
143.1909786279663
 30
0.0
 10
248.6953951089479
 20
143.1909786279663
 30
0.0
 10
248.686417147549
 20
143.1909786279663
 30
0.0
 10
248.6163708201253
 20
143.1909786279662
 30
0.0
 10
248.5102275890272
 20
143.1909786279663
 30
0.0
 10
248.3795972221987
 20
143.1909786279663
 30
0.0
 10
248.2378137566684
 20
143.1909786279663
 30
0.0
 10
248.1287318044553
 20
143.1909786279662
 30
0.0
 10
248.0735850113901
 20
143.1909786279663
 30
0.0
 10
248.0579647024643
 20
143.1909786279663
 30
0.0
  0
SPLINE
  5
259
330
1F
100
AcDbEntity
  8
0
  6
Continuous
 62
     7
370
    25
100
AcDbSpline
210
0.0
220
0.0
230
1.0
 70
     8
 71
     3
 72
    15
 73
    11
 74
     0
 42
0.00000001
 43
0.00000001
 40
0.0
 40
0.0
 40
0.0
 40
0.0
 40
0.0077589999573451
 40
0.1645771789308233
 40
0.3213858573663068
 40
0.4781899324351297
 40
0.6350210225418796
 40
0.7918618022973991
 40
0.948702702789441
 40
1.0
 40
1.0
 40
1.0
 40
1.0
 10
248.7494308406421
 20
143.1400747172378
 30
0.0
 10
248.7498418065307
 20
143.1400697982718
 30
0.0
 10
248.7585588585939
 20
143.1399654614318
 30
0.0
 10
248.7265751138231
 20
143.139991917504
 30
0.0
 10
248.6518810338087
 20
143.1406251495158
 30
0.0
 10
248.5300103720525
 20
143.1395331795914
 30
0.0
 10
248.3819922980498
 20
143.1409400282776
 30
0.0
 10
248.2229813622626
 20
143.1395772085009
 30
0.0
 10
248.1040676315421
 20
143.1402637056349
 30
0.0
 10
248.0448909139942
 20
143.1404034519406
 30
0.0
 10
248.0303063461373
 20
143.1404378935177
 30
0.0
  0
SPLINE
  5
25A
330
1F
100
AcDbEntity
  8
0
  6
Continuous
 62
     7
370
    25
100
AcDbSpline
210
0.0
220
0.0
230
1.0
 70
     8
 71
     3
 72
    10
 73
     6
 74
     0
 42
0.00000001
 43
0.00000001
 40
0.0
 40
0.0
 40
0.0
 40
0.0
 40
0.3379474470312978
 40
0.6758961261800539
 40
1.0
 40
1.0
 40
1.0
 40
1.0
 10
248.0303063461373
 20
143.1404378935177
 30
0.0
 10
247.9897388117753
 20
143.1401792244641
 30
0.0
 10
247.9086035951467
 20
143.1396618854139
 30
0.0
 10
247.8335681437374
 20
143.1405692821101
 30
0.0
 10
247.8247954913015
 20
143.1402731074829
 30
0.0
 10
247.820500891688
 20
143.1401281169628
 30
0.0
  0
LINE
  5
25B
330
1F
100
AcDbEntity
  8
0
  6
Continuous
 62
     7
370
    25
100
AcDbLine
 10
247.8193333333
 20
141.793978628
 30
0.0
 11
248.7506666667
 21
141.793978628
 31
0.0
  0
SPLINE
  5
25C
330
1F
100
AcDbEntity
  8
0
  6
Continuous
 62
     7
370
    25
100
AcDbSpline
210
0.0
220
0.0
230
1.0
 70
    24
 71
     3
 72
    10
 73
     6
 74
     0
 42
0.00000001
 43
0.00000001
 40
0.0
 40
0.0
 40
0.0
 40
0.0
 40
0.3320086800739097
 40
0.6636074290297752
 40
1.0
 40
1.0
 40
1.0
 40
1.0
 10
248.0579647024643
 20
143.1909786279663
 30
0.0
 10
248.0225418024709
 20
143.1909786279663
 30
0.0
 10
247.9517397391388
 20
143.1909786279663
 30
0.0
 10
247.8832500455229
 20
143.1909786279663
 30
0.0
 10
247.8750130397852
 20
143.1909786279663
 30
0.0
 10
247.8708649805895
 20
143.1909786279663
 30
0.0
  0
SPLINE
  5
25D
330
1F
100
AcDbEntity
  8
0
  6
Continuous
 62
     7
370
    25
100
AcDbSpline
210
0.0
220
0.0
230
1.0
 70
    24
 71
     3
 72
     9
 73
     5
 74
     0
 42
0.00000001
 43
0.00000001
 40
0.0
 40
0.0
 40
0.0
 40
0.0
 40
0.5299180032666029
 40
1.0
 40
1.0
 40
1.0
 40
1.0
 10
248.0275686876872
 20
143.2093434082345
 30
0.0
 10
248.0257757583325
 20
143.2093434082345
 30
0.0
 10
248.0223923493074
 20
143.2093434082345
 30
0.0
 10
248.0367980413209
 20
143.2093434082346
 30
0.0
 10
248.0435698977869
 20
143.2093434082345
 30
0.0
  0
LINE
  5
25E
330
1F
100
AcDbEntity
  8
0
  6
Continuous
 62
     7
370
    25
100
AcDbLine
 10
200.1235790511
 20
86.2792319613
 30
0.0
 11
204.1597542839
 21
86.2792319613
 31
0.0
  0
LINE
  5
25F
330
1F
100
AcDbEntity
  8
0
  6
Continuous
 62
     7
370
    25
100
AcDbLine
 10
204.1597542839
 20
75.452058628
 30
0.0
 11
200.1235790494
 21
75.452058628
 31
0.0
  0
LINE
  5
260
330
1F
100
AcDbEntity
  8
0
  6
Continuous
 62
     7
370
    25
100
AcDbLine
 10
296.4464209506
 20
75.452058628
 30
0.0
 11
292.4102457161
 21
75.452058628
 31
0.0
  0
LINE
  5
261
330
1F
100
AcDbEntity
  8
0
  6
Continuous
 62
     7
370
    25
100
AcDbLine
 10
292.4102457161
 20
86.2792319613
 30
0.0
 11
296.4464209506
 21
86.2792319613
 31
0.0
  0
LINE
  5
262
330
1F
100
AcDbEntity
  8
0
  6
Continuous
 62
     7
370
    25
100
AcDbLine
 10
250.3030876172
 20
63.4293919613
 30
0.0
 11
246.2669123828
 21
63.4293919613
 31
0.0
  0
LINE
  5
263
330
1F
100
AcDbEntity
  8
0
  6
Continuous
 62
     7
370
    25
100
AcDbLine
 10
246.2669123844
 20
95.0337652946
 30
0.0
 11
247.8616666667
 21
95.0337652946
 31
0.0
  0
LINE
  5
264
330
1F
100
AcDbEntity
  8
0
  6
Continuous
 62
     7
370
    25
100
AcDbLine
 10
248.7083333333
 20
95.0337652946
 30
0.0
 11
250.3030876172
 21
95.0337652946
 31
0.0
  0
LINE
  5
265
330
1F
100
AcDbEntity
  8
0
  6
Continuous
 62
     7
370
    25
100
AcDbLine
 10
202.9883333313
 20
82.9772319613
 30
0.0
 11
201.2950000023
 21
82.9772319613
 31
0.0
  0
LINE
  5
266
330
1F
100
AcDbEntity
  8
0
  6
Continuous
 62
     7
370
    25
100
AcDbLine
 10
293.5816666668
 20
78.754058628
 30
0.0
 11
295.275
 21
78.754058628
 31
0.0
  0
LINE
  5
267
330
1F
100
AcDbEntity
  8
0
  6
Continuous
 62
     7
370
    25
100
AcDbLine
 10
295.2749999999
 20
82.9772319613
 30
0.0
 11
293.5816666667
 21
82.9772319613
 31
0.0
  0
LINE
  5
268
330
1F
100
AcDbEntity
  8
0
  6
Continuous
 62
     7
370
    25
100
AcDbLine
 10
202.1416666667
 20
78.754058628
 30
0.0
 11
202.9883333313
 21
78.754058628
 31
0.0
  0
LINE
  5
269
330
1F
100
AcDbEntity
  8
0
  6
Continuous
 62
     7
370
    25
100
AcDbLine
 10
201.2950000022
 20
78.754058628
 30
0.0
 11
202.1416666667
 21
78.754058628
 31
0.0
  0
LINE
  5
26A
330
1F
100
AcDbEntity
  8
0
  6
Continuous
 62
     7
370
    25
100
AcDbLine
 10
248.285
 20
66.7313919613
 30
0.0
 11
249.1316666646
 21
66.7313919613
 31
0.0
  0
LINE
  5
26B
330
1F
100
AcDbEntity
  8
0
  6
Continuous
 62
     7
370
    25
100
AcDbLine
 10
247.4383333356
 20
66.7313919613
 30
0.0
 11
248.285
 21
66.7313919613
 31
0.0
  0
LINE
  5
26C
330
1F
100
AcDbEntity
  8
0
  6
Continuous
 62
     7
370
    25
100
AcDbLine
 10
249.1316666646
 20
91.7317652946
 30
0.0
 11
248.7083333333
 21
91.7317652946
 31
0.0
  0
LINE
  5
26D
330
1F
100
AcDbEntity
  8
0
  6
Continuous
 62
     7
370
    25
100
AcDbLine
 10
247.8616666667
 20
91.7317652946
 30
0.0
 11
247.4383333356
 21
91.7317652946
 31
0.0
  0
LINE
  5
26E
330
1F
100
AcDbEntity
  8
0
  6
Continuous
 62
     7
370
    25
100
AcDbLine
 10
202.565
 20
81.288978628
 30
0.0
 11
202.1416666667
 21
80.8656452946
 31
0.0
  0
LINE
  5
26F
330
1F
100
AcDbEntity
  8
0
  6
Continuous
 62
     7
370
    25
100
AcDbLine
 10
202.1416666667
 20
80.8656452946
 30
0.0
 11
202.565
 21
80.4423119613
 31
0.0
  0
LINE
  5
270
330
1F
100
AcDbEntity
  8
0
  6
Continuous
 62
     7
370
    25
100
AcDbLine
 10
294.005
 20
80.4423119613
 30
0.0
 11
294.4283333333
 21
80.8656452946
 31
0.0
  0
LINE
  5
271
330
1F
100
AcDbEntity
  8
0
  6
Continuous
 62
     7
370
    25
100
AcDbLine
 10
294.4283333333
 20
80.8656452946
 30
0.0
 11
294.005
 21
81.288978628
 31
0.0
  0
LINE
  5
272
330
1F
100
AcDbEntity
  8
0
  6
Continuous
 62
     8
370
    25
100
AcDbLine
 10
250.6697050381
 20
85.6442319613
 30
0.0
 11
245.9002949618
 21
85.6442319613
 31
0.0
  0
LINE
  5
273
330
1F
100
AcDbEntity
  8
0
  6
Continuous
 62
     8
370
    25
100
AcDbLine
 10
245.9002949618
 20
76.087058628
 30
0.0
 11
250.6697050382
 21
76.087058628
 31
0.0
  0
LINE
  5
274
330
1F
100
AcDbEntity
  8
0
  6
Continuous
 62
     8
370
    25
100
AcDbLine
 10
248.7083333101
 20
82.1356452946
 30
0.0
 11
247.8616667219
 21
82.1356452946
 31
0.0
  0
LINE
  5
275
330
1F
100
AcDbEntity
  8
0
  6
Continuous
 62
     8
370
    25
100
AcDbLine
 10
247.8616666667
 20
79.5956452946
 30
0.0
 11
248.7083333333
 21
79.5956452946
 31
0.0
  0
LINE
  5
276
330
1F
100
AcDbEntity
  8
0
  6
Continuous
 62
     8
370
    25
100
AcDbLine
 10
204.5263717048
 20
85.6442319613
 30
0.0
 11
199.7569616285
 21
85.6442319613
 31
0.0
  0
LINE
  5
277
330
1F
100
AcDbEntity
  8
0
  6
Continuous
 62
     8
370
    25
100
AcDbLine
 10
199.7569616285
 20
76.087058628
 30
0.0
 11
204.5263717048
 21
76.087058628
 31
0.0
  0
LINE
  5
278
330
1F
100
AcDbEntity
  8
0
  6
Continuous
 62
     8
370
    25
100
AcDbLine
 10
294.4283333333
 20
76.087058628
 30
0.0
 11
296.8130383715
 21
76.087058628
 31
0.0
  0
LINE
  5
279
330
1F
100
AcDbEntity
  8
0
  6
Continuous
 62
     8
370
    25
100
AcDbLine
 10
292.0436282952
 20
76.087058628
 30
0.0
 11
294.4283333333
 21
76.087058628
 31
0.0
  0
LINE
  5
27A
330
1F
100
AcDbEntity
  8
0
  6
Continuous
 62
     8
370
    25
100
AcDbLine
 10
294.4283333333
 20
85.6442319613
 30
0.0
 11
292.0436282952
 21
85.6442319613
 31
0.0
  0
LINE
  5
27B
330
1F
100
AcDbEntity
  8
0
  6
Continuous
 62
     8
370
    25
100
AcDbLine
 10
296.8130383715
 20
85.6442319613
 30
0.0
 11
294.4283333333
 21
85.6442319613
 31
0.0
  0
LINE
  5
27C
330
1F
100
AcDbEntity
  8
0
  6
Continuous
 62
     8
370
    25
100
AcDbLine
 10
245.9002949618
 20
64.0643919613
 30
0.0
 11
250.6697050381
 21
64.0643919613
 31
0.0
  0
LINE
  5
27D
330
1F
100
AcDbEntity
  8
0
  6
Continuous
 62
     8
370
    25
100
AcDbLine
 10
250.6697050381
 20
94.3987652946
 30
0.0
 11
248.7083333333
 21
94.3987652946
 31
0.0
  0
LINE
  5
27E
330
1F
100
AcDbEntity
  8
0
  6
Continuous
 62
     8
370
    25
100
AcDbLine
 10
247.8616666667
 20
94.3987652946
 30
0.0
 11
245.9002949618
 21
94.3987652946
 31
0.0
  0
LINE
  5
27F
330
1F
100
AcDbEntity
  8
0
  6
Continuous
 62
     8
370
    25
100
AcDbLine
 10
202.5649999768
 20
82.1356452946
 30
0.0
 11
201.7183333886
 21
82.1356452946
 31
0.0
  0
LINE
  5
280
330
1F
100
AcDbEntity
  8
0
  6
Continuous
 62
     8
370
    25
100
AcDbLine
 10
294.005000051
 20
79.5956452946
 30
0.0
 11
294.8516666667
 21
79.5956452946
 31
0.0
  0
LINE
  5
281
330
1F
100
AcDbEntity
  8
0
  6
Continuous
 62
     8
370
    25
100
AcDbLine
 10
294.8516666157
 20
82.1356452946
 30
0.0
 11
294.005
 21
82.1356452946
 31
0.0
  0
LINE
  5
282
330
1F
100
AcDbEntity
  8
0
  6
Continuous
 62
     8
370
    25
100
AcDbLine
 10
202.1416666667
 20
79.5956452946
 30
0.0
 11
202.5649999768
 21
79.5956452946
 31
0.0
  0
LINE
  5
283
330
1F
100
AcDbEntity
  8
0
  6
Continuous
 62
     8
370
    25
100
AcDbLine
 10
201.7183333886
 20
79.5956452946
 30
0.0
 11
202.1416666667
 21
79.5956452946
 31
0.0
  0
LINE
  5
284
330
1F
100
AcDbEntity
  8
0
  6
Continuous
 62
     8
370
    25
100
AcDbLine
 10
248.285
 20
67.572978628
 30
0.0
 11
248.7083333101
 21
67.572978628
 31
0.0
  0
LINE
  5
285
330
1F
100
AcDbEntity
  8
0
  6
Continuous
 62
     8
370
    25
100
AcDbLine
 10
247.861666722
 20
67.572978628
 30
0.0
 11
248.285
 21
67.572978628
 31
0.0
  0
ENDSEC
  0
SECTION
  2
OBJECTS
  0
DICTIONARY
  5
C
330
0
100
AcDbDictionary
281
     1
  3
ACAD_GROUP
350
D
  3
ACAD_LAYOUT
350
1A
  3
ACAD_MLINESTYLE
350
17
  3
ACAD_PLOTSETTINGS
350
19
  3
ACAD_PLOTSTYLENAME
350
E
  3
ACAD_SCALELIST
350
47
  3
DWGPROPS
350
286
  0
DICTIONARY
  5
D
102
{ACAD_REACTORS
330
C
102
}
330
C
100
AcDbDictionary
281
     1
  0
DICTIONARY
  5
1A
102
{ACAD_REACTORS
330
C
102
}
330
C
100
AcDbDictionary
281
     1
  3
Layout1
350
1E
  3
Layout2
350
26
  3
Model
350
22
  0
DICTIONARY
  5
17
102
{ACAD_REACTORS
330
C
102
}
330
C
100
AcDbDictionary
281
     1
  3
Standard
350
18
  0
DICTIONARY
  5
19
102
{ACAD_REACTORS
330
C
102
}
330
C
100
AcDbDictionary
281
     1
  0
ACDBDICTIONARYWDFLT
  5
E
102
{ACAD_REACTORS
330
C
102
}
330
C
100
AcDbDictionary
281
     1
  3
Normal
350
F
100
AcDbDictionaryWithDefault
340
F
  0
DICTIONARY
  5
47
102
{ACAD_REACTORS
330
C
102
}
330
C
100
AcDbDictionary
281
     1
  3
A0
350
48
  3
A1
350
49
  3
A2
350
4A
  3
A3
350
4B
  3
A4
350
4C
  3
A5
350
4D
  3
A6
350
4E
  3
A7
350
4F
  3
A8
350
50
  3
A9
350
51
  3
B0
350
52
  3
B1
350
53
  3
B2
350
54
  3
B3
350
55
  3
B4
350
56
  3
B5
350
57
  3
B6
350
58
  3
B7
350
59
  3
B8
350
5A
  3
B9
350
5B
  3
C0
350
5C
  3
C1
350
5D
  3
C2
350
5E
  3
C3
350
5F
  3
C4
350
60
  3
C5
350
61
  3
C6
350
62
  3
C7
350
63
  3
C8
350
64
  3
C9
350
65
  3
D0
350
66
  3
D1
350
67
  3
D2
350
68
  0
XRECORD
  5
286
102
{ACAD_REACTORS
330
C
102
}
330
C
100
AcDbXrecord
280
     1
  1
DWGPROPS COOKIE
  2

  3

  4

  6

  7

  8
Design
  9

300
=
301
=
302
=
303
=
304
=
305
=
306
=
307
=
308
=
309
=
 40
0.0
 41
2459153.728730972
 42
2459153.728731956
  1

 90
        0
  0
LAYOUT
  5
1E
102
{ACAD_REACTORS
330
1A
102
}
330
1A
100
AcDbPlotSettings
  1

  2
none_device
  4

  6

 40
0.0
 41
0.0
 42
0.0
 43
0.0
 44
0.0
 45
0.0
 46
0.0
 47
0.0
 48
0.0
 49
0.0
140
0.0
141
0.0
142
1.0
143
1.0
 70
   688
 72
     1
 73
     0
 74
     5
  7

 75
    16
147
1.0
148
0.0
149
0.0
100
AcDbLayout
  1
Layout1
 70
     1
 71
     1
 10
0.0
 20
0.0
 11
420.0
 21
297.0
 12
0.0
 22
0.0
 32
0.0
 14
1.0000000000E+20
 24
1.0000000000E+20
 34
1.0000000000E+20
 15
-1.0000000000E+20
 25
-1.0000000000E+20
 35
-1.0000000000E+20
146
0.0
 13
0.0
 23
0.0
 33
0.0
 16
1.0
 26
0.0
 36
0.0
 17
0.0
 27
1.0
 37
0.0
 76
     0
330
1B
  0
LAYOUT
  5
26
102
{ACAD_REACTORS
330
1A
102
}
330
1A
100
AcDbPlotSettings
  1

  2
none_device
  4

  6

 40
0.0
 41
0.0
 42
0.0
 43
0.0
 44
0.0
 45
0.0
 46
0.0
 47
0.0
 48
0.0
 49
0.0
140
0.0
141
0.0
142
1.0
143
1.0
 70
   688
 72
     1
 73
     0
 74
     5
  7

 75
    16
147
1.0
148
0.0
149
0.0
100
AcDbLayout
  1
Layout2
 70
     1
 71
     2
 10
0.0
 20
0.0
 11
0.0
 21
0.0
 12
0.0
 22
0.0
 32
0.0
 14
0.0
 24
0.0
 34
0.0
 15
0.0
 25
0.0
 35
0.0
146
0.0
 13
0.0
 23
0.0
 33
0.0
 16
1.0
 26
0.0
 36
0.0
 17
0.0
 27
1.0
 37
0.0
 76
     0
330
23
  0
LAYOUT
  5
22
102
{ACAD_REACTORS
330
1A
102
}
330
1A
100
AcDbPlotSettings
  1

  2
none_device
  4
Letter_(8.50_x_11.00_Inches)
  6

 40
6.35
 41
6.35
 42
6.35000508
 43
6.35000508
 44
215.9
 45
279.4
 46
0.0
 47
0.0
 48
0.0
 49
0.0
140
0.0
141
0.0
142
1.0
143
1.0
 70
  1712
 72
     1
 73
     0
 74
     0
  7

 75
     0
147
1.0
148
0.0
149
0.0
100
AcDbLayout
  1
Model
 70
     1
 71
     0
 10
0.0
 20
0.0
 11
431.8
 21
279.4
 12
0.0
 22
0.0
 32
0.0
 14
0.0
 24
0.0
 34
0.0
 15
431.8
 25
279.4
 35
0.0
146
0.0
 13
0.0
 23
0.0
 33
0.0
 16
1.0
 26
0.0
 36
0.0
 17
0.0
 27
1.0
 37
0.0
 76
     0
330
1F
331
29
  0
MLINESTYLE
  5
18
102
{ACAD_REACTORS
330
17
102
}
330
17
100
AcDbMlineStyle
  2
Standard
 70
     0
  3

 62
   256
 51
90.0
 52
90.0
 71
     2
 49
0.5
 62
   256
  6
BYLAYER
 49
-0.5
 62
   256
  6
BYLAYER
  0
ACDBPLACEHOLDER
  5
F
102
{ACAD_REACTORS
330
E
102
}
330
E
  0
SCALE
  5
48
102
{ACAD_REACTORS
330
47
102
}
330
47
100
AcDbScale
 70
     0
300
1:1
140
1.0
141
1.0
290
     1
  0
SCALE
  5
49
102
{ACAD_REACTORS
330
47
102
}
330
47
100
AcDbScale
 70
     0
300
1:2
140
1.0
141
2.0
290
     0
  0
SCALE
  5
4A
102
{ACAD_REACTORS
330
47
102
}
330
47
100
AcDbScale
 70
     0
300
1:4
140
1.0
141
4.0
290
     0
  0
SCALE
  5
4B
102
{ACAD_REACTORS
330
47
102
}
330
47
100
AcDbScale
 70
     0
300
1:5
140
1.0
141
5.0
290
     0
  0
SCALE
  5
4C
102
{ACAD_REACTORS
330
47
102
}
330
47
100
AcDbScale
 70
     0
300
1:8
140
1.0
141
8.0
290
     0
  0
SCALE
  5
4D
102
{ACAD_REACTORS
330
47
102
}
330
47
100
AcDbScale
 70
     0
300
1:10
140
1.0
141
10.0
290
     0
  0
SCALE
  5
4E
102
{ACAD_REACTORS
330
47
102
}
330
47
100
AcDbScale
 70
     0
300
1:16
140
1.0
141
16.0
290
     0
  0
SCALE
  5
4F
102
{ACAD_REACTORS
330
47
102
}
330
47
100
AcDbScale
 70
     0
300
1:20
140
1.0
141
20.0
290
     0
  0
SCALE
  5
50
102
{ACAD_REACTORS
330
47
102
}
330
47
100
AcDbScale
 70
     0
300
1:30
140
1.0
141
30.0
290
     0
  0
SCALE
  5
51
102
{ACAD_REACTORS
330
47
102
}
330
47
100
AcDbScale
 70
     0
300
1:40
140
1.0
141
40.0
290
     0
  0
SCALE
  5
52
102
{ACAD_REACTORS
330
47
102
}
330
47
100
AcDbScale
 70
     0
300
1:50
140
1.0
141
50.0
290
     0
  0
SCALE
  5
53
102
{ACAD_REACTORS
330
47
102
}
330
47
100
AcDbScale
 70
     0
300
1:100
140
1.0
141
100.0
290
     0
  0
SCALE
  5
54
102
{ACAD_REACTORS
330
47
102
}
330
47
100
AcDbScale
 70
     0
300
2:1
140
2.0
141
1.0
290
     0
  0
SCALE
  5
55
102
{ACAD_REACTORS
330
47
102
}
330
47
100
AcDbScale
 70
     0
300
4:1
140
4.0
141
1.0
290
     0
  0
SCALE
  5
56
102
{ACAD_REACTORS
330
47
102
}
330
47
100
AcDbScale
 70
     0
300
8:1
140
8.0
141
1.0
290
     0
  0
SCALE
  5
57
102
{ACAD_REACTORS
330
47
102
}
330
47
100
AcDbScale
 70
     0
300
10:1
140
10.0
141
1.0
290
     0
  0
SCALE
  5
58
102
{ACAD_REACTORS
330
47
102
}
330
47
100
AcDbScale
 70
     0
300
100:1
140
100.0
141
1.0
290
     0
  0
SCALE
  5
59
102
{ACAD_REACTORS
330
47
102
}
330
47
100
AcDbScale
 70
     0
300
1/128" = 1'-0"
140
0.0078125
141
12.0
290
     0
  0
SCALE
  5
5A
102
{ACAD_REACTORS
330
47
102
}
330
47
100
AcDbScale
 70
     0
300
1/64" = 1'-0"
140
0.015625
141
12.0
290
     0
  0
SCALE
  5
5B
102
{ACAD_REACTORS
330
47
102
}
330
47
100
AcDbScale
 70
     0
300
1/32" = 1'-0"
140
0.03125
141
12.0
290
     0
  0
SCALE
  5
5C
102
{ACAD_REACTORS
330
47
102
}
330
47
100
AcDbScale
 70
     0
300
1/16" = 1'-0"
140
0.0625
141
12.0
290
     0
  0
SCALE
  5
5D
102
{ACAD_REACTORS
330
47
102
}
330
47
100
AcDbScale
 70
     0
300
3/32" = 1'-0"
140
0.09375
141
12.0
290
     0
  0
SCALE
  5
5E
102
{ACAD_REACTORS
330
47
102
}
330
47
100
AcDbScale
 70
     0
300
1/8" = 1'-0"
140
0.125
141
12.0
290
     0
  0
SCALE
  5
5F
102
{ACAD_REACTORS
330
47
102
}
330
47
100
AcDbScale
 70
     0
300
3/16" = 1'-0"
140
0.1875
141
12.0
290
     0
  0
SCALE
  5
60
102
{ACAD_REACTORS
330
47
102
}
330
47
100
AcDbScale
 70
     0
300
1/4" = 1'-0"
140
0.25
141
12.0
290
     0
  0
SCALE
  5
61
102
{ACAD_REACTORS
330
47
102
}
330
47
100
AcDbScale
 70
     0
300
3/8" = 1'-0"
140
0.375
141
12.0
290
     0
  0
SCALE
  5
62
102
{ACAD_REACTORS
330
47
102
}
330
47
100
AcDbScale
 70
     0
300
1/2" = 1'-0"
140
0.5
141
12.0
290
     0
  0
SCALE
  5
63
102
{ACAD_REACTORS
330
47
102
}
330
47
100
AcDbScale
 70
     0
300
3/4" = 1'-0"
140
0.75
141
12.0
290
     0
  0
SCALE
  5
64
102
{ACAD_REACTORS
330
47
102
}
330
47
100
AcDbScale
 70
     0
300
1" = 1'-0"
140
1.0
141
12.0
290
     0
  0
SCALE
  5
65
102
{ACAD_REACTORS
330
47
102
}
330
47
100
AcDbScale
 70
     0
300
1-1/2" = 1'-0"
140
1.5
141
12.0
290
     0
  0
SCALE
  5
66
102
{ACAD_REACTORS
330
47
102
}
330
47
100
AcDbScale
 70
     0
300
3" = 1'-0"
140
3.0
141
12.0
290
     0
  0
SCALE
  5
67
102
{ACAD_REACTORS
330
47
102
}
330
47
100
AcDbScale
 70
     0
300
6" = 1'-0"
140
6.0
141
12.0
290
     0
  0
SCALE
  5
68
102
{ACAD_REACTORS
330
47
102
}
330
47
100
AcDbScale
 70
     0
300
1'-0" = 1'-0"
140
12.0
141
12.0
290
     0
  0
ENDSEC
  0
EOF
