  0
SECTION
  2
HEADER
  9
$ACADVER
  1
AC1015
  9
$ACADMAINTVER
 70
     6
  9
$DWGCODEPAGE
  3
ANSI_1252
  9
$INSBASE
 10
0.0
 20
0.0
 30
0.0
  9
$EXTMIN
 10
0.0
 20
0.0
 30
0.0
  9
$EXTMAX
 10
431.8
 20
279.4
 30
0.0
  9
$LIMMIN
 10
0.0
 20
0.0
  9
$LIMMAX
 10
431.8
 20
279.4
  9
$ORTHOMODE
 70
     0
  9
$REGENMODE
 70
     1
  9
$FILLMODE
 70
     1
  9
$QTEXTMODE
 70
     0
  9
$MIRRTEXT
 70
     1
  9
$LTSCALE
 40
1.0
  9
$ATTMODE
 70
     1
  9
$TEXTSIZE
 40
3.175
  9
$TRACEWID
 40
1.0
  9
$TEXTSTYLE
  7
Standard
  9
$CLAYER
  8
0
  9
$CELTYPE
  6
ByLayer
  9
$CECOLOR
 62
   256
  9
$CELTSCALE
 40
1.0
  9
$DISPSILH
 70
     0
  9
$DIMSCALE
 40
1.0
  9
$DIMASZ
 40
3.302
  9
$DIMEXO
 40
1.27
  9
$DIMDLI
 40
3.75
  9
$DIMRND
 40
0.0
  9
$DIMDLE
 40
0.0
  9
$DIMEXE
 40
3.175
  9
$DIMTP
 40
0.0
  9
$DIMTM
 40
0.0
  9
$DIMTXT
 40
3.175
  9
$DIMCEN
 40
2.5
  9
$DIMTSZ
 40
0.0
  9
$DIMTOL
 70
     0
  9
$DIMLIM
 70
     0
  9
$DIMTIH
 70
     1
  9
$DIMTOH
 70
     1
  9
$DIMSE1
 70
     0
  9
$DIMSE2
 70
     0
  9
$DIMTAD
 70
     0
  9
$DIMZIN
 70
     0
  9
$DIMBLK
  1

  9
$DIMASO
 70
     1
  9
$DIMSHO
 70
     1
  9
$DIMPOST
  1

  9
$DIMAPOST
  1

  9
$DIMALT
 70
     0
  9
$DIMALTD
 70
     3
  9
$DIMALTF
 40
0.0393700787
  9
$DIMLFAC
 40
4.0
  9
$DIMTOFL
 70
     1
  9
$DIMTVP
 40
0.0
  9
$DIMTIX
 70
     0
  9
$DIMSOXD
 70
     0
  9
$DIMSAH
 70
     0
  9
$DIMBLK1
  1

  9
$DIMBLK2
  1

  9
$DIMSTYLE
  2
ISO-25
  9
$DIMCLRD
 70
     0
  9
$DIMCLRE
 70
     0
  9
$DIMCLRT
 70
     0
  9
$DIMTFAC
 40
1.0
  9
$DIMGAP
 40
1.524
  9
$DIMJUST
 70
     0
  9
$DIMSD1
 70
     0
  9
$DIMSD2
 70
     0
  9
$DIMTOLJ
 70
     0
  9
$DIMTZIN
 70
     0
  9
$DIMALTZ
 70
     0
  9
$DIMALTTZ
 70
     0
  9
$DIMUPT
 70
     0
  9
$DIMDEC
 70
     0
  9
$DIMTDEC
 70
     0
  9
$DIMALTU
 70
     2
  9
$DIMALTTD
 70
     3
  9
$DIMTXSTY
  7
Standard
  9
$DIMAUNIT
 70
     0
  9
$DIMADEC
 70
     0
  9
$DIMALTRND
 40
0.0
  9
$DIMAZIN
 70
     0
  9
$DIMDSEP
 70
    44
  9
$DIMATFIT
 70
     3
  9
$DIMFRAC
 70
     0
  9
$DIMLDRBLK
  1

  9
$DIMLUNIT
 70
     2
  9
$DIMLWD
 70
    -2
  9
$DIMLWE
 70
    -2
  9
$DIMTMOVE
 70
     0
  9
$LUNITS
 70
     2
  9
$LUPREC
 70
     2
  9
$SKETCHINC
 40
1.0
  9
$FILLETRAD
 40
10.0
  9
$AUNITS
 70
     0
  9
$AUPREC
 70
     2
  9
$MENU
  1
.
  9
$ELEVATION
 40
0.0
  9
$PELEVATION
 40
0.0
  9
$THICKNESS
 40
0.0
  9
$LIMCHECK
 70
     0
  9
$CHAMFERA
 40
0.0
  9
$CHAMFERB
 40
0.0
  9
$CHAMFERC
 40
0.0
  9
$CHAMFERD
 40
0.0
  9
$SKPOLY
 70
     0
  9
$TDCREATE
 40
2458681.683899306
  9
$TDUCREATE
 40
2458681.850565972
  9
$TDUPDATE
 40
2458681.683900208
  9
$TDUUPDATE
 40
2458681.850566875
  9
$TDINDWG
 40
0.0000000116
  9
$TDUSRTIMER
 40
0.0000000116
  9
$USRTIMER
 70
     1
  9
$ANGBASE
 50
0.0
  9
$ANGDIR
 70
     0
  9
$PDMODE
 70
     0
  9
$PDSIZE
 40
-1.0
  9
$PLINEWID
 40
0.0
  9
$SPLFRAME
 70
     0
  9
$SPLINETYPE
 70
     6
  9
$SPLINESEGS
 70
     8
  9
$HANDSEED
  5
2D0
  9
$SURFTAB1
 70
     6
  9
$SURFTAB2
 70
     6
  9
$SURFTYPE
 70
     6
  9
$SURFU
 70
     6
  9
$SURFV
 70
     6
  9
$UCSBASE
  2

  9
$UCSNAME
  2

  9
$UCSORG
 10
0.0
 20
0.0
 30
0.0
  9
$UCSXDIR
 10
1.0
 20
0.0
 30
0.0
  9
$UCSYDIR
 10
0.0
 20
1.0
 30
0.0
  9
$UCSORTHOREF
  2

  9
$UCSORTHOVIEW
 70
     0
  9
$UCSORGTOP
 10
0.0
 20
0.0
 30
0.0
  9
$UCSORGBOTTOM
 10
0.0
 20
0.0
 30
0.0
  9
$UCSORGLEFT
 10
0.0
 20
0.0
 30
0.0
  9
$UCSORGRIGHT
 10
0.0
 20
0.0
 30
0.0
  9
$UCSORGFRONT
 10
0.0
 20
0.0
 30
0.0
  9
$UCSORGBACK
 10
0.0
 20
0.0
 30
0.0
  9
$PUCSBASE
  2

  9
$PUCSNAME
  2

  9
$PUCSORG
 10
0.0
 20
0.0
 30
0.0
  9
$PUCSXDIR
 10
1.0
 20
0.0
 30
0.0
  9
$PUCSYDIR
 10
0.0
 20
1.0
 30
0.0
  9
$PUCSORTHOREF
  2

  9
$PUCSORTHOVIEW
 70
     0
  9
$PUCSORGTOP
 10
0.0
 20
0.0
 30
0.0
  9
$PUCSORGBOTTOM
 10
0.0
 20
0.0
 30
0.0
  9
$PUCSORGLEFT
 10
0.0
 20
0.0
 30
0.0
  9
$PUCSORGRIGHT
 10
0.0
 20
0.0
 30
0.0
  9
$PUCSORGFRONT
 10
0.0
 20
0.0
 30
0.0
  9
$PUCSORGBACK
 10
0.0
 20
0.0
 30
0.0
  9
$USERI1
 70
     0
  9
$USERI2
 70
     0
  9
$USERI3
 70
     0
  9
$USERI4
 70
     0
  9
$USERI5
 70
     0
  9
$USERR1
 40
0.0
  9
$USERR2
 40
0.0
  9
$USERR3
 40
0.0
  9
$USERR4
 40
0.0
  9
$USERR5
 40
0.0
  9
$WORLDVIEW
 70
     1
  9
$SHADEDGE
 70
     3
  9
$SHADEDIF
 70
    70
  9
$TILEMODE
 70
     1
  9
$MAXACTVP
 70
    64
  9
$PINSBASE
 10
0.0
 20
0.0
 30
0.0
  9
$PLIMCHECK
 70
     0
  9
$PEXTMIN
 10
1.0000000000E+20
 20
1.0000000000E+20
 30
1.0000000000E+20
  9
$PEXTMAX
 10
-1.0000000000E+20
 20
-1.0000000000E+20
 30
-1.0000000000E+20
  9
$PLIMMIN
 10
0.0
 20
0.0
  9
$PLIMMAX
 10
420.0
 20
297.0
  9
$UNITMODE
 70
     0
  9
$VISRETAIN
 70
     1
  9
$PLINEGEN
 70
     0
  9
$PSLTSCALE
 70
     1
  9
$TREEDEPTH
 70
  3020
  9
$CMLSTYLE
  2
Standard
  9
$CMLJUST
 70
     0
  9
$CMLSCALE
 40
20.0
  9
$PROXYGRAPHICS
 70
     1
  9
$MEASUREMENT
 70
     1
  9
$CELWEIGHT
370
    -1
  9
$ENDCAPS
280
     0
  9
$JOINSTYLE
280
     0
  9
$LWDISPLAY
290
     1
  9
$INSUNITS
 70
     4
  9
$HYPERLINKBASE
  1

  9
$STYLESHEET
  1

  9
$XEDIT
290
     1
  9
$CEPSNTYPE
380
     0
  9
$PSTYLEMODE
290
     1
  9
$FINGERPRINTGUID
  2
{6EA291B2-6F33-4E31-92B6-565F7FC6A845}
  9
$VERSIONGUID
  2
{FAEB1C32-E019-11D5-929B-00C0DF256EC4}
  9
$EXTNAMES
290
     1
  9
$PSVPSCALE
 40
0.0
  9
$OLESTARTUP
290
     0
  0
ENDSEC
  0
SECTION
  2
CLASSES
  0
CLASS
  1
ACDBDICTIONARYWDFLT
  2
AcDbDictionaryWithDefault
  3
ObjectDBX Classes
 90
        0
280
     0
281
     0
  0
CLASS
  1
VISUALSTYLE
  2
AcDbVisualStyle
  3
ObjectDBX Classes
 90
     4095
280
     0
281
     0
  0
CLASS
  1
MATERIAL
  2
AcDbMaterial
  3
ObjectDBX Classes
 90
     1153
280
     0
281
     0
  0
CLASS
  1
SCALE
  2
AcDbScale
  3
ObjectDBX Classes
 90
     1153
280
     0
281
     0
  0
CLASS
  1
TABLESTYLE
  2
AcDbTableStyle
  3
ObjectDBX Classes
 90
     4095
280
     0
281
     0
  0
CLASS
  1
MLEADERSTYLE
  2
AcDbMLeaderStyle
  3
ACDB_MLEADERSTYLE_CLASS
 90
     4095
280
     0
281
     0
  0
CLASS
  1
SUN
  2
AcDbSun
  3
SCENEOE
 90
     1153
280
     0
281
     0
  0
CLASS
  1
ACDBPLACEHOLDER
  2
AcDbPlaceHolder
  3
ObjectDBX Classes
 90
        0
280
     0
281
     0
  0
CLASS
  1
LAYOUT
  2
AcDbLayout
  3
ObjectDBX Classes
 90
        0
280
     0
281
     0
  0
ENDSEC
  0
SECTION
  2
TABLES
  0
TABLE
  2
VPORT
  5
8
330
0
100
AcDbSymbolTable
 70
     1
  0
VPORT
  5
29
330
8
100
AcDbSymbolTableRecord
100
AcDbViewportTableRecord
  2
*Active
 70
     0
 10
0.0
 20
0.0
 11
1.0
 21
1.0
 12
215.9
 22
139.7
 13
0.0
 23
0.0
 14
10.0
 24
10.0
 15
10.0
 25
10.0
 16
0.0
 26
0.0
 36
1.0
 17
0.0
 27
0.0
 37
0.0
 40
279.4
 41
1.5454545455
 42
50.0
 43
0.0
 44
0.0
 50
0.0
 51
0.0
 71
     0
 72
  2000
 73
     1
 74
     3
 75
     0
 76
     0
 77
     0
 78
     0
281
     0
 65
     1
110
0.0
120
0.0
130
0.0
111
1.0
121
0.0
131
0.0
112
0.0
122
1.0
132
0.0
 79
     0
146
0.0
  0
ENDTAB
  0
TABLE
  2
LTYPE
  5
5
330
0
100
AcDbSymbolTable
 70
     6
  0
LTYPE
  5
14
330
5
100
AcDbSymbolTableRecord
100
AcDbLinetypeTableRecord
  2
ByBlock
 70
     0
  3

 72
    65
 73
     0
 40
0.0
  0
LTYPE
  5
15
330
5
100
AcDbSymbolTableRecord
100
AcDbLinetypeTableRecord
  2
ByLayer
 70
     0
  3

 72
    65
 73
     0
 40
0.0
  0
LTYPE
  5
16
330
5
100
AcDbSymbolTableRecord
100
AcDbLinetypeTableRecord
  2
Continuous
 70
     0
  3
Solid line
 72
    65
 73
     0
 40
0.0
  0
LTYPE
  5
6E
330
5
100
AcDbSymbolTableRecord
100
AcDbLinetypeTableRecord
  2
HIDDEN
 70
     0
  3
Hidden __ __ __ __ __ __ __ __ __ __ __ __ __ __
 72
    65
 73
     2
 40
1.905
 49
1.27
 74
     0
 49
-0.635
 74
     0
  0
LTYPE
  5
6F
330
5
100
AcDbSymbolTableRecord
100
AcDbLinetypeTableRecord
  2
PHANTOM
 70
     0
  3
Phantom ______  __  __  ______  __  __  ______
 72
    65
 73
     6
 40
12.7
 49
6.35
 74
     0
 49
-1.27
 74
     0
 49
1.27
 74
     0
 49
-1.27
 74
     0
 49
1.27
 74
     0
 49
-1.27
 74
     0
  0
LTYPE
  5
70
330
5
100
AcDbSymbolTableRecord
100
AcDbLinetypeTableRecord
  2
CENTER
 70
     0
  3
Center ____ _ ____ _ ____ _ ____ _ ____ _ ____
 72
    65
 73
     4
 40
10.16
 49
6.35
 74
     0
 49
-1.27
 74
     0
 49
1.27
 74
     0
 49
-1.27
 74
     0
  0
LTYPE
  5
71
330
5
100
AcDbSymbolTableRecord
100
AcDbLinetypeTableRecord
  2
CENTERX2
 70
     0
  3
Center (2x) ________  __  ________  __  _____
 72
    65
 73
     4
 40
20.32
 49
12.7
 74
     0
 49
-2.54
 74
     0
 49
2.54
 74
     0
 49
-2.54
 74
     0
  0
LTYPE
  5
72
330
5
100
AcDbSymbolTableRecord
100
AcDbLinetypeTableRecord
  2
DOT2
 70
     0
  3
Dot (.5x) ........................................
 72
    65
 73
     2
 40
0.635
 49
0.0
 74
     0
 49
-0.635
 74
     0
  0
ENDTAB
  0
TABLE
  2
LAYER
  5
2
330
0
100
AcDbSymbolTable
 70
     4
  0
LAYER
  5
10
330
2
100
AcDbSymbolTableRecord
100
AcDbLayerTableRecord
  2
0
 70
     0
 62
     7
  6
Continuous
370
    -3
390
F
  0
LAYER
  5
73
330
2
100
AcDbSymbolTableRecord
100
AcDbLayerTableRecord
  2
FORMAT
 70
     0
 62
     7
  6
Continuous
370
    -3
390
F
  0
LAYER
  5
74
330
2
100
AcDbSymbolTableRecord
100
AcDbLayerTableRecord
  2
SLD-0
 70
     0
 62
   179
  6
Continuous
370
    -3
390
F
  0
LAYER
  5
75
330
2
100
AcDbSymbolTableRecord
100
AcDbLayerTableRecord
  2
LAYER_1
 70
     0
 62
   179
  6
Continuous
370
    -3
390
F
  0
ENDTAB
  0
TABLE
  2
STYLE
  5
3
330
0
100
AcDbSymbolTable
 70
     2
  0
STYLE
  5
11
330
3
100
AcDbSymbolTableRecord
100
AcDbTextStyleTableRecord
  2
Standard
 70
     0
 40
0.0
 41
1.0
 50
0.0
 71
     0
 42
3.175
  3
txt
  4

  0
STYLE
  5
2B8
330
3
100
AcDbSymbolTableRecord
100
AcDbTextStyleTableRecord
  2
SLDTEXTSTYLE0
 70
     0
 40
0.0
 41
0.7
 50
0.0
 71
     0
 42
3.175
  3
TXT
  4

  0
ENDTAB
  0
TABLE
  2
VIEW
  5
6
330
0
100
AcDbSymbolTable
 70
     0
  0
ENDTAB
  0
TABLE
  2
UCS
  5
7
330
0
100
AcDbSymbolTable
 70
     0
  0
ENDTAB
  0
TABLE
  2
APPID
  5
9
330
0
100
AcDbSymbolTable
 70
     1
  0
APPID
  5
12
330
9
100
AcDbSymbolTableRecord
100
AcDbRegAppTableRecord
  2
ACAD
 70
     0
  0
ENDTAB
  0
TABLE
  2
DIMSTYLE
  5
A
330
0
100
AcDbSymbolTable
 70
     1
100
AcDbDimStyleTable
  0
DIMSTYLE
105
27
330
A
100
AcDbSymbolTableRecord
100
AcDbDimStyleTableRecord
  2
ISO-25
 70
     0
 41
2.5
 42
0.625
 43
3.75
 44
1.25
 73
     0
 74
     0
 77
     1
 78
     8
140
2.5
141
2.5
143
0.0393700787
147
0.625
171
     3
172
     1
178
     0
271
     2
272
     2
274
     3
278
    44
283
     0
284
     8
340
11
  0
ENDTAB
  0
TABLE
  2
BLOCK_RECORD
  5
1
330
0
100
AcDbSymbolTable
 70
    21
  0
BLOCK_RECORD
  5
1F
330
1
100
AcDbSymbolTableRecord
100
AcDbBlockTableRecord
  2
*Model_Space
340
22
  0
BLOCK_RECORD
  5
1B
330
1
100
AcDbSymbolTableRecord
100
AcDbBlockTableRecord
  2
*Paper_Space
340
1E
  0
BLOCK_RECORD
  5
23
330
1
100
AcDbSymbolTableRecord
100
AcDbBlockTableRecord
  2
*Paper_Space0
340
26
  0
BLOCK_RECORD
  5
76
330
1
100
AcDbSymbolTableRecord
100
AcDbBlockTableRecord
  2
BLOCK 3
340
0
102
{BLKREFS
331
26B
102
}
  0
BLOCK_RECORD
  5
7B
330
1
100
AcDbSymbolTableRecord
100
AcDbBlockTableRecord
  2
BLOCK 5
340
0
102
{BLKREFS
331
269
102
}
  0
BLOCK_RECORD
  5
7F
330
1
100
AcDbSymbolTableRecord
100
AcDbBlockTableRecord
  2
BLOCK 6
340
0
102
{BLKREFS
331
265
102
}
  0
BLOCK_RECORD
  5
83
330
1
100
AcDbSymbolTableRecord
100
AcDbBlockTableRecord
  2
BLOCK 7
340
0
102
{BLKREFS
331
266
102
}
  0
BLOCK_RECORD
  5
87
330
1
100
AcDbSymbolTableRecord
100
AcDbBlockTableRecord
  2
BLOCK 8
340
0
102
{BLKREFS
331
267
102
}
  0
BLOCK_RECORD
  5
8E
330
1
100
AcDbSymbolTableRecord
100
AcDbBlockTableRecord
  2
BLOCK 9
340
0
102
{BLKREFS
331
26A
102
}
  0
BLOCK_RECORD
  5
92
330
1
100
AcDbSymbolTableRecord
100
AcDbBlockTableRecord
  2
BLOCK 10
340
0
102
{BLKREFS
331
268
102
}
  0
BLOCK_RECORD
  5
96
330
1
100
AcDbSymbolTableRecord
100
AcDbBlockTableRecord
  2
BLOCK 4
340
0
102
{BLKREFS
331
26C
102
}
  0
BLOCK_RECORD
  5
99
330
1
100
AcDbSymbolTableRecord
100
AcDbBlockTableRecord
  2
BLOCK 2
340
0
102
{BLKREFS
331
2CD
102
}
  0
BLOCK_RECORD
  5
128
330
1
100
AcDbSymbolTableRecord
100
AcDbBlockTableRecord
  2
BLOCK 13
340
0
102
{BLKREFS
331
26D
102
}
  0
BLOCK_RECORD
  5
12C
330
1
100
AcDbSymbolTableRecord
100
AcDbBlockTableRecord
  2
BLOCK 14
340
0
102
{BLKREFS
331
26F
102
}
  0
BLOCK_RECORD
  5
130
330
1
100
AcDbSymbolTableRecord
100
AcDbBlockTableRecord
  2
BLOCK 15
340
0
102
{BLKREFS
331
270
102
}
  0
BLOCK_RECORD
  5
143
330
1
100
AcDbSymbolTableRecord
100
AcDbBlockTableRecord
  2
BLOCK 16
340
0
102
{BLKREFS
331
26E
102
}
  0
BLOCK_RECORD
  5
157
330
1
100
AcDbSymbolTableRecord
100
AcDbBlockTableRecord
  2
BLOCK 12
340
0
102
{BLKREFS
331
271
102
}
  0
BLOCK_RECORD
  5
15C
330
1
100
AcDbSymbolTableRecord
100
AcDbBlockTableRecord
  2
BLOCK 11
340
0
102
{BLKREFS
331
2CE
102
}
  0
BLOCK_RECORD
  5
1E6
330
1
100
AcDbSymbolTableRecord
100
AcDbBlockTableRecord
  2
BLOCK 19
340
0
102
{BLKREFS
331
272
102
}
  0
BLOCK_RECORD
  5
1EA
330
1
100
AcDbSymbolTableRecord
100
AcDbBlockTableRecord
  2
BLOCK 18
340
0
102
{BLKREFS
331
273
102
}
  0
BLOCK_RECORD
  5
1EF
330
1
100
AcDbSymbolTableRecord
100
AcDbBlockTableRecord
  2
BLOCK 17
340
0
102
{BLKREFS
331
2CF
102
}
  0
BLOCK_RECORD
  5
2BB
330
1
100
AcDbSymbolTableRecord
100
AcDbBlockTableRecord
  2
SW_NOTE_0
340
0
102
{BLKREFS
331
2C1
102
}
  0
BLOCK_RECORD
  5
2C6
330
1
100
AcDbSymbolTableRecord
100
AcDbBlockTableRecord
  2
SW_NOTE_1
340
0
102
{BLKREFS
331
2CC
102
}
  0
ENDTAB
  0
ENDSEC
  0
SECTION
  2
BLOCKS
  0
BLOCK
  5
20
330
1F
100
AcDbEntity
  8
0
100
AcDbBlockBegin
  2
*Model_Space
 70
     0
 10
0.0
 20
0.0
 30
0.0
  3
*Model_Space
  1

  0
ENDBLK
  5
21
330
1F
100
AcDbEntity
  8
0
100
AcDbBlockEnd
  0
BLOCK
  5
1C
330
1B
100
AcDbEntity
 67
     1
  8
0
100
AcDbBlockBegin
  2
*Paper_Space
 70
     0
 10
0.0
 20
0.0
 30
0.0
  3
*Paper_Space
  1

  0
ENDBLK
  5
1D
330
1B
100
AcDbEntity
 67
     1
  8
0
100
AcDbBlockEnd
  0
BLOCK
  5
24
330
23
100
AcDbEntity
  8
0
100
AcDbBlockBegin
  2
*Paper_Space0
 70
     0
 10
0.0
 20
0.0
 30
0.0
  3
*Paper_Space0
  1

  0
ENDBLK
  5
25
330
23
100
AcDbEntity
  8
0
100
AcDbBlockEnd
  0
BLOCK
  5
77
330
76
100
AcDbEntity
  8
0
100
AcDbBlockBegin
  2
BLOCK 3
 70
     0
 10
0.0
 20
0.0
 30
0.0
  3
BLOCK 3
  1

  0
LINE
  5
79
330
76
100
AcDbEntity
  8
LAYER_1
 62
     7
370
    15
100
AcDbLine
 10
-1070.2501902962
 20
661.1838127317
 30
0.0
 11
-1070.5246282044
 21
660.7135502513
 31
0.0
  0
LINE
  5
7A
330
76
100
AcDbEntity
  8
LAYER_1
 62
     7
370
    15
100
AcDbLine
 10
-1070.5246282044
 20
660.7135502513
 30
0.0
 11
-1071.1506188054
 21
659.6807224615
 31
0.0
  0
ENDBLK
  5
78
330
76
100
AcDbEntity
  8
0
100
AcDbBlockEnd
  0
BLOCK
  5
7C
330
7B
100
AcDbEntity
  8
0
100
AcDbBlockBegin
  2
BLOCK 5
 70
     0
 10
0.0
 20
0.0
 30
0.0
  3
BLOCK 5
  1

  0
SPLINE
  5
7E
330
7B
100
AcDbEntity
  8
LAYER_1
 62
     7
370
    15
100
AcDbSpline
210
0.0
220
0.0
230
1.0
 70
     8
 71
     3
 72
    59
 73
    55
 74
     0
 42
0.000000001
 43
0.00000001
 40
0.0
 40
0.0
 40
0.0
 40
0.0
 40
1.0
 40
1.0
 40
1.0
 40
2.0
 40
2.0
 40
2.0
 40
3.0
 40
3.0
 40
3.0
 40
4.0
 40
4.0
 40
4.0
 40
5.0
 40
5.0
 40
5.0
 40
6.0
 40
6.0
 40
6.0
 40
7.0
 40
7.0
 40
7.0
 40
8.0
 40
8.0
 40
8.0
 40
9.0
 40
9.0
 40
9.0
 40
10.0
 40
10.0
 40
10.0
 40
11.0
 40
11.0
 40
11.0
 40
12.0
 40
12.0
 40
12.0
 40
13.0
 40
13.0
 40
13.0
 40
14.0
 40
14.0
 40
14.0
 40
15.0
 40
15.0
 40
15.0
 40
16.0
 40
16.0
 40
16.0
 40
17.0
 40
17.0
 40
17.0
 40
18.0
 40
18.0
 40
18.0
 40
18.0
 10
-1159.706350110054
 20
725.1558496598423
 30
0.0
 10
-1161.052213841091
 20
722.5746243995175
 30
0.0
 10
-1162.398077572127
 20
719.9933991392006
 30
0.0
 10
-1163.457757558918
 20
717.2931843318058
 30
0.0
 10
-1164.636647818838
 20
714.289204851362
 30
0.0
 10
-1165.461343217612
 20
711.1379581450431
 30
0.0
 10
-1166.027413339279
 20
707.9480844787811
 30
0.0
 10
-1166.5924783381
 20
704.7638748014349
 30
0.0
 10
-1166.899835682501
 20
701.5411752156043
 30
0.0
 10
-1166.916096426197
 20
698.313915563577
 30
0.0
 10
-1166.93233940155
 20
695.0901823838494
 30
0.0
 10
-1166.658121599377
 20
691.861899098173
 30
0.0
 10
-1166.105743167468
 20
688.6829968907343
 30
0.0
 10
-1165.553519119436
 20
685.5049831525731
 30
0.0
 10
-1164.723289905797
 20
682.3763228935393
 30
0.0
 10
-1163.626081636451
 20
679.3437950631659
 30
0.0
 10
-1162.528249759118
 20
676.309543668909
 30
0.0
 10
-1161.163135260042
 20
673.3715340097765
 30
0.0
 10
-1159.552525556041
 20
670.5749550791566
 30
0.0
 10
-1157.93972669039
 20
667.7745750020897
 30
0.0
 10
-1156.080764805722
 20
665.1160103837876
 30
0.0
 10
-1154.004230228491
 20
662.6397769454748
 30
0.0
 10
-1151.923557623776
 20
660.1586089772245
 30
0.0
 10
-1149.62444432376
 20
657.86049959625
 30
0.0
 10
-1147.142391473947
 20
655.7806619142679
 30
0.0
 10
-1144.654398563058
 20
653.6958467545413
 30
0.0
 10
-1141.982589430943
 20
651.8303492817399
 30
0.0
 10
-1139.168220557375
 20
650.212885383328
 30
0.0
 10
-1136.346843335282
 20
648.5913936722002
 30
0.0
 10
-1133.382195482452
 20
647.2191723812156
 30
0.0
 10
-1130.320190089107
 20
646.117580017637
 30
0.0
 10
-1127.251268275169
 20
645.0134993906078
 30
0.0
 10
-1124.084548603917
 20
644.1812716584365
 30
0.0
 10
-1120.869416858128
 20
643.6341012237979
 30
0.0
 10
-1117.648791063772
 20
643.0859957789568
 30
0.0
 10
-1114.379587599459
 20
642.8239226814114
 30
0.0
 10
-1111.112776583463
 20
642.8521496155389
 30
0.0
 10
-1107.842742334464
 20
642.8804044000482
 30
0.0
 10
-1104.575105257185
 20
643.199532353911
 30
0.0
 10
-1101.362211528146
 20
643.8054426602747
 30
0.0
 10
-1098.148874379097
 20
644.4114365899189
 30
0.0
 10
-1094.990295689877
 20
645.3042920367278
 30
0.0
 10
-1091.933147080978
 20
646.4681910518497
 30
0.0
 10
-1088.878218383039
 20
647.6312449159867
 30
0.0
 10
-1085.92457251449
 20
649.0649488614273
 30
0.0
 10
-1083.131288279792
 20
650.7547645734973
 30
0.0
 10
-1080.342156868801
 20
652.4420680074794
 30
0.0
 10
-1077.712910621329
 20
654.3847222426505
 30
0.0
 10
-1075.239578340576
 20
656.5231853489272
 30
0.0
 10
-1072.771346985179
 20
658.6572381538641
 30
0.0
 10
-1070.458387155203
 20
660.9862930022308
 30
0.0
 10
-1068.507101256778
 20
663.5820535924455
 30
0.0
 10
-1067.227910077088
 20
665.2837386475618
 30
0.0
 10
-1066.104152999065
 20
667.1000439829324
 30
0.0
 10
-1064.980395921049
 20
668.9163493183028
 30
0.0
  0
ENDBLK
  5
7D
330
7B
100
AcDbEntity
  8
0
100
AcDbBlockEnd
  0
BLOCK
  5
80
330
7F
100
AcDbEntity
  8
0
100
AcDbBlockBegin
  2
BLOCK 6
 70
     0
 10
0.0
 20
0.0
 30
0.0
  3
BLOCK 6
  1

  0
LINE
  5
82
330
7F
100
AcDbEntity
  8
LAYER_1
 62
     7
370
    15
100
AcDbLine
 10
-1111.8891896172
 20
808.2261968214
 30
0.0
 11
-1159.5673490924
 21
725.5590417177
 31
0.0
  0
ENDBLK
  5
81
330
7F
100
AcDbEntity
  8
0
100
AcDbBlockEnd
  0
BLOCK
  5
84
330
83
100
AcDbEntity
  8
0
100
AcDbBlockBegin
  2
BLOCK 7
 70
     0
 10
0.0
 20
0.0
 30
0.0
  3
BLOCK 7
  1

  0
LINE
  5
86
330
83
100
AcDbEntity
  8
LAYER_1
 62
     7
370
    15
100
AcDbLine
 10
-1063.8815102456
 20
670.3722655108
 30
0.0
 11
-1017.036141838
 21
751.5953080685
 31
0.0
  0
ENDBLK
  5
85
330
83
100
AcDbEntity
  8
0
100
AcDbBlockEnd
  0
BLOCK
  5
88
330
87
100
AcDbEntity
  8
0
100
AcDbBlockBegin
  2
BLOCK 8
 70
     0
 10
0.0
 20
0.0
 30
0.0
  3
BLOCK 8
  1

  0
SPLINE
  5
8A
330
87
100
AcDbEntity
  8
LAYER_1
 62
     7
370
    15
100
AcDbSpline
210
0.0
220
0.0
230
1.0
 70
     8
 71
     3
 72
     8
 73
     4
 74
     0
 42
0.000000001
 43
0.00000001
 40
0.0
 40
0.0
 40
0.0
 40
0.0
 40
1.0
 40
1.0
 40
1.0
 40
1.0
 10
-1123.743878471316
 20
689.1729336294813
 30
0.0
 10
-1123.743878471316
 20
692.9416558476612
 30
0.0
 10
-1120.688725470533
 20
695.996808848452
 30
0.0
 10
-1116.920003252345
 20
695.996808848452
 30
0.0
  0
SPLINE
  5
8B
330
87
100
AcDbEntity
  8
LAYER_1
 62
     7
370
    15
100
AcDbSpline
210
0.0
220
0.0
230
1.0
 70
     8
 71
     3
 72
     8
 73
     4
 74
     0
 42
0.000000001
 43
0.00000001
 40
1.0
 40
1.0
 40
1.0
 40
1.0
 40
2.0
 40
2.0
 40
2.0
 40
2.0
 10
-1116.920003252345
 20
695.996808848452
 30
0.0
 10
-1113.151281034165
 20
695.996808848452
 30
0.0
 10
-1110.096128033382
 20
692.9416558476612
 30
0.0
 10
-1110.096128033382
 20
689.1729336294813
 30
0.0
  0
SPLINE
  5
8C
330
87
100
AcDbEntity
  8
LAYER_1
 62
     7
370
    15
100
AcDbSpline
210
0.0
220
0.0
230
1.0
 70
     8
 71
     3
 72
     8
 73
     4
 74
     0
 42
0.000000001
 43
0.00000001
 40
2.0
 40
2.0
 40
2.0
 40
2.0
 40
3.0
 40
3.0
 40
3.0
 40
3.0
 10
-1110.096128033382
 20
689.1729336294813
 30
0.0
 10
-1110.096128033382
 20
685.4042114113012
 30
0.0
 10
-1113.151281034165
 20
682.349058410518
 30
0.0
 10
-1116.920003252345
 20
682.349058410518
 30
0.0
  0
SPLINE
  5
8D
330
87
100
AcDbEntity
  8
LAYER_1
 62
     7
370
    15
100
AcDbSpline
210
0.0
220
0.0
230
1.0
 70
     8
 71
     3
 72
     8
 73
     4
 74
     0
 42
0.000000001
 43
0.00000001
 40
3.0
 40
3.0
 40
3.0
 40
3.0
 40
4.0
 40
4.0
 40
4.0
 40
4.0
 10
-1116.920003252345
 20
682.349058410518
 30
0.0
 10
-1120.688725470533
 20
682.349058410518
 30
0.0
 10
-1123.743878471316
 20
685.4042114113012
 30
0.0
 10
-1123.743878471316
 20
689.1729336294813
 30
0.0
  0
ENDBLK
  5
89
330
87
100
AcDbEntity
  8
0
100
AcDbBlockEnd
  0
BLOCK
  5
8F
330
8E
100
AcDbEntity
  8
0
100
AcDbBlockBegin
  2
BLOCK 9
 70
     0
 10
0.0
 20
0.0
 30
0.0
  3
BLOCK 9
  1

  0
SPLINE
  5
91
330
8E
100
AcDbEntity
  8
LAYER_1
 62
     8
370
    15
100
AcDbSpline
210
0.0
220
0.0
230
1.0
 70
     8
 71
     3
 72
    11
 73
     7
 74
     0
 42
0.000000001
 43
0.00000001
 40
0.0
 40
0.0
 40
0.0
 40
0.0
 40
1.0
 40
1.0
 40
1.0
 40
2.0
 40
2.0
 40
2.0
 40
2.0
 10
-1063.881510243767
 20
670.3722655110427
 30
0.0
 10
-1049.107463628496
 20
697.0071118119616
 30
0.0
 10
-1058.722541539116
 20
730.5756520566166
 30
0.0
 10
-1085.357387840036
 20
745.3496986718801
 30
0.0
 10
-1093.42875987822
 20
749.826797033706
 30
0.0
 10
-1102.494731314202
 20
752.2065048592319
 30
0.0
 10
-1111.724429667133
 20
752.2707281737995
 30
0.0
  0
ENDBLK
  5
90
330
8E
100
AcDbEntity
  8
0
100
AcDbBlockEnd
  0
BLOCK
  5
93
330
92
100
AcDbEntity
  8
0
100
AcDbBlockBegin
  2
BLOCK 10
 70
     0
 10
0.0
 20
0.0
 30
0.0
  3
BLOCK 10
  1

  0
SPLINE
  5
95
330
92
100
AcDbEntity
  8
LAYER_1
 62
     8
370
    15
100
AcDbSpline
210
0.0
220
0.0
230
1.0
 70
     8
 71
     3
 72
     8
 73
     4
 74
     0
 42
0.000000001
 43
0.00000001
 40
0.0
 40
0.0
 40
0.0
 40
0.0
 40
1.0
 40
1.0
 40
1.0
 40
1.0
 10
-1111.724429667568
 20
752.2707281724314
 30
0.0
 10
-1131.493595625843
 20
752.7667001342758
 30
0.0
 10
-1149.941184855585
 20
742.3768047337801
 30
0.0
 10
-1159.764672215569
 20
725.2139085049666
 30
0.0
  0
ENDBLK
  5
94
330
92
100
AcDbEntity
  8
0
100
AcDbBlockEnd
  0
BLOCK
  5
97
330
96
100
AcDbEntity
  8
0
100
AcDbBlockBegin
  2
BLOCK 4
 70
     0
 10
0.0
 20
0.0
 30
0.0
  3
BLOCK 4
  1

  0
INSERT
  5
265
330
96
100
AcDbEntity
  8
0
  6
Continuous
 62
     7
100
AcDbBlockReference
  2
BLOCK 6
 10
0.0
 20
0.0
 30
0.0
  0
INSERT
  5
266
330
96
100
AcDbEntity
  8
0
  6
Continuous
 62
     7
100
AcDbBlockReference
  2
BLOCK 7
 10
0.0
 20
0.0
 30
0.0
  0
INSERT
  5
267
330
96
100
AcDbEntity
  8
0
  6
Continuous
 62
     7
100
AcDbBlockReference
  2
BLOCK 8
 10
0.0
 20
0.0
 30
0.0
  0
INSERT
  5
268
330
96
100
AcDbEntity
  8
0
  6
Continuous
 62
     7
100
AcDbBlockReference
  2
BLOCK 10
 10
0.0
 20
0.0
 30
0.0
  0
INSERT
  5
269
330
96
100
AcDbEntity
  8
0
  6
Continuous
 62
     7
100
AcDbBlockReference
  2
BLOCK 5
 10
0.0
 20
0.0
 30
0.0
  0
INSERT
  5
26A
330
96
100
AcDbEntity
  8
0
  6
Continuous
 62
     7
100
AcDbBlockReference
  2
BLOCK 9
 10
0.0
 20
0.0
 30
0.0
  0
ENDBLK
  5
98
330
96
100
AcDbEntity
  8
0
100
AcDbBlockEnd
  0
BLOCK
  5
9A
330
99
100
AcDbEntity
  8
0
100
AcDbBlockBegin
  2
BLOCK 2
 70
     0
 10
0.0
 20
0.0
 30
0.0
  3
BLOCK 2
  1

  0
SPLINE
  5
9C
330
99
100
AcDbEntity
  8
LAYER_1
 62
     7
370
    15
100
AcDbSpline
210
0.0
220
0.0
230
1.0
 70
     8
 71
     3
 72
     8
 73
     4
 74
     0
 42
0.000000001
 43
0.00000001
 40
149.0
 40
149.0
 40
149.0
 40
149.0
 40
150.0
 40
150.0
 40
150.0
 40
150.0
 10
28.22998559240622
 20
802.6955925537075
 30
0.0
 10
25.71294484703298
 20
804.9666617216811
 30
0.0
 10
22.33243870508287
 20
805.7788296047221
 30
0.0
 10
19.72690974886191
 20
806.4049157574158
 30
0.0
  0
SPLINE
  5
9D
330
99
100
AcDbEntity
  8
LAYER_1
 62
     7
370
    15
100
AcDbSpline
210
0.0
220
0.0
230
1.0
 70
     8
 71
     3
 72
     8
 73
     4
 74
     0
 42
0.000000001
 43
0.00000001
 40
148.0
 40
148.0
 40
148.0
 40
148.0
 40
149.0
 40
149.0
 40
149.0
 40
149.0
 10
32.49203950445277
 20
791.8074388183587
 30
0.0
 10
30.94221337677985
 20
799.5434885907723
 30
0.0
 10
29.64259087137304
 20
801.4209775861493
 30
0.0
 10
28.22998559240622
 20
802.6955925537075
 30
0.0
  0
SPLINE
  5
9E
330
99
100
AcDbEntity
  8
LAYER_1
 62
     7
370
    15
100
AcDbSpline
210
0.0
220
0.0
230
1.0
 70
     8
 71
     3
 72
     8
 73
     4
 74
     0
 42
0.000000001
 43
0.00000001
 40
147.0
 40
147.0
 40
147.0
 40
147.0
 40
148.0
 40
148.0
 40
148.0
 40
148.0
 10
34.40453905281678
 20
775.8245442825081
 30
0.0
 10
34.685777670772
 20
780.8575998229845
 30
0.0
 10
33.95453161533268
 20
784.5075461547757
 30
0.0
 10
32.49203950445277
 20
791.8074388183587
 30
0.0
  0
SPLINE
  5
9F
330
99
100
AcDbEntity
  8
LAYER_1
 62
     7
370
    15
100
AcDbSpline
210
0.0
220
0.0
230
1.0
 70
     8
 71
     3
 72
     8
 73
     4
 74
     0
 42
0.000000001
 43
0.00000001
 40
146.0
 40
146.0
 40
146.0
 40
146.0
 40
147.0
 40
147.0
 40
147.0
 40
147.0
 10
29.26940146040723
 20
757.0477306719798
 30
0.0
 10
32.1238516010555
 20
764.2136085814526
 30
0.0
 10
34.02211608941443
 20
768.9787628574932
 30
0.0
 10
34.40453905281678
 20
775.8245442825081
 30
0.0
  0
SPLINE
  5
A0
330
99
100
AcDbEntity
  8
LAYER_1
 62
     7
370
    15
100
AcDbSpline
210
0.0
220
0.0
230
1.0
 70
     8
 71
     3
 72
     8
 73
     4
 74
     0
 42
0.000000001
 43
0.00000001
 40
145.0
 40
145.0
 40
145.0
 40
145.0
 40
146.0
 40
146.0
 40
146.0
 40
146.0
 10
21.56374546476238
 20
741.4486697811537
 30
0.0
 10
25.52994096749639
 20
748.1533830439481
 30
0.0
 10
27.92566309336031
 20
753.674406181925
 30
0.0
 10
29.26940146040723
 20
757.0477306719798
 30
0.0
  0
SPLINE
  5
A1
330
99
100
AcDbEntity
  8
LAYER_1
 62
     7
370
    15
100
AcDbSpline
210
0.0
220
0.0
230
1.0
 70
     8
 71
     3
 72
     8
 73
     4
 74
     0
 42
0.000000001
 43
0.00000001
 40
144.0
 40
144.0
 40
144.0
 40
144.0
 40
145.0
 40
145.0
 40
145.0
 40
145.0
 10
2.36193195459727
 20
716.9729589044659
 30
0.0
 10
11.8025981017757
 20
724.9480550899524
 30
0.0
 10
17.06264513964351
 20
733.8398378423074
 30
0.0
 10
21.56374546476238
 20
741.4486697811537
 30
0.0
  0
SPLINE
  5
A2
330
99
100
AcDbEntity
  8
LAYER_1
 62
     7
370
    15
100
AcDbSpline
210
0.0
220
0.0
230
1.0
 70
     8
 71
     3
 72
     8
 73
     4
 74
     0
 42
0.000000001
 43
0.00000001
 40
143.0
 40
143.0
 40
143.0
 40
143.0
 40
144.0
 40
144.0
 40
144.0
 40
144.0
 10
-16.45835629865142
 20
704.7741536983007
 30
0.0
 10
-5.351162180509012
 20
713.0420304422871
 30
0.0
 10
-4.834724462996588
 20
710.8934340878787
 30
0.0
 10
2.36193195459727
 20
716.9729589044659
 30
0.0
  0
SPLINE
  5
A3
330
99
100
AcDbEntity
  8
LAYER_1
 62
     7
370
    15
100
AcDbSpline
210
0.0
220
0.0
230
1.0
 70
     8
 71
     3
 72
    11
 73
     7
 74
     0
 42
0.000000001
 43
0.00000001
 40
141.0
 40
141.0
 40
141.0
 40
141.0
 40
142.0
 40
142.0
 40
142.0
 40
143.0
 40
143.0
 40
143.0
 40
143.0
 10
-56.50991594129039
 20
678.7484884501566
 30
0.0
 10
-48.38246614060607
 20
680.3373006881163
 30
0.0
 10
-42.21227296884498
 20
684.4664940401077
 30
0.0
 10
-35.24748131242887
 20
689.2185674501958
 30
0.0
 10
-25.78360304037631
 20
695.6757702101844
 30
0.0
 10
-26.70759950292375
 20
697.1448027540397
 30
0.0
 10
-16.45835629865142
 20
704.7741536983007
 30
0.0
  0
SPLINE
  5
A4
330
99
100
AcDbEntity
  8
LAYER_1
 62
     7
370
    15
100
AcDbSpline
210
0.0
220
0.0
230
1.0
 70
     8
 71
     3
 72
     8
 73
     4
 74
     0
 42
0.000000001
 43
0.00000001
 40
140.0
 40
140.0
 40
140.0
 40
140.0
 40
141.0
 40
141.0
 40
141.0
 40
141.0
 10
-65.7857888262378
 20
676.8840803207307
 30
0.0
 10
-61.09745257671631
 20
677.9833860357837
 30
0.0
 10
-58.23479483390152
 20
678.4113355424483
 30
0.0
 10
-56.50991594129039
 20
678.7484884501566
 30
0.0
  0
SPLINE
  5
A5
330
99
100
AcDbEntity
  8
LAYER_1
 62
     7
370
    15
100
AcDbSpline
210
0.0
220
0.0
230
1.0
 70
     8
 71
     3
 72
     8
 73
     4
 74
     0
 42
0.000000001
 43
0.00000001
 40
139.0
 40
139.0
 40
139.0
 40
139.0
 40
140.0
 40
140.0
 40
140.0
 40
140.0
 10
-76.60404969939542
 20
673.9463999643715
 30
0.0
 10
-73.67932196520307
 20
674.7236855382087
 30
0.0
 10
-71.07443422790186
 20
675.6440911748085
 30
0.0
 10
-65.7857888262378
 20
676.8840803207307
 30
0.0
  0
SPLINE
  5
A6
330
99
100
AcDbEntity
  8
LAYER_1
 62
     7
370
    15
100
AcDbSpline
210
0.0
220
0.0
230
1.0
 70
     8
 71
     3
 72
     8
 73
     4
 74
     0
 42
0.000000001
 43
0.00000001
 40
138.0
 40
138.0
 40
138.0
 40
138.0
 40
139.0
 40
139.0
 40
139.0
 40
139.0
 10
-93.71856738382581
 20
671.7217550461472
 30
0.0
 10
-88.41158312107343
 20
672.0660896057498
 30
0.0
 10
-83.47394095577239
 20
672.1204649700971
 30
0.0
 10
-76.60404969939542
 20
673.9463999643715
 30
0.0
  0
SPLINE
  5
A7
330
99
100
AcDbEntity
  8
LAYER_1
 62
     7
370
    15
100
AcDbSpline
210
0.0
220
0.0
230
1.0
 70
     8
 71
     3
 72
     8
 73
     4
 74
     0
 42
0.000000001
 43
0.00000001
 40
137.0
 40
137.0
 40
137.0
 40
137.0
 40
138.0
 40
138.0
 40
138.0
 40
138.0
 10
-122.540460094757
 20
667.5812762411779
 30
0.0
 10
-116.2436903083486
 20
668.5387443313068
 30
0.0
 10
-107.2245614786441
 20
670.8455935149709
 30
0.0
 10
-93.71856738382581
 20
671.7217550461472
 30
0.0
  0
SPLINE
  5
A8
330
99
100
AcDbEntity
  8
LAYER_1
 62
     7
370
    15
100
AcDbSpline
210
0.0
220
0.0
230
1.0
 70
     8
 71
     3
 72
     8
 73
     4
 74
     0
 42
0.000000001
 43
0.00000001
 40
136.0
 40
136.0
 40
136.0
 40
136.0
 40
137.0
 40
137.0
 40
137.0
 40
137.0
 10
-302.4526384897421
 20
665.8631942691105
 30
0.0
 10
-302.4522537583903
 20
665.8631942691105
 30
0.0
 10
-200.732234025725
 20
655.6919232854117
 30
0.0
 10
-122.540460094757
 20
667.5812762411779
 30
0.0
  0
SPLINE
  5
A9
330
99
100
AcDbEntity
  8
LAYER_1
 62
     7
370
    15
100
AcDbSpline
210
0.0
220
0.0
230
1.0
 70
     8
 71
     3
 72
     8
 73
     4
 74
     0
 42
0.000000001
 43
0.00000001
 40
135.0
 40
135.0
 40
135.0
 40
135.0
 40
136.0
 40
136.0
 40
136.0
 40
136.0
 10
-473.2047481365845
 20
701.5774208985903
 30
0.0
 10
-404.3709231122195
 20
676.4270194751348
 30
0.0
 10
-345.3768588903347
 20
670.1552572265748
 30
0.0
 10
-302.4526384897421
 20
665.8631942691105
 30
0.0
  0
SPLINE
  5
AA
330
99
100
AcDbEntity
  8
LAYER_1
 62
     7
370
    15
100
AcDbSpline
210
0.0
220
0.0
230
1.0
 70
     8
 71
     3
 72
     8
 73
     4
 74
     0
 42
0.000000001
 43
0.00000001
 40
134.0
 40
134.0
 40
134.0
 40
134.0
 40
135.0
 40
135.0
 40
135.0
 40
135.0
 10
-527.7959467717699
 20
723.0506883080802
 30
0.0
 10
-490.5816526027455
 20
708.8821868259589
 30
0.0
 10
-490.4168593405152
 20
707.8663678141844
 30
0.0
 10
-473.2047481365845
 20
701.5774208985903
 30
0.0
  0
SPLINE
  5
AB
330
99
100
AcDbEntity
  8
LAYER_1
 62
     7
370
    15
100
AcDbSpline
210
0.0
220
0.0
230
1.0
 70
     8
 71
     3
 72
     8
 73
     4
 74
     0
 42
0.000000001
 43
0.00000001
 40
133.0
 40
133.0
 40
133.0
 40
133.0
 40
134.0
 40
134.0
 40
134.0
 40
134.0
 10
-647.2413734531741
 20
768.6677716816878
 30
0.0
 10
-604.2600204468822
 20
750.003812600936
 30
0.0
 10
-583.8043674621401
 20
744.3746799531843
 30
0.0
 10
-527.7959467717699
 20
723.0506883080802
 30
0.0
  0
SPLINE
  5
AC
330
99
100
AcDbEntity
  8
LAYER_1
 62
     7
370
    15
100
AcDbSpline
210
0.0
220
0.0
230
1.0
 70
     8
 71
     3
 72
     8
 73
     4
 74
     0
 42
0.000000001
 43
0.00000001
 40
132.0
 40
132.0
 40
132.0
 40
132.0
 40
133.0
 40
133.0
 40
133.0
 40
133.0
 10
-690.2120822254086
 20
788.6140403570276
 30
0.0
 10
-680.2699187615347
 20
783.6571616241512
 30
0.0
 10
-666.4131779179215
 20
776.9928451532652
 30
0.0
 10
-647.2413734531741
 20
768.6677716816878
 30
0.0
  0
SPLINE
  5
AD
330
99
100
AcDbEntity
  8
LAYER_1
 62
     7
370
    15
100
AcDbSpline
210
0.0
220
0.0
230
1.0
 70
     8
 71
     3
 72
     8
 73
     4
 74
     0
 42
0.000000001
 43
0.00000001
 40
131.0
 40
131.0
 40
131.0
 40
131.0
 40
132.0
 40
132.0
 40
132.0
 40
132.0
 10
-739.8099808931066
 20
815.4285331195553
 30
0.0
 10
-718.1894254978789
 20
802.6044112233994
 30
0.0
 10
-700.6284912019115
 20
793.8074006273006
 30
0.0
 10
-690.2120822254086
 20
788.6140403570276
 30
0.0
  0
SPLINE
  5
AE
330
99
100
AcDbEntity
  8
LAYER_1
 62
     7
370
    15
100
AcDbSpline
210
0.0
220
0.0
230
1.0
 70
     8
 71
     3
 72
     8
 73
     4
 74
     0
 42
0.000000001
 43
0.00000001
 40
130.0
 40
130.0
 40
130.0
 40
130.0
 40
131.0
 40
131.0
 40
131.0
 40
131.0
 10
-790.6699907594397
 20
847.3468719912369
 30
0.0
 10
-759.2597537593213
 20
828.2184139254263
 30
0.0
 10
-758.8327660810352
 20
826.7118059529065
 30
0.0
 10
-739.8099808931066
 20
815.4285331195553
 30
0.0
  0
SPLINE
  5
AF
330
99
100
AcDbEntity
  8
LAYER_1
 62
     7
370
    15
100
AcDbSpline
210
0.0
220
0.0
230
1.0
 70
     8
 71
     3
 72
     8
 73
     4
 74
     0
 42
0.000000001
 43
0.00000001
 40
129.0
 40
129.0
 40
129.0
 40
129.0
 40
130.0
 40
130.0
 40
130.0
 40
130.0
 10
-824.8566415577419
 20
866.3268237553634
 30
0.0
 10
-820.1925433833655
 20
864.5502626178659
 30
0.0
 10
-815.4443814086842
 20
862.4342401845523
 30
0.0
 10
-790.6699907594397
 20
847.3468719912369
 30
0.0
  0
SPLINE
  5
B0
330
99
100
AcDbEntity
  8
LAYER_1
 62
     7
370
    15
100
AcDbSpline
210
0.0
220
0.0
230
1.0
 70
     8
 71
     3
 72
     8
 73
     4
 74
     0
 42
0.000000001
 43
0.00000001
 40
128.0
 40
128.0
 40
128.0
 40
128.0
 40
129.0
 40
129.0
 40
129.0
 40
129.0
 10
-856.6338481453105
 20
878.7940432011003
 30
0.0
 10
-846.6514161333123
 20
871.7128061889591
 30
0.0
 10
-839.2177010812953
 20
871.7969341111569
 30
0.0
 10
-824.8566415577419
 20
866.3268237553634
 30
0.0
  0
SPLINE
  5
B1
330
99
100
AcDbEntity
  8
LAYER_1
 62
     7
370
    15
100
AcDbSpline
210
0.0
220
0.0
230
1.0
 70
     8
 71
     3
 72
     8
 73
     4
 74
     0
 42
0.000000001
 43
0.00000001
 40
127.0
 40
127.0
 40
127.0
 40
127.0
 40
128.0
 40
128.0
 40
128.0
 40
128.0
 10
-870.076618054697
 20
885.831036107817
 30
0.0
 10
-862.6687441251236
 20
883.1315044580427
 30
0.0
 10
-857.6596060503327
 20
879.5216984305927
 30
0.0
 10
-856.6338481453105
 20
878.7940432011003
 30
0.0
  0
SPLINE
  5
B2
330
99
100
AcDbEntity
  8
LAYER_1
 62
     7
370
    15
100
AcDbSpline
210
0.0
220
0.0
230
1.0
 70
     8
 71
     3
 72
     8
 73
     4
 74
     0
 42
0.000000001
 43
0.00000001
 40
126.0
 40
126.0
 40
126.0
 40
126.0
 40
127.0
 40
127.0
 40
127.0
 40
127.0
 10
-882.0841476572696
 20
887.9444936654545
 30
0.0
 10
-881.0401791349428
 20
888.0892808974068
 30
0.0
 10
-877.3849748080135
 20
888.4942747667645
 30
0.0
 10
-870.076618054697
 20
885.831036107817
 30
0.0
  0
SPLINE
  5
B3
330
99
100
AcDbEntity
  8
LAYER_1
 62
     7
370
    15
100
AcDbSpline
210
0.0
220
0.0
230
1.0
 70
     8
 71
     3
 72
     8
 73
     4
 74
     0
 42
0.000000001
 43
0.00000001
 40
125.0
 40
125.0
 40
125.0
 40
125.0
 40
126.0
 40
126.0
 40
126.0
 40
126.0
 10
-893.7143840477924
 20
881.6391315455293
 30
0.0
 10
-890.4112730293888
 20
884.4059911818177
 30
0.0
 10
-887.127783309912
 20
887.2447955808386
 30
0.0
 10
-882.0841476572696
 20
887.9444936654545
 30
0.0
  0
SPLINE
  5
B4
330
99
100
AcDbEntity
  8
LAYER_1
 62
     7
370
    15
100
AcDbSpline
210
0.0
220
0.0
230
1.0
 70
     8
 71
     3
 72
     8
 73
     4
 74
     0
 42
0.000000001
 43
0.00000001
 40
124.0
 40
124.0
 40
124.0
 40
124.0
 40
125.0
 40
125.0
 40
125.0
 40
125.0
 10
-913.7249669807272
 20
865.8270577297496
 30
0.0
 10
-903.6907244800591
 20
875.2048844228473
 30
0.0
 10
-909.1305051809744
 20
868.7254954882553
 30
0.0
 10
-893.7143840477924
 20
881.6391315455293
 30
0.0
  0
SPLINE
  5
B5
330
99
100
AcDbEntity
  8
LAYER_1
 62
     7
370
    15
100
AcDbSpline
210
0.0
220
0.0
230
1.0
 70
     8
 71
     3
 72
     8
 73
     4
 74
     0
 42
0.000000001
 43
0.00000001
 40
123.0
 40
123.0
 40
123.0
 40
123.0
 40
124.0
 40
124.0
 40
124.0
 40
124.0
 10
-941.8440196343383
 20
835.4968898771085
 30
0.0
 10
-931.155092617181
 20
849.5371475753924
 30
0.0
 10
-921.4578747804364
 20
858.6000075353863
 30
0.0
 10
-913.7249669807272
 20
865.8270577297496
 30
0.0
  0
SPLINE
  5
B6
330
99
100
AcDbEntity
  8
LAYER_1
 62
     7
370
    15
100
AcDbSpline
210
0.0
220
0.0
230
1.0
 70
     8
 71
     3
 72
     8
 73
     4
 74
     0
 42
0.000000001
 43
0.00000001
 40
122.0
 40
122.0
 40
122.0
 40
122.0
 40
123.0
 40
123.0
 40
123.0
 40
123.0
 10
-961.8215156710431
 20
805.8044783614898
 30
0.0
 10
-955.2728750931786
 20
817.8577268729997
 30
0.0
 10
-946.4369425086853
 20
829.4639175540535
 30
0.0
 10
-941.8440196343383
 20
835.4968898771085
 30
0.0
  0
SPLINE
  5
B7
330
99
100
AcDbEntity
  8
LAYER_1
 62
     7
370
    15
100
AcDbSpline
210
0.0
220
0.0
230
1.0
 70
     8
 71
     3
 72
     8
 73
     4
 74
     0
 42
0.000000001
 43
0.00000001
 40
121.0
 40
121.0
 40
121.0
 40
121.0
 40
122.0
 40
122.0
 40
122.0
 40
122.0
 10
-973.440017755345
 20
788.3297238882606
 30
0.0
 10
-967.4245507087841
 20
794.8404043061095
 30
0.0
 10
-964.2705872109826
 20
801.2967093596116
 30
0.0
 10
-961.8215156710431
 20
805.8044783614898
 30
0.0
  0
SPLINE
  5
B8
330
99
100
AcDbEntity
  8
LAYER_1
 62
     7
370
    15
100
AcDbSpline
210
0.0
220
0.0
230
1.0
 70
     8
 71
     3
 72
     8
 73
     4
 74
     0
 42
0.000000001
 43
0.00000001
 40
120.0
 40
120.0
 40
120.0
 40
120.0
 40
121.0
 40
121.0
 40
121.0
 40
121.0
 10
-978.0060735569778
 20
783.08929814932
 30
0.0
 10
-976.0649115229256
 20
785.6045434817195
 30
0.0
 10
-974.613384255564
 20
787.0597256969209
 30
0.0
 10
-973.440017755345
 20
788.3297238882606
 30
0.0
  0
SPLINE
  5
B9
330
99
100
AcDbEntity
  8
LAYER_1
 62
     7
370
    15
100
AcDbSpline
210
0.0
220
0.0
230
1.0
 70
     8
 71
     3
 72
     8
 73
     4
 74
     0
 42
0.000000001
 43
0.00000001
 40
119.0
 40
119.0
 40
119.0
 40
119.0
 40
120.0
 40
120.0
 40
120.0
 40
120.0
 10
-985.2097833826831
 20
771.0917074399948
 30
0.0
 10
-982.6463183875605
 20
776.3984352151797
 30
0.0
 10
-980.4569405098912
 20
779.9135973301584
 30
0.0
 10
-978.0060735569778
 20
783.08929814932
 30
0.0
  0
SPLINE
  5
BA
330
99
100
AcDbEntity
  8
LAYER_1
 62
     7
370
    15
100
AcDbSpline
210
0.0
220
0.0
230
1.0
 70
     8
 71
     3
 72
     8
 73
     4
 74
     0
 42
0.000000001
 43
0.00000001
 40
118.0
 40
118.0
 40
118.0
 40
118.0
 40
119.0
 40
119.0
 40
119.0
 40
119.0
 10
-990.6269290557517
 20
757.9481302783009
 30
0.0
 10
-988.4049131350956
 20
762.7876659489666
 30
0.0
 10
-988.5134073762223
 20
764.2525946917395
 30
0.0
 10
-985.2097833826831
 20
771.0917074399948
 30
0.0
  0
SPLINE
  5
BB
330
99
100
AcDbEntity
  8
LAYER_1
 62
     7
370
    15
100
AcDbSpline
210
0.0
220
0.0
230
1.0
 70
     8
 71
     3
 72
     8
 73
     4
 74
     0
 42
0.000000001
 43
0.00000001
 40
117.0
 40
117.0
 40
117.0
 40
117.0
 40
118.0
 40
118.0
 40
118.0
 40
118.0
 10
-1004.494506499099
 20
738.3174695549839
 30
0.0
 10
-999.4773531878187
 20
743.9213381773194
 30
0.0
 10
-994.5300286168375
 20
749.447234579082
 30
0.0
 10
-990.6269290557517
 20
757.9481302783009
 30
0.0
  0
SPLINE
  5
BC
330
99
100
AcDbEntity
  8
LAYER_1
 62
     7
370
    15
100
AcDbSpline
210
0.0
220
0.0
230
1.0
 70
     8
 71
     3
 72
     8
 73
     4
 74
     0
 42
0.000000001
 43
0.00000001
 40
116.0
 40
116.0
 40
116.0
 40
116.0
 40
117.0
 40
117.0
 40
117.0
 40
117.0
 10
-1018.181965548047
 20
725.530538356141
 30
0.0
 10
-1012.462036301339
 20
729.418120419383
 30
0.0
 10
-1009.012022028549
 20
733.271717879908
 30
0.0
 10
-1004.494506499099
 20
738.3174695549839
 30
0.0
  0
SPLINE
  5
BD
330
99
100
AcDbEntity
  8
LAYER_1
 62
     7
370
    15
100
AcDbSpline
210
0.0
220
0.0
230
1.0
 70
     8
 71
     3
 72
    11
 73
     7
 74
     0
 42
0.000000001
 43
0.00000001
 40
114.0
 40
114.0
 40
114.0
 40
114.0
 40
115.0
 40
115.0
 40
115.0
 40
116.0
 40
116.0
 40
116.0
 40
116.0
 10
-1038.547783762211
 20
713.0047115011907
 30
0.0
 10
-1037.978188996298
 20
712.5338003269405
 30
0.0
 10
-1036.113652623088
 20
714.1710887151906
 30
0.0
 10
-1032.745906737631
 20
716.5975893491749
 30
0.0
 10
-1025.53501526003
 20
721.793129763773
 30
0.0
 10
-1023.409631030496
 20
721.9775443249305
 30
0.0
 10
-1018.181965548047
 20
725.530538356141
 30
0.0
  0
SPLINE
  5
BE
330
99
100
AcDbEntity
  8
LAYER_1
 62
     7
370
    15
100
AcDbSpline
210
0.0
220
0.0
230
1.0
 70
     8
 71
     3
 72
     8
 73
     4
 74
     0
 42
0.000000001
 43
0.00000001
 40
113.0
 40
113.0
 40
113.0
 40
113.0
 40
114.0
 40
114.0
 40
114.0
 40
114.0
 10
-1031.660066619881
 20
726.6218929565958
 30
0.0
 10
-1037.301125939529
 20
716.8002145276374
 30
0.0
 10
-1039.249661991152
 20
713.5848863792703
 30
0.0
 10
-1038.547783762211
 20
713.0047115011907
 30
0.0
  0
SPLINE
  5
BF
330
99
100
AcDbEntity
  8
LAYER_1
 62
     7
370
    15
100
AcDbSpline
210
0.0
220
0.0
230
1.0
 70
     8
 71
     3
 72
     8
 73
     4
 74
     0
 42
0.000000001
 43
0.00000001
 40
112.0
 40
112.0
 40
112.0
 40
112.0
 40
113.0
 40
113.0
 40
113.0
 40
113.0
 10
-1022.397402844669
 20
742.6819902503164
 30
0.0
 10
-1025.064488817132
 20
738.3587640533796
 30
0.0
 10
-1024.913289395987
 20
738.3686388247351
 30
0.0
 10
-1031.660066619881
 20
726.6218929565958
 30
0.0
  0
SPLINE
  5
C0
330
99
100
AcDbEntity
  8
LAYER_1
 62
     7
370
    15
100
AcDbSpline
210
0.0
220
0.0
230
1.0
 70
     8
 71
     3
 72
     8
 73
     4
 74
     0
 42
0.000000001
 43
0.00000001
 40
111.0
 40
111.0
 40
111.0
 40
111.0
 40
112.0
 40
112.0
 40
112.0
 40
112.0
 10
-1013.984867112514
 20
755.6010125465118
 30
0.0
 10
-1015.792655611375
 20
752.2620573905257
 30
0.0
 10
-1016.564234336832
 20
752.1370197012845
 30
0.0
 10
-1022.397402844669
 20
742.6819902503164
 30
0.0
  0
SPLINE
  5
C1
330
99
100
AcDbEntity
  8
LAYER_1
 62
     7
370
    15
100
AcDbSpline
210
0.0
220
0.0
230
1.0
 70
     8
 71
     3
 72
     8
 73
     4
 74
     0
 42
0.000000001
 43
0.00000001
 40
110.0
 40
110.0
 40
110.0
 40
110.0
 40
111.0
 40
111.0
 40
111.0
 40
111.0
 10
-1013.139227601891
 20
797.434647809353
 30
0.0
 10
-1011.666732475872
 20
792.8855843090782
 30
0.0
 10
-1004.881995091963
 20
772.4137726075734
 30
0.0
 10
-1013.984867112514
 20
755.6010125465118
 30
0.0
  0
SPLINE
  5
C2
330
99
100
AcDbEntity
  8
LAYER_1
 62
     7
370
    15
100
AcDbSpline
210
0.0
220
0.0
230
1.0
 70
     8
 71
     3
 72
     8
 73
     4
 74
     0
 42
0.000000001
 43
0.00000001
 40
109.0
 40
109.0
 40
109.0
 40
109.0
 40
110.0
 40
110.0
 40
110.0
 40
110.0
 10
-1025.372530385909
 20
818.8348162620558
 30
0.0
 10
-1017.455015659366
 20
810.4397216845028
 30
0.0
 10
-1014.524645198685
 20
801.7147840949203
 30
0.0
 10
-1013.139227601891
 20
797.434647809353
 30
0.0
  0
SPLINE
  5
C3
330
99
100
AcDbEntity
  8
LAYER_1
 62
     7
370
    15
100
AcDbSpline
210
0.0
220
0.0
230
1.0
 70
     8
 71
     3
 72
     8
 73
     4
 74
     0
 42
0.000000001
 43
0.00000001
 40
108.0
 40
108.0
 40
108.0
 40
108.0
 40
109.0
 40
109.0
 40
109.0
 40
109.0
 10
-1045.129511236305
 20
831.954155348605
 30
0.0
 10
-1034.228276635005
 20
827.7816155976769
 30
0.0
 10
-1027.596213475755
 20
821.1925782279035
 30
0.0
 10
-1025.372530385909
 20
818.8348162620558
 30
0.0
  0
SPLINE
  5
C4
330
99
100
AcDbEntity
  8
LAYER_1
 62
     7
370
    15
100
AcDbSpline
210
0.0
220
0.0
230
1.0
 70
     8
 71
     3
 72
     8
 73
     4
 74
     0
 42
0.000000001
 43
0.00000001
 40
107.0
 40
107.0
 40
107.0
 40
107.0
 40
108.0
 40
108.0
 40
108.0
 40
108.0
 10
-1065.949889542281
 20
835.5145875192777
 30
0.0
 10
-1055.766243033441
 20
835.7260615188258
 30
0.0
 10
-1048.093417446459
 20
833.0885998604292
 30
0.0
 10
-1045.129511236305
 20
831.954155348605
 30
0.0
  0
SPLINE
  5
C5
330
99
100
AcDbEntity
  8
LAYER_1
 62
     7
370
    15
100
AcDbSpline
210
0.0
220
0.0
230
1.0
 70
     8
 71
     3
 72
     8
 73
     4
 74
     0
 42
0.000000001
 43
0.00000001
 40
106.0
 40
106.0
 40
106.0
 40
106.0
 40
107.0
 40
107.0
 40
107.0
 40
107.0
 10
-1088.24160878022
 20
830.3408485479321
 30
0.0
 10
-1086.155723636107
 20
831.3539744402466
 30
0.0
 10
-1077.728119259352
 20
835.2700266235004
 30
0.0
 10
-1065.949889542281
 20
835.5145875192777
 30
0.0
  0
SPLINE
  5
C6
330
99
100
AcDbEntity
  8
LAYER_1
 62
     7
370
    15
100
AcDbSpline
210
0.0
220
0.0
230
1.0
 70
     8
 71
     3
 72
    11
 73
     7
 74
     0
 42
0.000000001
 43
0.00000001
 40
104.0
 40
104.0
 40
104.0
 40
104.0
 40
105.0
 40
105.0
 40
105.0
 40
106.0
 40
106.0
 40
106.0
 40
106.0
 10
-1113.435035993152
 20
805.9282336128927
 30
0.0
 10
-1109.384071349302
 20
812.1322831435867
 30
0.0
 10
-1105.715657912638
 20
817.7505150697124
 30
0.0
 10
-1099.031335411473
 20
823.2930831633734
 30
0.0
 10
-1093.930438909348
 20
827.5226913981093
 30
0.0
 10
-1089.402022658271
 20
829.7772171179678
 30
0.0
 10
-1088.24160878022
 20
830.3408485479321
 30
0.0
  0
SPLINE
  5
C7
330
99
100
AcDbEntity
  8
LAYER_1
 62
     7
370
    15
100
AcDbSpline
210
0.0
220
0.0
230
1.0
 70
     8
 71
     3
 72
     8
 73
     4
 74
     0
 42
0.000000001
 43
0.00000001
 40
103.0
 40
103.0
 40
103.0
 40
103.0
 40
104.0
 40
104.0
 40
104.0
 40
104.0
 10
-1122.2570541271
 20
790.6320845394903
 30
0.0
 10
-1119.273654861802
 20
796.9863075410581
 30
0.0
 10
-1116.44953437603
 20
801.3114573947522
 30
0.0
 10
-1113.435035993152
 20
805.9282336128927
 30
0.0
  0
SPLINE
  5
C8
330
99
100
AcDbEntity
  8
LAYER_1
 62
     7
370
    15
100
AcDbSpline
210
0.0
220
0.0
230
1.0
 70
     8
 71
     3
 72
     8
 73
     4
 74
     0
 42
0.000000001
 43
0.00000001
 40
102.0
 40
102.0
 40
102.0
 40
102.0
 40
103.0
 40
103.0
 40
103.0
 40
103.0
 10
-1126.019085525965
 20
784.1092209621772
 30
0.0
 10
-1125.03802057961
 20
783.9894412680737
 30
0.0
 10
-1124.203923009533
 20
786.4855782766815
 30
0.0
 10
-1122.2570541271
 20
790.6320845394903
 30
0.0
  0
SPLINE
  5
C9
330
99
100
AcDbEntity
  8
LAYER_1
 62
     7
370
    15
100
AcDbSpline
210
0.0
220
0.0
230
1.0
 70
     8
 71
     3
 72
     8
 73
     4
 74
     0
 42
0.000000001
 43
0.00000001
 40
101.0
 40
101.0
 40
101.0
 40
101.0
 40
102.0
 40
102.0
 40
102.0
 40
102.0
 10
-1127.681702061523
 20
798.1101078188235
 30
0.0
 10
-1129.052884598311
 20
791.3408879327588
 30
0.0
 10
-1127.613348124738
 20
784.3040232698261
 30
0.0
 10
-1126.019085525965
 20
784.1092209621772
 30
0.0
  0
SPLINE
  5
CA
330
99
100
AcDbEntity
  8
LAYER_1
 62
     7
370
    15
100
AcDbSpline
210
0.0
220
0.0
230
1.0
 70
     8
 71
     3
 72
     8
 73
     4
 74
     0
 42
0.000000001
 43
0.00000001
 40
100.0
 40
100.0
 40
100.0
 40
100.0
 40
101.0
 40
101.0
 40
101.0
 40
101.0
 10
-1120.047670219152
 20
814.0443979605999
 30
0.0
 10
-1123.942626299964
 20
804.9661487465456
 30
0.0
 10
-1126.439789258843
 20
804.2411866365144
 30
0.0
 10
-1127.681702061523
 20
798.1101078188235
 30
0.0
  0
SPLINE
  5
CB
330
99
100
AcDbEntity
  8
LAYER_1
 62
     7
370
    15
100
AcDbSpline
210
0.0
220
0.0
230
1.0
 70
     8
 71
     3
 72
     8
 73
     4
 74
     0
 42
0.000000001
 43
0.00000001
 40
99.0
 40
99.0
 40
99.0
 40
99.0
 40
100.0
 40
100.0
 40
100.0
 40
100.0
 10
-1115.480780832924
 20
827.2674862682732
 30
0.0
 10
-1117.946524064763
 20
822.2668764051083
 30
0.0
 10
-1116.901208982705
 20
821.3781469831156
 30
0.0
 10
-1120.047670219152
 20
814.0443979605999
 30
0.0
  0
SPLINE
  5
CC
330
99
100
AcDbEntity
  8
LAYER_1
 62
     7
370
    15
100
AcDbSpline
210
0.0
220
0.0
230
1.0
 70
     8
 71
     3
 72
    11
 73
     7
 74
     0
 42
0.000000001
 43
0.00000001
 40
97.0
 40
97.0
 40
97.0
 40
97.0
 40
98.0
 40
98.0
 40
98.0
 40
99.0
 40
99.0
 40
99.0
 40
99.0
 10
-1082.876786570957
 20
864.9025482920671
 30
0.0
 10
-1089.334053452837
 20
856.6773767280985
 30
0.0
 10
-1094.566592199072
 20
850.0121625507259
 30
0.0
 10
-1102.561437927269
 20
842.0642540474133
 30
0.0
 10
-1109.452553529871
 20
835.2135993586122
 30
0.0
 10
-1112.540086747644
 20
833.2314634356236
 30
0.0
 10
-1115.480780832924
 20
827.2674862682732
 30
0.0
  0
SPLINE
  5
CD
330
99
100
AcDbEntity
  8
LAYER_1
 62
     7
370
    15
100
AcDbSpline
210
0.0
220
0.0
230
1.0
 70
     8
 71
     3
 72
     8
 73
     4
 74
     0
 42
0.000000001
 43
0.00000001
 40
96.0
 40
96.0
 40
96.0
 40
96.0
 40
97.0
 40
97.0
 40
97.0
 40
97.0
 10
-1070.471637116597
 20
882.2495719565943
 30
0.0
 10
-1075.825558604234
 20
873.9152649325798
 30
0.0
 10
-1082.184975479047
 20
865.7837113308128
 30
0.0
 10
-1082.876786570957
 20
864.9025482920671
 30
0.0
  0
SPLINE
  5
CE
330
99
100
AcDbEntity
  8
LAYER_1
 62
     7
370
    15
100
AcDbSpline
210
0.0
220
0.0
230
1.0
 70
     8
 71
     3
 72
     8
 73
     4
 74
     0
 42
0.000000001
 43
0.00000001
 40
95.0
 40
95.0
 40
95.0
 40
95.0
 40
96.0
 40
96.0
 40
96.0
 40
96.0
 10
-1050.36038281335
 20
926.38672206472
 30
0.0
 10
-1062.228703788567
 20
902.5412011418084
 30
0.0
 10
-1059.474155555527
 20
899.3690911485945
 30
0.0
 10
-1070.471637116597
 20
882.2495719565943
 30
0.0
  0
SPLINE
  5
CF
330
99
100
AcDbEntity
  8
LAYER_1
 62
     7
370
    15
100
AcDbSpline
210
0.0
220
0.0
230
1.0
 70
     8
 71
     3
 72
     8
 73
     4
 74
     0
 42
0.000000001
 43
0.00000001
 40
94.0
 40
94.0
 40
94.0
 40
94.0
 40
95.0
 40
95.0
 40
95.0
 40
95.0
 10
-1028.85537506736
 20
968.6676716455848
 30
0.0
 10
-1030.544281578605
 20
966.7662010626308
 30
0.0
 10
-1036.629705609249
 20
953.9740118686506
 30
0.0
 10
-1050.36038281335
 20
926.38672206472
 30
0.0
  0
SPLINE
  5
D0
330
99
100
AcDbEntity
  8
LAYER_1
 62
     7
370
    15
100
AcDbSpline
210
0.0
220
0.0
230
1.0
 70
     8
 71
     3
 72
     8
 73
     4
 74
     0
 42
0.000000001
 43
0.00000001
 40
93.0
 40
93.0
 40
93.0
 40
93.0
 40
94.0
 40
94.0
 40
94.0
 40
94.0
 10
-1026.650992666982
 20
972.3067172557504
 30
0.0
 10
-1027.409747014055
 20
970.2203191365023
 30
0.0
 10
-1028.625818694292
 20
968.9260828700169
 30
0.0
 10
-1028.85537506736
 20
968.6676716455848
 30
0.0
  0
SPLINE
  5
D1
330
99
100
AcDbEntity
  8
LAYER_1
 62
     7
370
    15
100
AcDbSpline
210
0.0
220
0.0
230
1.0
 70
     8
 71
     3
 72
    14
 73
    10
 74
     0
 42
0.000000001
 43
0.00000001
 40
90.0
 40
90.0
 40
90.0
 40
90.0
 40
91.0
 40
91.0
 40
91.0
 40
92.0
 40
92.0
 40
92.0
 40
93.0
 40
93.0
 40
93.0
 40
93.0
 10
-1045.019157460313
 20
1033.767807147312
 30
0.0
 10
-1041.910079286855
 20
1021.753544746089
 30
0.0
 10
-1036.123976247688
 20
991.5123780794307
 30
0.0
 10
-1029.348087684863
 20
983.4312242847112
 30
0.0
 10
-1028.724630529738
 20
982.6876668260228
 30
0.0
 10
-1025.864217053141
 20
979.4737493592781
 30
0.0
 10
-1026.027535511858
 20
975.2897959115884
 30
0.0
 10
-1026.087168871341
 20
973.762027714735
 30
0.0
 10
-1026.650864423199
 20
972.307101987102
 30
0.0
 10
-1026.650992666982
 20
972.3067172557504
 30
0.0
  0
SPLINE
  5
D2
330
99
100
AcDbEntity
  8
LAYER_1
 62
     7
370
    15
100
AcDbSpline
210
0.0
220
0.0
230
1.0
 70
     8
 71
     3
 72
     8
 73
     4
 74
     0
 42
0.000000001
 43
0.00000001
 40
89.0
 40
89.0
 40
89.0
 40
89.0
 40
90.0
 40
90.0
 40
90.0
 40
90.0
 10
-1081.28842318624
 20
1100.349543083711
 30
0.0
 10
-1059.076407459956
 20
1053.616097571801
 30
0.0
 10
-1051.521117300861
 20
1058.892816301568
 30
0.0
 10
-1045.019157460313
 20
1033.767807147312
 30
0.0
  0
SPLINE
  5
D3
330
99
100
AcDbEntity
  8
LAYER_1
 62
     7
370
    15
100
AcDbSpline
210
0.0
220
0.0
230
1.0
 70
     8
 71
     3
 72
     8
 73
     4
 74
     0
 42
0.000000001
 43
0.00000001
 40
88.0
 40
88.0
 40
88.0
 40
88.0
 40
89.0
 40
89.0
 40
89.0
 40
89.0
 10
-1104.270863443927
 20
1164.868349513305
 30
0.0
 10
-1100.767243269494
 20
1141.332409084576
 30
0.0
 10
-1092.504560398753
 20
1123.947938235169
 30
0.0
 10
-1081.28842318624
 20
1100.349543083711
 30
0.0
  0
SPLINE
  5
D4
330
99
100
AcDbEntity
  8
LAYER_1
 62
     7
370
    15
100
AcDbSpline
210
0.0
220
0.0
230
1.0
 70
     8
 71
     3
 72
     8
 73
     4
 74
     0
 42
0.000000001
 43
0.00000001
 40
87.0
 40
87.0
 40
87.0
 40
87.0
 40
88.0
 40
88.0
 40
88.0
 40
88.0
 10
-1108.691554916581
 20
1193.227410408368
 30
0.0
 10
-1106.052490210886
 20
1179.362333718805
 30
0.0
 10
-1105.172673731871
 20
1170.926457617992
 30
0.0
 10
-1104.270863443927
 20
1164.868349513305
 30
0.0
  0
SPLINE
  5
D5
330
99
100
AcDbEntity
  8
LAYER_1
 62
     7
370
    15
100
AcDbSpline
210
0.0
220
0.0
230
1.0
 70
     8
 71
     3
 72
     8
 73
     4
 74
     0
 42
0.000000001
 43
0.00000001
 40
86.0
 40
86.0
 40
86.0
 40
86.0
 40
87.0
 40
87.0
 40
87.0
 40
87.0
 10
-1117.193027712827
 20
1229.200176506063
 30
0.0
 10
-1115.659103814349
 20
1223.531416529106
 30
0.0
 10
-1112.084115974211
 20
1211.051116217418
 30
0.0
 10
-1108.691554916581
 20
1193.227410408368
 30
0.0
  0
SPLINE
  5
D6
330
99
100
AcDbEntity
  8
LAYER_1
 62
     7
370
    15
100
AcDbSpline
210
0.0
220
0.0
230
1.0
 70
     8
 71
     3
 72
     8
 73
     4
 74
     0
 42
0.000000001
 43
0.00000001
 40
85.0
 40
85.0
 40
85.0
 40
85.0
 40
86.0
 40
86.0
 40
86.0
 40
86.0
 10
-1129.016912216944
 20
1308.083569163265
 30
0.0
 10
-1124.740495001108
 20
1268.821478253928
 30
0.0
 10
-1122.602286393189
 20
1249.190432799259
 30
0.0
 10
-1117.193027712827
 20
1229.200176506063
 30
0.0
  0
SPLINE
  5
D7
330
99
100
AcDbEntity
  8
LAYER_1
 62
     7
370
    15
100
AcDbSpline
210
0.0
220
0.0
230
1.0
 70
     8
 71
     3
 72
     8
 73
     4
 74
     0
 42
0.000000001
 43
0.00000001
 40
84.0
 40
84.0
 40
84.0
 40
84.0
 40
85.0
 40
85.0
 40
85.0
 40
85.0
 10
-1134.186547387207
 20
1379.560755060082
 30
0.0
 10
-1133.587456551011
 20
1350.526105911764
 30
0.0
 10
-1131.27637532248
 20
1328.828283636776
 30
0.0
 10
-1129.016912216944
 20
1308.083569163265
 30
0.0
  0
SPLINE
  5
D8
330
99
100
AcDbEntity
  8
LAYER_1
 62
     7
370
    15
100
AcDbSpline
210
0.0
220
0.0
230
1.0
 70
     8
 71
     3
 72
     8
 73
     4
 74
     0
 42
0.000000001
 43
0.00000001
 40
83.0
 40
83.0
 40
83.0
 40
83.0
 40
84.0
 40
84.0
 40
84.0
 40
84.0
 10
-1133.897614142222
 20
1418.486847255766
 30
0.0
 10
-1134.232522783712
 20
1408.999628615054
 30
0.0
 10
-1134.515428570857
 20
1395.499149002942
 30
0.0
 10
-1134.186547387207
 20
1379.560755060082
 30
0.0
  0
SPLINE
  5
D9
330
99
100
AcDbEntity
  8
LAYER_1
 62
     7
370
    15
100
AcDbSpline
210
0.0
220
0.0
230
1.0
 70
     8
 71
     3
 72
     8
 73
     4
 74
     0
 42
0.000000001
 43
0.00000001
 40
82.0
 40
82.0
 40
82.0
 40
82.0
 40
83.0
 40
83.0
 40
83.0
 40
83.0
 10
-1130.706524068999
 20
1464.861851391851
 30
0.0
 10
-1131.14236056837
 20
1460.79985778259
 30
0.0
 10
-1133.042933444838
 20
1442.69773471883
 30
0.0
 10
-1133.897614142222
 20
1418.486847255766
 30
0.0
  0
SPLINE
  5
DA
330
99
100
AcDbEntity
  8
LAYER_1
 62
     7
370
    15
100
AcDbSpline
210
0.0
220
0.0
230
1.0
 70
     8
 71
     3
 72
     8
 73
     4
 74
     0
 42
0.000000001
 43
0.00000001
 40
81.0
 40
81.0
 40
81.0
 40
81.0
 40
82.0
 40
82.0
 40
82.0
 40
82.0
 10
-1122.597669616971
 20
1518.064298091863
 30
0.0
 10
-1127.566346777961
 20
1492.646636622891
 30
0.0
 10
-1129.855370075672
 20
1472.794755372455
 30
0.0
 10
-1130.706524068999
 20
1464.861851391851
 30
0.0
  0
SPLINE
  5
DB
330
99
100
AcDbEntity
  8
LAYER_1
 62
     7
370
    15
100
AcDbSpline
210
0.0
220
0.0
230
1.0
 70
     8
 71
     3
 72
     8
 73
     4
 74
     0
 42
0.000000001
 43
0.00000001
 40
80.0
 40
80.0
 40
80.0
 40
80.0
 40
81.0
 40
81.0
 40
81.0
 40
81.0
 10
-1113.253571039023
 20
1558.757846116391
 30
0.0
 10
-1118.183133845942
 20
1540.505164850405
 30
0.0
 10
-1120.95800871872
 20
1526.451954529953
 30
0.0
 10
-1122.597669616971
 20
1518.064298091863
 30
0.0
  0
SPLINE
  5
DC
330
99
100
AcDbEntity
  8
LAYER_1
 62
     7
370
    15
100
AcDbSpline
210
0.0
220
0.0
230
1.0
 70
     8
 71
     3
 72
     8
 73
     4
 74
     0
 42
0.000000001
 43
0.00000001
 40
79.0
 40
79.0
 40
79.0
 40
79.0
 40
80.0
 40
80.0
 40
80.0
 40
80.0
 10
-1100.878622995757
 20
1598.864037610944
 30
0.0
 10
-1106.378229421833
 20
1584.215263158352
 30
0.0
 10
-1109.385289665249
 20
1573.081137845604
 30
0.0
 10
-1113.253571039023
 20
1558.757846116391
 30
0.0
  0
SPLINE
  5
DD
330
99
100
AcDbEntity
  8
LAYER_1
 62
     7
370
    15
100
AcDbSpline
210
0.0
220
0.0
230
1.0
 70
     8
 71
     3
 72
     8
 73
     4
 74
     0
 42
0.000000001
 43
0.00000001
 40
78.0
 40
78.0
 40
78.0
 40
78.0
 40
79.0
 40
79.0
 40
79.0
 40
79.0
 10
-1091.263096449317
 20
1626.189197120711
 30
0.0
 10
-1094.586534107459
 20
1614.460277138525
 30
0.0
 10
-1097.522867904088
 20
1607.802372856831
 30
0.0
 10
-1100.878622995757
 20
1598.864037610944
 30
0.0
  0
SPLINE
  5
DE
330
99
100
AcDbEntity
  8
LAYER_1
 62
     7
370
    15
100
AcDbSpline
210
0.0
220
0.0
230
1.0
 70
     8
 71
     3
 72
     8
 73
     4
 74
     0
 42
0.000000001
 43
0.00000001
 40
77.0
 40
77.0
 40
77.0
 40
77.0
 40
78.0
 40
78.0
 40
78.0
 40
78.0
 10
-1086.619324914679
 20
1646.012608251135
 30
0.0
 10
-1087.451114096647
 20
1642.057826445163
 30
0.0
 10
-1088.579659394415
 20
1635.659487581956
 30
0.0
 10
-1091.263096449317
 20
1626.189197120711
 30
0.0
  0
SPLINE
  5
DF
330
99
100
AcDbEntity
  8
LAYER_1
 62
     7
370
    15
100
AcDbSpline
210
0.0
220
0.0
230
1.0
 70
     8
 71
     3
 72
     8
 73
     4
 74
     0
 42
0.000000001
 43
0.00000001
 40
76.0
 40
76.0
 40
76.0
 40
76.0
 40
77.0
 40
77.0
 40
77.0
 40
77.0
 10
-1049.489415155419
 20
1724.522170278452
 30
0.0
 10
-1071.313236948029
 20
1677.534417343192
 30
0.0
 10
-1081.361393899244
 20
1671.012194984798
 30
0.0
 10
-1086.619324914679
 20
1646.012608251135
 30
0.0
  0
SPLINE
  5
E0
330
99
100
AcDbEntity
  8
LAYER_1
 62
     7
370
    15
100
AcDbSpline
210
0.0
220
0.0
230
1.0
 70
     8
 71
     3
 72
     8
 73
     4
 74
     0
 42
0.000000001
 43
0.00000001
 40
75.0
 40
75.0
 40
75.0
 40
75.0
 40
76.0
 40
76.0
 40
76.0
 40
76.0
 10
-1038.622998741432
 20
1746.039681793366
 30
0.0
 10
-1043.06125961247
 20
1739.166584442393
 30
0.0
 10
-1044.454948933321
 20
1735.361591375942
 30
0.0
 10
-1049.489415155419
 20
1724.522170278452
 30
0.0
  0
SPLINE
  5
E1
330
99
100
AcDbEntity
  8
LAYER_1
 62
     7
370
    15
100
AcDbSpline
210
0.0
220
0.0
230
1.0
 70
     8
 71
     3
 72
     8
 73
     4
 74
     0
 42
0.000000001
 43
0.00000001
 40
74.0
 40
74.0
 40
74.0
 40
74.0
 40
75.0
 40
75.0
 40
75.0
 40
75.0
 10
-1015.882233894386
 20
1774.999180084355
 30
0.0
 10
-1027.251622428584
 20
1759.16722848208
 30
0.0
 10
-1031.300278684325
 20
1757.379766622957
 30
0.0
 10
-1038.622998741432
 20
1746.039681793366
 30
0.0
  0
SPLINE
  5
E2
330
99
100
AcDbEntity
  8
LAYER_1
 62
     7
370
    15
100
AcDbSpline
210
0.0
220
0.0
230
1.0
 70
     8
 71
     3
 72
     8
 73
     4
 74
     0
 42
0.000000001
 43
0.00000001
 40
73.0
 40
73.0
 40
73.0
 40
73.0
 40
74.0
 40
74.0
 40
74.0
 40
74.0
 10
-1004.854679166006
 20
1790.811638631485
 30
0.0
 10
-1009.979749621385
 20
1784.407657041789
 30
0.0
 10
-1009.563790908509
 20
1783.797729605859
 30
0.0
 10
-1015.882233894386
 20
1774.999180084355
 30
0.0
  0
SPLINE
  5
E3
330
99
100
AcDbEntity
  8
LAYER_1
 62
     7
370
    15
100
AcDbSpline
210
0.0
220
0.0
230
1.0
 70
     8
 71
     3
 72
     8
 73
     4
 74
     0
 42
0.000000001
 43
0.00000001
 40
72.0
 40
72.0
 40
72.0
 40
72.0
 40
73.0
 40
73.0
 40
73.0
 40
73.0
 10
-987.3291401543772
 20
1809.42186356681
 30
0.0
 10
-995.535267516446
 20
1801.352251712635
 30
0.0
 10
-999.7873825352451
 20
1797.143547214665
 30
0.0
 10
-1004.854679166006
 20
1790.811638631485
 30
0.0
  0
SPLINE
  5
E4
330
99
100
AcDbEntity
  8
LAYER_1
 62
     7
370
    15
100
AcDbSpline
210
0.0
220
0.0
230
1.0
 70
     8
 71
     3
 72
     8
 73
     4
 74
     0
 42
0.000000001
 43
0.00000001
 40
71.0
 40
71.0
 40
71.0
 40
71.0
 40
72.0
 40
72.0
 40
72.0
 40
72.0
 10
-968.2909015904962
 20
1828.439134272033
 30
0.0
 10
-972.0231163096195
 20
1822.772810926969
 30
0.0
 10
-972.820279669952
 20
1823.68924100627
 30
0.0
 10
-987.3291401543772
 20
1809.42186356681
 30
0.0
  0
SPLINE
  5
E5
330
99
100
AcDbEntity
  8
LAYER_1
 62
     7
370
    15
100
AcDbSpline
210
0.0
220
0.0
230
1.0
 70
     8
 71
     3
 72
     8
 73
     4
 74
     0
 42
0.000000001
 43
0.00000001
 40
70.0
 40
70.0
 40
70.0
 40
70.0
 40
71.0
 40
71.0
 40
71.0
 40
71.0
 10
-958.107703934901
 20
1844.048198177998
 30
0.0
 10
-963.656684217754
 20
1837.911220146251
 30
0.0
 10
-964.2960436020746
 20
1834.504295784831
 30
0.0
 10
-968.2909015904962
 20
1828.439134272033
 30
0.0
  0
SPLINE
  5
E6
330
99
100
AcDbEntity
  8
LAYER_1
 62
     7
370
    15
100
AcDbSpline
210
0.0
220
0.0
230
1.0
 70
     8
 71
     3
 72
     8
 73
     4
 74
     0
 42
0.000000001
 43
0.00000001
 40
69.0
 40
69.0
 40
69.0
 40
69.0
 40
70.0
 40
70.0
 40
70.0
 40
70.0
 10
-948.8887712899775
 20
1853.052707216345
 30
0.0
 10
-955.994374621047
 20
1846.101124669664
 30
0.0
 10
-956.3070329660422
 20
1846.039567653422
 30
0.0
 10
-958.107703934901
 20
1844.048198177998
 30
0.0
  0
SPLINE
  5
E7
330
99
100
AcDbEntity
  8
LAYER_1
 62
     7
370
    15
100
AcDbSpline
210
0.0
220
0.0
230
1.0
 70
     8
 71
     3
 72
     8
 73
     4
 74
     0
 42
0.000000001
 43
0.00000001
 40
68.0
 40
68.0
 40
68.0
 40
68.0
 40
69.0
 40
69.0
 40
69.0
 40
69.0
 10
-939.1394223551034
 20
1862.714593890643
 30
0.0
 10
-942.4710034935188
 20
1859.559796808247
 30
0.0
 10
-942.0218296406288
 20
1859.770886076443
 30
0.0
 10
-948.8887712899775
 20
1853.052707216345
 30
0.0
  0
SPLINE
  5
E8
330
99
100
AcDbEntity
  8
LAYER_1
 62
     7
370
    15
100
AcDbSpline
210
0.0
220
0.0
230
1.0
 70
     8
 71
     3
 72
     8
 73
     4
 74
     0
 42
0.000000001
 43
0.00000001
 40
67.0
 40
67.0
 40
67.0
 40
67.0
 40
68.0
 40
68.0
 40
68.0
 40
68.0
 10
-924.1592018431843
 20
1875.587448424657
 30
0.0
 10
-929.447526635388
 20
1871.892488524738
 30
0.0
 10
-932.874200539519
 20
1868.647664306088
 30
0.0
 10
-939.1394223551034
 20
1862.714593890643
 30
0.0
  0
SPLINE
  5
E9
330
99
100
AcDbEntity
  8
LAYER_1
 62
     7
370
    15
100
AcDbSpline
210
0.0
220
0.0
230
1.0
 70
     8
 71
     3
 72
     8
 73
     4
 74
     0
 42
0.000000001
 43
0.00000001
 40
66.0
 40
66.0
 40
66.0
 40
66.0
 40
67.0
 40
67.0
 40
67.0
 40
67.0
 10
-912.3483982050183
 20
1884.072826626031
 30
0.0
 10
-917.6550618583111
 20
1880.017245205962
 30
0.0
 10
-922.2182321748076
 20
1876.943498194952
 30
0.0
 10
-924.1592018431843
 20
1875.587448424657
 30
0.0
  0
SPLINE
  5
EA
330
99
100
AcDbEntity
  8
LAYER_1
 62
     7
370
    15
100
AcDbSpline
210
0.0
220
0.0
230
1.0
 70
     8
 71
     3
 72
     8
 73
     4
 74
     0
 42
0.000000001
 43
0.00000001
 40
65.0
 40
65.0
 40
65.0
 40
65.0
 40
66.0
 40
66.0
 40
66.0
 40
66.0
 10
-907.9965095223935
 20
1887.833190855706
 30
0.0
 10
-911.1501524107348
 20
1884.988487242629
 30
0.0
 10
-912.3480775955585
 20
1884.073083113599
 30
0.0
 10
-912.3483982050183
 20
1884.072826626031
 30
0.0
  0
SPLINE
  5
EB
330
99
100
AcDbEntity
  8
LAYER_1
 62
     7
370
    15
100
AcDbSpline
210
0.0
220
0.0
230
1.0
 70
     8
 71
     3
 72
    11
 73
     7
 74
     0
 42
0.000000001
 43
0.00000001
 40
63.0
 40
63.0
 40
63.0
 40
63.0
 40
64.0
 40
64.0
 40
64.0
 40
65.0
 40
65.0
 40
65.0
 40
65.0
 10
-903.8646230509415
 20
1898.690309595367
 30
0.0
 10
-903.3469028955903
 20
1896.550177330691
 30
0.0
 10
-902.5552540179633
 20
1895.737111741163
 30
0.0
 10
-902.9190816327099
 20
1893.96273074799
 30
0.0
 10
-903.2001278849889
 20
1892.592061186338
 30
0.0
 10
-904.0103721112731
 20
1891.428633579367
 30
0.0
 10
-907.9965095223935
 20
1887.833190855706
 30
0.0
  0
SPLINE
  5
EC
330
99
100
AcDbEntity
  8
LAYER_1
 62
     7
370
    15
100
AcDbSpline
210
0.0
220
0.0
230
1.0
 70
     8
 71
     3
 72
     8
 73
     4
 74
     0
 42
0.000000001
 43
0.00000001
 40
62.0
 40
62.0
 40
62.0
 40
62.0
 40
63.0
 40
63.0
 40
63.0
 40
63.0
 10
-900.5750417517328
 20
1914.899041434554
 30
0.0
 10
-902.9912187611184
 20
1904.594396915665
 30
0.0
 10
-904.8830069383932
 20
1902.89978355604
 30
0.0
 10
-903.8646230509415
 20
1898.690309595367
 30
0.0
  0
SPLINE
  5
ED
330
99
100
AcDbEntity
  8
LAYER_1
 62
     7
370
    15
100
AcDbSpline
210
0.0
220
0.0
230
1.0
 70
     8
 71
     3
 72
     8
 73
     4
 74
     0
 42
0.000000001
 43
0.00000001
 40
61.0
 40
61.0
 40
61.0
 40
61.0
 40
62.0
 40
62.0
 40
62.0
 40
62.0
 10
-898.9569258091664
 20
1923.0037920855
 30
0.0
 10
-899.3879531666436
 20
1920.570238043405
 30
0.0
 10
-899.8285346860162
 20
1918.082821612098
 30
0.0
 10
-900.5750417517328
 20
1914.899041434554
 30
0.0
  0
SPLINE
  5
EE
330
99
100
AcDbEntity
  8
LAYER_1
 62
     7
370
    15
100
AcDbSpline
210
0.0
220
0.0
230
1.0
 70
     8
 71
     3
 72
     8
 73
     4
 74
     0
 42
0.000000001
 43
0.00000001
 40
60.0
 40
60.0
 40
60.0
 40
60.0
 40
61.0
 40
61.0
 40
61.0
 40
61.0
 10
-897.401264589329
 20
1933.579800450989
 30
0.0
 10
-897.6356942261831
 20
1931.916222087053
 30
0.0
 10
-897.9887493630872
 20
1928.46979864021
 30
0.0
 10
-898.9569258091664
 20
1923.0037920855
 30
0.0
  0
SPLINE
  5
EF
330
99
100
AcDbEntity
  8
LAYER_1
 62
     7
370
    15
100
AcDbSpline
210
0.0
220
0.0
230
1.0
 70
     8
 71
     3
 72
     8
 73
     4
 74
     0
 42
0.000000001
 43
0.00000001
 40
59.0
 40
59.0
 40
59.0
 40
59.0
 40
60.0
 40
60.0
 40
60.0
 40
60.0
 10
-883.7500344093148
 20
1960.470726508683
 30
0.0
 10
-890.7697785271052
 20
1950.514648594263
 30
0.0
 10
-896.0750314987765
 20
1942.990585796533
 30
0.0
 10
-897.401264589329
 20
1933.579800450989
 30
0.0
  0
SPLINE
  5
F0
330
99
100
AcDbEntity
  8
LAYER_1
 62
     7
370
    15
100
AcDbSpline
210
0.0
220
0.0
230
1.0
 70
     8
 71
     3
 72
     8
 73
     4
 74
     0
 42
0.000000001
 43
0.00000001
 40
58.0
 40
58.0
 40
58.0
 40
58.0
 40
59.0
 40
59.0
 40
59.0
 40
59.0
 10
-874.7764962447642
 20
1970.793581644877
 30
0.0
 10
-876.8762317175315
 20
1969.032538005225
 30
0.0
 10
-879.5191437367408
 20
1966.471253154427
 30
0.0
 10
-883.7500344093148
 20
1960.470726508683
 30
0.0
  0
SPLINE
  5
F1
330
99
100
AcDbEntity
  8
LAYER_1
 62
     7
370
    15
100
AcDbSpline
210
0.0
220
0.0
230
1.0
 70
     8
 71
     3
 72
     8
 73
     4
 74
     0
 42
0.000000001
 43
0.00000001
 40
57.0
 40
57.0
 40
57.0
 40
57.0
 40
58.0
 40
58.0
 40
58.0
 40
58.0
 10
-865.6506044650149
 20
1976.704850617071
 30
0.0
 10
-870.3640764961684
 20
1974.174344274395
 30
0.0
 10
-872.7524887263531
 20
1972.491272855315
 30
0.0
 10
-874.7764962447642
 20
1970.793581644877
 30
0.0
  0
SPLINE
  5
F2
330
99
100
AcDbEntity
  8
LAYER_1
 62
     7
370
    15
100
AcDbSpline
210
0.0
220
0.0
230
1.0
 70
     8
 71
     3
 72
     8
 73
     4
 74
     0
 42
0.000000001
 43
0.00000001
 40
56.0
 40
56.0
 40
56.0
 40
56.0
 40
57.0
 40
57.0
 40
57.0
 40
57.0
 10
-847.4228024930932
 20
1984.706493265811
 30
0.0
 10
-851.5281425012905
 20
1983.228868388439
 30
0.0
 10
-857.9940017166884
 20
1980.815320376622
 30
0.0
 10
-865.6506044650149
 20
1976.704850617071
 30
0.0
  0
SPLINE
  5
F3
330
99
100
AcDbEntity
  8
LAYER_1
 62
     7
370
    15
100
AcDbSpline
210
0.0
220
0.0
230
1.0
 70
     8
 71
     3
 72
     8
 73
     4
 74
     0
 42
0.000000001
 43
0.00000001
 40
55.0
 40
55.0
 40
55.0
 40
55.0
 40
56.0
 40
56.0
 40
56.0
 40
56.0
 10
-820.0022937300429
 20
1993.347046445629
 30
0.0
 10
-832.7609471745502
 20
1989.959102164216
 30
0.0
 10
-841.2360017513254
 20
1986.933318328361
 30
0.0
 10
-847.4228024930932
 20
1984.706493265811
 30
0.0
  0
SPLINE
  5
F4
330
99
100
AcDbEntity
  8
LAYER_1
 62
     7
370
    15
100
AcDbSpline
210
0.0
220
0.0
230
1.0
 70
     8
 71
     3
 72
     8
 73
     4
 74
     0
 42
0.000000001
 43
0.00000001
 40
54.0
 40
54.0
 40
54.0
 40
54.0
 40
55.0
 40
55.0
 40
55.0
 40
55.0
 10
-794.0211931967818
 20
1998.790995069519
 30
0.0
 10
-801.7909069624529
 20
1998.182863046563
 30
0.0
 10
-807.8613905922805
 20
1996.571095171297
 30
0.0
 10
-820.0022937300429
 20
1993.347046445629
 30
0.0
  0
SPLINE
  5
F5
330
99
100
AcDbEntity
  8
LAYER_1
 62
     7
370
    15
100
AcDbSpline
210
0.0
220
0.0
230
1.0
 70
     8
 71
     3
 72
     8
 73
     4
 74
     0
 42
0.000000001
 43
0.00000001
 40
53.0
 40
53.0
 40
53.0
 40
53.0
 40
54.0
 40
54.0
 40
54.0
 40
54.0
 10
-772.3804394056006
 20
1998.132591483299
 30
0.0
 10
-781.5352501586057
 20
1998.932832694444
 30
0.0
 10
-786.7255325780662
 20
1999.361936395163
 30
0.0
 10
-794.0211931967818
 20
1998.790995069519
 30
0.0
  0
SPLINE
  5
F6
330
99
100
AcDbEntity
  8
LAYER_1
 62
     7
370
    15
100
AcDbSpline
210
0.0
220
0.0
230
1.0
 70
     8
 71
     3
 72
     8
 73
     4
 74
     0
 42
0.000000001
 43
0.00000001
 40
52.0
 40
52.0
 40
52.0
 40
52.0
 40
53.0
 40
53.0
 40
53.0
 40
53.0
 10
-738.8842531394782
 20
1992.817656105949
 30
0.0
 10
-749.9985006657317
 20
1996.176104317078
 30
0.0
 10
-758.79749904048
 20
1996.945054044966
 30
0.0
 10
-772.3804394056006
 20
1998.132591483299
 30
0.0
  0
SPLINE
  5
F7
330
99
100
AcDbEntity
  8
LAYER_1
 62
     7
370
    15
100
AcDbSpline
210
0.0
220
0.0
230
1.0
 70
     8
 71
     3
 72
     8
 73
     4
 74
     0
 42
0.000000001
 43
0.00000001
 40
51.0
 40
51.0
 40
51.0
 40
51.0
 40
52.0
 40
52.0
 40
52.0
 40
52.0
 10
-708.946190655919
 20
1978.661850758427
 30
0.0
 10
-720.9161448298271
 20
1987.286245221482
 30
0.0
 10
-731.9653086357832
 20
1990.727025941834
 30
0.0
 10
-738.8842531394782
 20
1992.817656105949
 30
0.0
  0
SPLINE
  5
F8
330
99
100
AcDbEntity
  8
LAYER_1
 62
     7
370
    15
100
AcDbSpline
210
0.0
220
0.0
230
1.0
 70
     8
 71
     3
 72
     8
 73
     4
 74
     0
 42
0.000000001
 43
0.00000001
 40
50.0
 40
50.0
 40
50.0
 40
50.0
 40
51.0
 40
51.0
 40
51.0
 40
51.0
 10
-685.3234291855329
 20
1953.807435988068
 30
0.0
 10
-689.617544043539
 20
1959.945952945221
 30
0.0
 10
-696.6243996610535
 20
1969.784046578511
 30
0.0
 10
-708.946190655919
 20
1978.661850758427
 30
0.0
  0
SPLINE
  5
F9
330
99
100
AcDbEntity
  8
LAYER_1
 62
     7
370
    15
100
AcDbSpline
210
0.0
220
0.0
230
1.0
 70
     8
 71
     3
 72
     8
 73
     4
 74
     0
 42
0.000000001
 43
0.00000001
 40
49.0
 40
49.0
 40
49.0
 40
49.0
 40
50.0
 40
50.0
 40
50.0
 40
50.0
 10
-674.7273506678736
 20
1934.968937117514
 30
0.0
 10
-678.3946740323744
 20
1943.828787167693
 30
0.0
 10
-682.5709328530342
 20
1949.872660212374
 30
0.0
 10
-685.3234291855329
 20
1953.807435988068
 30
0.0
  0
SPLINE
  5
FA
330
99
100
AcDbEntity
  8
LAYER_1
 62
     7
370
    15
100
AcDbSpline
210
0.0
220
0.0
230
1.0
 70
     8
 71
     3
 72
     8
 73
     4
 74
     0
 42
0.000000001
 43
0.00000001
 40
48.0
 40
48.0
 40
48.0
 40
48.0
 40
49.0
 40
49.0
 40
49.0
 40
49.0
 10
-668.3687673776556
 20
1911.346688622263
 30
0.0
 10
-669.9528345956131
 20
1919.75024728955
 30
0.0
 10
-671.2278984164149
 20
1926.514593911828
 30
0.0
 10
-674.7273506678736
 20
1934.968937117514
 30
0.0
  0
SPLINE
  5
FB
330
99
100
AcDbEntity
  8
LAYER_1
 62
     7
370
    15
100
AcDbSpline
210
0.0
220
0.0
230
1.0
 70
     8
 71
     3
 72
     8
 73
     4
 74
     0
 42
0.000000001
 43
0.00000001
 40
47.0
 40
47.0
 40
47.0
 40
47.0
 40
48.0
 40
48.0
 40
48.0
 40
48.0
 10
-665.5899810694702
 20
1887.822418377864
 30
0.0
 10
-665.8505083163358
 20
1893.242257170393
 30
0.0
 10
-666.5056416860679
 20
1901.46268371436
 30
0.0
 10
-668.3687673776556
 20
1911.346688622263
 30
0.0
  0
SPLINE
  5
FC
330
99
100
AcDbEntity
  8
LAYER_1
 62
     7
370
    15
100
AcDbSpline
210
0.0
220
0.0
230
1.0
 70
     8
 71
     3
 72
     8
 73
     4
 74
     0
 42
0.000000001
 43
0.00000001
 40
46.0
 40
46.0
 40
46.0
 40
46.0
 40
47.0
 40
47.0
 40
47.0
 40
47.0
 10
-666.4458159609082
 20
1861.292883303023
 30
0.0
 10
-665.977020809091
 20
1865.200727884111
 30
0.0
 10
-664.9697300089418
 20
1874.917759385459
 30
0.0
 10
-665.5899810694702
 20
1887.822418377864
 30
0.0
  0
SPLINE
  5
FD
330
99
100
AcDbEntity
  8
LAYER_1
 62
     7
370
    15
100
AcDbSpline
210
0.0
220
0.0
230
1.0
 70
     8
 71
     3
 72
     8
 73
     4
 74
     0
 42
0.000000001
 43
0.00000001
 40
45.0
 40
45.0
 40
45.0
 40
45.0
 40
46.0
 40
46.0
 40
46.0
 40
46.0
 10
-667.9766620085729
 20
1851.916723779115
 30
0.0
 10
-667.1976451436541
 20
1855.025866074465
 30
0.0
 10
-666.9358354589499
 20
1857.20806230024
 30
0.0
 10
-666.4458159609082
 20
1861.292883303023
 30
0.0
  0
SPLINE
  5
FE
330
99
100
AcDbEntity
  8
LAYER_1
 62
     7
370
    15
100
AcDbSpline
210
0.0
220
0.0
230
1.0
 70
     8
 71
     3
 72
     8
 73
     4
 74
     0
 42
0.000000001
 43
0.00000001
 40
44.0
 40
44.0
 40
44.0
 40
44.0
 40
45.0
 40
45.0
 40
45.0
 40
45.0
 10
-677.1269201072519
 20
1832.262337955789
 30
0.0
 10
-670.7062027037645
 20
1841.524873487217
 30
0.0
 10
-668.4938691887886
 20
1849.852768322039
 30
0.0
 10
-667.9766620085729
 20
1851.916723779115
 30
0.0
  0
SPLINE
  5
FF
330
99
100
AcDbEntity
  8
LAYER_1
 62
     7
370
    15
100
AcDbSpline
210
0.0
220
0.0
230
1.0
 70
     8
 71
     3
 72
     8
 73
     4
 74
     0
 42
0.000000001
 43
0.00000001
 40
43.0
 40
43.0
 40
43.0
 40
43.0
 40
44.0
 40
44.0
 40
44.0
 40
44.0
 10
-697.51159015764
 20
1813.030900131557
 30
0.0
 10
-692.0947650940311
 20
1816.697133423896
 30
0.0
 10
-684.0821576017719
 20
1822.228800795931
 30
0.0
 10
-677.1269201072519
 20
1832.262337955789
 30
0.0
  0
SPLINE
  5
100
330
99
100
AcDbEntity
  8
LAYER_1
 62
     7
370
    15
100
AcDbSpline
210
0.0
220
0.0
230
1.0
 70
     8
 71
     3
 72
     8
 73
     4
 74
     0
 42
0.000000001
 43
0.00000001
 40
42.0
 40
42.0
 40
42.0
 40
42.0
 40
43.0
 40
43.0
 40
43.0
 40
43.0
 10
-718.369351526603
 20
1802.011937736694
 30
0.0
 10
-710.0105499398759
 20
1805.855147450728
 30
0.0
 10
-704.0956901417355
 20
1808.574685130781
 30
0.0
 10
-697.51159015764
 20
1813.030900131557
 30
0.0
  0
SPLINE
  5
101
330
99
100
AcDbEntity
  8
LAYER_1
 62
     7
370
    15
100
AcDbSpline
210
0.0
220
0.0
230
1.0
 70
     8
 71
     3
 72
     8
 73
     4
 74
     0
 42
0.000000001
 43
0.00000001
 40
41.0
 40
41.0
 40
41.0
 40
41.0
 40
42.0
 40
42.0
 40
42.0
 40
42.0
 10
-733.7201965738116
 20
1795.331975524181
 30
0.0
 10
-726.6277382305855
 20
1798.820462932121
 30
0.0
 10
-726.4676258664646
 20
1798.288507716764
 30
0.0
 10
-718.369351526603
 20
1802.011937736694
 30
0.0
  0
SPLINE
  5
102
330
99
100
AcDbEntity
  8
LAYER_1
 62
     7
370
    15
100
AcDbSpline
210
0.0
220
0.0
230
1.0
 70
     8
 71
     3
 72
     8
 73
     4
 74
     0
 42
0.000000001
 43
0.00000001
 40
40.0
 40
40.0
 40
40.0
 40
40.0
 40
41.0
 40
41.0
 40
41.0
 40
41.0
 10
-750.8274684844554
 20
1787.094877288315
 30
0.0
 10
-745.8370540021054
 20
1787.553733546885
 30
0.0
 10
-745.9561283553979
 20
1789.313494748699
 30
0.0
 10
-733.7201965738116
 20
1795.331975524181
 30
0.0
  0
SPLINE
  5
103
330
99
100
AcDbEntity
  8
LAYER_1
 62
     7
370
    15
100
AcDbSpline
210
0.0
220
0.0
230
1.0
 70
     8
 71
     3
 72
     8
 73
     4
 74
     0
 42
0.000000001
 43
0.00000001
 40
39.0
 40
39.0
 40
39.0
 40
39.0
 40
40.0
 40
40.0
 40
40.0
 40
40.0
 10
-764.3879661874042
 20
1784.791875418166
 30
0.0
 10
-759.4591728431882
 20
1787.67223080315
 30
0.0
 10
-755.2190486181778
 20
1786.690909369227
 30
0.0
 10
-750.8274684844554
 20
1787.094877288315
 30
0.0
  0
SPLINE
  5
104
330
99
100
AcDbEntity
  8
LAYER_1
 62
     7
370
    15
100
AcDbSpline
210
0.0
220
0.0
230
1.0
 70
     8
 71
     3
 72
     8
 73
     4
 74
     0
 42
0.000000001
 43
0.00000001
 40
38.0
 40
38.0
 40
38.0
 40
38.0
 40
39.0
 40
39.0
 40
39.0
 40
39.0
 10
-767.5702074395414
 20
1782.378327406349
 30
0.0
 10
-767.0794184787968
 20
1782.839492053027
 30
0.0
 10
-766.0205736775447
 20
1783.837741666417
 30
0.0
 10
-764.3879661874042
 20
1784.791875418166
 30
0.0
  0
SPLINE
  5
105
330
99
100
AcDbEntity
  8
LAYER_1
 62
     7
370
    15
100
AcDbSpline
210
0.0
220
0.0
230
1.0
 70
     8
 71
     3
 72
     8
 73
     4
 74
     0
 42
0.000000001
 43
0.00000001
 40
37.0
 40
37.0
 40
37.0
 40
37.0
 40
38.0
 40
38.0
 40
38.0
 40
38.0
 10
-803.8730089149424
 20
1750.484867828731
 30
0.0
 10
-790.3200775952395
 20
1760.998293227708
 30
0.0
 10
-770.9686035893362
 20
1779.184544213666
 30
0.0
 10
-767.5702074395414
 20
1782.378327406349
 30
0.0
  0
SPLINE
  5
106
330
99
100
AcDbEntity
  8
LAYER_1
 62
     7
370
    15
100
AcDbSpline
210
0.0
220
0.0
230
1.0
 70
     8
 71
     3
 72
     8
 73
     4
 74
     0
 42
0.000000001
 43
0.00000001
 40
36.0
 40
36.0
 40
36.0
 40
36.0
 40
37.0
 40
37.0
 40
37.0
 40
37.0
 10
-821.0066990450562
 20
1737.969300476489
 30
0.0
 10
-812.0733653067383
 20
1745.064003085932
 30
0.0
 10
-811.248693654773
 20
1744.763399656618
 30
0.0
 10
-803.8730089149424
 20
1750.484867828731
 30
0.0
  0
SPLINE
  5
107
330
99
100
AcDbEntity
  8
LAYER_1
 62
     7
370
    15
100
AcDbSpline
210
0.0
220
0.0
230
1.0
 70
     8
 71
     3
 72
     8
 73
     4
 74
     0
 42
0.000000001
 43
0.00000001
 40
35.0
 40
35.0
 40
35.0
 40
35.0
 40
36.0
 40
36.0
 40
36.0
 40
36.0
 10
-835.8967641769378
 20
1725.535809145901
 30
0.0
 10
-829.1827532398155
 20
1730.677871902639
 30
0.0
 10
-829.1713395430537
 20
1731.485038278111
 30
0.0
 10
-821.0066990450562
 20
1737.969300476489
 30
0.0
  0
SPLINE
  5
108
330
99
100
AcDbEntity
  8
LAYER_1
 62
     7
370
    15
100
AcDbSpline
210
0.0
220
0.0
230
1.0
 70
     8
 71
     3
 72
     8
 73
     4
 74
     0
 42
0.000000001
 43
0.00000001
 40
34.0
 40
34.0
 40
34.0
 40
34.0
 40
35.0
 40
35.0
 40
35.0
 40
35.0
 10
-856.2582862243434
 20
1711.279973646986
 30
0.0
 10
-848.5653263632992
 20
1717.729097048593
 30
0.0
 10
-846.2421260971954
 20
1717.612651692869
 30
0.0
 10
-835.8967641769378
 20
1725.535809145901
 30
0.0
  0
SPLINE
  5
109
330
99
100
AcDbEntity
  8
LAYER_1
 62
     7
370
    15
100
AcDbSpline
210
0.0
220
0.0
230
1.0
 70
     8
 71
     3
 72
     8
 73
     4
 74
     0
 42
0.000000001
 43
0.00000001
 40
33.0
 40
33.0
 40
33.0
 40
33.0
 40
34.0
 40
34.0
 40
34.0
 40
34.0
 10
-869.9295865565282
 20
1697.31884236333
 30
0.0
 10
-863.3465125227027
 20
1704.062926467763
 30
0.0
 10
-862.3042111695657
 20
1706.211522822171
 30
0.0
 10
-856.2582862243434
 20
1711.279973646986
 30
0.0
  0
SPLINE
  5
10A
330
99
100
AcDbEntity
  8
LAYER_1
 62
     7
370
    15
100
AcDbSpline
210
0.0
220
0.0
230
1.0
 70
     8
 71
     3
 72
     8
 73
     4
 74
     0
 42
0.000000001
 43
0.00000001
 40
32.0
 40
32.0
 40
32.0
 40
32.0
 40
33.0
 40
33.0
 40
33.0
 40
33.0
 10
-893.5592731912416
 20
1676.940392136458
 30
0.0
 10
-888.7911693081725
 20
1680.847210767276
 30
0.0
 10
-880.6205654742273
 20
1686.366566736062
 30
0.0
 10
-869.9295865565282
 20
1697.31884236333
 30
0.0
  0
SPLINE
  5
10B
330
99
100
AcDbEntity
  8
LAYER_1
 62
     7
370
    15
100
AcDbSpline
210
0.0
220
0.0
230
1.0
 70
     8
 71
     3
 72
     8
 73
     4
 74
     0
 42
0.000000001
 43
0.00000001
 40
31.0
 40
31.0
 40
31.0
 40
31.0
 40
32.0
 40
32.0
 40
32.0
 40
32.0
 10
-923.3896108963767
 20
1627.678107451062
 30
0.0
 10
-909.7041396260786
 20
1659.002164628441
 30
0.0
 10
-903.1045862660305
 20
1669.11931673536
 30
0.0
 10
-893.5592731912416
 20
1676.940392136458
 30
0.0
  0
SPLINE
  5
10C
330
99
100
AcDbEntity
  8
LAYER_1
 62
     7
370
    15
100
AcDbSpline
210
0.0
220
0.0
230
1.0
 70
     8
 71
     3
 72
     8
 73
     4
 74
     0
 42
0.000000001
 43
0.00000001
 40
30.0
 40
30.0
 40
30.0
 40
30.0
 40
31.0
 40
31.0
 40
31.0
 40
31.0
 10
-954.2637888800557
 20
1546.562631736172
 30
0.0
 10
-945.587070953196
 20
1576.871511120697
 30
0.0
 10
-937.1070148688509
 20
1596.280951316895
 30
0.0
 10
-923.3896108963767
 20
1627.678107451062
 30
0.0
  0
SPLINE
  5
10D
330
99
100
AcDbEntity
  8
LAYER_1
 62
     7
370
    15
100
AcDbSpline
210
0.0
220
0.0
230
1.0
 70
     8
 71
     3
 72
     8
 73
     4
 74
     0
 42
0.000000001
 43
0.00000001
 40
29.0
 40
29.0
 40
29.0
 40
29.0
 40
30.0
 40
30.0
 40
30.0
 40
30.0
 10
-971.8520391019805
 20
1456.234379077985
 30
0.0
 10
-969.577763839411
 20
1477.733679975594
 30
0.0
 10
-964.8965451198923
 20
1509.421180036368
 30
0.0
 10
-954.2637888800557
 20
1546.562631736172
 30
0.0
  0
SPLINE
  5
10E
330
99
100
AcDbEntity
  8
LAYER_1
 62
     7
370
    15
100
AcDbSpline
210
0.0
220
0.0
230
1.0
 70
     8
 71
     3
 72
    11
 73
     7
 74
     0
 42
0.000000001
 43
0.00000001
 40
27.0
 40
27.0
 40
27.0
 40
27.0
 40
28.0
 40
28.0
 40
28.0
 40
29.0
 40
29.0
 40
29.0
 40
29.0
 10
-958.8399759406112
 20
1283.349447062145
 30
0.0
 10
-967.2217972865376
 20
1323.939117621765
 30
0.0
 10
-971.4126758985542
 20
1344.233952901575
 30
0.0
 10
-972.4301620795188
 20
1351.888054896117
 30
0.0
 10
-978.2549947414061
 20
1395.705621494919
 30
0.0
 10
-974.619732322864
 20
1430.070595274648
 30
0.0
 10
-971.8520391019805
 20
1456.234379077985
 30
0.0
  0
SPLINE
  5
10F
330
99
100
AcDbEntity
  8
LAYER_1
 62
     7
370
    15
100
AcDbSpline
210
0.0
220
0.0
230
1.0
 70
     8
 71
     3
 72
     8
 73
     4
 74
     0
 42
0.000000001
 43
0.00000001
 40
26.0
 40
26.0
 40
26.0
 40
26.0
 40
27.0
 40
27.0
 40
27.0
 40
27.0
 10
-945.9672496503813
 20
1228.441358037098
 30
0.0
 10
-951.0149249822149
 20
1246.376122962952
 30
0.0
 10
-954.1436244546
 20
1260.606950924018
 30
0.0
 10
-958.8399759406112
 20
1283.349447062145
 30
0.0
  0
SPLINE
  5
110
330
99
100
AcDbEntity
  8
LAYER_1
 62
     7
370
    15
100
AcDbSpline
210
0.0
220
0.0
230
1.0
 70
     8
 71
     3
 72
     8
 73
     4
 74
     0
 42
0.000000001
 43
0.00000001
 40
25.0
 40
25.0
 40
25.0
 40
25.0
 40
26.0
 40
26.0
 40
26.0
 40
26.0
 10
-933.9572834159159
 20
1190.507872728315
 30
0.0
 10
-937.3268888362395
 20
1199.756044955953
 30
0.0
 10
-941.9071796978786
 20
1214.015599524599
 30
0.0
 10
-945.9672496503813
 20
1228.441358037098
 30
0.0
  0
SPLINE
  5
111
330
99
100
AcDbEntity
  8
LAYER_1
 62
     7
370
    15
100
AcDbSpline
210
0.0
220
0.0
230
1.0
 70
     8
 71
     3
 72
     8
 73
     4
 74
     0
 42
0.000000001
 43
0.00000001
 40
24.0
 40
24.0
 40
24.0
 40
24.0
 40
25.0
 40
25.0
 40
25.0
 40
25.0
 10
-877.6351784302798
 20
1095.406129948137
 30
0.0
 10
-901.4512674048012
 20
1127.804485302722
 30
0.0
 10
-920.604412399
 20
1153.859518377365
 30
0.0
 10
-933.9572834159159
 20
1190.507872728315
 30
0.0
  0
SPLINE
  5
112
330
99
100
AcDbEntity
  8
LAYER_1
 62
     7
370
    15
100
AcDbSpline
210
0.0
220
0.0
230
1.0
 70
     8
 71
     3
 72
     8
 73
     4
 74
     0
 42
0.000000001
 43
0.00000001
 40
23.0
 40
23.0
 40
23.0
 40
23.0
 40
24.0
 40
24.0
 40
24.0
 40
24.0
 10
-809.5006667591803
 20
1016.532099087156
 30
0.0
 10
-843.174791275377
 20
1048.804006070877
 30
0.0
 10
-864.4096534907133
 20
1077.414681269828
 30
0.0
 10
-877.6351784302798
 20
1095.406129948137
 30
0.0
  0
SPLINE
  5
113
330
99
100
AcDbEntity
  8
LAYER_1
 62
     7
370
    15
100
AcDbSpline
210
0.0
220
0.0
230
1.0
 70
     8
 71
     3
 72
     8
 73
     4
 74
     0
 42
0.000000001
 43
0.00000001
 40
22.0
 40
22.0
 40
22.0
 40
22.0
 40
23.0
 40
23.0
 40
23.0
 40
23.0
 10
-757.3897670252982
 20
972.280042548712
 30
0.0
 10
-771.5755172963464
 20
983.278998913296
 30
0.0
 10
-788.8952891568081
 20
996.7847365205469
 30
0.0
 10
-809.5006667591803
 20
1016.532099087156
 30
0.0
  0
SPLINE
  5
114
330
99
100
AcDbEntity
  8
LAYER_1
 62
     7
370
    15
100
AcDbSpline
210
0.0
220
0.0
230
1.0
 70
     8
 71
     3
 72
     8
 73
     4
 74
     0
 42
0.000000001
 43
0.00000001
 40
21.0
 40
21.0
 40
21.0
 40
21.0
 40
22.0
 40
22.0
 40
22.0
 40
22.0
 10
-685.0584775281246
 20
922.6327700242366
 30
0.0
 10
-718.024183382405
 20
941.8867787544228
 30
0.0
 10
-741.1286476004136
 20
959.672011428322
 30
0.0
 10
-757.3897670252982
 20
972.280042548712
 30
0.0
  0
SPLINE
  5
115
330
99
100
AcDbEntity
  8
LAYER_1
 62
     7
370
    15
100
AcDbSpline
210
0.0
220
0.0
230
1.0
 70
     8
 71
     3
 72
     8
 73
     4
 74
     0
 42
0.000000001
 43
0.00000001
 40
20.0
 40
20.0
 40
20.0
 40
20.0
 40
21.0
 40
21.0
 40
21.0
 40
21.0
 10
-613.9920564709382
 20
887.275830576527
 30
0.0
 10
-626.9722510520238
 20
892.6493733630912
 30
0.0
 10
-653.4594015563065
 20
904.1769506046519
 30
0.0
 10
-685.0584775281246
 20
922.6327700242366
 30
0.0
  0
SPLINE
  5
116
330
99
100
AcDbEntity
  8
LAYER_1
 62
     7
370
    15
100
AcDbSpline
210
0.0
220
0.0
230
1.0
 70
     8
 71
     3
 72
    11
 73
     7
 74
     0
 42
0.000000001
 43
0.00000001
 40
18.0
 40
18.0
 40
18.0
 40
18.0
 40
19.0
 40
19.0
 40
19.0
 40
20.0
 40
20.0
 40
20.0
 40
20.0
 10
-450.0396887307134
 20
828.3601233065667
 30
0.0
 10
-487.0091655163917
 20
841.3071027476382
 30
0.0
 10
-485.2741553648581
 20
842.7677994455443
 30
0.0
 10
-522.5441073360672
 20
856.3034178544289
 30
0.0
 10
-574.4270537441774
 20
875.1461487698499
 30
0.0
 10
-578.3166877079613
 20
872.5070199422636
 30
0.0
 10
-613.9920564709382
 20
887.275830576527
 30
0.0
  0
SPLINE
  5
117
330
99
100
AcDbEntity
  8
LAYER_1
 62
     7
370
    15
100
AcDbSpline
210
0.0
220
0.0
230
1.0
 70
     8
 71
     3
 72
     8
 73
     4
 74
     0
 42
0.000000001
 43
0.00000001
 40
17.0
 40
17.0
 40
17.0
 40
17.0
 40
18.0
 40
18.0
 40
18.0
 40
18.0
 10
-375.0370812162101
 20
805.4551422943173
 30
0.0
 10
-405.6763165878995
 20
812.8909733687673
 30
0.0
 10
-428.1151314458999
 20
820.6819114806634
 30
0.0
 10
-450.0396887307134
 20
828.3601233065667
 30
0.0
  0
SPLINE
  5
118
330
99
100
AcDbEntity
  8
LAYER_1
 62
     7
370
    15
100
AcDbSpline
210
0.0
220
0.0
230
1.0
 70
     8
 71
     3
 72
     8
 73
     4
 74
     0
 42
0.000000001
 43
0.00000001
 40
16.0
 40
16.0
 40
16.0
 40
16.0
 40
17.0
 40
17.0
 40
17.0
 40
17.0
 10
-317.2341452586051
 20
793.8277913889307
 30
0.0
 10
-328.7291485790719
 20
795.7656832064949
 30
0.0
 10
-350.137909365292
 20
799.4124234436908
 30
0.0
 10
-375.0370812162101
 20
805.4551422943173
 30
0.0
  0
SPLINE
  5
119
330
99
100
AcDbEntity
  8
LAYER_1
 62
     7
370
    15
100
AcDbSpline
210
0.0
220
0.0
230
1.0
 70
     8
 71
     3
 72
     8
 73
     4
 74
     0
 42
0.000000001
 43
0.00000001
 40
15.0
 40
15.0
 40
15.0
 40
15.0
 40
16.0
 40
16.0
 40
16.0
 40
16.0
 10
-282.7263079036825
 20
788.7183025532875
 30
0.0
 10
-296.5023834072622
 20
790.3327635480144
 30
0.0
 10
-306.4342232465366
 20
792.0071143897933
 30
0.0
 10
-317.2341452586051
 20
793.8277913889307
 30
0.0
  0
SPLINE
  5
11A
330
99
100
AcDbEntity
  8
LAYER_1
 62
     7
370
    15
100
AcDbSpline
210
0.0
220
0.0
230
1.0
 70
     8
 71
     3
 72
    11
 73
     7
 74
     0
 42
0.000000001
 43
0.00000001
 40
13.0
 40
13.0
 40
13.0
 40
13.0
 40
14.0
 40
14.0
 40
14.0
 40
15.0
 40
15.0
 40
15.0
 40
15.0
 10
-217.8131518387894
 20
783.3462986921298
 30
0.0
 10
-224.5876297199915
 20
783.7167949836352
 30
0.0
 10
-229.6258150118213
 20
784.1324330870522
 30
0.0
 10
-233.5090367864124
 20
784.4558639098894
 30
0.0
 10
-263.1137295538864
 20
786.9216071417279
 30
0.0
 10
-278.0121946536094
 20
788.1658283325168
 30
0.0
 10
-282.7263079036825
 20
788.7183025532875
 30
0.0
  0
SPLINE
  5
11B
330
99
100
AcDbEntity
  8
LAYER_1
 62
     7
370
    15
100
AcDbSpline
210
0.0
220
0.0
230
1.0
 70
     8
 71
     3
 72
     8
 73
     4
 74
     0
 42
0.000000001
 43
0.00000001
 40
12.0
 40
12.0
 40
12.0
 40
12.0
 40
13.0
 40
13.0
 40
13.0
 40
13.0
 10
-195.8537122447724
 20
782.6038954274961
 30
0.0
 10
-202.8694166833722
 20
782.8249877108316
 30
0.0
 10
-207.9703131854986
 20
782.8080595313648
 30
0.0
 10
-217.8131518387894
 20
783.3462986921298
 30
0.0
  0
SPLINE
  5
11C
330
99
100
AcDbEntity
  8
LAYER_1
 62
     7
370
    15
100
AcDbSpline
210
0.0
220
0.0
230
1.0
 70
     8
 71
     3
 72
     8
 73
     4
 74
     0
 42
0.000000001
 43
0.00000001
 40
11.0
 40
11.0
 40
11.0
 40
11.0
 40
12.0
 40
12.0
 40
12.0
 40
12.0
 10
-164.9183619762037
 20
780.5318606120377
 30
0.0
 10
-185.4164636533955
 20
781.8544387547513
 30
0.0
 10
-185.0626390537881
 20
782.2637929127601
 30
0.0
 10
-195.8537122447724
 20
782.6038954274961
 30
0.0
  0
SPLINE
  5
11D
330
99
100
AcDbEntity
  8
LAYER_1
 62
     7
370
    15
100
AcDbSpline
210
0.0
220
0.0
230
1.0
 70
     8
 71
     3
 72
     8
 73
     4
 74
     0
 42
0.000000001
 43
0.00000001
 40
10.0
 40
10.0
 40
10.0
 40
10.0
 40
11.0
 40
11.0
 40
11.0
 40
11.0
 10
-132.2809602085465
 20
778.9231705875832
 30
0.0
 10
-141.486170768599
 20
779.019994644381
 30
0.0
 10
-149.2969866669901
 20
779.5239927148608
 30
0.0
 10
-164.9183619762037
 20
780.5318606120377
 30
0.0
  0
SPLINE
  5
11E
330
99
100
AcDbEntity
  8
LAYER_1
 62
     7
370
    15
100
AcDbSpline
210
0.0
220
0.0
230
1.0
 70
     8
 71
     3
 72
    11
 73
     7
 74
     0
 42
0.000000001
 43
0.00000001
 40
8.0
 40
8.0
 40
8.0
 40
8.0
 40
9.0
 40
9.0
 40
9.0
 40
10.0
 40
10.0
 40
10.0
 40
10.0
 10
-70.32523404272445
 20
778.6484724026043
 30
0.0
 10
-89.43932880474497
 20
778.7679956091404
 30
0.0
 10
-89.56372527506693
 20
779.4169091553571
 30
0.0
 10
-104.9896570577126
 20
779.4578189224012
 30
0.0
 10
-121.1402944628222
 20
779.5006523462026
 30
0.0
 10
-119.0632581397946
 20
778.7840260821199
 30
0.0
 10
-132.2809602085465
 20
778.9231705875832
 30
0.0
  0
SPLINE
  5
11F
330
99
100
AcDbEntity
  8
LAYER_1
 62
     7
370
    15
100
AcDbSpline
210
0.0
220
0.0
230
1.0
 70
     8
 71
     3
 72
     8
 73
     4
 74
     0
 42
0.000000001
 43
0.00000001
 40
7.0
 40
7.0
 40
7.0
 40
7.0
 40
8.0
 40
8.0
 40
8.0
 40
8.0
 10
-56.88400305874343
 20
778.2098786618807
 30
0.0
 10
-60.31285710720037
 20
778.72118662804
 30
0.0
 10
-61.59426899530158
 20
778.5938405506894
 30
0.0
 10
-70.32523404272445
 20
778.6484724026043
 30
0.0
  0
SPLINE
  5
120
330
99
100
AcDbEntity
  8
LAYER_1
 62
     7
370
    15
100
AcDbSpline
210
0.0
220
0.0
230
1.0
 70
     8
 71
     3
 72
     8
 73
     4
 74
     0
 42
0.000000001
 43
0.00000001
 40
6.0
 40
6.0
 40
6.0
 40
6.0
 40
7.0
 40
7.0
 40
7.0
 40
7.0
 10
-36.79897460929152
 20
774.899778357258
 30
0.0
 10
-45.30820615445977
 20
774.9151676113187
 30
0.0
 10
-49.27158029394995
 20
777.0749211749215
 30
0.0
 10
-56.88400305874343
 20
778.2098786618807
 30
0.0
  0
SPLINE
  5
121
330
99
100
AcDbEntity
  8
LAYER_1
 62
     7
370
    15
100
AcDbSpline
210
0.0
220
0.0
230
1.0
 70
     8
 71
     3
 72
     8
 73
     4
 74
     0
 42
0.000000001
 43
0.00000001
 40
5.0
 40
5.0
 40
5.0
 40
5.0
 40
6.0
 40
6.0
 40
6.0
 40
6.0
 10
-29.37519845052225
 20
775.8627609300917
 30
0.0
 10
-30.61685476563414
 20
775.4216023136919
 30
0.0
 10
-32.56462135455395
 20
774.892083730228
 30
0.0
 10
-36.79897460929152
 20
774.899778357258
 30
0.0
  0
SPLINE
  5
122
330
99
100
AcDbEntity
  8
LAYER_1
 62
     7
370
    15
100
AcDbSpline
210
0.0
220
0.0
230
1.0
 70
     8
 71
     3
 72
     8
 73
     4
 74
     0
 42
0.000000001
 43
0.00000001
 40
4.0
 40
4.0
 40
4.0
 40
4.0
 40
5.0
 40
5.0
 40
5.0
 40
5.0
 10
-19.8607921276375
 20
783.160345205566
 30
0.0
 10
-24.02332886342662
 20
778.9358667221833
 30
0.0
 10
-26.04086007075357
 20
777.0473487613967
 30
0.0
 10
-29.37519845052225
 20
775.8627609300917
 30
0.0
  0
SPLINE
  5
123
330
99
100
AcDbEntity
  8
LAYER_1
 62
     7
370
    15
100
AcDbSpline
210
0.0
220
0.0
230
1.0
 70
     8
 71
     3
 72
     8
 73
     4
 74
     0
 42
0.000000001
 43
0.00000001
 40
3.0
 40
3.0
 40
3.0
 40
3.0
 40
4.0
 40
4.0
 40
4.0
 40
4.0
 10
-9.330695036762183
 20
794.0641446825427
 30
0.0
 10
-12.50472868673342
 20
791.1862259294514
 30
0.0
 10
-12.04856554762473
 20
791.0888888975188
 30
0.0
 10
-19.8607921276375
 20
783.160345205566
 30
0.0
  0
SPLINE
  5
124
330
99
100
AcDbEntity
  8
LAYER_1
 62
     7
370
    15
100
AcDbSpline
210
0.0
220
0.0
230
1.0
 70
     8
 71
     3
 72
     8
 73
     4
 74
     0
 42
0.000000001
 43
0.00000001
 40
2.0
 40
2.0
 40
2.0
 40
2.0
 40
3.0
 40
3.0
 40
3.0
 40
3.0
 10
2.425027896245465
 20
802.6413454331442
 30
0.0
 10
-1.485125072951506
 20
800.2007379829383
 30
0.0
 10
-4.942577485203971
 20
798.0427798323093
 30
0.0
 10
-9.330695036762183
 20
794.0641446825427
 30
0.0
  0
SPLINE
  5
125
330
99
100
AcDbEntity
  8
LAYER_1
 62
     7
370
    15
100
AcDbSpline
210
0.0
220
0.0
230
1.0
 70
     8
 71
     3
 72
     8
 73
     4
 74
     0
 42
0.000000001
 43
0.00000001
 40
1.0
 40
1.0
 40
1.0
 40
1.0
 40
2.0
 40
2.0
 40
2.0
 40
2.0
 10
13.1477471504442
 20
807.1570655496212
 30
0.0
 10
10.70842213807583
 20
806.9898356554972
 30
0.0
 10
8.211002691629743
 20
806.2528186297849
 30
0.0
 10
2.425027896245465
 20
802.6413454331442
 30
0.0
  0
SPLINE
  5
126
330
99
100
AcDbEntity
  8
LAYER_1
 62
     7
370
    15
100
AcDbSpline
210
0.0
220
0.0
230
1.0
 70
     8
 71
     3
 72
     8
 73
     4
 74
     0
 42
0.000000001
 43
0.00000001
 40
0.0
 40
0.0
 40
0.0
 40
0.0
 40
1.0
 40
1.0
 40
1.0
 40
1.0
 10
19.72690974886191
 20
806.4049157574158
 30
0.0
 10
18.04704442437812
 20
806.8084989451518
 30
0.0
 10
15.83073535210318
 20
807.3409671356437
 30
0.0
 10
13.1477471504442
 20
807.1570655496212
 30
0.0
  0
SPLINE
  5
127
330
99
100
AcDbEntity
  8
LAYER_1
 62
     7
370
    15
100
AcDbSpline
210
0.0
220
0.0
230
1.0
 70
     8
 71
     3
 72
    11
 73
     7
 74
     0
 42
0.000000001
 43
0.00000001
 40
0.0
 40
0.0
 40
0.0
 40
0.0
 40
1.0
 40
1.0
 40
1.0
 40
2.0
 40
2.0
 40
2.0
 40
2.0
 10
-1023.584940283002
 20
1015.488649036126
 30
0.0
 10
-1024.295090236
 20
1010.214366938252
 30
0.0
 10
-1025.349879152814
 20
995.6778424375968
 30
0.0
 10
-1023.224703494203
 20
989.1942434427888
 30
0.0
 10
-1022.204516992225
 20
986.08180417127
 30
0.0
 10
-1019.884017047135
 20
978.481527203729
 30
0.0
 10
-1028.85537506736
 20
968.6676716455848
 30
0.0
  0
INSERT
  5
26B
330
99
100
AcDbEntity
  8
0
  6
Continuous
 62
     7
100
AcDbBlockReference
  2
BLOCK 3
 10
0.0
 20
0.0
 30
0.0
  0
INSERT
  5
26C
330
99
100
AcDbEntity
  8
0
  6
Continuous
 62
     7
100
AcDbBlockReference
  2
BLOCK 4
 10
0.0
 20
0.0
 30
0.0
  0
ENDBLK
  5
9B
330
99
100
AcDbEntity
  8
0
100
AcDbBlockEnd
  0
BLOCK
  5
129
330
128
100
AcDbEntity
  8
0
100
AcDbBlockBegin
  2
BLOCK 13
 70
     0
 10
0.0
 20
0.0
 30
0.0
  3
BLOCK 13
  1

  0
SPLINE
  5
12B
330
128
100
AcDbEntity
  8
LAYER_1
 62
     7
370
    15
100
AcDbSpline
210
0.0
220
0.0
230
1.0
 70
     8
 71
     3
 72
    44
 73
    40
 74
     0
 42
0.000000001
 43
0.00000001
 40
0.0
 40
0.0
 40
0.0
 40
0.0
 40
1.0
 40
1.0
 40
1.0
 40
2.0
 40
2.0
 40
2.0
 40
3.0
 40
3.0
 40
3.0
 40
4.0
 40
4.0
 40
4.0
 40
5.0
 40
5.0
 40
5.0
 40
6.0
 40
6.0
 40
6.0
 40
7.0
 40
7.0
 40
7.0
 40
8.0
 40
8.0
 40
8.0
 40
9.0
 40
9.0
 40
9.0
 40
10.0
 40
10.0
 40
10.0
 40
11.0
 40
11.0
 40
11.0
 40
12.0
 40
12.0
 40
12.0
 40
13.0
 40
13.0
 40
13.0
 40
13.0
 10
-1056.585668663688
 20
201.0373152958511
 30
0.0
 10
-1056.627864080152
 20
201.9750743873576
 30
0.0
 10
-1056.670059496624
 20
202.9128334788724
 30
0.0
 10
-1056.768787075164
 20
203.8436395254522
 30
0.0
 10
-1057.084477097495
 20
206.8199728455038
 30
0.0
 10
-1057.978183753479
 20
209.7252143219404
 30
0.0
 10
-1059.048859414997
 20
212.5422114946632
 30
0.0
 10
-1060.05291500243
 20
215.1839281720358
 30
0.0
 10
-1061.212601860799
 20
217.7480404514094
 30
0.0
 10
-1062.603845901745
 20
220.1886050835759
 30
0.0
 10
-1063.918201447603
 20
222.494289467426
 30
0.0
 10
-1065.439226949167
 20
224.6897048175494
 30
0.0
 10
-1067.123071629389
 20
226.7478398759453
 30
0.0
 10
-1068.718333449134
 20
228.6977015924519
 30
0.0
 10
-1070.459734037463
 20
230.5243470334014
 30
0.0
 10
-1072.331492906599
 20
232.2060050550773
 30
0.0
 10
-1074.105265293785
 20
233.7996283645362
 30
0.0
 10
-1075.996104712103
 20
235.26304708231
 30
0.0
 10
-1077.981318226759
 20
236.5816483765689
 30
0.0
 10
-1079.861237437532
 20
237.8303120019804
 30
0.0
 10
-1081.825785165562
 20
238.9491128334487
 30
0.0
 10
-1083.854774161386
 20
239.929030160474
 30
0.0
 10
-1085.777536541479
 20
240.8576444486185
 30
0.0
 10
-1087.758169247088
 20
241.6615368948839
 30
0.0
 10
-1089.776470530482
 20
242.3370657438668
 30
0.0
 10
-1091.703817499493
 20
242.9821520301836
 30
0.0
 10
-1093.665514492189
 20
243.5101833898942
 30
0.0
 10
-1095.641547435181
 20
243.9241190932921
 30
0.0
 10
-1097.590297568206
 20
244.3323396444347
 30
0.0
 10
-1099.552990515476
 20
244.6295933947623
 30
0.0
 10
-1101.514922019999
 20
244.8284848775745
 30
0.0
 10
-1103.630653653811
 20
245.0429679015299
 30
0.0
 10
-1105.745499783211
 20
245.1430625193169
 30
0.0
 10
-1107.882008572509
 20
245.1519317030034
 30
0.0
 10
-1110.37935624851
 20
245.1622988193874
 30
0.0
 10
-1112.906301792592
 20
245.04802388454
 30
0.0
 10
-1115.43436178662
 20
244.8145740608869
 30
0.0
 10
-1115.800149189588
 20
244.7807959840573
 30
0.0
 10
-1116.165959924103
 20
244.7445229247794
 30
0.0
 10
-1116.53177065861
 20
244.7082498655098
 30
0.0
  0
ENDBLK
  5
12A
330
128
100
AcDbEntity
  8
0
100
AcDbBlockEnd
  0
BLOCK
  5
12D
330
12C
100
AcDbEntity
  8
0
100
AcDbBlockBegin
  2
BLOCK 14
 70
     0
 10
0.0
 20
0.0
 30
0.0
  3
BLOCK 14
  1

  0
SPLINE
  5
12F
330
12C
100
AcDbEntity
  8
LAYER_1
 62
     7
370
    15
100
AcDbSpline
210
0.0
220
0.0
230
1.0
 70
     8
 71
     3
 72
    38
 73
    34
 74
     0
 42
0.000000001
 43
0.00000001
 40
0.0
 40
0.0
 40
0.0
 40
0.0
 40
1.0
 40
1.0
 40
1.0
 40
2.0
 40
2.0
 40
2.0
 40
3.0
 40
3.0
 40
3.0
 40
4.0
 40
4.0
 40
4.0
 40
5.0
 40
5.0
 40
5.0
 40
6.0
 40
6.0
 40
6.0
 40
7.0
 40
7.0
 40
7.0
 40
8.0
 40
8.0
 40
8.0
 40
9.0
 40
9.0
 40
9.0
 40
10.0
 40
10.0
 40
10.0
 40
11.0
 40
11.0
 40
11.0
 40
11.0
 10
-1116.53177065861
 20
244.7082498655098
 30
0.0
 10
-1117.86095620696
 20
244.5518602815777
 30
0.0
 10
-1119.190141755309
 20
244.3954706976539
 30
0.0
 10
-1120.506359440526
 20
244.2040437729474
 30
0.0
 10
-1123.328779232299
 20
243.793559134243
 30
0.0
 10
-1126.091570207218
 20
243.2219658259812
 30
0.0
 10
-1128.800378828537
 20
242.4881323320981
 30
0.0
 10
-1130.872176281257
 20
241.9268692176171
 30
0.0
 10
-1132.912395360333
 20
241.2706995112616
 30
0.0
 10
-1134.921707619572
 20
240.4902624664724
 30
0.0
 10
-1137.350477538892
 20
239.5469038572825
 30
0.0
 10
-1139.734089717725
 20
238.4219791002302
 30
0.0
 10
-1142.022813464302
 20
237.1157098476334
 30
0.0
 10
-1144.247407844463
 20
235.8460418754009
 30
0.0
 10
-1146.382356787035
 20
234.4050494722379
 30
0.0
 10
-1148.395431803563
 20
232.8060412181536
 30
0.0
 10
-1150.302064148495
 20
231.291581582008
 30
0.0
 10
-1152.09937015667
 20
229.6353746936568
 30
0.0
 10
-1153.764844345244
 20
227.8542785763125
 30
0.0
 10
-1155.574932404534
 20
225.9185290843097
 30
0.0
 10
-1157.229300662656
 20
223.835260382098
 30
0.0
 10
-1158.70586881279
 20
221.631181178986
 30
0.0
 10
-1160.246422220112
 20
219.331590925711
 30
0.0
 10
-1161.593432147524
 20
216.9004929640373
 30
0.0
 10
-1162.720400349047
 20
214.373314259666
 30
0.0
 10
-1163.875852047115
 20
211.7822625145304
 30
0.0
 10
-1164.799998591884
 20
209.0902118755244
 30
0.0
 10
-1165.50240098689
 20
206.3355467579916
 30
0.0
 10
-1166.214447724653
 20
203.5430586849183
 30
0.0
 10
-1166.698619187614
 20
200.6862248714119
 30
0.0
 10
-1166.855085547569
 20
197.8190356527863
 30
0.0
 10
-1167.008548711027
 20
195.0068789192654
 30
0.0
 10
-1166.846765907975
 20
192.1847604864373
 30
0.0
 10
-1166.684983104924
 20
189.3626420536172
 30
0.0
  0
ENDBLK
  5
12E
330
12C
100
AcDbEntity
  8
0
100
AcDbBlockEnd
  0
BLOCK
  5
131
330
130
100
AcDbEntity
  8
0
100
AcDbBlockBegin
  2
BLOCK 15
 70
     0
 10
0.0
 20
0.0
 30
0.0
  3
BLOCK 15
  1

  0
LINE
  5
133
330
130
100
AcDbEntity
  8
LAYER_1
 62
     7
370
    15
100
AcDbLine
 10
-1116.6158863576
 20
243.8912537713
 30
0.0
 11
-1113.9771427275
 21
244.0677828497
 31
0.0
  0
LINE
  5
134
330
130
100
AcDbEntity
  8
LAYER_1
 62
     7
370
    15
100
AcDbLine
 10
-1113.9771427275
 20
244.0677828497
 30
0.0
 11
-1111.7401044328
 21
244.0250742027
 31
0.0
  0
LINE
  5
135
330
130
100
AcDbEntity
  8
LAYER_1
 62
     7
370
    15
100
AcDbLine
 10
-1111.7401044328
 20
244.0250742027
 30
0.0
 11
-1110.2453831138
 21
243.7696358125
 31
0.0
  0
LINE
  5
136
330
130
100
AcDbEntity
  8
LAYER_1
 62
     7
370
    15
100
AcDbLine
 10
-1110.2453831138
 20
243.7696358125
 30
0.0
 11
-1109.7205141708
 21
243.3403528912
 31
0.0
  0
LINE
  5
137
330
130
100
AcDbEntity
  8
LAYER_1
 62
     7
370
    15
100
AcDbLine
 10
-1109.7205141708
 20
243.3403528912
 30
0.0
 11
-1110.2453831138
 21
242.8025493299
 31
0.0
  0
LINE
  5
138
330
130
100
AcDbEntity
  8
LAYER_1
 62
     7
370
    15
100
AcDbLine
 10
-1110.2453831138
 20
242.8025493299
 30
0.0
 11
-1111.7401044328
 21
242.2382257297
 31
0.0
  0
LINE
  5
139
330
130
100
AcDbEntity
  8
LAYER_1
 62
     7
370
    15
100
AcDbLine
 10
-1111.7401044328
 20
242.2382257297
 30
0.0
 11
-1113.9771427275
 21
241.7331247912
 31
0.0
  0
LINE
  5
13A
330
130
100
AcDbEntity
  8
LAYER_1
 62
     7
370
    15
100
AcDbLine
 10
-1113.9771427275
 20
241.7331247912
 30
0.0
 11
-1116.6158863576
 21
241.3642847737
 31
0.0
  0
LINE
  5
13B
330
130
100
AcDbEntity
  8
LAYER_1
 62
     7
370
    15
100
AcDbLine
 10
-1116.6158863576
 20
241.3642847737
 30
0.0
 11
-1119.2545486388
 21
241.1877556953
 31
0.0
  0
LINE
  5
13C
330
130
100
AcDbEntity
  8
LAYER_1
 62
     7
370
    15
100
AcDbLine
 10
-1119.2545486388
 20
241.1877556953
 30
0.0
 11
-1121.4915869307
 21
241.230464345
 31
0.0
  0
LINE
  5
13D
330
130
100
AcDbEntity
  8
LAYER_1
 62
     7
370
    15
100
AcDbLine
 10
-1121.4915869307
 20
241.230464345
 30
0.0
 11
-1122.9863082525
 21
241.4859027325
 31
0.0
  0
LINE
  5
13E
330
130
100
AcDbEntity
  8
LAYER_1
 62
     7
370
    15
100
AcDbLine
 10
-1122.9863082525
 20
241.4859027325
 30
0.0
 11
-1123.5111771955
 21
241.9151856538
 31
0.0
  0
LINE
  5
13F
330
130
100
AcDbEntity
  8
LAYER_1
 62
     7
370
    15
100
AcDbLine
 10
-1123.5111771955
 20
241.9151856538
 30
0.0
 11
-1122.9863082525
 21
242.4529078662
 31
0.0
  0
LINE
  5
140
330
130
100
AcDbEntity
  8
LAYER_1
 62
     7
370
    15
100
AcDbLine
 10
-1122.9863082525
 20
242.4529078662
 30
0.0
 11
-1121.4915869308
 21
243.0173128153
 31
0.0
  0
LINE
  5
141
330
130
100
AcDbEntity
  8
LAYER_1
 62
     7
370
    15
100
AcDbLine
 10
-1121.4915869308
 20
243.0173128153
 30
0.0
 11
-1119.2545486388
 21
243.5223324049
 31
0.0
  0
LINE
  5
142
330
130
100
AcDbEntity
  8
LAYER_1
 62
     7
370
    15
100
AcDbLine
 10
-1119.2545486388
 20
243.5223324049
 30
0.0
 11
-1116.6158863576
 21
243.8912537713
 31
0.0
  0
ENDBLK
  5
132
330
130
100
AcDbEntity
  8
0
100
AcDbBlockEnd
  0
BLOCK
  5
144
330
143
100
AcDbEntity
  8
0
100
AcDbBlockBegin
  2
BLOCK 16
 70
     0
 10
0.0
 20
0.0
 30
0.0
  3
BLOCK 16
  1

  0
LINE
  5
146
330
143
100
AcDbEntity
  8
LAYER_1
 62
     8
370
    15
100
AcDbLine
 10
-1056.3905104814
 20
201.0635912828
 30
0.0
 11
-1056.9416554111
 21
199.372979631
 31
0.0
  0
LINE
  5
147
330
143
100
AcDbEntity
  8
LAYER_1
 62
     8
370
    15
100
AcDbLine
 10
-1056.9416554111
 20
199.372979631
 30
0.0
 11
-1059.4141200393
 21
197.2499937659
 31
0.0
  0
LINE
  5
148
330
143
100
AcDbEntity
  8
LAYER_1
 62
     8
370
    15
100
AcDbLine
 10
-1059.4141200393
 20
197.2499937659
 30
0.0
 11
-1063.7705648081
 21
195.0517593289
 31
0.0
  0
LINE
  5
149
330
143
100
AcDbEntity
  8
LAYER_1
 62
     8
370
    15
100
AcDbLine
 10
-1063.7705648081
 20
195.0517593289
 30
0.0
 11
-1069.8536591902
 21
192.8577550824
 31
0.0
  0
LINE
  5
14A
330
143
100
AcDbEntity
  8
LAYER_1
 62
     8
370
    15
100
AcDbLine
 10
-1069.8536591902
 20
192.8577550824
 30
0.0
 11
-1077.4435146633
 21
190.7472970883
 31
0.0
  0
LINE
  5
14B
330
143
100
AcDbEntity
  8
LAYER_1
 62
     8
370
    15
100
AcDbLine
 10
-1077.4435146633
 20
190.7472970883
 30
0.0
 11
-1086.2658196872
 21
188.7966914601
 31
0.0
  0
LINE
  5
14C
330
143
100
AcDbEntity
  8
LAYER_1
 62
     8
370
    15
100
AcDbLine
 10
-1086.2658196872
 20
188.7966914601
 30
0.0
 11
-1096.0016830223
 21
187.0763057796
 31
0.0
  0
LINE
  5
14D
330
143
100
AcDbEntity
  8
LAYER_1
 62
     8
370
    15
100
AcDbLine
 10
-1096.0016830223
 20
187.0763057796
 30
0.0
 11
-1106.2991854131
 21
185.6484539977
 31
0.0
  0
LINE
  5
14E
330
143
100
AcDbEntity
  8
LAYER_1
 62
     8
370
    15
100
AcDbLine
 10
-1106.2991854131
 20
185.6484539977
 30
0.0
 11
-1116.7863141984
 21
184.5646305436
 31
0.0
  0
LINE
  5
14F
330
143
100
AcDbEntity
  8
LAYER_1
 62
     8
370
    15
100
AcDbLine
 10
-1116.7863141984
 20
184.5646305436
 30
0.0
 11
-1127.0838165891
 21
183.8641273714
 31
0.0
  0
LINE
  5
150
330
143
100
AcDbEntity
  8
LAYER_1
 62
     8
370
    15
100
AcDbLine
 10
-1127.0838165891
 20
183.8641273714
 30
0.0
 11
-1136.8196799242
 21
183.5722442696
 31
0.0
  0
LINE
  5
151
330
143
100
AcDbEntity
  8
LAYER_1
 62
     8
370
    15
100
AcDbLine
 10
-1136.8196799242
 20
183.5722442696
 30
0.0
 11
-1145.6419849481
 21
183.6993940154
 31
0.0
  0
LINE
  5
152
330
143
100
AcDbEntity
  8
LAYER_1
 62
     8
370
    15
100
AcDbLine
 10
-1145.6419849481
 20
183.6993940154
 30
0.0
 11
-1153.2318404212
 21
184.2411023688
 31
0.0
  0
LINE
  5
153
330
143
100
AcDbEntity
  8
LAYER_1
 62
     8
370
    15
100
AcDbLine
 10
-1153.2318404212
 20
184.2411023688
 30
0.0
 11
-1159.3149348033
 21
185.1777640258
 31
0.0
  0
LINE
  5
154
330
143
100
AcDbEntity
  8
LAYER_1
 62
     8
370
    15
100
AcDbLine
 10
-1159.3149348033
 20
185.1777640258
 30
0.0
 11
-1163.671460921
 21
186.4755374678
 31
0.0
  0
LINE
  5
155
330
143
100
AcDbEntity
  8
LAYER_1
 62
     8
370
    15
100
AcDbLine
 10
-1163.671460921
 20
186.4755374678
 30
0.0
 11
-1166.1438442003
 21
188.0874838573
 31
0.0
  0
LINE
  5
156
330
143
100
AcDbEntity
  8
LAYER_1
 62
     8
370
    15
100
AcDbLine
 10
-1166.1438442003
 20
188.0874838573
 30
0.0
 11
-1166.6955585807
 21
189.278933105
 31
0.0
  0
ENDBLK
  5
145
330
143
100
AcDbEntity
  8
0
100
AcDbBlockEnd
  0
BLOCK
  5
158
330
157
100
AcDbEntity
  8
0
100
AcDbBlockBegin
  2
BLOCK 12
 70
     0
 10
0.0
 20
0.0
 30
0.0
  3
BLOCK 12
  1

  0
LINE
  5
15A
330
157
100
AcDbEntity
  8
LAYER_1
 62
     7
370
    15
100
AcDbLine
 10
-1009.2848244369
 20
-239.6117607916
 30
0.0
 11
-1056.3905104814
 21
201.0641607307
 31
0.0
  0
LINE
  5
15B
330
157
100
AcDbEntity
  8
LAYER_1
 62
     7
370
    15
100
AcDbLine
 10
-1166.69498913
 20
189.2733199663
 30
0.0
 11
-1118.8125751459
 21
-258.6688068308
 31
0.0
  0
INSERT
  5
26D
330
157
100
AcDbEntity
  8
0
  6
Continuous
 62
     7
100
AcDbBlockReference
  2
BLOCK 13
 10
0.0
 20
0.0
 30
0.0
  0
INSERT
  5
26E
330
157
100
AcDbEntity
  8
0
  6
Continuous
 62
     7
100
AcDbBlockReference
  2
BLOCK 16
 10
0.0
 20
0.0
 30
0.0
  0
INSERT
  5
26F
330
157
100
AcDbEntity
  8
0
  6
Continuous
 62
     7
100
AcDbBlockReference
  2
BLOCK 14
 10
0.0
 20
0.0
 30
0.0
  0
INSERT
  5
270
330
157
100
AcDbEntity
  8
0
  6
Continuous
 62
     7
100
AcDbBlockReference
  2
BLOCK 15
 10
0.0
 20
0.0
 30
0.0
  0
ENDBLK
  5
159
330
157
100
AcDbEntity
  8
0
100
AcDbBlockEnd
  0
BLOCK
  5
15D
330
15C
100
AcDbEntity
  8
0
100
AcDbBlockBegin
  2
BLOCK 11
 70
     0
 10
0.0
 20
0.0
 30
0.0
  3
BLOCK 11
  1

  0
SPLINE
  5
15F
330
15C
100
AcDbEntity
  8
LAYER_1
 62
     7
370
    15
100
AcDbSpline
210
0.0
220
0.0
230
1.0
 70
     8
 71
     3
 72
     8
 73
     4
 74
     0
 42
0.000000001
 43
0.00000001
 40
7.0
 40
7.0
 40
7.0
 40
7.0
 40
8.0
 40
8.0
 40
8.0
 40
8.0
 10
-715.5812524113605
 20
-1777.403804555968
 30
0.0
 10
-714.9797892656397
 20
-1783.086021370965
 30
0.0
 10
-713.0468000531034
 20
-1791.441722549745
 30
0.0
 10
-706.9816173572068
 20
-1802.66113530135
 30
0.0
  0
SPLINE
  5
160
330
15C
100
AcDbEntity
  8
LAYER_1
 62
     7
370
    15
100
AcDbSpline
210
0.0
220
0.0
230
1.0
 70
     8
 71
     3
 72
     8
 73
     4
 74
     0
 42
0.000000001
 43
0.00000001
 40
6.0
 40
6.0
 40
6.0
 40
6.0
 40
7.0
 40
7.0
 40
7.0
 40
7.0
 10
-719.0412754113128
 20
-1764.454187114939
 30
0.0
 10
-716.1831019359748
 20
-1770.119918430439
 30
0.0
 10
-715.8228036168848
 20
-1775.121593219317
 30
0.0
 10
-715.5812524113605
 20
-1777.403804555968
 30
0.0
  0
SPLINE
  5
161
330
15C
100
AcDbEntity
  8
LAYER_1
 62
     7
370
    15
100
AcDbSpline
210
0.0
220
0.0
230
1.0
 70
     8
 71
     3
 72
     8
 73
     4
 74
     0
 42
0.000000001
 43
0.00000001
 40
5.0
 40
5.0
 40
5.0
 40
5.0
 40
6.0
 40
6.0
 40
6.0
 40
6.0
 10
-724.8202157428923
 20
-1756.381186493945
 30
0.0
 10
-721.0550178127928
 20
-1761.429870714982
 30
0.0
 10
-720.3989464499874
 20
-1761.762929322012
 30
0.0
 10
-719.0412754113128
 20
-1764.454187114939
 30
0.0
  0
SPLINE
  5
162
330
15C
100
AcDbEntity
  8
LAYER_1
 62
     7
370
    15
100
AcDbSpline
210
0.0
220
0.0
230
1.0
 70
     8
 71
     3
 72
     8
 73
     4
 74
     0
 42
0.000000001
 43
0.00000001
 40
4.0
 40
4.0
 40
4.0
 40
4.0
 40
5.0
 40
5.0
 40
5.0
 40
5.0
 10
-737.6360172934699
 20
-1736.488597905274
 30
0.0
 10
-731.8230756191775
 20
-1746.937184762417
 30
0.0
 10
-725.7226680474021
 20
-1755.171176589439
 30
0.0
 10
-724.8202157428923
 20
-1756.381186493945
 30
0.0
  0
SPLINE
  5
163
330
15C
100
AcDbEntity
  8
LAYER_1
 62
     7
370
    15
100
AcDbSpline
210
0.0
220
0.0
230
1.0
 70
     8
 71
     3
 72
     8
 73
     4
 74
     0
 42
0.000000001
 43
0.00000001
 40
3.0
 40
3.0
 40
3.0
 40
3.0
 40
4.0
 40
4.0
 40
4.0
 40
4.0
 10
-741.1864529547274
 20
-1729.41528827723
 30
0.0
 10
-740.8492729728223
 20
-1730.244328591791
 30
0.0
 10
-740.0436729778587
 20
-1732.160896701312
 30
0.0
 10
-737.6360172934699
 20
-1736.488597905274
 30
0.0
  0
SPLINE
  5
164
330
15C
100
AcDbEntity
  8
LAYER_1
 62
     7
370
    15
100
AcDbSpline
210
0.0
220
0.0
230
1.0
 70
     8
 71
     3
 72
     8
 73
     4
 74
     0
 42
0.000000001
 43
0.00000001
 40
2.0
 40
2.0
 40
2.0
 40
2.0
 40
3.0
 40
3.0
 40
3.0
 40
3.0
 10
-744.6633478330714
 20
-1718.130448699496
 30
0.0
 10
-742.9365561572163
 20
-1723.521722206959
 30
0.0
 10
-742.8670723526943
 20
-1725.283223586834
 30
0.0
 10
-741.1864529547274
 20
-1729.41528827723
 30
0.0
  0
SPLINE
  5
165
330
15C
100
AcDbEntity
  8
LAYER_1
 62
     7
370
    15
100
AcDbSpline
210
0.0
220
0.0
230
1.0
 70
     8
 71
     3
 72
     8
 73
     4
 74
     0
 42
0.000000001
 43
0.00000001
 40
1.0
 40
1.0
 40
1.0
 40
1.0
 40
2.0
 40
2.0
 40
2.0
 40
2.0
 10
-748.0958735350347
 20
-1708.996709220224
 30
0.0
 10
-746.6441192355571
 20
-1711.94619690762
 30
0.0
 10
-745.7537090732577
 20
-1714.726064260345
 30
0.0
 10
-744.6633478330714
 20
-1718.130448699496
 30
0.0
  0
SPLINE
  5
166
330
15C
100
AcDbEntity
  8
LAYER_1
 62
     7
370
    15
100
AcDbSpline
210
0.0
220
0.0
230
1.0
 70
     8
 71
     3
 72
     8
 73
     4
 74
     0
 42
0.000000001
 43
0.00000001
 40
0.0
 40
0.0
 40
0.0
 40
0.0
 40
1.0
 40
1.0
 40
1.0
 40
1.0
 10
-756.2911630761282
 20
-1697.855087419371
 30
0.0
 10
-751.9542531751825
 20
-1702.079496665545
 30
0.0
 10
-749.5102778747137
 20
-1706.123080589108
 30
0.0
 10
-748.0958735350347
 20
-1708.996709220224
 30
0.0
  0
SPLINE
  5
167
330
15C
100
AcDbEntity
  8
LAYER_1
 62
     7
370
    15
100
AcDbSpline
210
0.0
220
0.0
230
1.0
 70
     8
 71
     3
 72
     8
 73
     4
 74
     0
 42
0.000000001
 43
0.00000001
 40
16.0
 40
16.0
 40
16.0
 40
16.0
 40
17.0
 40
17.0
 40
17.0
 40
17.0
 10
-898.7865402188959
 20
-1822.119562805605
 30
0.0
 10
-898.095887945036
 20
-1811.547334702234
 30
0.0
 10
-893.9558380908211
 20
-1803.499448709379
 30
0.0
 10
-891.1476362858342
 20
-1799.00058165517
 30
0.0
  0
SPLINE
  5
168
330
15C
100
AcDbEntity
  8
LAYER_1
 62
     7
370
    15
100
AcDbSpline
210
0.0
220
0.0
230
1.0
 70
     8
 71
     3
 72
     8
 73
     4
 74
     0
 42
0.000000001
 43
0.00000001
 40
15.0
 40
15.0
 40
15.0
 40
15.0
 40
16.0
 40
16.0
 40
16.0
 40
16.0
 10
-893.4434352802756
 20
-1848.156863745952
 30
0.0
 10
-896.8292735324902
 20
-1839.056481644569
 30
0.0
 10
-899.4223910862233
 20
-1831.853091122055
 30
0.0
 10
-898.7865402188959
 20
-1822.119562805605
 30
0.0
  0
SPLINE
  5
169
330
15C
100
AcDbEntity
  8
LAYER_1
 62
     7
370
    15
100
AcDbSpline
210
0.0
220
0.0
230
1.0
 70
     8
 71
     3
 72
     8
 73
     4
 74
     0
 42
0.000000001
 43
0.00000001
 40
14.0
 40
14.0
 40
14.0
 40
14.0
 40
15.0
 40
15.0
 40
15.0
 40
15.0
 10
-875.4166059765028
 20
-1881.116915338463
 30
0.0
 10
-885.795709029124
 20
-1868.402602644166
 30
0.0
 10
-890.5712877682546
 20
-1855.876714057403
 30
0.0
 10
-893.4434352802756
 20
-1848.156863745952
 30
0.0
  0
SPLINE
  5
16A
330
15C
100
AcDbEntity
  8
LAYER_1
 62
     7
370
    15
100
AcDbSpline
210
0.0
220
0.0
230
1.0
 70
     8
 71
     3
 72
     8
 73
     4
 74
     0
 42
0.000000001
 43
0.00000001
 40
13.0
 40
13.0
 40
13.0
 40
13.0
 40
14.0
 40
14.0
 40
14.0
 40
14.0
 10
-826.7651923078236
 20
-1914.306862373184
 30
0.0
 10
-845.7472146352014
 20
-1905.48042290798
 30
0.0
 10
-861.5120530977991
 20
-1898.149913729184
 30
0.0
 10
-875.4166059765028
 20
-1881.116915338463
 30
0.0
  0
SPLINE
  5
16B
330
15C
100
AcDbEntity
  8
LAYER_1
 62
     7
370
    15
100
AcDbSpline
210
0.0
220
0.0
230
1.0
 70
     8
 71
     3
 72
     8
 73
     4
 74
     0
 42
0.000000001
 43
0.00000001
 40
12.0
 40
12.0
 40
12.0
 40
12.0
 40
13.0
 40
13.0
 40
13.0
 40
13.0
 10
-777.607235908499
 20
-1929.562389056392
 30
0.0
 10
-799.0328471574509
 20
-1927.050153484567
 30
0.0
 10
-814.3114921778441
 20
-1920.097651657527
 30
0.0
 10
-826.7651923078236
 20
-1914.306862373184
 30
0.0
  0
SPLINE
  5
16C
330
15C
100
AcDbEntity
  8
LAYER_1
 62
     7
370
    15
100
AcDbSpline
210
0.0
220
0.0
230
1.0
 70
     8
 71
     3
 72
     8
 73
     4
 74
     0
 42
0.000000001
 43
0.00000001
 40
11.0
 40
11.0
 40
11.0
 40
11.0
 40
12.0
 40
12.0
 40
12.0
 40
12.0
 10
-739.5381605909309
 20
-1929.08881732474
 30
0.0
 10
-763.7580640046687
 20
-1929.540494252372
 30
0.0
 10
-775.8680157115382
 20
-1929.766268319706
 30
0.0
 10
-777.607235908499
 20
-1929.562389056392
 30
0.0
  0
SPLINE
  5
16D
330
15C
100
AcDbEntity
  8
LAYER_1
 62
     7
370
    15
100
AcDbSpline
210
0.0
220
0.0
230
1.0
 70
     8
 71
     3
 72
    11
 73
     7
 74
     0
 42
0.000000001
 43
0.00000001
 40
9.0
 40
9.0
 40
9.0
 40
9.0
 40
10.0
 40
10.0
 40
10.0
 40
11.0
 40
11.0
 40
11.0
 40
11.0
 10
-700.5325028331747
 20
-1914.587888622426
 30
0.0
 10
-704.959889791908
 20
-1918.965432703773
 30
0.0
 10
-707.1735188747924
 20
-1921.154140347965
 30
0.0
 10
-710.1016269300286
 20
-1923.120164955978
 30
0.0
 10
-718.2379936897156
 20
-1928.583176144848
 30
0.0
 10
-726.5714136855812
 20
-1928.846944136804
 30
0.0
 10
-739.5381605909309
 20
-1929.08881732474
 30
0.0
  0
SPLINE
  5
16E
330
15C
100
AcDbEntity
  8
LAYER_1
 62
     7
370
    15
100
AcDbSpline
210
0.0
220
0.0
230
1.0
 70
     8
 71
     3
 72
     8
 73
     4
 74
     0
 42
0.000000001
 43
0.00000001
 40
8.0
 40
8.0
 40
8.0
 40
8.0
 40
9.0
 40
9.0
 40
9.0
 40
9.0
 10
-686.1181873997044
 20
-1897.886145737229
 30
0.0
 10
-690.5996674036627
 20
-1903.621167667803
 30
0.0
 10
-694.6571609674264
 20
-1908.778681944115
 30
0.0
 10
-700.5325028331747
 20
-1914.587888622426
 30
0.0
  0
SPLINE
  5
16F
330
15C
100
AcDbEntity
  8
LAYER_1
 62
     7
370
    15
100
AcDbSpline
210
0.0
220
0.0
230
1.0
 70
     8
 71
     3
 72
     8
 73
     4
 74
     0
 42
0.000000001
 43
0.00000001
 40
7.0
 40
7.0
 40
7.0
 40
7.0
 40
8.0
 40
8.0
 40
8.0
 40
8.0
 10
-677.3098433460564
 20
-1886.010404036889
 30
0.0
 10
-679.8960704761716
 20
-1889.923649480052
 30
0.0
 10
-681.9773647877007
 20
-1892.587087992579
 30
0.0
 10
-686.1181873997044
 20
-1897.886145737229
 30
0.0
  0
SPLINE
  5
170
330
15C
100
AcDbEntity
  8
LAYER_1
 62
     7
370
    15
100
AcDbSpline
210
0.0
220
0.0
230
1.0
 70
     8
 71
     3
 72
     8
 73
     4
 74
     0
 42
0.000000001
 43
0.00000001
 40
6.0
 40
6.0
 40
6.0
 40
6.0
 40
7.0
 40
7.0
 40
7.0
 40
7.0
 10
-665.1678221909468
 20
-1862.281330612089
 30
0.0
 10
-668.0093813738222
 20
-1871.93796952854
 30
0.0
 10
-672.3538256632099
 20
-1878.511562453073
 30
0.0
 10
-677.3098433460564
 20
-1886.010404036889
 30
0.0
  0
SPLINE
  5
171
330
15C
100
AcDbEntity
  8
LAYER_1
 62
     7
370
    15
100
AcDbSpline
210
0.0
220
0.0
230
1.0
 70
     8
 71
     3
 72
     8
 73
     4
 74
     0
 42
0.000000001
 43
0.00000001
 40
5.0
 40
5.0
 40
5.0
 40
5.0
 40
6.0
 40
6.0
 40
6.0
 40
6.0
 10
-662.8995204944953
 20
-1836.650757854652
 30
0.0
 10
-662.5839777306807
 20
-1839.090482987283
 30
0.0
 10
-661.3986316789383
 20
-1849.472483881613
 30
0.0
 10
-665.1678221909468
 20
-1862.281330612089
 30
0.0
  0
SPLINE
  5
172
330
15C
100
AcDbEntity
  8
LAYER_1
 62
     7
370
    15
100
AcDbSpline
210
0.0
220
0.0
230
1.0
 70
     8
 71
     3
 72
     8
 73
     4
 74
     0
 42
0.000000001
 43
0.00000001
 40
4.0
 40
4.0
 40
4.0
 40
4.0
 40
5.0
 40
5.0
 40
5.0
 40
5.0
 10
-666.8286074723308
 20
-1821.923668706111
 30
0.0
 10
-666.0037529291264
 20
-1823.86715454528
 30
0.0
 10
-663.8578045492565
 20
-1829.241041002492
 30
0.0
 10
-662.8995204944953
 20
-1836.650757854652
 30
0.0
  0
SPLINE
  5
173
330
15C
100
AcDbEntity
  8
LAYER_1
 62
     7
370
    15
100
AcDbSpline
210
0.0
220
0.0
230
1.0
 70
     8
 71
     3
 72
     8
 73
     4
 74
     0
 42
0.000000001
 43
0.00000001
 40
3.0
 40
3.0
 40
3.0
 40
3.0
 40
4.0
 40
4.0
 40
4.0
 40
4.0
 10
-678.0222616309711
 20
-1805.411251479201
 30
0.0
 10
-671.4276754531726
 20
-1811.087543817818
 30
0.0
 10
-668.580513776327
 20
-1817.795854183555
 30
0.0
 10
-666.8286074723308
 20
-1821.923668706111
 30
0.0
  0
SPLINE
  5
174
330
15C
100
AcDbEntity
  8
LAYER_1
 62
     7
370
    15
100
AcDbSpline
210
0.0
220
0.0
230
1.0
 70
     8
 71
     3
 72
     8
 73
     4
 74
     0
 42
0.000000001
 43
0.00000001
 40
2.0
 40
2.0
 40
2.0
 40
2.0
 40
3.0
 40
3.0
 40
3.0
 40
3.0
 10
-690.2170879016581
 20
-1798.273030196889
 30
0.0
 10
-687.5224170951627
 20
-1799.386702963707
 30
0.0
 10
-682.711420290706
 20
-1801.375008754634
 30
0.0
 10
-678.0222616309711
 20
-1805.411251479201
 30
0.0
  0
SPLINE
  5
175
330
15C
100
AcDbEntity
  8
LAYER_1
 62
     7
370
    15
100
AcDbSpline
210
0.0
220
0.0
230
1.0
 70
     8
 71
     3
 72
     8
 73
     4
 74
     0
 42
0.000000001
 43
0.00000001
 40
1.0
 40
1.0
 40
1.0
 40
1.0
 40
2.0
 40
2.0
 40
2.0
 40
2.0
 10
-705.6981954627524
 20
-1792.300256453252
 30
0.0
 10
-700.721248923122
 20
-1795.781530292399
 30
0.0
 10
-697.2616766985467
 20
-1795.361536434114
 30
0.0
 10
-690.2170879016581
 20
-1798.273030196889
 30
0.0
  0
SPLINE
  5
176
330
15C
100
AcDbEntity
  8
LAYER_1
 62
     7
370
    15
100
AcDbSpline
210
0.0
220
0.0
230
1.0
 70
     8
 71
     3
 72
     8
 73
     4
 74
     0
 42
0.000000001
 43
0.00000001
 40
0.0
 40
0.0
 40
0.0
 40
0.0
 40
1.0
 40
1.0
 40
1.0
 40
1.0
 10
-712.5144343330104
 20
-1785.116056082495
 30
0.0
 10
-711.2134321988574
 20
-1787.143772520659
 30
0.0
 10
-709.0638132194897
 20
-1789.946049849263
 30
0.0
 10
-705.6981954627524
 20
-1792.300256453252
 30
0.0
  0
SPLINE
  5
177
330
15C
100
AcDbEntity
  8
LAYER_1
 62
     7
370
    15
100
AcDbSpline
210
0.0
220
0.0
230
1.0
 70
     8
 71
     3
 72
     8
 73
     4
 74
     0
 42
0.000000001
 43
0.00000001
 40
106.0
 40
106.0
 40
106.0
 40
106.0
 40
107.0
 40
107.0
 40
107.0
 40
107.0
 10
-926.1954218381175
 20
-1437.349936434003
 30
0.0
 10
-921.3969823477306
 20
-1443.117156605783
 30
0.0
 10
-911.2266526910868
 20
-1453.578236380514
 30
0.0
 10
-891.827856329544
 20
-1463.065383755258
 30
0.0
  0
SPLINE
  5
178
330
15C
100
AcDbEntity
  8
LAYER_1
 62
     7
370
    15
100
AcDbSpline
210
0.0
220
0.0
230
1.0
 70
     8
 71
     3
 72
     8
 73
     4
 74
     0
 42
0.000000001
 43
0.00000001
 40
105.0
 40
105.0
 40
105.0
 40
105.0
 40
106.0
 40
106.0
 40
106.0
 40
106.0
 10
-940.2042326218444
 20
-1417.761685621207
 30
0.0
 10
-935.8663567736628
 20
-1424.472443053276
 30
0.0
 10
-930.2427407576596
 20
-1432.485426152663
 30
0.0
 10
-926.1954218381175
 20
-1437.349936434003
 30
0.0
  0
SPLINE
  5
179
330
15C
100
AcDbEntity
  8
LAYER_1
 62
     7
370
    15
100
AcDbSpline
210
0.0
220
0.0
230
1.0
 70
     8
 71
     3
 72
     8
 73
     4
 74
     0
 42
0.000000001
 43
0.00000001
 40
104.0
 40
104.0
 40
104.0
 40
104.0
 40
105.0
 40
105.0
 40
105.0
 40
105.0
 10
-947.9339355951054
 20
-1405.005386420377
 30
0.0
 10
-945.5436025644847
 20
-1409.501548822326
 30
0.0
 10
-942.9477803584904
 20
-1413.51744225845
 30
0.0
 10
-940.2042326218444
 20
-1417.761685621207
 30
0.0
  0
SPLINE
  5
17A
330
15C
100
AcDbEntity
  8
LAYER_1
 62
     7
370
    15
100
AcDbSpline
210
0.0
220
0.0
230
1.0
 70
     8
 71
     3
 72
     8
 73
     4
 74
     0
 42
0.000000001
 43
0.00000001
 40
103.0
 40
103.0
 40
103.0
 40
103.0
 40
104.0
 40
104.0
 40
104.0
 40
104.0
 10
-961.2560222903995
 20
-1361.780020359664
 30
0.0
 10
-953.6311567905046
 20
-1388.628073013567
 30
0.0
 10
-954.0419419518051
 20
-1393.516281200434
 30
0.0
 10
-947.9339355951054
 20
-1405.005386420377
 30
0.0
  0
SPLINE
  5
17B
330
15C
100
AcDbEntity
  8
LAYER_1
 62
     7
370
    15
100
AcDbSpline
210
0.0
220
0.0
230
1.0
 70
     8
 71
     3
 72
     8
 73
     4
 74
     0
 42
0.000000001
 43
0.00000001
 40
102.0
 40
102.0
 40
102.0
 40
102.0
 40
103.0
 40
103.0
 40
103.0
 40
103.0
 10
-966.9943928380595
 20
-1340.649216207191
 30
0.0
 10
-965.5864281466219
 20
-1347.806241262368
 30
0.0
 10
-964.6757974888455
 20
-1349.738650906562
 30
0.0
 10
-961.2560222903995
 20
-1361.780020359664
 30
0.0
  0
SPLINE
  5
17C
330
15C
100
AcDbEntity
  8
LAYER_1
 62
     7
370
    15
100
AcDbSpline
210
0.0
220
0.0
230
1.0
 70
     8
 71
     3
 72
     8
 73
     4
 74
     0
 42
0.000000001
 43
0.00000001
 40
101.0
 40
101.0
 40
101.0
 40
101.0
 40
102.0
 40
102.0
 40
102.0
 40
102.0
 10
-969.7397436762129
 20
-1318.383102069808
 30
0.0
 10
-969.0199197958212
 20
-1327.299310231494
 30
0.0
 10
-968.492577001356
 20
-1333.033559404279
 30
0.0
 10
-966.9943928380595
 20
-1340.649216207191
 30
0.0
  0
SPLINE
  5
17D
330
15C
100
AcDbEntity
  8
LAYER_1
 62
     7
370
    15
100
AcDbSpline
210
0.0
220
0.0
230
1.0
 70
     8
 71
     3
 72
     8
 73
     4
 74
     0
 42
0.000000001
 43
0.00000001
 40
100.0
 40
100.0
 40
100.0
 40
100.0
 40
101.0
 40
101.0
 40
101.0
 40
101.0
 10
-972.280056114369
 20
-1280.690939363792
 30
0.0
 10
-972.6078986063245
 20
-1282.85607789542
 30
0.0
 10
-971.651868428448
 20
-1294.698462217871
 30
0.0
 10
-969.7397436762129
 20
-1318.383102069808
 30
0.0
  0
SPLINE
  5
17E
330
15C
100
AcDbEntity
  8
LAYER_1
 62
     7
370
    15
100
AcDbSpline
210
0.0
220
0.0
230
1.0
 70
     8
 71
     3
 72
     8
 73
     4
 74
     0
 42
0.000000001
 43
0.00000001
 40
99.0
 40
99.0
 40
99.0
 40
99.0
 40
100.0
 40
100.0
 40
100.0
 40
100.0
 10
-955.6883668176121
 20
-1242.031026320101
 30
0.0
 10
-965.6218462119479
 20
-1260.357363663568
 30
0.0
 10
-970.5885537108749
 20
-1269.520596731785
 30
0.0
 10
-972.280056114369
 20
-1280.690939363792
 30
0.0
  0
SPLINE
  5
17F
330
15C
100
AcDbEntity
  8
LAYER_1
 62
     7
370
    15
100
AcDbSpline
210
0.0
220
0.0
230
1.0
 70
     8
 71
     3
 72
     8
 73
     4
 74
     0
 42
0.000000001
 43
0.00000001
 40
98.0
 40
98.0
 40
98.0
 40
98.0
 40
99.0
 40
99.0
 40
99.0
 40
99.0
 10
-943.830205356971
 20
-1222.07004866711
 30
0.0
 10
-944.9709890428842
 20
-1223.808109727387
 30
0.0
 10
-949.9419467096506
 20
-1231.42943342075
 30
0.0
 10
-955.6883668176121
 20
-1242.031026320101
 30
0.0
  0
SPLINE
  5
180
330
15C
100
AcDbEntity
  8
LAYER_1
 62
     7
370
    15
100
AcDbSpline
210
0.0
220
0.0
230
1.0
 70
     8
 71
     3
 72
     8
 73
     4
 74
     0
 42
0.000000001
 43
0.00000001
 40
97.0
 40
97.0
 40
97.0
 40
97.0
 40
98.0
 40
98.0
 40
98.0
 40
98.0
 10
-887.2144279331249
 20
-1154.576095451956
 30
0.0
 10
-905.7348562745792
 20
-1174.799553167256
 30
0.0
 10
-926.7883846481595
 20
-1196.107190060431
 30
0.0
 10
-943.830205356971
 20
-1222.07004866711
 30
0.0
  0
SPLINE
  5
181
330
15C
100
AcDbEntity
  8
LAYER_1
 62
     7
370
    15
100
AcDbSpline
210
0.0
220
0.0
230
1.0
 70
     8
 71
     3
 72
     8
 73
     4
 74
     0
 42
0.000000001
 43
0.00000001
 40
96.0
 40
96.0
 40
96.0
 40
96.0
 40
97.0
 40
97.0
 40
97.0
 40
97.0
 10
-829.9804442781317
 20
-1088.349722596584
 30
0.0
 10
-861.0058967460473
 20
-1121.98426294587
 30
0.0
 10
-858.7488000375356
 20
-1123.492814942835
 30
0.0
 10
-887.2144279331249
 20
-1154.576095451956
 30
0.0
  0
SPLINE
  5
182
330
15C
100
AcDbEntity
  8
LAYER_1
 62
     7
370
    15
100
AcDbSpline
210
0.0
220
0.0
230
1.0
 70
     8
 71
     3
 72
     8
 73
     4
 74
     0
 42
0.000000001
 43
0.00000001
 40
95.0
 40
95.0
 40
95.0
 40
95.0
 40
96.0
 40
96.0
 40
96.0
 40
96.0
 10
-784.2648018460961
 20
-1046.003497313748
 30
0.0
 10
-806.5336206357399
 20
-1063.229427565773
 30
0.0
 10
-821.4601456903087
 20
-1079.112819952488
 30
0.0
 10
-829.9804442781317
 20
-1088.349722596584
 30
0.0
  0
SPLINE
  5
183
330
15C
100
AcDbEntity
  8
LAYER_1
 62
     7
370
    15
100
AcDbSpline
210
0.0
220
0.0
230
1.0
 70
     8
 71
     3
 72
     8
 73
     4
 74
     0
 42
0.000000001
 43
0.00000001
 40
94.0
 40
94.0
 40
94.0
 40
94.0
 40
95.0
 40
95.0
 40
95.0
 40
95.0
 10
-769.8323266045854
 20
-1035.417037587761
 30
0.0
 10
-777.0792491492097
 20
-1040.476669210807
 30
0.0
 10
-782.3664579410969
 20
-1044.534999928843
 30
0.0
 10
-784.2648018460961
 20
-1046.003497313748
 30
0.0
  0
SPLINE
  5
184
330
15C
100
AcDbEntity
  8
LAYER_1
 62
     7
370
    15
100
AcDbSpline
210
0.0
220
0.0
230
1.0
 70
     8
 71
     3
 72
     8
 73
     4
 74
     0
 42
0.000000001
 43
0.00000001
 40
93.0
 40
93.0
 40
93.0
 40
93.0
 40
94.0
 40
94.0
 40
94.0
 40
94.0
 10
-709.3935876059176
 20
-1000.620140730952
 30
0.0
 10
-728.1183459860623
 20
-1009.956149561478
 30
0.0
 10
-746.9375740059046
 20
-1019.432478327176
 30
0.0
 10
-769.8323266045854
 20
-1035.417037587761
 30
0.0
  0
SPLINE
  5
185
330
15C
100
AcDbEntity
  8
LAYER_1
 62
     7
370
    15
100
AcDbSpline
210
0.0
220
0.0
230
1.0
 70
     8
 71
     3
 72
     8
 73
     4
 74
     0
 42
0.000000001
 43
0.00000001
 40
92.0
 40
92.0
 40
92.0
 40
92.0
 40
93.0
 40
93.0
 40
93.0
 40
93.0
 10
-674.2912582330327
 20
-984.4024018075588
 30
0.0
 10
-687.709166894155
 20
-989.8084865059762
 30
0.0
 10
-696.8684717769438
 20
-994.3752274526474
 30
0.0
 10
-709.3935876059176
 20
-1000.620140730952
 30
0.0
  0
SPLINE
  5
186
330
15C
100
AcDbEntity
  8
LAYER_1
 62
     7
370
    15
100
AcDbSpline
210
0.0
220
0.0
230
1.0
 70
     8
 71
     3
 72
     8
 73
     4
 74
     0
 42
0.000000001
 43
0.00000001
 40
91.0
 40
91.0
 40
91.0
 40
91.0
 40
92.0
 40
92.0
 40
92.0
 40
92.0
 10
-630.7477735492085
 20
-969.7491754243418
 30
0.0
 10
-653.0118913956361
 20
-976.147931899128
 30
0.0
 10
-666.1961696185705
 20
-981.140913162878
 30
0.0
 10
-674.2912582330327
 20
-984.4024018075588
 30
0.0
  0
SPLINE
  5
187
330
15C
100
AcDbEntity
  8
LAYER_1
 62
     7
370
    15
100
AcDbSpline
210
0.0
220
0.0
230
1.0
 70
     8
 71
     3
 72
     8
 73
     4
 74
     0
 42
0.000000001
 43
0.00000001
 40
90.0
 40
90.0
 40
90.0
 40
90.0
 40
91.0
 40
91.0
 40
91.0
 40
91.0
 10
-575.9416660740811
 20
-956.3275961637224
 30
0.0
 10
-582.3166602468582
 20
-957.6349735496335
 30
0.0
 10
-603.4842991872711
 20
-961.9135402375151
 30
0.0
 10
-630.7477735492085
 20
-969.7491754243418
 30
0.0
  0
SPLINE
  5
188
330
15C
100
AcDbEntity
  8
LAYER_1
 62
     7
370
    15
100
AcDbSpline
210
0.0
220
0.0
230
1.0
 70
     8
 71
     3
 72
     8
 73
     4
 74
     0
 42
0.000000001
 43
0.00000001
 40
89.0
 40
89.0
 40
89.0
 40
89.0
 40
90.0
 40
90.0
 40
90.0
 40
90.0
 10
-462.0142428374541
 20
-927.4632896455242
 30
0.0
 10
-486.893952609977
 20
-934.6206366831153
 30
0.0
 10
-528.6035542676957
 20
-946.6195044578241
 30
0.0
 10
-575.9416660740811
 20
-956.3275961637224
 30
0.0
  0
SPLINE
  5
189
330
15C
100
AcDbEntity
  8
LAYER_1
 62
     7
370
    15
100
AcDbSpline
210
0.0
220
0.0
230
1.0
 70
     8
 71
     3
 72
     8
 73
     4
 74
     0
 42
0.000000001
 43
0.00000001
 40
88.0
 40
88.0
 40
88.0
 40
88.0
 40
89.0
 40
89.0
 40
89.0
 40
89.0
 10
-350.2844139595913
 20
-890.2381302299563
 30
0.0
 10
-405.6659040050618
 20
-911.0730325457502
 30
0.0
 10
-449.7492887974215
 20
-923.9349419777351
 30
0.0
 10
-462.0142428374541
 20
-927.4632896455242
 30
0.0
  0
SPLINE
  5
18A
330
15C
100
AcDbEntity
  8
LAYER_1
 62
     7
370
    15
100
AcDbSpline
210
0.0
220
0.0
230
1.0
 70
     8
 71
     3
 72
     8
 73
     4
 74
     0
 42
0.000000001
 43
0.00000001
 40
87.0
 40
87.0
 40
87.0
 40
87.0
 40
88.0
 40
88.0
 40
88.0
 40
88.0
 10
-294.463611111111
 20
-867.6110738086583
 30
0.0
 10
-299.316014853758
 20
-869.7858718126495
 30
0.0
 10
-317.8406933630513
 20
-878.0325497467062
 30
0.0
 10
-350.2844139595913
 20
-890.2381302299563
 30
0.0
  0
SPLINE
  5
18B
330
15C
100
AcDbEntity
  8
LAYER_1
 62
     7
370
    15
100
AcDbSpline
210
0.0
220
0.0
230
1.0
 70
     8
 71
     3
 72
     8
 73
     4
 74
     0
 42
0.000000001
 43
0.00000001
 40
86.0
 40
86.0
 40
86.0
 40
86.0
 40
87.0
 40
87.0
 40
87.0
 40
87.0
 10
-223.4539963352013
 20
-831.4078221724719
 30
0.0
 10
-252.5785934353042
 20
-848.7506964365565
 30
0.0
 10
-276.2660667324663
 20
-859.4549373288713
 30
0.0
 10
-294.463611111111
 20
-867.6110738086583
 30
0.0
  0
SPLINE
  5
18C
330
15C
100
AcDbEntity
  8
LAYER_1
 62
     7
370
    15
100
AcDbSpline
210
0.0
220
0.0
230
1.0
 70
     8
 71
     3
 72
     8
 73
     4
 74
     0
 42
0.000000001
 43
0.00000001
 40
85.0
 40
85.0
 40
85.0
 40
85.0
 40
86.0
 40
86.0
 40
86.0
 40
86.0
 10
-160.1686108315472
 20
-787.8469504383962
 30
0.0
 10
-186.406442418122
 20
-809.2295448370985
 30
0.0
 10
-208.4014473645539
 20
-822.4444757856605
 30
0.0
 10
-223.4539963352013
 20
-831.4078221724719
 30
0.0
  0
SPLINE
  5
18D
330
15C
100
AcDbEntity
  8
LAYER_1
 62
     7
370
    15
100
AcDbSpline
210
0.0
220
0.0
230
1.0
 70
     8
 71
     3
 72
     8
 73
     4
 74
     0
 42
0.000000001
 43
0.00000001
 40
84.0
 40
84.0
 40
84.0
 40
84.0
 40
85.0
 40
85.0
 40
85.0
 40
85.0
 10
-103.9431404875955
 20
-733.6966567401452
 30
0.0
 10
-110.7007785588597
 20
-741.4738199209429
 30
0.0
 10
-130.4093220008002
 20
-763.5945268010415
 30
0.0
 10
-160.1686108315472
 20
-787.8469504383962
 30
0.0
  0
SPLINE
  5
18E
330
15C
100
AcDbEntity
  8
LAYER_1
 62
     7
370
    15
100
AcDbSpline
210
0.0
220
0.0
230
1.0
 70
     8
 71
     3
 72
     8
 73
     4
 74
     0
 42
0.000000001
 43
0.00000001
 40
83.0
 40
83.0
 40
83.0
 40
83.0
 40
84.0
 40
84.0
 40
84.0
 40
84.0
 10
-45.97948029040124
 20
-651.9057184824742
 30
0.0
 10
-75.93298891210053
 20
-696.4331814175403
 30
0.0
 10
-90.90980761943278
 20
-718.6969128850744
 30
0.0
 10
-103.9431404875955
 20
-733.6966567401452
 30
0.0
  0
SPLINE
  5
18F
330
15C
100
AcDbEntity
  8
LAYER_1
 62
     7
370
    15
100
AcDbSpline
210
0.0
220
0.0
230
1.0
 70
     8
 71
     3
 72
     8
 73
     4
 74
     0
 42
0.000000001
 43
0.00000001
 40
82.0
 40
82.0
 40
82.0
 40
82.0
 40
83.0
 40
83.0
 40
83.0
 40
83.0
 10
-25.32971786153906
 20
-618.2825119140917
 30
0.0
 10
-29.92466446750638
 20
-627.5520635747677
 30
0.0
 10
-33.99426456996293
 20
-634.0890792972913
 30
0.0
 10
-45.97948029040124
 20
-651.9057184824742
 30
0.0
  0
SPLINE
  5
190
330
15C
100
AcDbEntity
  8
LAYER_1
 62
     7
370
    15
100
AcDbSpline
210
0.0
220
0.0
230
1.0
 70
     8
 71
     3
 72
     8
 73
     4
 74
     0
 42
0.000000001
 43
0.00000001
 40
81.0
 40
81.0
 40
81.0
 40
81.0
 40
82.0
 40
82.0
 40
82.0
 40
82.0
 10
-5.0095366296572
 20
-556.4504262254928
 30
0.0
 10
-10.78487075822136
 20
-580.6666590397328
 30
0.0
 10
-15.11115523956862
 20
-597.6679099646245
 30
0.0
 10
-25.32971786153906
 20
-618.2825119140917
 30
0.0
  0
SPLINE
  5
191
330
15C
100
AcDbEntity
  8
LAYER_1
 62
     7
370
    15
100
AcDbSpline
210
0.0
220
0.0
230
1.0
 70
     8
 71
     3
 72
     8
 73
     4
 74
     0
 42
0.000000001
 43
0.00000001
 40
80.0
 40
80.0
 40
80.0
 40
80.0
 40
81.0
 40
81.0
 40
81.0
 40
81.0
 10
11.58195947765279
 20
-483.5298458340305
 30
0.0
 10
6.924805869676507
 20
-504.0724203179205
 30
0.0
 10
3.265797739073483
 20
-521.7519915902905
 30
0.0
 10
-5.0095366296572
 20
-556.4504262254928
 30
0.0
  0
SPLINE
  5
192
330
15C
100
AcDbEntity
  8
LAYER_1
 62
     7
370
    15
100
AcDbSpline
210
0.0
220
0.0
230
1.0
 70
     8
 71
     3
 72
     8
 73
     4
 74
     0
 42
0.000000001
 43
0.00000001
 40
79.0
 40
79.0
 40
79.0
 40
79.0
 40
80.0
 40
80.0
 40
80.0
 40
80.0
 10
37.74843976171541
 20
-365.5626380663035
 30
0.0
 10
31.13517860401751
 20
-402.4750559650437
 30
0.0
 10
20.13458509964594
 20
-445.8045511378162
 30
0.0
 10
11.58195947765279
 20
-483.5298458340305
 30
0.0
  0
SPLINE
  5
193
330
15C
100
AcDbEntity
  8
LAYER_1
 62
     7
370
    15
100
AcDbSpline
210
0.0
220
0.0
230
1.0
 70
     8
 71
     3
 72
     8
 73
     4
 74
     0
 42
0.000000001
 43
0.00000001
 40
78.0
 40
78.0
 40
78.0
 40
78.0
 40
79.0
 40
79.0
 40
79.0
 40
79.0
 10
40.83753902297975
 20
-312.5196740813535
 30
0.0
 10
43.06411179882861
 20
-335.8927315531431
 30
0.0
 10
37.74856855468057
 20
-365.5622194891681
 30
0.0
 10
37.74843976171541
 20
-365.5626380663035
 30
0.0
  0
SPLINE
  5
194
330
15C
100
AcDbEntity
  8
LAYER_1
 62
     7
370
    15
100
AcDbSpline
210
0.0
220
0.0
230
1.0
 70
     8
 71
     3
 72
     8
 73
     4
 74
     0
 42
0.000000001
 43
0.00000001
 40
77.0
 40
77.0
 40
77.0
 40
77.0
 40
78.0
 40
78.0
 40
78.0
 40
78.0
 10
40.01416559887021
 20
-303.4535187103723
 30
0.0
 10
40.42784860187997
 20
-308.3259175608089
 30
0.0
 10
40.76927875162382
 20
-311.8031988180475
 30
0.0
 10
40.83753902297975
 20
-312.5196740813535
 30
0.0
  0
SPLINE
  5
195
330
15C
100
AcDbEntity
  8
LAYER_1
 62
     7
370
    15
100
AcDbSpline
210
0.0
220
0.0
230
1.0
 70
     8
 71
     3
 72
     8
 73
     4
 74
     0
 42
0.000000001
 43
0.00000001
 40
76.0
 40
76.0
 40
76.0
 40
76.0
 40
77.0
 40
77.0
 40
77.0
 40
77.0
 10
38.35222118080291
 20
-277.5483593519346
 30
0.0
 10
38.2538233556784
 20
-282.722423524225
 30
0.0
 10
38.8406041034092
 20
-289.6328100517679
 30
0.0
 10
40.01416559887021
 20
-303.4535187103723
 30
0.0
  0
SPLINE
  5
196
330
15C
100
AcDbEntity
  8
LAYER_1
 62
     7
370
    15
100
AcDbSpline
210
0.0
220
0.0
230
1.0
 70
     8
 71
     3
 72
     8
 73
     4
 74
     0
 42
0.000000001
 43
0.00000001
 40
75.0
 40
75.0
 40
75.0
 40
75.0
 40
76.0
 40
76.0
 40
76.0
 40
76.0
 10
38.34088739989856
 20
-261.7931803616987
 30
0.0
 10
39.08956090441094
 20
-268.056511033974
 30
0.0
 10
38.47959742301192
 20
-270.852574102026
 30
0.0
 10
38.35222118080291
 20
-277.5483593519346
 30
0.0
  0
SPLINE
  5
197
330
15C
100
AcDbEntity
  8
LAYER_1
 62
     7
370
    15
100
AcDbSpline
210
0.0
220
0.0
230
1.0
 70
     8
 71
     3
 72
     8
 73
     4
 74
     0
 42
0.000000001
 43
0.00000001
 40
74.0
 40
74.0
 40
74.0
 40
74.0
 40
75.0
 40
75.0
 40
75.0
 40
75.0
 10
36.42882704414571
 20
-252.6186779090601
 30
0.0
 10
37.54275739689449
 20
-257.3897488944219
 30
0.0
 10
38.09965817678614
 20
-259.7752521888617
 30
0.0
 10
38.34088739989856
 20
-261.7931803616987
 30
0.0
  0
SPLINE
  5
198
330
15C
100
AcDbEntity
  8
LAYER_1
 62
     7
370
    15
100
AcDbSpline
210
0.0
220
0.0
230
1.0
 70
     8
 71
     3
 72
    20
 73
    16
 74
     0
 42
0.000000001
 43
0.00000001
 40
69.0
 40
69.0
 40
69.0
 40
69.0
 40
70.0
 40
70.0
 40
70.0
 40
71.0
 40
71.0
 40
71.0
 40
72.0
 40
72.0
 40
72.0
 40
73.0
 40
73.0
 40
73.0
 40
74.0
 40
74.0
 40
74.0
 40
74.0
 10
13.99257740023278
 20
-275.3101952092513
 30
0.0
 10
16.73702668763187
 20
-268.0483648789491
 30
0.0
 10
17.31955726752359
 20
-267.5233403578501
 30
0.0
 10
18.40103179313708
 20
-263.3829363229826
 30
0.0
 10
20.32880489059825
 20
-256.0024876720789
 30
0.0
 10
21.57732389158615
 20
-245.8043387350326
 30
0.0
 10
25.3597156824888
 20
-243.2309909014004
 30
0.0
 10
26.76136951865033
 20
-242.277375591614
 30
0.0
 10
28.25240567239871
 20
-242.1192500290531
 30
0.0
 10
28.25279205129334
 20
-242.1192017316917
 30
0.0
 10
28.2531784301876
 20
-242.1191534343296
 30
0.0
 10
30.29493330151646
 20
-241.9026202622228
 30
0.0
 10
32.19900849344995
 20
-243.0355153790414
 30
0.0
 10
34.12356176679064
 20
-244.1805975301552
 30
0.0
 10
34.9425562300959
 20
-246.252972928872
 30
0.0
 10
36.42882704414571
 20
-252.6186779090601
 30
0.0
  0
SPLINE
  5
199
330
15C
100
AcDbEntity
  8
LAYER_1
 62
     7
370
    15
100
AcDbSpline
210
0.0
220
0.0
230
1.0
 70
     8
 71
     3
 72
     8
 73
     4
 74
     0
 42
0.000000001
 43
0.00000001
 40
68.0
 40
68.0
 40
68.0
 40
68.0
 40
69.0
 40
69.0
 40
69.0
 40
69.0
 10
-15.01378775816305
 20
-360.9726499894813
 30
0.0
 10
-7.496399987412151
 20
-339.4203064631449
 30
0.0
 10
6.662454600333469
 20
-294.7057073501908
 30
0.0
 10
13.99257740023278
 20
-275.3101952092513
 30
0.0
  0
SPLINE
  5
19A
330
15C
100
AcDbEntity
  8
LAYER_1
 62
     7
370
    15
100
AcDbSpline
210
0.0
220
0.0
230
1.0
 70
     8
 71
     3
 72
     8
 73
     4
 74
     0
 42
0.000000001
 43
0.00000001
 40
67.0
 40
67.0
 40
67.0
 40
67.0
 40
68.0
 40
68.0
 40
68.0
 40
68.0
 10
-42.31325975376841
 20
-426.3396517870774
 30
0.0
 10
-19.49217673096625
 20
-373.5297064737327
 30
0.0
 10
-16.98225943250797
 20
-366.6164543027212
 30
0.0
 10
-15.01378775816305
 20
-360.9726499894813
 30
0.0
  0
SPLINE
  5
19B
330
15C
100
AcDbEntity
  8
LAYER_1
 62
     7
370
    15
100
AcDbSpline
210
0.0
220
0.0
230
1.0
 70
     8
 71
     3
 72
     8
 73
     4
 74
     0
 42
0.000000001
 43
0.00000001
 40
66.0
 40
66.0
 40
66.0
 40
66.0
 40
67.0
 40
67.0
 40
67.0
 40
67.0
 10
-94.70057095304941
 20
-543.715249070893
 30
0.0
 10
-87.8583159038969
 20
-531.7347986901538
 30
0.0
 10
-72.67658758953233
 20
-496.6031045212897
 30
0.0
 10
-42.31325975376841
 20
-426.3396517870774
 30
0.0
  0
SPLINE
  5
19C
330
15C
100
AcDbEntity
  8
LAYER_1
 62
     7
370
    15
100
AcDbSpline
210
0.0
220
0.0
230
1.0
 70
     8
 71
     3
 72
     8
 73
     4
 74
     0
 42
0.000000001
 43
0.00000001
 40
65.0
 40
65.0
 40
65.0
 40
65.0
 40
66.0
 40
66.0
 40
66.0
 40
66.0
 10
-162.6097526867904
 20
-635.9172954329445
 30
0.0
 10
-129.0182291877538
 20
-603.8030916369022
 30
0.0
 10
-103.4715006504162
 20
-559.0725221963108
 30
0.0
 10
-94.70057095304941
 20
-543.715249070893
 30
0.0
  0
SPLINE
  5
19D
330
15C
100
AcDbEntity
  8
LAYER_1
 62
     7
370
    15
100
AcDbSpline
210
0.0
220
0.0
230
1.0
 70
     8
 71
     3
 72
     8
 73
     4
 74
     0
 42
0.000000001
 43
0.00000001
 40
64.0
 40
64.0
 40
64.0
 40
64.0
 40
65.0
 40
65.0
 40
65.0
 40
65.0
 10
-208.6578741575148
 20
-677.7858920057355
 30
0.0
 10
-186.1641828512912
 20
-657.9482336165622
 30
0.0
 10
-167.8146627741561
 20
-640.8932760253385
 30
0.0
 10
-162.6097526867904
 20
-635.9172954329445
 30
0.0
  0
SPLINE
  5
19E
330
15C
100
AcDbEntity
  8
LAYER_1
 62
     7
370
    15
100
AcDbSpline
210
0.0
220
0.0
230
1.0
 70
     8
 71
     3
 72
     8
 73
     4
 74
     0
 42
0.000000001
 43
0.00000001
 40
63.0
 40
63.0
 40
63.0
 40
63.0
 40
64.0
 40
64.0
 40
64.0
 40
64.0
 10
-227.6583138788622
 20
-694.3337916944542
 30
0.0
 10
-222.5510288588318
 20
-690.038481921146
 30
0.0
 10
-210.9390551504483
 20
-679.7977025127448
 30
0.0
 10
-208.6578741575148
 20
-677.7858920057355
 30
0.0
  0
SPLINE
  5
19F
330
15C
100
AcDbEntity
  8
LAYER_1
 62
     7
370
    15
100
AcDbSpline
210
0.0
220
0.0
230
1.0
 70
     8
 71
     3
 72
     8
 73
     4
 74
     0
 42
0.000000001
 43
0.00000001
 40
62.0
 40
62.0
 40
62.0
 40
62.0
 40
63.0
 40
63.0
 40
63.0
 40
63.0
 10
-321.2319409197885
 20
-743.0743944912718
 30
0.0
 10
-277.7501480661143
 20
-726.2768296402471
 30
0.0
 10
-251.3043158413517
 20
-714.2201982208145
 30
0.0
 10
-227.6583138788622
 20
-694.3337916944542
 30
0.0
  0
SPLINE
  5
1A0
330
15C
100
AcDbEntity
  8
LAYER_1
 62
     7
370
    15
100
AcDbSpline
210
0.0
220
0.0
230
1.0
 70
     8
 71
     3
 72
     8
 73
     4
 74
     0
 42
0.000000001
 43
0.00000001
 40
61.0
 40
61.0
 40
61.0
 40
61.0
 40
62.0
 40
62.0
 40
62.0
 40
62.0
 10
-421.9766314490593
 20
-778.7586748757066
 30
0.0
 10
-398.2205115016462
 20
-771.1013535486766
 30
0.0
 10
-363.2037650538859
 20
-759.2886560046175
 30
0.0
 10
-321.2319409197885
 20
-743.0743944912718
 30
0.0
  0
SPLINE
  5
1A1
330
15C
100
AcDbEntity
  8
LAYER_1
 62
     7
370
    15
100
AcDbSpline
210
0.0
220
0.0
230
1.0
 70
     8
 71
     3
 72
     8
 73
     4
 74
     0
 42
0.000000001
 43
0.00000001
 40
60.0
 40
60.0
 40
60.0
 40
60.0
 40
61.0
 40
61.0
 40
61.0
 40
61.0
 10
-515.4803239100868
 20
-805.8829884391538
 30
0.0
 10
-500.5797506379299
 20
-802.3270146804094
 30
0.0
 10
-465.5393062846421
 20
-792.8002634689823
 30
0.0
 10
-421.9766314490593
 20
-778.7586748757066
 30
0.0
  0
SPLINE
  5
1A2
330
15C
100
AcDbEntity
  8
LAYER_1
 62
     7
370
    15
100
AcDbSpline
210
0.0
220
0.0
230
1.0
 70
     8
 71
     3
 72
     8
 73
     4
 74
     0
 42
0.000000001
 43
0.00000001
 40
59.0
 40
59.0
 40
59.0
 40
59.0
 40
60.0
 40
60.0
 40
60.0
 40
60.0
 10
-541.3123288645062
 20
-812.2137422285141
 30
0.0
 10
-527.7539070787627
 20
-808.7815385089632
 30
0.0
 10
-517.891714590456
 20
-806.4584354059799
 30
0.0
 10
-515.4803239100868
 20
-805.8829884391538
 30
0.0
  0
SPLINE
  5
1A3
330
15C
100
AcDbEntity
  8
LAYER_1
 62
     7
370
    15
100
AcDbSpline
210
0.0
220
0.0
230
1.0
 70
     8
 71
     3
 72
    11
 73
     7
 74
     0
 42
0.000000001
 43
0.00000001
 40
57.0
 40
57.0
 40
57.0
 40
57.0
 40
58.0
 40
58.0
 40
58.0
 40
59.0
 40
59.0
 40
59.0
 40
59.0
 10
-598.5407744220123
 20
-824.9365552584909
 30
0.0
 10
-591.7151980618039
 20
-823.7512736032301
 30
0.0
 10
-579.0517585886114
 20
-821.7689566851674
 30
0.0
 10
-561.8724513898522
 20
-817.5068754967833
 30
0.0
 10
-555.9930525457119
 20
-816.0482307736866
 30
0.0
 10
-552.5025056130964
 20
-815.0464146968171
 30
0.0
 10
-541.3123288645062
 20
-812.2137422285141
 30
0.0
  0
SPLINE
  5
1A4
330
15C
100
AcDbEntity
  8
LAYER_1
 62
     7
370
    15
100
AcDbSpline
210
0.0
220
0.0
230
1.0
 70
     8
 71
     3
 72
    11
 73
     7
 74
     0
 42
0.000000001
 43
0.00000001
 40
55.0
 40
55.0
 40
55.0
 40
55.0
 40
56.0
 40
56.0
 40
56.0
 40
57.0
 40
57.0
 40
57.0
 40
57.0
 10
-742.7600453989266
 20
-866.0852635544076
 30
0.0
 10
-712.0778261822626
 20
-859.6515397896723
 30
0.0
 10
-708.897219519492
 20
-854.677169109338
 30
0.0
 10
-666.0441939200803
 20
-842.0069036090099
 30
0.0
 10
-643.5752952595849
 20
-835.3635692940255
 30
0.0
 10
-622.2119554091244
 20
-829.0471759202426
 30
0.0
 10
-598.5407744220123
 20
-824.9365552584909
 30
0.0
  0
SPLINE
  5
1A5
330
15C
100
AcDbEntity
  8
LAYER_1
 62
     7
370
    15
100
AcDbSpline
210
0.0
220
0.0
230
1.0
 70
     8
 71
     3
 72
    11
 73
     7
 74
     0
 42
0.000000001
 43
0.00000001
 40
53.0
 40
53.0
 40
53.0
 40
53.0
 40
54.0
 40
54.0
 40
54.0
 40
55.0
 40
55.0
 40
55.0
 40
55.0
 10
-856.091543587321
 20
-845.1708315828351
 30
0.0
 10
-829.7871260379335
 20
-867.9011155654382
 30
0.0
 10
-799.5419657473938
 20
-870.8457091201719
 30
0.0
 10
-790.6771459786713
 20
-871.5859466854885
 30
0.0
 10
-775.1684767231053
 20
-872.8809599467768
 30
0.0
 10
-764.3656448162183
 20
-870.615749281481
 30
0.0
 10
-742.7600453989266
 20
-866.0852635544076
 30
0.0
  0
SPLINE
  5
1A6
330
15C
100
AcDbEntity
  8
LAYER_1
 62
     7
370
    15
100
AcDbSpline
210
0.0
220
0.0
230
1.0
 70
     8
 71
     3
 72
     8
 73
     4
 74
     0
 42
0.000000001
 43
0.00000001
 40
52.0
 40
52.0
 40
52.0
 40
52.0
 40
53.0
 40
53.0
 40
53.0
 40
53.0
 10
-888.0987204295951
 20
-799.1784130693964
 30
0.0
 10
-882.8918140512744
 20
-810.6850985290374
 30
0.0
 10
-874.4750006106867
 20
-829.2852497157172
 30
0.0
 10
-856.091543587321
 20
-845.1708315828351
 30
0.0
  0
SPLINE
  5
1A7
330
15C
100
AcDbEntity
  8
LAYER_1
 62
     7
370
    15
100
AcDbSpline
210
0.0
220
0.0
230
1.0
 70
     8
 71
     3
 72
     8
 73
     4
 74
     0
 42
0.000000001
 43
0.00000001
 40
51.0
 40
51.0
 40
51.0
 40
51.0
 40
52.0
 40
52.0
 40
52.0
 40
52.0
 10
-902.4935881253775
 20
-757.9707175955907
 30
0.0
 10
-894.2387962345359
 20
-782.4773141490239
 30
0.0
 10
-890.1114324873564
 20
-794.73061242574
 30
0.0
 10
-888.0987204295951
 20
-799.1784130693964
 30
0.0
  0
SPLINE
  5
1A8
330
15C
100
AcDbEntity
  8
LAYER_1
 62
     7
370
    15
100
AcDbSpline
210
0.0
220
0.0
230
1.0
 70
     8
 71
     3
 72
     8
 73
     4
 74
     0
 42
0.000000001
 43
0.00000001
 40
50.0
 40
50.0
 40
50.0
 40
50.0
 40
51.0
 40
51.0
 40
51.0
 40
51.0
 10
-913.9651775021039
 20
-723.2674532242083
 30
0.0
 10
-910.4460385312984
 20
-734.361614817523
 30
0.0
 10
-907.7952217293247
 20
-742.2313157435453
 30
0.0
 10
-902.4935881253775
 20
-757.9707175955907
 30
0.0
  0
SPLINE
  5
1A9
330
15C
100
AcDbEntity
  8
LAYER_1
 62
     7
370
    15
100
AcDbSpline
210
0.0
220
0.0
230
1.0
 70
     8
 71
     3
 72
     8
 73
     4
 74
     0
 42
0.000000001
 43
0.00000001
 40
49.0
 40
49.0
 40
49.0
 40
49.0
 40
50.0
 40
50.0
 40
50.0
 40
50.0
 10
-927.7545894702565
 20
-676.7668820680625
 30
0.0
 10
-923.8546097024713
 20
-692.0906046261425
 30
0.0
 10
-920.4535738804068
 20
-702.8124257581576
 30
0.0
 10
-913.9651775021039
 20
-723.2674532242083
 30
0.0
  0
SPLINE
  5
1AA
330
15C
100
AcDbEntity
  8
LAYER_1
 62
     7
370
    15
100
AcDbSpline
210
0.0
220
0.0
230
1.0
 70
     8
 71
     3
 72
     8
 73
     4
 74
     0
 42
0.000000001
 43
0.00000001
 40
48.0
 40
48.0
 40
48.0
 40
48.0
 40
49.0
 40
49.0
 40
49.0
 40
49.0
 10
-935.6910695485395
 20
-643.5138264805796
 30
0.0
 10
-931.2441060591533
 20
-662.3661542923792
 30
0.0
 10
-929.0206243144604
 20
-671.7922538017991
 30
0.0
 10
-927.7545894702565
 20
-676.7668820680625
 30
0.0
  0
SPLINE
  5
1AB
330
15C
100
AcDbEntity
  8
LAYER_1
 62
     7
370
    15
100
AcDbSpline
210
0.0
220
0.0
230
1.0
 70
     8
 71
     3
 72
    11
 73
     7
 74
     0
 42
0.000000001
 43
0.00000001
 40
46.0
 40
46.0
 40
46.0
 40
46.0
 40
47.0
 40
47.0
 40
47.0
 40
48.0
 40
48.0
 40
48.0
 40
48.0
 10
-949.715206695081
 20
-583.9613762693358
 30
0.0
 10
-948.1356897744995
 20
-591.5622862777739
 30
0.0
 10
-948.1600316448512
 20
-590.4428822240211
 30
0.0
 10
-940.3032744117928
 20
-623.8442429104963
 30
0.0
 10
-937.8485448987615
 20
-634.2800148676396
 30
0.0
 10
-937.6559994163522
 20
-635.1836907053154
 30
0.0
 10
-935.6910695485395
 20
-643.5138264805796
 30
0.0
  0
SPLINE
  5
1AC
330
15C
100
AcDbEntity
  8
LAYER_1
 62
     7
370
    15
100
AcDbSpline
210
0.0
220
0.0
230
1.0
 70
     8
 71
     3
 72
    11
 73
     7
 74
     0
 42
0.000000001
 43
0.00000001
 40
44.0
 40
44.0
 40
44.0
 40
44.0
 40
45.0
 40
45.0
 40
45.0
 40
46.0
 40
46.0
 40
46.0
 40
46.0
 10
-963.3836176727825
 20
-508.0011531151024
 30
0.0
 10
-960.7329940602566
 20
-523.8432673565927
 30
0.0
 10
-959.4622582728366
 20
-527.6565694590539
 30
0.0
 10
-956.1309638412239
 20
-545.6648525758927
 30
0.0
 10
-951.600928889527
 20
-570.1532893212848
 30
0.0
 10
-953.147668000561
 20
-567.4434209449399
 30
0.0
 10
-949.715206695081
 20
-583.9613762693358
 30
0.0
  0
SPLINE
  5
1AD
330
15C
100
AcDbEntity
  8
LAYER_1
 62
     7
370
    15
100
AcDbSpline
210
0.0
220
0.0
230
1.0
 70
     8
 71
     3
 72
     8
 73
     4
 74
     0
 42
0.000000001
 43
0.00000001
 40
43.0
 40
43.0
 40
43.0
 40
43.0
 40
44.0
 40
44.0
 40
44.0
 40
44.0
 10
-967.4762073194601
 20
-479.4983362509208
 30
0.0
 10
-965.6770983938567
 20
-493.8562081675572
 30
0.0
 10
-964.2847820476451
 20
-502.6150313262319
 30
0.0
 10
-963.3836176727825
 20
-508.0011531151024
 30
0.0
  0
SPLINE
  5
1AE
330
15C
100
AcDbEntity
  8
LAYER_1
 62
     7
370
    15
100
AcDbSpline
210
0.0
220
0.0
230
1.0
 70
     8
 71
     3
 72
     8
 73
     4
 74
     0
 42
0.000000001
 43
0.00000001
 40
42.0
 40
42.0
 40
42.0
 40
42.0
 40
43.0
 40
43.0
 40
43.0
 40
43.0
 10
-975.0301722922208
 20
-399.0687074331806
 30
0.0
 10
-971.6635885882471
 20
-436.8691850226107
 30
0.0
 10
-971.0359160741851
 20
-451.0894738545771
 30
0.0
 10
-967.4762073194601
 20
-479.4983362509208
 30
0.0
  0
SPLINE
  5
1AF
330
15C
100
AcDbEntity
  8
LAYER_1
 62
     7
370
    15
100
AcDbSpline
210
0.0
220
0.0
230
1.0
 70
     8
 71
     3
 72
    11
 73
     7
 74
     0
 42
0.000000001
 43
0.00000001
 40
40.0
 40
40.0
 40
40.0
 40
40.0
 40
41.0
 40
41.0
 40
41.0
 40
42.0
 40
42.0
 40
42.0
 40
42.0
 10
-987.2389082031084
 20
-285.663539668908
 30
0.0
 10
-985.7786535679523
 20
-307.1909939547935
 30
0.0
 10
-981.8044890524291
 20
-328.4811472029934
 30
0.0
 10
-979.7674995207992
 20
-349.9617208496837
 30
0.0
 10
-975.8150366198482
 20
-391.641474737805
 30
0.0
 10
-976.5097458721
 20
-382.4557350989868
 30
0.0
 10
-975.0301722922208
 20
-399.0687074331806
 30
0.0
  0
SPLINE
  5
1B0
330
15C
100
AcDbEntity
  8
LAYER_1
 62
     7
370
    15
100
AcDbSpline
210
0.0
220
0.0
230
1.0
 70
     8
 71
     3
 72
     8
 73
     4
 74
     0
 42
0.000000001
 43
0.00000001
 40
39.0
 40
39.0
 40
39.0
 40
39.0
 40
40.0
 40
40.0
 40
40.0
 40
40.0
 10
-993.3058940005125
 20
-255.1587005630454
 30
0.0
 10
-991.6424040668666
 20
-265.3918167900401
 30
0.0
 10
-987.9405722754607
 20
-275.3198868798534
 30
0.0
 10
-987.2389082031084
 20
-285.663539668908
 30
0.0
  0
SPLINE
  5
1B1
330
15C
100
AcDbEntity
  8
LAYER_1
 62
     7
370
    15
100
AcDbSpline
210
0.0
220
0.0
230
1.0
 70
     8
 71
     3
 72
     8
 73
     4
 74
     0
 42
0.000000001
 43
0.00000001
 40
38.0
 40
38.0
 40
38.0
 40
38.0
 40
39.0
 40
39.0
 40
39.0
 40
39.0
 10
-998.3978526577293
 20
-243.3085886627052
 30
0.0
 10
-994.56935298542
 20
-247.384660611645
 30
0.0
 10
-993.3371262944822
 20
-254.9664770630473
 30
0.0
 10
-993.3058940005125
 20
-255.1587005630454
 30
0.0
  0
SPLINE
  5
1B2
330
15C
100
AcDbEntity
  8
LAYER_1
 62
     7
370
    15
100
AcDbSpline
210
0.0
220
0.0
230
1.0
 70
     8
 71
     3
 72
     8
 73
     4
 74
     0
 42
0.000000001
 43
0.00000001
 40
37.0
 40
37.0
 40
37.0
 40
37.0
 40
38.0
 40
38.0
 40
38.0
 40
38.0
 10
-1002.998916929526
 20
-239.4078200380102
 30
0.0
 10
-1000.520360718002
 20
-241.9083032517948
 30
0.0
 10
-999.8153480285639
 20
-241.7994570973997
 30
0.0
 10
-998.3978526577293
 20
-243.3085886627052
 30
0.0
  0
SPLINE
  5
1B3
330
15C
100
AcDbEntity
  8
LAYER_1
 62
     7
370
    15
100
AcDbSpline
210
0.0
220
0.0
230
1.0
 70
     8
 71
     3
 72
     8
 73
     4
 74
     0
 42
0.000000001
 43
0.00000001
 40
36.0
 40
36.0
 40
36.0
 40
36.0
 40
37.0
 40
37.0
 40
37.0
 40
37.0
 10
-1006.047832785765
 20
-237.6203185783615
 30
0.0
 10
-1004.782248716938
 20
-237.5281350137896
 30
0.0
 10
-1003.775924886298
 20
-238.6239216576198
 30
0.0
 10
-1002.998916929526
 20
-239.4078200380102
 30
0.0
  0
SPLINE
  5
1B4
330
15C
100
AcDbEntity
  8
LAYER_1
 62
     7
370
    15
100
AcDbSpline
210
0.0
220
0.0
230
1.0
 70
     8
 71
     3
 72
     8
 73
     4
 74
     0
 42
0.000000001
 43
0.00000001
 40
35.0
 40
35.0
 40
35.0
 40
35.0
 40
36.0
 40
36.0
 40
36.0
 40
36.0
 10
-1007.335376055094
 20
-238.1353616446869
 30
0.0
 10
-1007.221329884744
 20
-238.0510183518477
 30
0.0
 10
-1006.735587217916
 20
-237.6704029425569
 30
0.0
 10
-1006.047832785765
 20
-237.6203185783615
 30
0.0
  0
SPLINE
  5
1B5
330
15C
100
AcDbEntity
  8
LAYER_1
 62
     7
370
    15
100
AcDbSpline
210
0.0
220
0.0
230
1.0
 70
     8
 71
     3
 72
    11
 73
     7
 74
     0
 42
0.000000001
 43
0.00000001
 40
33.0
 40
33.0
 40
33.0
 40
33.0
 40
34.0
 40
34.0
 40
34.0
 40
35.0
 40
35.0
 40
35.0
 40
35.0
 10
-1112.341825790336
 20
-261.8950877951133
 30
0.0
 10
-1081.324744865133
 20
-266.5054573586184
 30
0.0
 10
-1067.274011971356
 20
-263.0097265091683
 30
0.0
 10
-1067.273625592463
 20
-263.009629914445
 30
0.0
 10
-1042.396813661648
 20
-256.8204517916653
 30
0.0
 10
-1009.429292077176
 20
-239.6835657756949
 30
0.0
 10
-1007.335376055094
 20
-238.1353616446869
 30
0.0
  0
SPLINE
  5
1B6
330
15C
100
AcDbEntity
  8
LAYER_1
 62
     7
370
    15
100
AcDbSpline
210
0.0
220
0.0
230
1.0
 70
     8
 71
     3
 72
     8
 73
     4
 74
     0
 42
0.000000001
 43
0.00000001
 40
32.0
 40
32.0
 40
32.0
 40
32.0
 40
33.0
 40
33.0
 40
33.0
 40
33.0
 10
-1116.533843605856
 20
-259.9271956891112
 30
0.0
 10
-1115.259887994316
 20
-261.4613452878333
 30
0.0
 10
-1113.246274385801
 20
-261.7606601380802
 30
0.0
 10
-1112.341825790336
 20
-261.8950877951133
 30
0.0
  0
SPLINE
  5
1B7
330
15C
100
AcDbEntity
  8
LAYER_1
 62
     7
370
    15
100
AcDbSpline
210
0.0
220
0.0
230
1.0
 70
     8
 71
     3
 72
     8
 73
     4
 74
     0
 42
0.000000001
 43
0.00000001
 40
31.0
 40
31.0
 40
31.0
 40
31.0
 40
32.0
 40
32.0
 40
32.0
 40
32.0
 10
-1117.526515382224
 20
-258.4535465856129
 30
0.0
 10
-1117.202085903837
 20
-258.5315629240546
 30
0.0
 10
-1117.205498917405
 20
-259.1183436717847
 30
0.0
 10
-1116.533843605856
 20
-259.9271956891112
 30
0.0
  0
SPLINE
  5
1B8
330
15C
100
AcDbEntity
  8
LAYER_1
 62
     7
370
    15
100
AcDbSpline
210
0.0
220
0.0
230
1.0
 70
     8
 71
     3
 72
     8
 73
     4
 74
     0
 42
0.000000001
 43
0.00000001
 40
30.0
 40
30.0
 40
30.0
 40
30.0
 40
31.0
 40
31.0
 40
31.0
 40
31.0
 10
-1124.231734716806
 20
-273.2242965492299
 30
0.0
 10
-1122.704894118837
 20
-267.853211339002
 30
0.0
 10
-1118.907369154568
 20
-258.121421727578
 30
0.0
 10
-1117.526515382224
 20
-258.4535465856129
 30
0.0
  0
SPLINE
  5
1B9
330
15C
100
AcDbEntity
  8
LAYER_1
 62
     7
370
    15
100
AcDbSpline
210
0.0
220
0.0
230
1.0
 70
     8
 71
     3
 72
     8
 73
     4
 74
     0
 42
0.000000001
 43
0.00000001
 40
29.0
 40
29.0
 40
29.0
 40
29.0
 40
30.0
 40
30.0
 40
30.0
 40
30.0
 10
-1120.608337840976
 20
-317.6803437853026
 30
0.0
 10
-1124.054000425351
 20
-304.0195637907673
 30
0.0
 10
-1129.005703543876
 20
-290.0178366201037
 30
0.0
 10
-1124.231734716806
 20
-273.2242965492299
 30
0.0
  0
SPLINE
  5
1BA
330
15C
100
AcDbEntity
  8
LAYER_1
 62
     7
370
    15
100
AcDbSpline
210
0.0
220
0.0
230
1.0
 70
     8
 71
     3
 72
     8
 73
     4
 74
     0
 42
0.000000001
 43
0.00000001
 40
28.0
 40
28.0
 40
28.0
 40
28.0
 40
29.0
 40
29.0
 40
29.0
 40
29.0
 10
-1113.760673487301
 20
-369.7703686235327
 30
0.0
 10
-1116.249855118423
 20
-352.435447325027
 30
0.0
 10
-1116.325263399327
 20
-334.6612454217524
 30
0.0
 10
-1120.608337840976
 20
-317.6803437853026
 30
0.0
  0
SPLINE
  5
1BB
330
15C
100
AcDbEntity
  8
LAYER_1
 62
     7
370
    15
100
AcDbSpline
210
0.0
220
0.0
230
1.0
 70
     8
 71
     3
 72
     8
 73
     4
 74
     0
 42
0.000000001
 43
0.00000001
 40
27.0
 40
27.0
 40
27.0
 40
27.0
 40
28.0
 40
28.0
 40
28.0
 40
28.0
 10
-1102.451105660321
 20
-449.7758178116308
 30
0.0
 10
-1106.224803926099
 20
-423.1078821190321
 30
0.0
 10
-1109.932495797404
 20
-396.4305445400011
 30
0.0
 10
-1113.760673487301
 20
-369.7703686235327
 30
0.0
  0
SPLINE
  5
1BC
330
15C
100
AcDbEntity
  8
LAYER_1
 62
     7
370
    15
100
AcDbSpline
210
0.0
220
0.0
230
1.0
 70
     8
 71
     3
 72
    11
 73
     7
 74
     0
 42
0.000000001
 43
0.00000001
 40
25.0
 40
25.0
 40
25.0
 40
25.0
 40
26.0
 40
26.0
 40
26.0
 40
27.0
 40
27.0
 40
27.0
 40
27.0
 10
-1083.089079690235
 20
-576.5134079066236
 30
0.0
 10
-1086.610987709785
 20
-555.8118707059035
 30
0.0
 10
-1089.340818995676
 20
-539.7658772010989
 30
0.0
 10
-1092.679583419249
 20
-518.1380609973752
 30
0.0
 10
-1095.451208022226
 20
-500.1840641152099
 30
0.0
 10
-1095.768103112171
 20
-497.0030066770619
 30
0.0
 10
-1102.451105660321
 20
-449.7758178116308
 30
0.0
  0
SPLINE
  5
1BD
330
15C
100
AcDbEntity
  8
LAYER_1
 62
     7
370
    15
100
AcDbSpline
210
0.0
220
0.0
230
1.0
 70
     8
 71
     3
 72
     8
 73
     4
 74
     0
 42
0.000000001
 43
0.00000001
 40
24.0
 40
24.0
 40
24.0
 40
24.0
 40
25.0
 40
25.0
 40
25.0
 40
25.0
 10
-1071.044426016531
 20
-643.9045199393664
 30
0.0
 10
-1074.853671140599
 20
-624.9208233034465
 30
0.0
 10
-1077.598828789305
 20
-608.7849967056783
 30
0.0
 10
-1083.089079690235
 20
-576.5134079066236
 30
0.0
  0
SPLINE
  5
1BE
330
15C
100
AcDbEntity
  8
LAYER_1
 62
     7
370
    15
100
AcDbSpline
210
0.0
220
0.0
230
1.0
 70
     8
 71
     3
 72
    11
 73
     7
 74
     0
 42
0.000000001
 43
0.00000001
 40
22.0
 40
22.0
 40
22.0
 40
22.0
 40
23.0
 40
23.0
 40
23.0
 40
24.0
 40
24.0
 40
24.0
 40
24.0
 10
-1041.36408727322
 20
-767.906772849223
 30
0.0
 10
-1054.731766678061
 20
-716.14623261325
 30
0.0
 10
-1056.108756661459
 20
-710.8298522148302
 30
0.0
 10
-1058.75654682876
 20
-699.6838514531738
 30
0.0
 10
-1065.607366610072
 20
-670.8449815455306
 30
0.0
 10
-1069.961599164787
 20
-649.3008163724592
 30
0.0
 10
-1071.044426016531
 20
-643.9045199393664
 30
0.0
  0
SPLINE
  5
1BF
330
15C
100
AcDbEntity
  8
LAYER_1
 62
     7
370
    15
100
AcDbSpline
210
0.0
220
0.0
230
1.0
 70
     8
 71
     3
 72
     8
 73
     4
 74
     0
 42
0.000000001
 43
0.00000001
 40
21.0
 40
21.0
 40
21.0
 40
21.0
 40
22.0
 40
22.0
 40
22.0
 40
22.0
 10
-1025.47554316791
 20
-838.0372468472553
 30
0.0
 10
-1027.234339895524
 20
-822.7904780856563
 30
0.0
 10
-1031.968189714052
 20
-804.2884671381706
 30
0.0
 10
-1041.36408727322
 20
-767.906772849223
 30
0.0
  0
SPLINE
  5
1C0
330
15C
100
AcDbEntity
  8
LAYER_1
 62
     7
370
    15
100
AcDbSpline
210
0.0
220
0.0
230
1.0
 70
     8
 71
     3
 72
     8
 73
     4
 74
     0
 42
0.000000001
 43
0.00000001
 40
20.0
 40
20.0
 40
20.0
 40
20.0
 40
21.0
 40
21.0
 40
21.0
 40
21.0
 10
-1023.086948842315
 20
-881.7111344079623
 30
0.0
 10
-1023.199191911158
 20
-871.8322632307111
 30
0.0
 10
-1023.376411030753
 20
-856.2346624329357
 30
0.0
 10
-1025.47554316791
 20
-838.0372468472553
 30
0.0
  0
SPLINE
  5
1C1
330
15C
100
AcDbEntity
  8
LAYER_1
 62
     7
370
    15
100
AcDbSpline
210
0.0
220
0.0
230
1.0
 70
     8
 71
     3
 72
     8
 73
     4
 74
     0
 42
0.000000001
 43
0.00000001
 40
19.0
 40
19.0
 40
19.0
 40
19.0
 40
20.0
 40
20.0
 40
20.0
 40
20.0
 10
-1025.085815656358
 20
-932.0458721268699
 30
0.0
 10
-1022.716282689556
 20
-914.3352939482186
 30
0.0
 10
-1022.901100594076
 20
-898.0673901650248
 30
0.0
 10
-1023.086948842315
 20
-881.7111344079623
 30
0.0
  0
SPLINE
  5
1C2
330
15C
100
AcDbEntity
  8
LAYER_1
 62
     7
370
    15
100
AcDbSpline
210
0.0
220
0.0
230
1.0
 70
     8
 71
     3
 72
     8
 73
     4
 74
     0
 42
0.000000001
 43
0.00000001
 40
18.0
 40
18.0
 40
18.0
 40
18.0
 40
19.0
 40
19.0
 40
19.0
 40
19.0
 10
-1045.97622773999
 20
-1000.007536993775
 30
0.0
 10
-1028.965639325149
 20
-958.3475206275125
 30
0.0
 10
-1026.012159055842
 20
-938.9695887262726
 30
0.0
 10
-1025.085815656358
 20
-932.0458721268699
 30
0.0
  0
SPLINE
  5
1C3
330
15C
100
AcDbEntity
  8
LAYER_1
 62
     7
370
    15
100
AcDbSpline
210
0.0
220
0.0
230
1.0
 70
     8
 71
     3
 72
     8
 73
     4
 74
     0
 42
0.000000001
 43
0.00000001
 40
17.0
 40
17.0
 40
17.0
 40
17.0
 40
18.0
 40
18.0
 40
18.0
 40
18.0
 10
-1079.075375734511
 20
-1070.004066308392
 30
0.0
 10
-1061.272517396565
 20
-1029.192859976792
 30
0.0
 10
-1060.018782280501
 20
-1034.398671614912
 30
0.0
 10
-1045.97622773999
 20
-1000.007536993775
 30
0.0
  0
SPLINE
  5
1C4
330
15C
100
AcDbEntity
  8
LAYER_1
 62
     7
370
    15
100
AcDbSpline
210
0.0
220
0.0
230
1.0
 70
     8
 71
     3
 72
     8
 73
     4
 74
     0
 42
0.000000001
 43
0.00000001
 40
16.0
 40
16.0
 40
16.0
 40
16.0
 40
17.0
 40
17.0
 40
17.0
 40
17.0
 10
-1110.480381069758
 20
-1151.007628775623
 30
0.0
 10
-1101.83708520053
 20
-1126.840144098567
 30
0.0
 10
-1092.591295841863
 20
-1100.988047441636
 30
0.0
 10
-1079.075375734511
 20
-1070.004066308392
 30
0.0
  0
SPLINE
  5
1C5
330
15C
100
AcDbEntity
  8
LAYER_1
 62
     7
370
    15
100
AcDbSpline
210
0.0
220
0.0
230
1.0
 70
     8
 71
     3
 72
     8
 73
     4
 74
     0
 42
0.000000001
 43
0.00000001
 40
15.0
 40
15.0
 40
15.0
 40
15.0
 40
16.0
 40
16.0
 40
16.0
 40
16.0
 10
-1120.177976149023
 20
-1180.017857722962
 30
0.0
 10
-1119.300445283205
 20
-1176.87002886974
 30
0.0
 10
-1117.530379171169
 20
-1170.720164799472
 30
0.0
 10
-1110.480381069758
 20
-1151.007628775623
 30
0.0
  0
SPLINE
  5
1C6
330
15C
100
AcDbEntity
  8
LAYER_1
 62
     7
370
    15
100
AcDbSpline
210
0.0
220
0.0
230
1.0
 70
     8
 71
     3
 72
     8
 73
     4
 74
     0
 42
0.000000001
 43
0.00000001
 40
14.0
 40
14.0
 40
14.0
 40
14.0
 40
15.0
 40
15.0
 40
15.0
 40
15.0
 10
-1130.960394370985
 20
-1246.487520488884
 30
0.0
 10
-1129.612575994119
 20
-1229.042384610731
 30
0.0
 10
-1127.833751960475
 20
-1207.479866440175
 30
0.0
 10
-1120.177976149023
 20
-1180.017857722962
 30
0.0
  0
SPLINE
  5
1C7
330
15C
100
AcDbEntity
  8
LAYER_1
 62
     7
370
    15
100
AcDbSpline
210
0.0
220
0.0
230
1.0
 70
     8
 71
     3
 72
     8
 73
     4
 74
     0
 42
0.000000001
 43
0.00000001
 40
13.0
 40
13.0
 40
13.0
 40
13.0
 40
14.0
 40
14.0
 40
14.0
 40
14.0
 10
-1130.658246075511
 20
-1317.523409029619
 30
0.0
 10
-1134.052777852852
 20
-1288.012561828012
 30
0.0
 10
-1132.43346390614
 20
-1265.554546173045
 30
0.0
 10
-1130.960394370985
 20
-1246.487520488884
 30
0.0
  0
SPLINE
  5
1C8
330
15C
100
AcDbEntity
  8
LAYER_1
 62
     7
370
    15
100
AcDbSpline
210
0.0
220
0.0
230
1.0
 70
     8
 71
     3
 72
     8
 73
     4
 74
     0
 42
0.000000001
 43
0.00000001
 40
12.0
 40
12.0
 40
12.0
 40
12.0
 40
13.0
 40
13.0
 40
13.0
 40
13.0
 10
-1118.995270353058
 20
-1373.841352722312
 30
0.0
 10
-1120.988663466096
 20
-1367.420121875164
 30
0.0
 10
-1127.375570988119
 20
-1346.062126932743
 30
0.0
 10
-1130.658246075511
 20
-1317.523409029619
 30
0.0
  0
SPLINE
  5
1C9
330
15C
100
AcDbEntity
  8
LAYER_1
 62
     7
370
    15
100
AcDbSpline
210
0.0
220
0.0
230
1.0
 70
     8
 71
     3
 72
     8
 73
     4
 74
     0
 42
0.000000001
 43
0.00000001
 40
11.0
 40
11.0
 40
11.0
 40
11.0
 40
12.0
 40
12.0
 40
12.0
 40
12.0
 10
-1096.640804241807
 20
-1431.728896277297
 30
0.0
 10
-1109.772341745647
 20
-1396.079261200398
 30
0.0
 10
-1112.840834132541
 20
-1393.666711383346
 30
0.0
 10
-1118.995270353058
 20
-1373.841352722312
 30
0.0
  0
SPLINE
  5
1CA
330
15C
100
AcDbEntity
  8
LAYER_1
 62
     7
370
    15
100
AcDbSpline
210
0.0
220
0.0
230
1.0
 70
     8
 71
     3
 72
     8
 73
     4
 74
     0
 42
0.000000001
 43
0.00000001
 40
10.0
 40
10.0
 40
10.0
 40
10.0
 40
11.0
 40
11.0
 40
11.0
 40
11.0
 10
-1082.214833045021
 20
-1472.941228297836
 30
0.0
 10
-1090.423388261491
 20
-1450.379791892115
 30
0.0
 10
-1089.455573527334
 20
-1451.235363557431
 30
0.0
 10
-1096.640804241807
 20
-1431.728896277297
 30
0.0
  0
SPLINE
  5
1CB
330
15C
100
AcDbEntity
  8
LAYER_1
 62
     7
370
    15
100
AcDbSpline
210
0.0
220
0.0
230
1.0
 70
     8
 71
     3
 72
     8
 73
     4
 74
     0
 42
0.000000001
 43
0.00000001
 40
9.0
 40
9.0
 40
9.0
 40
9.0
 40
10.0
 40
10.0
 40
10.0
 40
10.0
 10
-1059.353631013676
 20
-1530.63429447594
 30
0.0
 10
-1067.084428727137
 20
-1514.527575088221
 30
0.0
 10
-1072.127896833099
 20
-1500.665459491426
 30
0.0
 10
-1082.214833045021
 20
-1472.941228297836
 30
0.0
  0
SPLINE
  5
1CC
330
15C
100
AcDbEntity
  8
LAYER_1
 62
     7
370
    15
100
AcDbSpline
210
0.0
220
0.0
230
1.0
 70
     8
 71
     3
 72
     8
 73
     4
 74
     0
 42
0.000000001
 43
0.00000001
 40
8.0
 40
8.0
 40
8.0
 40
8.0
 40
9.0
 40
9.0
 40
9.0
 40
9.0
 10
-1031.782277069331
 20
-1579.635509837075
 30
0.0
 10
-1047.732062229414
 20
-1552.033245581173
 30
0.0
 10
-1055.706922611214
 20
-1538.23204905674
 30
0.0
 10
-1059.353631013676
 20
-1530.63429447594
 30
0.0
  0
SPLINE
  5
1CD
330
15C
100
AcDbEntity
  8
LAYER_1
 62
     7
370
    15
100
AcDbSpline
210
0.0
220
0.0
230
1.0
 70
     8
 71
     3
 72
     8
 73
     4
 74
     0
 42
0.000000001
 43
0.00000001
 40
7.0
 40
7.0
 40
7.0
 40
7.0
 40
8.0
 40
8.0
 40
8.0
 40
8.0
 10
-1006.090141274709
 20
-1620.657485855608
 30
0.0
 10
-1008.152438623927
 20
-1618.568335173224
 30
0.0
 10
-1011.420366916847
 20
-1614.873393805436
 30
0.0
 10
-1031.782277069331
 20
-1579.635509837075
 30
0.0
  0
SPLINE
  5
1CE
330
15C
100
AcDbEntity
  8
LAYER_1
 62
     7
370
    15
100
AcDbSpline
210
0.0
220
0.0
230
1.0
 70
     8
 71
     3
 72
     8
 73
     4
 74
     0
 42
0.000000001
 43
0.00000001
 40
6.0
 40
6.0
 40
6.0
 40
6.0
 40
7.0
 40
7.0
 40
7.0
 40
7.0
 10
-992.8832598864481
 20
-1638.373086959887
 30
0.0
 10
-998.2324180944149
 20
-1628.379525647461
 30
0.0
 10
-1004.468315865184
 20
-1622.300368914881
 30
0.0
 10
-1006.090141274709
 20
-1620.657485855608
 30
0.0
  0
SPLINE
  5
1CF
330
15C
100
AcDbEntity
  8
LAYER_1
 62
     7
370
    15
100
AcDbSpline
210
0.0
220
0.0
230
1.0
 70
     8
 71
     3
 72
     8
 73
     4
 74
     0
 42
0.000000001
 43
0.00000001
 40
5.0
 40
5.0
 40
5.0
 40
5.0
 40
6.0
 40
6.0
 40
6.0
 40
6.0
 10
-990.1119572658836
 20
-1644.143398162824
 30
0.0
 10
-990.6678920985388
 20
-1642.903508290477
 30
0.0
 10
-991.4650561543066
 20
-1641.022615832212
 30
0.0
 10
-992.8832598864481
 20
-1638.373086959887
 30
0.0
  0
SPLINE
  5
1D0
330
15C
100
AcDbEntity
  8
LAYER_1
 62
     7
370
    15
100
AcDbSpline
210
0.0
220
0.0
230
1.0
 70
     8
 71
     3
 72
     8
 73
     4
 74
     0
 42
0.000000001
 43
0.00000001
 40
4.0
 40
4.0
 40
4.0
 40
4.0
 40
5.0
 40
5.0
 40
5.0
 40
5.0
 10
-969.0538567420515
 20
-1673.78947797749
 30
0.0
 10
-977.008303438927
 20
-1663.853487120341
 30
0.0
 10
-984.7698826709816
 20
-1656.057520166679
 30
0.0
 10
-990.1119572658836
 20
-1644.143398162824
 30
0.0
  0
SPLINE
  5
1D1
330
15C
100
AcDbEntity
  8
LAYER_1
 62
     7
370
    15
100
AcDbSpline
210
0.0
220
0.0
230
1.0
 70
     8
 71
     3
 72
     8
 73
     4
 74
     0
 42
0.000000001
 43
0.00000001
 40
3.0
 40
3.0
 40
3.0
 40
3.0
 40
4.0
 40
4.0
 40
4.0
 40
4.0
 10
-949.0595217111703
 20
-1703.118855891661
 30
0.0
 10
-962.067224779334
 20
-1685.524577760244
 30
0.0
 10
-959.0427795864102
 20
-1686.294502103953
 30
0.0
 10
-969.0538567420515
 20
-1673.78947797749
 30
0.0
  0
SPLINE
  5
1D2
330
15C
100
AcDbEntity
  8
LAYER_1
 62
     7
370
    15
100
AcDbSpline
210
0.0
220
0.0
230
1.0
 70
     8
 71
     3
 72
     8
 73
     4
 74
     0
 42
0.000000001
 43
0.00000001
 40
2.0
 40
2.0
 40
2.0
 40
2.0
 40
3.0
 40
3.0
 40
3.0
 40
3.0
 10
-929.4502132486257
 20
-1727.429300759669
 30
0.0
 10
-938.71570793091
 20
-1715.181862562853
 30
0.0
 10
-939.1481947067837
 20
-1716.52491560002
 30
0.0
 10
-949.0595217111703
 20
-1703.118855891661
 30
0.0
  0
SPLINE
  5
1D3
330
15C
100
AcDbEntity
  8
LAYER_1
 62
     7
370
    15
100
AcDbSpline
210
0.0
220
0.0
230
1.0
 70
     8
 71
     3
 72
     8
 73
     4
 74
     0
 42
0.000000001
 43
0.00000001
 40
1.0
 40
1.0
 40
1.0
 40
1.0
 40
2.0
 40
2.0
 40
2.0
 40
2.0
 10
-899.8091563595848
 20
-1773.316044645472
 30
0.0
 10
-913.185593686035
 20
-1751.163783488992
 30
0.0
 10
-919.8738123492594
 20
-1740.087717307235
 30
0.0
 10
-929.4502132486257
 20
-1727.429300759669
 30
0.0
  0
SPLINE
  5
1D4
330
15C
100
AcDbEntity
  8
LAYER_1
 62
     7
370
    15
100
AcDbSpline
210
0.0
220
0.0
230
1.0
 70
     8
 71
     3
 72
     8
 73
     4
 74
     0
 42
0.000000001
 43
0.00000001
 40
0.0
 40
0.0
 40
0.0
 40
0.0
 40
1.0
 40
1.0
 40
1.0
 40
1.0
 10
-886.9346896135307
 20
-1795.112966012006
 30
0.0
 10
-889.8266068456517
 20
-1790.10485157489
 30
0.0
 10
-894.2601114702142
 20
-1782.505680271477
 30
0.0
 10
-899.8091563595848
 20
-1773.316044645472
 30
0.0
  0
SPLINE
  5
1D5
330
15C
100
AcDbEntity
  8
LAYER_1
 62
     7
370
    15
100
AcDbSpline
210
0.0
220
0.0
230
1.0
 70
     8
 71
     3
 72
     8
 73
     4
 74
     0
 42
0.000000001
 43
0.00000001
 40
16.0
 40
16.0
 40
16.0
 40
16.0
 40
17.0
 40
17.0
 40
17.0
 40
17.0
 10
-789.2535973384897
 20
-1656.068081189795
 30
0.0
 10
-781.1290151350837
 20
-1667.990961115259
 30
0.0
 10
-773.241283193986
 20
-1680.348903675893
 30
0.0
 10
-756.2911630761282
 20
-1697.855087419371
 30
0.0
  0
SPLINE
  5
1D6
330
15C
100
AcDbEntity
  8
LAYER_1
 62
     7
370
    15
100
AcDbSpline
210
0.0
220
0.0
230
1.0
 70
     8
 71
     3
 72
     8
 73
     4
 74
     0
 42
0.000000001
 43
0.00000001
 40
15.0
 40
15.0
 40
15.0
 40
15.0
 40
16.0
 40
16.0
 40
16.0
 40
16.0
 10
-808.8685726914866
 20
-1624.201997040484
 30
0.0
 10
-796.7082629353723
 20
-1644.101282863326
 30
0.0
 10
-790.6280758590735
 20
-1654.051054567712
 30
0.0
 10
-789.2535973384897
 20
-1656.068081189795
 30
0.0
  0
SPLINE
  5
1D7
330
15C
100
AcDbEntity
  8
LAYER_1
 62
     7
370
    15
100
AcDbSpline
210
0.0
220
0.0
230
1.0
 70
     8
 71
     3
 72
     8
 73
     4
 74
     0
 42
0.000000001
 43
0.00000001
 40
14.0
 40
14.0
 40
14.0
 40
14.0
 40
15.0
 40
15.0
 40
15.0
 40
15.0
 10
-829.491159804772
 20
-1586.107742698293
 30
0.0
 10
-822.4561660837627
 20
-1601.879986756367
 30
0.0
 10
-815.8260974441553
 20
-1612.816698950187
 30
0.0
 10
-808.8685726914866
 20
-1624.201997040484
 30
0.0
  0
SPLINE
  5
1D8
330
15C
100
AcDbEntity
  8
LAYER_1
 62
     7
370
    15
100
AcDbSpline
210
0.0
220
0.0
230
1.0
 70
     8
 71
     3
 72
     8
 73
     4
 74
     0
 42
0.000000001
 43
0.00000001
 40
13.0
 40
13.0
 40
13.0
 40
13.0
 40
14.0
 40
14.0
 40
14.0
 40
14.0
 10
-831.0545776047502
 20
-1582.53579861191
 30
0.0
 10
-830.2119496323998
 20
-1584.414630382738
 30
0.0
 10
-830.4764903821449
 20
-1583.898685765661
 30
0.0
 10
-829.491159804772
 20
-1586.107742698293
 30
0.0
  0
SPLINE
  5
1D9
330
15C
100
AcDbEntity
  8
LAYER_1
 62
     7
370
    15
100
AcDbSpline
210
0.0
220
0.0
230
1.0
 70
     8
 71
     3
 72
     8
 73
     4
 74
     0
 42
0.000000001
 43
0.00000001
 40
12.0
 40
12.0
 40
12.0
 40
12.0
 40
13.0
 40
13.0
 40
13.0
 40
13.0
 10
-854.0255112421229
 20
-1540.148101994402
 30
0.0
 10
-849.2574668914347
 20
-1554.107842658531
 30
0.0
 10
-841.8688720855058
 20
-1558.422020601185
 30
0.0
 10
-831.0545776047502
 20
-1582.53579861191
 30
0.0
  0
SPLINE
  5
1DA
330
15C
100
AcDbEntity
  8
LAYER_1
 62
     7
370
    15
100
AcDbSpline
210
0.0
220
0.0
230
1.0
 70
     8
 71
     3
 72
     8
 73
     4
 74
     0
 42
0.000000001
 43
0.00000001
 40
11.0
 40
11.0
 40
11.0
 40
11.0
 40
12.0
 40
12.0
 40
12.0
 40
12.0
 10
-857.2841664415757
 20
-1516.977732451
 30
0.0
 10
-856.228064130033
 20
-1529.156266411638
 30
0.0
 10
-855.7000129742605
 20
-1535.245468995473
 30
0.0
 10
-854.0255112421229
 20
-1540.148101994402
 30
0.0
  0
SPLINE
  5
1DB
330
15C
100
AcDbEntity
  8
LAYER_1
 62
     7
370
    15
100
AcDbSpline
210
0.0
220
0.0
230
1.0
 70
     8
 71
     3
 72
     8
 73
     4
 74
     0
 42
0.000000001
 43
0.00000001
 40
10.0
 40
10.0
 40
10.0
 40
10.0
 40
11.0
 40
11.0
 40
11.0
 40
11.0
 10
-857.5648063119241
 20
-1481.388758860534
 30
0.0
 10
-858.6561334993459
 20
-1497.641915849256
 30
0.0
 10
-857.8621892676986
 20
-1510.31205255662
 30
0.0
 10
-857.2841664415757
 20
-1516.977732451
 30
0.0
  0
SPLINE
  5
1DC
330
15C
100
AcDbEntity
  8
LAYER_1
 62
     7
370
    15
100
AcDbSpline
210
0.0
220
0.0
230
1.0
 70
     8
 71
     3
 72
     8
 73
     4
 74
     0
 42
0.000000001
 43
0.00000001
 40
9.0
 40
9.0
 40
9.0
 40
9.0
 40
10.0
 40
10.0
 40
10.0
 40
10.0
 10
-854.3637215677467
 20
-1452.95745429007
 30
0.0
 10
-855.7485679219986
 20
-1469.215247825526
 30
0.0
 10
-856.7143219687191
 20
-1468.722099563221
 30
0.0
 10
-857.5648063119241
 20
-1481.388758860534
 30
0.0
  0
SPLINE
  5
1DD
330
15C
100
AcDbEntity
  8
LAYER_1
 62
     7
370
    15
100
AcDbSpline
210
0.0
220
0.0
230
1.0
 70
     8
 71
     3
 72
     8
 73
     4
 74
     0
 42
0.000000001
 43
0.00000001
 40
8.0
 40
8.0
 40
8.0
 40
8.0
 40
9.0
 40
9.0
 40
9.0
 40
9.0
 10
-852.8136982361098
 20
-1422.54827615883
 30
0.0
 10
-853.8663875340851
 20
-1445.587663257006
 30
0.0
 10
-853.8655503798137
 20
-1447.108708171558
 30
0.0
 10
-854.3637215677467
 20
-1452.95745429007
 30
0.0
  0
SPLINE
  5
1DE
330
15C
100
AcDbEntity
  8
LAYER_1
 62
     7
370
    15
100
AcDbSpline
210
0.0
220
0.0
230
1.0
 70
     8
 71
     3
 72
     8
 73
     4
 74
     0
 42
0.000000001
 43
0.00000001
 40
7.0
 40
7.0
 40
7.0
 40
7.0
 40
8.0
 40
8.0
 40
8.0
 40
8.0
 10
-851.3404355115066
 20
-1389.724358730134
 30
0.0
 10
-852.701712753196
 20
-1400.59178030888
 30
0.0
 10
-852.3137883431516
 20
-1411.607313797171
 30
0.0
 10
-852.8136982361098
 20
-1422.54827615883
 30
0.0
  0
SPLINE
  5
1DF
330
15C
100
AcDbEntity
  8
LAYER_1
 62
     7
370
    15
100
AcDbSpline
210
0.0
220
0.0
230
1.0
 70
     8
 71
     3
 72
     8
 73
     4
 74
     0
 42
0.000000001
 43
0.00000001
 40
6.0
 40
6.0
 40
6.0
 40
6.0
 40
7.0
 40
7.0
 40
7.0
 40
7.0
 10
-851.3400491326124
 20
-1355.055997252218
 30
0.0
 10
-848.5744777989821
 20
-1368.602956464093
 30
0.0
 10
-850.863386369805
 20
-1385.916208346267
 30
0.0
 10
-851.3404355115066
 20
-1389.724358730134
 30
0.0
  0
SPLINE
  5
1E0
330
15C
100
AcDbEntity
  8
LAYER_1
 62
     7
370
    15
100
AcDbSpline
210
0.0
220
0.0
230
1.0
 70
     8
 71
     3
 72
     8
 73
     4
 74
     0
 42
0.000000001
 43
0.00000001
 40
5.0
 40
5.0
 40
5.0
 40
5.0
 40
6.0
 40
6.0
 40
6.0
 40
6.0
 10
-855.1650069983888
 20
-1348.254955951809
 30
0.0
 10
-852.4310543376222
 20
-1350.116658258317
 30
0.0
 10
-851.6695015366274
 20
-1353.442221402995
 30
0.0
 10
-851.3400491326124
 20
-1355.055997252218
 30
0.0
  0
SPLINE
  5
1E1
330
15C
100
AcDbEntity
  8
LAYER_1
 62
     7
370
    15
100
AcDbSpline
210
0.0
220
0.0
230
1.0
 70
     8
 71
     3
 72
     8
 73
     4
 74
     0
 42
0.000000001
 43
0.00000001
 40
4.0
 40
4.0
 40
4.0
 40
4.0
 40
5.0
 40
5.0
 40
5.0
 40
5.0
 10
-867.322418912795
 20
-1348.497859483465
 30
0.0
 10
-863.5196778334503
 20
-1347.181724175945
 30
0.0
 10
-858.6709446903005
 20
-1345.867520762896
 30
0.0
 10
-855.1650069983888
 20
-1348.254955951809
 30
0.0
  0
SPLINE
  5
1E2
330
15C
100
AcDbEntity
  8
LAYER_1
 62
     7
370
    15
100
AcDbSpline
210
0.0
220
0.0
230
1.0
 70
     8
 71
     3
 72
     8
 73
     4
 74
     0
 42
0.000000001
 43
0.00000001
 40
3.0
 40
3.0
 40
3.0
 40
3.0
 40
4.0
 40
4.0
 40
4.0
 40
4.0
 10
-904.6304566012274
 20
-1372.830585534387
 30
0.0
 10
-895.1278540707044
 20
-1358.121398607956
 30
0.0
 10
-881.3289114231553
 20
-1353.345626679377
 30
0.0
 10
-867.322418912795
 20
-1348.497859483465
 30
0.0
  0
SPLINE
  5
1E3
330
15C
100
AcDbEntity
  8
LAYER_1
 62
     7
370
    15
100
AcDbSpline
210
0.0
220
0.0
230
1.0
 70
     8
 71
     3
 72
     8
 73
     4
 74
     0
 42
0.000000001
 43
0.00000001
 40
2.0
 40
2.0
 40
2.0
 40
2.0
 40
3.0
 40
3.0
 40
3.0
 40
3.0
 10
-914.1693787478301
 20
-1399.121351029503
 30
0.0
 10
-912.5610765996107
 20
-1391.522694897948
 30
0.0
 10
-910.5412809287847
 20
-1381.979908962402
 30
0.0
 10
-904.6304566012274
 20
-1372.830585534387
 30
0.0
  0
SPLINE
  5
1E4
330
15C
100
AcDbEntity
  8
LAYER_1
 62
     7
370
    15
100
AcDbSpline
210
0.0
220
0.0
230
1.0
 70
     8
 71
     3
 72
     8
 73
     4
 74
     0
 42
0.000000001
 43
0.00000001
 40
1.0
 40
1.0
 40
1.0
 40
1.0
 40
2.0
 40
2.0
 40
2.0
 40
2.0
 10
-920.5686503944762
 20
-1425.36858450251
 30
0.0
 10
-916.3048948975496
 20
-1414.737626807177
 30
0.0
 10
-915.9469792483084
 20
-1407.519940265569
 30
0.0
 10
-914.1693787478301
 20
-1399.121351029503
 30
0.0
  0
SPLINE
  5
1E5
330
15C
100
AcDbEntity
  8
LAYER_1
 62
     7
370
    15
100
AcDbSpline
210
0.0
220
0.0
230
1.0
 70
     8
 71
     3
 72
     8
 73
     4
 74
     0
 42
0.000000001
 43
0.00000001
 40
0.0
 40
0.0
 40
0.0
 40
0.0
 40
1.0
 40
1.0
 40
1.0
 40
1.0
 10
-925.5515214104879
 20
-1435.695977179755
 30
0.0
 10
-924.2393786848777
 20
-1433.392386210942
 30
0.0
 10
-922.3696912145518
 20
-1429.859208806971
 30
0.0
 10
-920.5686503944762
 20
-1425.36858450251
 30
0.0
  0
INSERT
  5
271
330
15C
100
AcDbEntity
  8
0
  6
Continuous
 62
     7
100
AcDbBlockReference
  2
BLOCK 12
 10
0.0
 20
0.0
 30
0.0
  0
ENDBLK
  5
15E
330
15C
100
AcDbEntity
  8
0
100
AcDbBlockEnd
  0
BLOCK
  5
1E7
330
1E6
100
AcDbEntity
  8
0
100
AcDbBlockBegin
  2
BLOCK 19
 70
     0
 10
0.0
 20
0.0
 30
0.0
  3
BLOCK 19
  1

  0
SPLINE
  5
1E9
330
1E6
100
AcDbEntity
  8
LAYER_1
 62
     7
370
    15
100
AcDbSpline
210
0.0
220
0.0
230
1.0
 70
     8
 71
     3
 72
    74
 73
    70
 74
     0
 42
0.000000001
 43
0.00000001
 40
0.0
 40
0.0
 40
0.0
 40
0.0
 40
1.0
 40
1.0
 40
1.0
 40
2.0
 40
2.0
 40
2.0
 40
3.0
 40
3.0
 40
3.0
 40
4.0
 40
4.0
 40
4.0
 40
5.0
 40
5.0
 40
5.0
 40
6.0
 40
6.0
 40
6.0
 40
7.0
 40
7.0
 40
7.0
 40
8.0
 40
8.0
 40
8.0
 40
9.0
 40
9.0
 40
9.0
 40
10.0
 40
10.0
 40
10.0
 40
11.0
 40
11.0
 40
11.0
 40
12.0
 40
12.0
 40
12.0
 40
13.0
 40
13.0
 40
13.0
 40
14.0
 40
14.0
 40
14.0
 40
15.0
 40
15.0
 40
15.0
 40
16.0
 40
16.0
 40
16.0
 40
17.0
 40
17.0
 40
17.0
 40
18.0
 40
18.0
 40
18.0
 40
19.0
 40
19.0
 40
19.0
 40
20.0
 40
20.0
 40
20.0
 40
21.0
 40
21.0
 40
21.0
 40
22.0
 40
22.0
 40
22.0
 40
23.0
 40
23.0
 40
23.0
 40
23.0
 10
864.2682148712821
 20
263.8851165123116
 30
0.0
 10
863.613040893226
 20
266.6001938755961
 30
0.0
 10
862.9578669151698
 20
269.31527123889
 30
0.0
 10
861.990344287213
 20
271.9234048845066
 30
0.0
 10
861.0711206249584
 20
274.401339862023
 30
0.0
 10
859.8699549720207
 20
276.7827419277971
 30
0.0
 10
858.4862146678435
 20
279.0456678966153
 30
0.0
 10
857.1842028527512
 20
281.1749376296482
 30
0.0
 10
855.7205464571209
 20
283.1993131790336
 30
0.0
 10
854.0959057047601
 20
285.0875004045848
 30
0.0
 10
852.5619027633347
 20
286.8703467069161
 30
0.0
 10
850.8843768642298
 20
288.5317765472115
 30
0.0
 10
849.0889384684992
 20
290.0525206784449
 30
0.0
 10
847.3947718532357
 20
291.4874871710949
 30
0.0
 10
845.5956193182788
 20
292.7971911260613
 30
0.0
 10
843.7102599457191
 20
293.9674888402167
 30
0.0
 10
841.9376708506402
 20
295.06778674431
 30
0.0
 10
840.0888791937894
 20
296.0448564570922
 30
0.0
 10
838.1825280143916
 20
296.889844926469
 30
0.0
 10
836.4014162252782
 20
297.6793211471713
 30
0.0
 10
834.5700593350531
 20
298.3535004520114
 30
0.0
 10
832.7049336215542
 20
298.9076335076847
 30
0.0
 10
830.9772707474513
 20
299.4209260437704
 30
0.0
 10
829.2206332559575
 20
299.8312154603825
 30
0.0
 10
827.450866339519
 20
300.1376191726503
 30
0.0
 10
825.825375166526
 20
300.4190441021356
 30
0.0
 10
824.1888079975056
 20
300.6128309474376
 30
0.0
 10
822.5587155739995
 20
300.7224974452757
 30
0.0
 10
821.0531383411682
 20
300.8237870285993
 30
0.0
 10
819.5530844807179
 20
300.8533165710003
 30
0.0
 10
818.0792972890896
 20
300.8236582445871
 30
0.0
 10
816.5550057747002
 20
300.7929835749102
 30
0.0
 10
815.0588120078992
 20
300.6989949841222
 30
0.0
 10
813.5517720312914
 20
300.5576400174832
 30
0.0
 10
811.665472959929
 20
300.3807119024846
 30
0.0
 10
809.7621816906635
 20
300.129577327689
 30
0.0
 10
807.8179023571801
 20
299.8148393346039
 30
0.0
 10
805.8948158105463
 20
299.5035320086531
 30
0.0
 10
803.931629875631
 20
299.130000271407
 30
0.0
 10
802.0413578265056
 20
298.7154882934887
 30
0.0
 10
800.0044389551705
 20
298.2688185823196
 30
0.0
 10
798.052186091592
 20
297.7745635129216
 30
0.0
 10
796.1212650285863
 20
297.1927996600201
 30
0.0
 10
794.5606217561085
 20
296.7225961594285
 30
0.0
 10
793.0139134448395
 20
296.1952276999097
 30
0.0
 10
791.4724193654691
 20
295.5813126498124
 30
0.0
 10
789.0933957700709
 20
294.6338433021813
 30
0.0
 10
786.7267916748699
 20
293.4802332572483
 30
0.0
 10
784.472640447089
 20
292.1290307668642
 30
0.0
 10
781.9636200947206
 20
290.625052459313
 30
0.0
 10
779.5939195302242
 20
288.8762734791126
 30
0.0
 10
777.4130281572915
 20
286.9147267647478
 30
0.0
 10
775.5465963771874
 20
285.2360126521174
 30
0.0
 10
773.8184509442698
 20
283.401464639064
 30
0.0
 10
772.2546754243881
 20
281.4360629092785
 30
0.0
 10
770.7601000147547
 20
279.5576340311936
 30
0.0
 10
769.4156690159099
 20
277.5596762573543
 30
0.0
 10
768.2373121055597
 20
275.4668973242099
 30
0.0
 10
766.9867242724058
 20
273.2458352263973
 30
0.0
 10
765.923194561205
 20
270.9179709889952
 30
0.0
 10
765.0683388806785
 20
268.517858989321
 30
0.0
 10
764.1891778672884
 20
266.0495067914701
 30
0.0
 10
763.5307256505279
 20
263.504740117802
 30
0.0
 10
763.0806931270473
 20
260.9182104764361
 30
0.0
 10
762.6238603086719
 20
258.2925966280832
 30
0.0
 10
762.3817934967622
 20
255.6239481429859
 30
0.0
 10
762.444000097018
 20
252.9693989066165
 30
0.0
 10
762.5046538685298
 20
250.3811137056293
 30
0.0
 10
762.8545798364167
 20
247.8062326355446
 30
0.0
 10
763.204505804296
 20
245.2313515654594
 30
0.0
  0
ENDBLK
  5
1E8
330
1E6
100
AcDbEntity
  8
0
100
AcDbBlockEnd
  0
BLOCK
  5
1EB
330
1EA
100
AcDbEntity
  8
0
100
AcDbBlockBegin
  2
BLOCK 18
 70
     0
 10
0.0
 20
0.0
 30
0.0
  3
BLOCK 18
  1

  0
LINE
  5
1ED
330
1EA
100
AcDbEntity
  8
LAYER_1
 62
     7
370
    15
100
AcDbLine
 10
941.1975587973
 20
-151.188497876
 30
0.0
 11
864.2682148709
 21
263.8851165136
 31
0.0
  0
LINE
  5
1EE
330
1EA
100
AcDbEntity
  8
LAYER_1
 62
     7
370
    15
100
AcDbLine
 10
763.1965437262
 20
245.1525788113
 30
0.0
 11
838.7220412848
 21
-162.346526503
 31
0.0
  0
INSERT
  5
272
330
1EA
100
AcDbEntity
  8
0
  6
Continuous
 62
     7
100
AcDbBlockReference
  2
BLOCK 19
 10
0.0
 20
0.0
 30
0.0
  0
ENDBLK
  5
1EC
330
1EA
100
AcDbEntity
  8
0
100
AcDbBlockEnd
  0
BLOCK
  5
1F0
330
1EF
100
AcDbEntity
  8
0
100
AcDbBlockBegin
  2
BLOCK 17
 70
     0
 10
0.0
 20
0.0
 30
0.0
  3
BLOCK 17
  1

  0
SPLINE
  5
1F2
330
1EF
100
AcDbEntity
  8
LAYER_1
 62
     7
370
    15
100
AcDbSpline
210
0.0
220
0.0
230
1.0
 70
     8
 71
     3
 72
     8
 73
     4
 74
     0
 42
0.000000001
 43
0.00000001
 40
4.0
 40
4.0
 40
4.0
 40
4.0
 40
5.0
 40
5.0
 40
5.0
 40
5.0
 10
910.7682321992788
 20
-539.318662407142
 30
0.0
 10
904.8383389367987
 20
-518.723955022667
 30
0.0
 10
897.3407617688274
 20
-491.3801870243652
 30
0.0
 10
889.3839544190429
 20
-458.5501220696643
 30
0.0
  0
SPLINE
  5
1F3
330
1EF
100
AcDbEntity
  8
LAYER_1
 62
     7
370
    15
100
AcDbSpline
210
0.0
220
0.0
230
1.0
 70
     8
 71
     3
 72
     8
 73
     4
 74
     0
 42
0.000000001
 43
0.00000001
 40
3.0
 40
3.0
 40
3.0
 40
3.0
 40
4.0
 40
4.0
 40
4.0
 40
4.0
 10
925.9858410723574
 20
-588.8813900701963
 30
0.0
 10
919.580487039514
 20
-569.9213177689644
 30
0.0
 10
915.5247493838995
 20
-555.8383583121039
 30
0.0
 10
910.7682321992788
 20
-539.318662407142
 30
0.0
  0
SPLINE
  5
1F4
330
1EF
100
AcDbEntity
  8
LAYER_1
 62
     7
370
    15
100
AcDbSpline
210
0.0
220
0.0
230
1.0
 70
     8
 71
     3
 72
     8
 73
     4
 74
     0
 42
0.000000001
 43
0.00000001
 40
2.0
 40
2.0
 40
2.0
 40
2.0
 40
3.0
 40
3.0
 40
3.0
 40
3.0
 10
945.8974316271255
 20
-642.9095584070989
 30
0.0
 10
936.1762638282883
 20
-617.4084395790735
 30
0.0
 10
931.3156799288693
 20
-604.6579398363415
 30
0.0
 10
925.9858410723574
 20
-588.8813900701963
 30
0.0
  0
SPLINE
  5
1F5
330
1EF
100
AcDbEntity
  8
LAYER_1
 62
     7
370
    15
100
AcDbSpline
210
0.0
220
0.0
230
1.0
 70
     8
 71
     3
 72
     8
 73
     4
 74
     0
 42
0.000000001
 43
0.00000001
 40
1.0
 40
1.0
 40
1.0
 40
1.0
 40
2.0
 40
2.0
 40
2.0
 40
2.0
 10
970.2032153457277
 20
-706.2742534628005
 30
0.0
 10
959.0241587992151
 20
-676.5669060074176
 30
0.0
 10
954.3640704053704
 20
-665.1200447498891
 30
0.0
 10
945.8974316271255
 20
-642.9095584070989
 30
0.0
  0
SPLINE
  5
1F6
330
1EF
100
AcDbEntity
  8
LAYER_1
 62
     7
370
    15
100
AcDbSpline
210
0.0
220
0.0
230
1.0
 70
     8
 71
     3
 72
     8
 73
     4
 74
     0
 42
0.000000001
 43
0.00000001
 40
0.0
 40
0.0
 40
0.0
 40
0.0
 40
1.0
 40
1.0
 40
1.0
 40
1.0
 10
976.0481367034653
 20
-721.8923163054934
 30
0.0
 10
974.7348911419547
 20
-718.3636550786703
 30
0.0
 10
972.7022486116342
 20
-712.9154880710993
 30
0.0
 10
970.2032153457277
 20
-706.2742534628005
 30
0.0
  0
SPLINE
  5
1F7
330
1EF
100
AcDbEntity
  8
LAYER_1
 62
     7
370
    15
100
AcDbSpline
210
0.0
220
0.0
230
1.0
 70
     8
 71
     3
 72
     8
 73
     4
 74
     0
 42
0.000000001
 43
0.00000001
 40
110.0
 40
110.0
 40
110.0
 40
110.0
 40
111.0
 40
111.0
 40
111.0
 40
111.0
 10
1012.895869036233
 20
-746.9872527208869
 30
0.0
 10
1020.523290912575
 20
-752.6890226744952
 30
0.0
 10
1031.550543719153
 20
-760.6565708549363
 30
0.0
 10
1046.034911886131
 20
-770.2282024225335
 30
0.0
  0
SPLINE
  5
1F8
330
1EF
100
AcDbEntity
  8
LAYER_1
 62
     7
370
    15
100
AcDbSpline
210
0.0
220
0.0
230
1.0
 70
     8
 71
     3
 72
     8
 73
     4
 74
     0
 42
0.000000001
 43
0.00000001
 40
109.0
 40
109.0
 40
109.0
 40
109.0
 40
110.0
 40
110.0
 40
110.0
 40
110.0
 10
988.7127694722323
 20
-730.269388490325
 30
0.0
 10
1000.07561356552
 20
-737.2783175347408
 30
0.0
 10
1007.756500910016
 20
-743.1453172666047
 30
0.0
 10
1012.895869036233
 20
-746.9872527208869
 30
0.0
  0
SPLINE
  5
1F9
330
1EF
100
AcDbEntity
  8
LAYER_1
 62
     7
370
    15
100
AcDbSpline
210
0.0
220
0.0
230
1.0
 70
     8
 71
     3
 72
     8
 73
     4
 74
     0
 42
0.000000001
 43
0.00000001
 40
108.0
 40
108.0
 40
108.0
 40
108.0
 40
109.0
 40
109.0
 40
109.0
 40
109.0
 10
976.4419671608435
 20
-723.1256620211823
 30
0.0
 10
981.9751657444381
 20
-726.1833378237503
 30
0.0
 10
985.886737584139
 20
-728.5260920036153
 30
0.0
 10
988.7127694722323
 20
-730.269388490325
 30
0.0
  0
SPLINE
  5
1FA
330
1EF
100
AcDbEntity
  8
LAYER_1
 62
     7
370
    15
100
AcDbSpline
210
0.0
220
0.0
230
1.0
 70
     8
 71
     3
 72
     8
 73
     4
 74
     0
 42
0.000000001
 43
0.00000001
 40
107.0
 40
107.0
 40
107.0
 40
107.0
 40
108.0
 40
108.0
 40
108.0
 40
108.0
 10
931.0306898888025
 20
-700.8389157807359
 30
0.0
 10
944.2323641903582
 20
-708.4678891103945
 30
0.0
 10
953.4231736399265
 20
-710.4057139745381
 30
0.0
 10
976.4419671608435
 20
-723.1256620211823
 30
0.0
  0
SPLINE
  5
1FB
330
1EF
100
AcDbEntity
  8
LAYER_1
 62
     7
370
    15
100
AcDbSpline
210
0.0
220
0.0
230
1.0
 70
     8
 71
     3
 72
     8
 73
     4
 74
     0
 42
0.000000001
 43
0.00000001
 40
106.0
 40
106.0
 40
106.0
 40
106.0
 40
107.0
 40
107.0
 40
107.0
 40
107.0
 10
902.2887044242472
 20
-677.9041394240598
 30
0.0
 10
911.7382485500573
 20
-689.6904706015921
 30
0.0
 10
925.2177523379075
 20
-697.4797806644295
 30
0.0
 10
931.0306898888025
 20
-700.8389157807359
 30
0.0
  0
SPLINE
  5
1FC
330
1EF
100
AcDbEntity
  8
LAYER_1
 62
     7
370
    15
100
AcDbSpline
210
0.0
220
0.0
230
1.0
 70
     8
 71
     3
 72
     8
 73
     4
 74
     0
 42
0.000000001
 43
0.00000001
 40
105.0
 40
105.0
 40
105.0
 40
105.0
 40
106.0
 40
106.0
 40
106.0
 40
106.0
 10
888.2253768189751
 20
-595.0047376270423
 30
0.0
 10
893.9194491772809
 20
-660.0925602763361
 30
0.0
 10
893.7466411462855
 20
-667.2497724550808
 30
0.0
 10
902.2887044242472
 20
-677.9041394240598
 30
0.0
  0
SPLINE
  5
1FD
330
1EF
100
AcDbEntity
  8
LAYER_1
 62
     7
370
    15
100
AcDbSpline
210
0.0
220
0.0
230
1.0
 70
     8
 71
     3
 72
     8
 73
     4
 74
     0
 42
0.000000001
 43
0.00000001
 40
104.0
 40
104.0
 40
104.0
 40
104.0
 40
105.0
 40
105.0
 40
105.0
 40
105.0
 10
884.8976287966959
 20
-517.9867163407118
 30
0.0
 10
883.4521516755565
 20
-541.8165619187015
 30
0.0
 10
886.020403627911
 20
-569.8019752061216
 30
0.0
 10
888.2253768189751
 20
-595.0047376270423
 30
0.0
  0
SPLINE
  5
1FE
330
1EF
100
AcDbEntity
  8
LAYER_1
 62
     7
370
    15
100
AcDbSpline
210
0.0
220
0.0
230
1.0
 70
     8
 71
     3
 72
     8
 73
     4
 74
     0
 42
0.000000001
 43
0.00000001
 40
103.0
 40
103.0
 40
103.0
 40
103.0
 40
104.0
 40
104.0
 40
104.0
 40
104.0
 10
886.1096718649173
 20
-499.9337071883591
 30
0.0
 10
885.4337155889808
 20
-509.3660659851196
 30
0.0
 10
884.9778269989254
 20
-516.66082046754
 30
0.0
 10
884.8976287966959
 20
-517.9867163407118
 30
0.0
  0
SPLINE
  5
1FF
330
1EF
100
AcDbEntity
  8
LAYER_1
 62
     7
370
    15
100
AcDbSpline
210
0.0
220
0.0
230
1.0
 70
     8
 71
     3
 72
     8
 73
     4
 74
     0
 42
0.000000001
 43
0.00000001
 40
102.0
 40
102.0
 40
102.0
 40
102.0
 40
103.0
 40
103.0
 40
103.0
 40
103.0
 10
888.767192054277
 20
-466.5051392810076
 30
0.0
 10
888.3776579291615
 20
-472.3902194111407
 30
0.0
 10
887.5241199197177
 20
-480.2005934363195
 30
0.0
 10
886.1096718649173
 20
-499.9337071883591
 30
0.0
  0
SPLINE
  5
200
330
1EF
100
AcDbEntity
  8
LAYER_1
 62
     7
370
    15
100
AcDbSpline
210
0.0
220
0.0
230
1.0
 70
     8
 71
     3
 72
     8
 73
     4
 74
     0
 42
0.000000001
 43
0.00000001
 40
101.0
 40
101.0
 40
101.0
 40
101.0
 40
102.0
 40
102.0
 40
102.0
 40
102.0
 10
884.5777907282798
 20
-415.0064365635344
 30
0.0
 10
885.8719414797357
 20
-439.342175265411
 30
0.0
 10
890.2222165804429
 20
-444.5279079772929
 30
0.0
 10
888.767192054277
 20
-466.5051392810076
 30
0.0
  0
SPLINE
  5
201
330
1EF
100
AcDbEntity
  8
LAYER_1
 62
     7
370
    15
100
AcDbSpline
210
0.0
220
0.0
230
1.0
 70
     8
 71
     3
 72
     8
 73
     4
 74
     0
 42
0.000000001
 43
0.00000001
 40
100.0
 40
100.0
 40
100.0
 40
100.0
 40
101.0
 40
101.0
 40
101.0
 40
101.0
 10
888.1848003476089
 20
-360.1951423292644
 30
0.0
 10
885.5754945536377
 20
-401.168934922801
 30
0.0
 10
883.7333227536118
 20
-399.1315783612478
 30
0.0
 10
884.5777907282798
 20
-415.0064365635344
 30
0.0
  0
SPLINE
  5
202
330
1EF
100
AcDbEntity
  8
LAYER_1
 62
     7
370
    15
100
AcDbSpline
210
0.0
220
0.0
230
1.0
 70
     8
 71
     3
 72
     8
 73
     4
 74
     0
 42
0.000000001
 43
0.00000001
 40
99.0
 40
99.0
 40
99.0
 40
99.0
 40
100.0
 40
100.0
 40
100.0
 40
100.0
 10
892.4849515719233
 20
-295.2810824514693
 30
0.0
 10
888.3872053341893
 20
-311.0286319748462
 30
0.0
 10
891.3640862217131
 20
-310.2635864757482
 30
0.0
 10
888.1848003476089
 20
-360.1951423292644
 30
0.0
  0
SPLINE
  5
203
330
1EF
100
AcDbEntity
  8
LAYER_1
 62
     7
370
    15
100
AcDbSpline
210
0.0
220
0.0
230
1.0
 70
     8
 71
     3
 72
     8
 73
     4
 74
     0
 42
0.000000001
 43
0.00000001
 40
98.0
 40
98.0
 40
98.0
 40
98.0
 40
99.0
 40
99.0
 40
99.0
 40
99.0
 10
908.9542252440845
 20
-245.2324813794471
 30
0.0
 10
904.3399643943713
 20
-270.5678035520434
 30
0.0
 10
898.2110077370704
 20
-273.2755371247204
 30
0.0
 10
892.4849515719233
 20
-295.2810824514693
 30
0.0
  0
SPLINE
  5
204
330
1EF
100
AcDbEntity
  8
LAYER_1
 62
     7
370
    15
100
AcDbSpline
210
0.0
220
0.0
230
1.0
 70
     8
 71
     3
 72
     8
 73
     4
 74
     0
 42
0.000000001
 43
0.00000001
 40
97.0
 40
97.0
 40
97.0
 40
97.0
 40
98.0
 40
98.0
 40
98.0
 40
98.0
 10
913.1188033170104
 20
-209.8281078373276
 30
0.0
 10
911.1038234859901
 20
-229.2497076647097
 30
0.0
 10
910.0965722556053
 20
-238.9604926605801
 30
0.0
 10
908.9542252440845
 20
-245.2324813794471
 30
0.0
  0
SPLINE
  5
205
330
1EF
100
AcDbEntity
  8
LAYER_1
 62
     7
370
    15
100
AcDbSpline
210
0.0
220
0.0
230
1.0
 70
     8
 71
     3
 72
     8
 73
     4
 74
     0
 42
0.000000001
 43
0.00000001
 40
96.0
 40
96.0
 40
96.0
 40
96.0
 40
97.0
 40
97.0
 40
97.0
 40
97.0
 10
914.2525576640069
 20
-182.1935318490216
 30
0.0
 10
914.8106034878549
 20
-192.5052961557217
 30
0.0
 10
914.0983670728158
 20
-200.38787243142
 30
0.0
 10
913.1188033170104
 20
-209.8281078373276
 30
0.0
  0
SPLINE
  5
206
330
1EF
100
AcDbEntity
  8
LAYER_1
 62
     7
370
    15
100
AcDbSpline
210
0.0
220
0.0
230
1.0
 70
     8
 71
     3
 72
     8
 73
     4
 74
     0
 42
0.000000001
 43
0.00000001
 40
95.0
 40
95.0
 40
95.0
 40
95.0
 40
96.0
 40
96.0
 40
96.0
 40
96.0
 10
908.0753866113178
 20
-157.1333241194151
 30
0.0
 10
913.6940344699077
 20
-171.8737119193291
 30
0.0
 10
914.2525576640069
 20
-182.1931439856911
 30
0.0
 10
914.2525576640069
 20
-182.1935318490216
 30
0.0
  0
SPLINE
  5
207
330
1EF
100
AcDbEntity
  8
LAYER_1
 62
     7
370
    15
100
AcDbSpline
210
0.0
220
0.0
230
1.0
 70
     8
 71
     3
 72
     8
 73
     4
 74
     0
 42
0.000000001
 43
0.00000001
 40
94.0
 40
94.0
 40
94.0
 40
94.0
 40
95.0
 40
95.0
 40
95.0
 40
95.0
 10
903.9867104083597
 20
-151.0149292789253
 30
0.0
 10
905.5543943138488
 20
-150.9121604144978
 30
0.0
 10
907.0032130267479
 20
-154.3209569547679
 30
0.0
 10
908.0753866113178
 20
-157.1333241194151
 30
0.0
  0
SPLINE
  5
208
330
1EF
100
AcDbEntity
  8
LAYER_1
 62
     7
370
    15
100
AcDbSpline
210
0.0
220
0.0
230
1.0
 70
     8
 71
     3
 72
     8
 73
     4
 74
     0
 42
0.000000001
 43
0.00000001
 40
93.0
 40
93.0
 40
93.0
 40
93.0
 40
94.0
 40
94.0
 40
94.0
 40
94.0
 10
900.508113386648
 20
-158.7303513775424
 30
0.0
 10
900.9138781003107
 20
-156.7514726717815
 30
0.0
 10
902.0166033809672
 20
-151.1441026853809
 30
0.0
 10
903.9867104083597
 20
-151.0149292789253
 30
0.0
  0
SPLINE
  5
209
330
1EF
100
AcDbEntity
  8
LAYER_1
 62
     7
370
    15
100
AcDbSpline
210
0.0
220
0.0
230
1.0
 70
     8
 71
     3
 72
     8
 73
     4
 74
     0
 42
0.000000001
 43
0.00000001
 40
92.0
 40
92.0
 40
92.0
 40
92.0
 40
93.0
 40
93.0
 40
93.0
 40
93.0
 10
889.5601040417972
 20
-196.0543351251501
 30
0.0
 10
891.9335889315945
 20
-183.3078930295559
 30
0.0
 10
897.9026265546872
 20
-171.4313090388738
 30
0.0
 10
900.508113386648
 20
-158.7303513775424
 30
0.0
  0
SPLINE
  5
20A
330
1EF
100
AcDbEntity
  8
LAYER_1
 62
     7
370
    15
100
AcDbSpline
210
0.0
220
0.0
230
1.0
 70
     8
 71
     3
 72
     8
 73
     4
 74
     0
 42
0.000000001
 43
0.00000001
 40
91.0
 40
91.0
 40
91.0
 40
91.0
 40
92.0
 40
92.0
 40
92.0
 40
92.0
 10
851.017707316677
 20
-276.3788912932163
 30
0.0
 10
872.6392381118427
 20
-231.5964001491477
 30
0.0
 10
885.5859966991669
 20
-217.3994983804148
 30
0.0
 10
889.5601040417972
 20
-196.0543351251501
 30
0.0
  0
SPLINE
  5
20B
330
1EF
100
AcDbEntity
  8
LAYER_1
 62
     7
370
    15
100
AcDbSpline
210
0.0
220
0.0
230
1.0
 70
     8
 71
     3
 72
     8
 73
     4
 74
     0
 42
0.000000001
 43
0.00000001
 40
90.0
 40
90.0
 40
90.0
 40
90.0
 40
91.0
 40
91.0
 40
91.0
 40
91.0
 10
822.8036933501328
 20
-344.740220769976
 30
0.0
 10
830.0907502372505
 20
-319.7230360342746
 30
0.0
 10
838.7368802300098
 20
-301.8146999037259
 30
0.0
 10
851.017707316677
 20
-276.3788912932163
 30
0.0
  0
SPLINE
  5
20C
330
1EF
100
AcDbEntity
  8
LAYER_1
 62
     7
370
    15
100
AcDbSpline
210
0.0
220
0.0
230
1.0
 70
     8
 71
     3
 72
     8
 73
     4
 74
     0
 42
0.000000001
 43
0.00000001
 40
89.0
 40
89.0
 40
89.0
 40
89.0
 40
90.0
 40
90.0
 40
90.0
 40
90.0
 10
809.1208298352001
 20
-423.1413030170796
 30
0.0
 10
818.2180747155006
 20
-374.7696439668292
 30
0.0
 10
814.7776673138995
 20
-372.2953146114297
 30
0.0
 10
822.8036933501328
 20
-344.740220769976
 30
0.0
  0
SPLINE
  5
20D
330
1EF
100
AcDbEntity
  8
LAYER_1
 62
     7
370
    15
100
AcDbSpline
210
0.0
220
0.0
230
1.0
 70
     8
 71
     3
 72
     8
 73
     4
 74
     0
 42
0.000000001
 43
0.00000001
 40
88.0
 40
88.0
 40
88.0
 40
88.0
 40
89.0
 40
89.0
 40
89.0
 40
89.0
 10
790.7272766797777
 20
-509.0955163951574
 30
0.0
 10
795.9411145652086
 20
-472.386340777849
 30
0.0
 10
800.0092638473578
 20
-471.5887744303778
 30
0.0
 10
809.1208298352001
 20
-423.1413030170796
 30
0.0
  0
SPLINE
  5
20E
330
1EF
100
AcDbEntity
  8
LAYER_1
 62
     7
370
    15
100
AcDbSpline
210
0.0
220
0.0
230
1.0
 70
     8
 71
     3
 72
     8
 73
     4
 74
     0
 42
0.000000001
 43
0.00000001
 40
87.0
 40
87.0
 40
87.0
 40
87.0
 40
88.0
 40
88.0
 40
88.0
 40
88.0
 10
784.8207745596145
 20
-580.8998191386199
 30
0.0
 10
787.8616230608219
 20
-539.3446790858412
 30
0.0
 10
789.3820473114263
 20
-518.5670792238108
 30
0.0
 10
790.7272766797777
 20
-509.0955163951574
 30
0.0
  0
SPLINE
  5
20F
330
1EF
100
AcDbEntity
  8
LAYER_1
 62
     7
370
    15
100
AcDbSpline
210
0.0
220
0.0
230
1.0
 70
     8
 71
     3
 72
     8
 73
     4
 74
     0
 42
0.000000001
 43
0.00000001
 40
86.0
 40
86.0
 40
86.0
 40
86.0
 40
87.0
 40
87.0
 40
87.0
 40
87.0
 10
782.6420567323754
 20
-650.6825782101072
 30
0.0
 10
782.120291047631
 20
-618.6063405535978
 30
0.0
 10
783.8879930884436
 20
-593.6500801962268
 30
0.0
 10
784.8207745596145
 20
-580.8998191386199
 30
0.0
  0
SPLINE
  5
210
330
1EF
100
AcDbEntity
  8
LAYER_1
 62
     7
370
    15
100
AcDbSpline
210
0.0
220
0.0
230
1.0
 70
     8
 71
     3
 72
     8
 73
     4
 74
     0
 42
0.000000001
 43
0.00000001
 40
85.0
 40
85.0
 40
85.0
 40
85.0
 40
86.0
 40
86.0
 40
86.0
 40
86.0
 10
787.3269683792911
 20
-691.8647130827244
 30
0.0
 10
784.0369326068693
 20
-680.9655148460757
 30
0.0
 10
782.9781253893376
 20
-671.345430197965
 30
0.0
 10
782.6420567323754
 20
-650.6825782101072
 30
0.0
  0
SPLINE
  5
211
330
1EF
100
AcDbEntity
  8
LAYER_1
 62
     7
370
    15
100
AcDbSpline
210
0.0
220
0.0
230
1.0
 70
     8
 71
     3
 72
     8
 73
     4
 74
     0
 42
0.000000001
 43
0.00000001
 40
84.0
 40
84.0
 40
84.0
 40
84.0
 40
85.0
 40
85.0
 40
85.0
 40
85.0
 10
807.8663008146083
 20
-730.632667251616
 30
0.0
 10
798.7528253457604
 20
-718.6445874715987
 30
0.0
 10
791.7545774607206
 20
-706.5319140559756
 30
0.0
 10
787.3269683792911
 20
-691.8647130827244
 30
0.0
  0
SPLINE
  5
212
330
1EF
100
AcDbEntity
  8
LAYER_1
 62
     7
370
    15
100
AcDbSpline
210
0.0
220
0.0
230
1.0
 70
     8
 71
     3
 72
     8
 73
     4
 74
     0
 42
0.000000001
 43
0.00000001
 40
83.0
 40
83.0
 40
83.0
 40
83.0
 40
84.0
 40
84.0
 40
84.0
 40
84.0
 10
874.9840807865575
 20
-789.2504521990058
 30
0.0
 10
835.3427777427905
 20
-760.1803940291984
 30
0.0
 10
821.595469243923
 20
-748.6928369577395
 30
0.0
 10
807.8663008146083
 20
-730.632667251616
 30
0.0
  0
SPLINE
  5
213
330
1EF
100
AcDbEntity
  8
LAYER_1
 62
     7
370
    15
100
AcDbSpline
210
0.0
220
0.0
230
1.0
 70
     8
 71
     3
 72
     8
 73
     4
 74
     0
 42
0.000000001
 43
0.00000001
 40
82.0
 40
82.0
 40
82.0
 40
82.0
 40
83.0
 40
83.0
 40
83.0
 40
83.0
 10
961.568542239001
 20
-852.8387952174734
 30
0.0
 10
928.3927418797493
 20
-827.1056147760028
 30
0.0
 10
913.2548538386496
 20
-817.3152879619983
 30
0.0
 10
874.9840807865575
 20
-789.2504521990058
 30
0.0
  0
SPLINE
  5
214
330
1EF
100
AcDbEntity
  8
LAYER_1
 62
     7
370
    15
100
AcDbSpline
210
0.0
220
0.0
230
1.0
 70
     8
 71
     3
 72
     8
 73
     4
 74
     0
 42
0.000000001
 43
0.00000001
 40
81.0
 40
81.0
 40
81.0
 40
81.0
 40
82.0
 40
82.0
 40
82.0
 40
82.0
 10
986.1731597349597
 20
-872.5926745754477
 30
0.0
 10
981.077709671869
 20
-868.2780829010293
 30
0.0
 10
974.7220021451677
 20
-863.0416295999402
 30
0.0
 10
961.568542239001
 20
-852.8387952174734
 30
0.0
  0
SPLINE
  5
215
330
1EF
100
AcDbEntity
  8
LAYER_1
 62
     7
370
    15
100
AcDbSpline
210
0.0
220
0.0
230
1.0
 70
     8
 71
     3
 72
     8
 73
     4
 74
     0
 42
0.000000001
 43
0.00000001
 40
80.0
 40
80.0
 40
80.0
 40
80.0
 40
81.0
 40
81.0
 40
81.0
 40
81.0
 10
1039.589458752173
 20
-923.4903681464488
 30
0.0
 10
1024.642518811621
 20
-908.4255774250894
 30
0.0
 10
1010.341938191419
 20
-893.0573582377062
 30
0.0
 10
986.1731597349597
 20
-872.5926745754477
 30
0.0
  0
SPLINE
  5
216
330
1EF
100
AcDbEntity
  8
LAYER_1
 62
     7
370
    15
100
AcDbSpline
210
0.0
220
0.0
230
1.0
 70
     8
 71
     3
 72
     8
 73
     4
 74
     0
 42
0.000000001
 43
0.00000001
 40
79.0
 40
79.0
 40
79.0
 40
79.0
 40
80.0
 40
80.0
 40
80.0
 40
80.0
 10
1099.609220456546
 20
-979.3880377302683
 30
0.0
 10
1070.326851867443
 20
-952.9382648702133
 30
0.0
 10
1055.685428887766
 20
-939.7133187689041
 30
0.0
 10
1039.589458752173
 20
-923.4903681464488
 30
0.0
  0
SPLINE
  5
217
330
1EF
100
AcDbEntity
  8
LAYER_1
 62
     7
370
    15
100
AcDbSpline
210
0.0
220
0.0
230
1.0
 70
     8
 71
     3
 72
     8
 73
     4
 74
     0
 42
0.000000001
 43
0.00000001
 40
78.0
 40
78.0
 40
78.0
 40
78.0
 40
79.0
 40
79.0
 40
79.0
 40
79.0
 10
1185.283336839634
 20
-1052.139741408851
 30
0.0
 10
1158.896218825071
 20
-1032.939551871182
 30
0.0
 10
1136.597777013468
 20
-1012.79858491063
 30
0.0
 10
1099.609220456546
 20
-979.3880377302683
 30
0.0
  0
SPLINE
  5
218
330
1EF
100
AcDbEntity
  8
LAYER_1
 62
     7
370
    15
100
AcDbSpline
210
0.0
220
0.0
230
1.0
 70
     8
 71
     3
 72
     8
 73
     4
 74
     0
 42
0.000000001
 43
0.00000001
 40
77.0
 40
77.0
 40
77.0
 40
77.0
 40
78.0
 40
78.0
 40
78.0
 40
78.0
 10
1283.843585788122
 20
-1108.442817678644
 30
0.0
 10
1251.819202475166
 20
-1092.704278518761
 30
0.0
 10
1222.639945860359
 20
-1079.321442206814
 30
0.0
 10
1185.283336839634
 20
-1052.139741408851
 30
0.0
  0
SPLINE
  5
219
330
1EF
100
AcDbEntity
  8
LAYER_1
 62
     7
370
    15
100
AcDbSpline
210
0.0
220
0.0
230
1.0
 70
     8
 71
     3
 72
     8
 73
     4
 74
     0
 42
0.000000001
 43
0.00000001
 40
76.0
 40
76.0
 40
76.0
 40
76.0
 40
77.0
 40
77.0
 40
77.0
 40
77.0
 10
1516.497138345602
 20
-1240.40000875533
 30
0.0
 10
1436.84170609175
 20
-1183.634599397087
 30
0.0
 10
1361.596220220026
 20
-1146.654874189817
 30
0.0
 10
1283.843585788122
 20
-1108.442817678644
 30
0.0
  0
SPLINE
  5
21A
330
1EF
100
AcDbEntity
  8
LAYER_1
 62
     7
370
    15
100
AcDbSpline
210
0.0
220
0.0
230
1.0
 70
     8
 71
     3
 72
     8
 73
     4
 74
     0
 42
0.000000001
 43
0.00000001
 40
75.0
 40
75.0
 40
75.0
 40
75.0
 40
76.0
 40
76.0
 40
76.0
 40
76.0
 10
1654.083360083846
 20
-1358.068792153224
 30
0.0
 10
1592.488753920212
 20
-1295.341028355409
 30
0.0
 10
1533.813266843689
 20
-1252.740029753167
 30
0.0
 10
1516.497138345602
 20
-1240.40000875533
 30
0.0
  0
SPLINE
  5
21B
330
1EF
100
AcDbEntity
  8
LAYER_1
 62
     7
370
    15
100
AcDbSpline
210
0.0
220
0.0
230
1.0
 70
     8
 71
     3
 72
     8
 73
     4
 74
     0
 42
0.000000001
 43
0.00000001
 40
74.0
 40
74.0
 40
74.0
 40
74.0
 40
75.0
 40
75.0
 40
75.0
 40
75.0
 10
1720.781531604844
 20
-1436.49427995443
 30
0.0
 10
1713.998100332918
 20
-1426.627275543799
 30
0.0
 10
1694.923339828796
 20
-1399.660152673827
 30
0.0
 10
1654.083360083846
 20
-1358.068792153224
 30
0.0
  0
SPLINE
  5
21C
330
1EF
100
AcDbEntity
  8
LAYER_1
 62
     7
370
    15
100
AcDbSpline
210
0.0
220
0.0
230
1.0
 70
     8
 71
     3
 72
     8
 73
     4
 74
     0
 42
0.000000001
 43
0.00000001
 40
73.0
 40
73.0
 40
73.0
 40
73.0
 40
74.0
 40
74.0
 40
74.0
 40
74.0
 10
1761.570910103148
 20
-1502.746110290401
 30
0.0
 10
1736.858884300633
 20
-1466.900020087563
 30
0.0
 10
1741.158558154695
 20
-1466.133721491555
 30
0.0
 10
1720.781531604844
 20
-1436.49427995443
 30
0.0
  0
SPLINE
  5
21D
330
1EF
100
AcDbEntity
  8
LAYER_1
 62
     7
370
    15
100
AcDbSpline
210
0.0
220
0.0
230
1.0
 70
     8
 71
     3
 72
     8
 73
     4
 74
     0
 42
0.000000001
 43
0.00000001
 40
72.0
 40
72.0
 40
72.0
 40
72.0
 40
73.0
 40
73.0
 40
73.0
 40
73.0
 10
1794.129948097634
 20
-1559.810234083434
 30
0.0
 10
1789.485135551834
 20
-1540.789655102841
 30
0.0
 10
1776.181781386738
 20
-1523.940036682903
 30
0.0
 10
1761.570910103148
 20
-1502.746110290401
 30
0.0
  0
SPLINE
  5
21E
330
1EF
100
AcDbEntity
  8
LAYER_1
 62
     7
370
    15
100
AcDbSpline
210
0.0
220
0.0
230
1.0
 70
     8
 71
     3
 72
     8
 73
     4
 74
     0
 42
0.000000001
 43
0.00000001
 40
71.0
 40
71.0
 40
71.0
 40
71.0
 40
72.0
 40
72.0
 40
72.0
 40
72.0
 10
1802.155019393365
 20
-1583.524794745719
 30
0.0
 10
1796.885806558776
 20
-1571.896413450107
 30
0.0
 10
1794.807813854576
 20
-1562.585545382319
 30
0.0
 10
1794.129948097634
 20
-1559.810234083434
 30
0.0
  0
SPLINE
  5
21F
330
1EF
100
AcDbEntity
  8
LAYER_1
 62
     7
370
    15
100
AcDbSpline
210
0.0
220
0.0
230
1.0
 70
     8
 71
     3
 72
     8
 73
     4
 74
     0
 42
0.000000001
 43
0.00000001
 40
70.0
 40
70.0
 40
70.0
 40
70.0
 40
71.0
 40
71.0
 40
71.0
 40
71.0
 10
1811.842771274607
 20
-1601.079250341799
 30
0.0
 10
1807.180773399757
 20
-1593.422708880125
 30
0.0
 10
1804.802514807447
 20
-1589.367687279888
 30
0.0
 10
1802.155019393365
 20
-1583.524794745719
 30
0.0
  0
SPLINE
  5
220
330
1EF
100
AcDbEntity
  8
LAYER_1
 62
     7
370
    15
100
AcDbSpline
210
0.0
220
0.0
230
1.0
 70
     8
 71
     3
 72
     8
 73
     4
 74
     0
 42
0.000000001
 43
0.00000001
 40
69.0
 40
69.0
 40
69.0
 40
69.0
 40
70.0
 40
70.0
 40
70.0
 40
70.0
 10
1835.070652965624
 20
-1639.66150748291
 30
0.0
 10
1831.164809568937
 20
-1630.638135649007
 30
0.0
 10
1829.637702134815
 20
-1630.30481187099
 30
0.0
 10
1811.842771274607
 20
-1601.079250341799
 30
0.0
  0
SPLINE
  5
221
330
1EF
100
AcDbEntity
  8
LAYER_1
 62
     7
370
    15
100
AcDbSpline
210
0.0
220
0.0
230
1.0
 70
     8
 71
     3
 72
     8
 73
     4
 74
     0
 42
0.000000001
 43
0.00000001
 40
68.0
 40
68.0
 40
68.0
 40
68.0
 40
69.0
 40
69.0
 40
69.0
 40
69.0
 10
1841.321816407273
 20
-1670.454752917589
 30
0.0
 10
1844.668659239607
 20
-1661.833207492776
 30
0.0
 10
1841.035394256453
 20
-1653.440561103493
 30
0.0
 10
1835.070652965624
 20
-1639.66150748291
 30
0.0
  0
SPLINE
  5
222
330
1EF
100
AcDbEntity
  8
LAYER_1
 62
     7
370
    15
100
AcDbSpline
210
0.0
220
0.0
230
1.0
 70
     8
 71
     3
 72
     8
 73
     4
 74
     0
 42
0.000000001
 43
0.00000001
 40
67.0
 40
67.0
 40
67.0
 40
67.0
 40
68.0
 40
68.0
 40
68.0
 40
68.0
 10
1828.833810631513
 20
-1691.021414799797
 30
0.0
 10
1834.942717738257
 20
-1678.233859191304
 30
0.0
 10
1838.985089026832
 20
-1676.474511129891
 30
0.0
 10
1841.321816407273
 20
-1670.454752917589
 30
0.0
  0
SPLINE
  5
223
330
1EF
100
AcDbEntity
  8
LAYER_1
 62
     7
370
    15
100
AcDbSpline
210
0.0
220
0.0
230
1.0
 70
     8
 71
     3
 72
     8
 73
     4
 74
     0
 42
0.000000001
 43
0.00000001
 40
66.0
 40
66.0
 40
66.0
 40
66.0
 40
67.0
 40
67.0
 40
67.0
 40
67.0
 10
1825.80155479483
 20
-1704.26378491528
 30
0.0
 10
1824.989547997254
 20
-1700.61011235388
 30
0.0
 10
1825.904189398873
 20
-1697.154190419109
 30
0.0
 10
1828.833810631513
 20
-1691.021414799797
 30
0.0
  0
SPLINE
  5
224
330
1EF
100
AcDbEntity
  8
LAYER_1
 62
     7
370
    15
100
AcDbSpline
210
0.0
220
0.0
230
1.0
 70
     8
 71
     3
 72
     8
 73
     4
 74
     0
 42
0.000000001
 43
0.00000001
 40
65.0
 40
65.0
 40
65.0
 40
65.0
 40
66.0
 40
66.0
 40
66.0
 40
66.0
 10
1833.773637992658
 20
-1714.582023556015
 30
0.0
 10
1831.695645288459
 20
-1713.148480691161
 30
0.0
 10
1827.040807967378
 20
-1709.840901562001
 30
0.0
 10
1825.80155479483
 20
-1704.26378491528
 30
0.0
  0
SPLINE
  5
225
330
1EF
100
AcDbEntity
  8
LAYER_1
 62
     7
370
    15
100
AcDbSpline
210
0.0
220
0.0
230
1.0
 70
     8
 71
     3
 72
    11
 73
     7
 74
     0
 42
0.000000001
 43
0.00000001
 40
63.0
 40
63.0
 40
63.0
 40
63.0
 40
64.0
 40
64.0
 40
64.0
 40
65.0
 40
65.0
 40
65.0
 40
65.0
 10
1902.482970382666
 20
-1711.371947300699
 30
0.0
 10
1891.675307891717
 20
-1714.515191720824
 30
0.0
 10
1883.081211256357
 20
-1716.004944932778
 30
0.0
 10
1879.638894373749
 20
-1716.560842590495
 30
0.0
 10
1858.945848717492
 20
-1719.902553692626
 30
0.0
 10
1844.797549207476
 20
-1722.187367058232
 30
0.0
 10
1833.773637992658
 20
-1714.582023556015
 30
0.0
  0
SPLINE
  5
226
330
1EF
100
AcDbEntity
  8
LAYER_1
 62
     7
370
    15
100
AcDbSpline
210
0.0
220
0.0
230
1.0
 70
     8
 71
     3
 72
     8
 73
     4
 74
     0
 42
0.000000001
 43
0.00000001
 40
62.0
 40
62.0
 40
62.0
 40
62.0
 40
63.0
 40
63.0
 40
63.0
 40
63.0
 10
1917.911576906847
 20
-1706.182097270399
 30
0.0
 10
1910.232599043357
 20
-1709.118043658868
 30
0.0
 10
1902.483447752917
 20
-1711.371827958135
 30
0.0
 10
1902.482970382666
 20
-1711.371947300699
 30
0.0
  0
SPLINE
  5
227
330
1EF
100
AcDbEntity
  8
LAYER_1
 62
     7
370
    15
100
AcDbSpline
210
0.0
220
0.0
230
1.0
 70
     8
 71
     3
 72
     8
 73
     4
 74
     0
 42
0.000000001
 43
0.00000001
 40
61.0
 40
61.0
 40
61.0
 40
61.0
 40
62.0
 40
62.0
 40
62.0
 40
62.0
 10
2001.638022664357
 20
-1648.17289972222
 30
0.0
 10
1990.930607926195
 20
-1658.199345796807
 30
0.0
 10
1954.714913806237
 20
-1692.11053502829
 30
0.0
 10
1917.911576906847
 20
-1706.182097270399
 30
0.0
  0
SPLINE
  5
228
330
1EF
100
AcDbEntity
  8
LAYER_1
 62
     7
370
    15
100
AcDbSpline
210
0.0
220
0.0
230
1.0
 70
     8
 71
     3
 72
     8
 73
     4
 74
     0
 42
0.000000001
 43
0.00000001
 40
60.0
 40
60.0
 40
60.0
 40
60.0
 40
61.0
 40
61.0
 40
61.0
 40
61.0
 10
2012.037533590388
 20
-1633.421204214477
 30
0.0
 10
2010.03066905364
 20
-1640.030156659527
 30
0.0
 10
2005.838403506135
 20
-1644.239846221208
 30
0.0
 10
2001.638022664357
 20
-1648.17289972222
 30
0.0
  0
SPLINE
  5
229
330
1EF
100
AcDbEntity
  8
LAYER_1
 62
     7
370
    15
100
AcDbSpline
210
0.0
220
0.0
230
1.0
 70
     8
 71
     3
 72
     8
 73
     4
 74
     0
 42
0.000000001
 43
0.00000001
 40
59.0
 40
59.0
 40
59.0
 40
59.0
 40
60.0
 40
60.0
 40
60.0
 40
60.0
 10
2014.191428164556
 20
-1616.720644655528
 30
0.0
 10
2012.412746607961
 20
-1626.090348606797
 30
0.0
 10
2013.637201302717
 20
-1628.153900860894
 30
0.0
 10
2012.037533590388
 20
-1633.421204214477
 30
0.0
  0
SPLINE
  5
22A
330
1EF
100
AcDbEntity
  8
LAYER_1
 62
     7
370
    15
100
AcDbSpline
210
0.0
220
0.0
230
1.0
 70
     8
 71
     3
 72
     8
 73
     4
 74
     0
 42
0.000000001
 43
0.00000001
 40
58.0
 40
58.0
 40
58.0
 40
58.0
 40
59.0
 40
59.0
 40
59.0
 40
59.0
 10
2017.758816053021
 20
-1603.229087268832
 30
0.0
 10
2014.527496821517
 20
-1615.306912656105
 30
0.0
 10
2014.555661666348
 20
-1614.801258217345
 30
0.0
 10
2014.191428164556
 20
-1616.720644655528
 30
0.0
  0
SPLINE
  5
22B
330
1EF
100
AcDbEntity
  8
LAYER_1
 62
     7
370
    15
100
AcDbSpline
210
0.0
220
0.0
230
1.0
 70
     8
 71
     3
 72
     8
 73
     4
 74
     0
 42
0.000000001
 43
0.00000001
 40
57.0
 40
57.0
 40
57.0
 40
57.0
 40
58.0
 40
58.0
 40
58.0
 40
58.0
 10
2022.248005896875
 20
-1586.184343758647
 30
0.0
 10
2021.301380688415
 20
-1589.238081256642
 30
0.0
 10
2022.181174061684
 20
-1586.697874806555
 30
0.0
 10
2017.758816053021
 20
-1603.229087268832
 30
0.0
  0
SPLINE
  5
22C
330
1EF
100
AcDbEntity
  8
LAYER_1
 62
     7
370
    15
100
AcDbSpline
210
0.0
220
0.0
230
1.0
 70
     8
 71
     3
 72
     8
 73
     4
 74
     0
 42
0.000000001
 43
0.00000001
 40
56.0
 40
56.0
 40
56.0
 40
56.0
 40
57.0
 40
57.0
 40
57.0
 40
57.0
 10
2025.13370906639
 20
-1574.93917143232
 30
0.0
 10
2025.551885406588
 20
-1577.50849746774
 30
0.0
 10
2024.685458400356
 20
-1578.32360717195
 30
0.0
 10
2022.248005896875
 20
-1586.184343758647
 30
0.0
  0
SPLINE
  5
22D
330
1EF
100
AcDbEntity
  8
LAYER_1
 62
     7
370
    15
100
AcDbSpline
210
0.0
220
0.0
230
1.0
 70
     8
 71
     3
 72
     8
 73
     4
 74
     0
 42
0.000000001
 43
0.00000001
 40
55.0
 40
55.0
 40
55.0
 40
55.0
 40
56.0
 40
56.0
 40
56.0
 40
56.0
 10
2014.545636891069
 20
-1563.12771864531
 30
0.0
 10
2017.891524982901
 20
-1565.116920482756
 30
0.0
 10
2024.140301573295
 20
-1568.832054464019
 30
0.0
 10
2025.13370906639
 20
-1574.93917143232
 30
0.0
  0
SPLINE
  5
22E
330
1EF
100
AcDbEntity
  8
LAYER_1
 62
     7
370
    15
100
AcDbSpline
210
0.0
220
0.0
230
1.0
 70
     8
 71
     3
 72
     8
 73
     4
 74
     0
 42
0.000000001
 43
0.00000001
 40
54.0
 40
54.0
 40
54.0
 40
54.0
 40
55.0
 40
55.0
 40
55.0
 40
55.0
 10
1988.454011062103
 20
-1555.014572538201
 30
0.0
 10
1998.333188414143
 20
-1560.444301119812
 30
0.0
 10
2003.77282242847
 20
-1556.722961325281
 30
0.0
 10
2014.545636891069
 20
-1563.12771864531
 30
0.0
  0
SPLINE
  5
22F
330
1EF
100
AcDbEntity
  8
LAYER_1
 62
     7
370
    15
100
AcDbSpline
210
0.0
220
0.0
230
1.0
 70
     8
 71
     3
 72
     8
 73
     4
 74
     0
 42
0.000000001
 43
0.00000001
 40
53.0
 40
53.0
 40
53.0
 40
53.0
 40
54.0
 40
54.0
 40
54.0
 40
54.0
 10
1974.963527758472
 20
-1541.972339900604
 30
0.0
 10
1981.15454254845
 20
-1549.126807200403
 30
0.0
 10
1984.250288628565
 20
-1552.704100521585
 30
0.0
 10
1988.454011062103
 20
-1555.014572538201
 30
0.0
  0
SPLINE
  5
230
330
1EF
100
AcDbEntity
  8
LAYER_1
 62
     7
370
    15
100
AcDbSpline
210
0.0
220
0.0
230
1.0
 70
     8
 71
     3
 72
     8
 73
     4
 74
     0
 42
0.000000001
 43
0.00000001
 40
52.0
 40
52.0
 40
52.0
 40
52.0
 40
53.0
 40
53.0
 40
53.0
 40
53.0
 10
1957.99110584137
 20
-1516.460122214233
 30
0.0
 10
1963.368681723018
 20
-1528.455481890585
 30
0.0
 10
1970.291505108342
 20
-1536.573282357643
 30
0.0
 10
1974.963527758472
 20
-1541.972339900604
 30
0.0
  0
SPLINE
  5
231
330
1EF
100
AcDbEntity
  8
LAYER_1
 62
     7
370
    15
100
AcDbSpline
210
0.0
220
0.0
230
1.0
 70
     8
 71
     3
 72
     8
 73
     4
 74
     0
 42
0.000000001
 43
0.00000001
 40
51.0
 40
51.0
 40
51.0
 40
51.0
 40
52.0
 40
52.0
 40
52.0
 40
52.0
 10
1950.597595388197
 20
-1498.097001412337
 30
0.0
 10
1954.9636237072
 20
-1506.481771192472
 30
0.0
 10
1954.42228584215
 20
-1508.499495902438
 30
0.0
 10
1957.99110584137
 20
-1516.460122214233
 30
0.0
  0
SPLINE
  5
232
330
1EF
100
AcDbEntity
  8
LAYER_1
 62
     7
370
    15
100
AcDbSpline
210
0.0
220
0.0
230
1.0
 70
     8
 71
     3
 72
     8
 73
     4
 74
     0
 42
0.000000001
 43
0.00000001
 40
50.0
 40
50.0
 40
50.0
 40
50.0
 40
51.0
 40
51.0
 40
51.0
 40
51.0
 10
1941.696072310957
 20
-1484.09143560748
 30
0.0
 10
1946.12893246515
 20
-1491.173461971636
 30
0.0
 10
1947.38250674524
 20
-1491.922336553467
 30
0.0
 10
1950.597595388197
 20
-1498.097001412337
 30
0.0
  0
SPLINE
  5
233
330
1EF
100
AcDbEntity
  8
LAYER_1
 62
     7
370
    15
100
AcDbSpline
210
0.0
220
0.0
230
1.0
 70
     8
 71
     3
 72
     8
 73
     4
 74
     0
 42
0.000000001
 43
0.00000001
 40
49.0
 40
49.0
 40
49.0
 40
49.0
 40
50.0
 40
50.0
 40
50.0
 40
50.0
 10
1925.42395255261
 20
-1452.391306037765
 30
0.0
 10
1936.323270131821
 20
-1473.246299551798
 30
0.0
 10
1935.741833165656
 20
-1474.578639923364
 30
0.0
 10
1941.696072310957
 20
-1484.09143560748
 30
0.0
  0
SPLINE
  5
234
330
1EF
100
AcDbEntity
  8
LAYER_1
 62
     7
370
    15
100
AcDbSpline
210
0.0
220
0.0
230
1.0
 70
     8
 71
     3
 72
     8
 73
     4
 74
     0
 42
0.000000001
 43
0.00000001
 40
48.0
 40
48.0
 40
48.0
 40
48.0
 40
49.0
 40
49.0
 40
49.0
 40
49.0
 10
1916.947288999086
 20
-1437.143980866541
 30
0.0
 10
1918.549343562674
 20
-1439.717603234223
 30
0.0
 10
1920.595829830284
 20
-1443.153356275875
 30
0.0
 10
1925.42395255261
 20
-1452.391306037765
 30
0.0
  0
SPLINE
  5
235
330
1EF
100
AcDbEntity
  8
LAYER_1
 62
     7
370
    15
100
AcDbSpline
210
0.0
220
0.0
230
1.0
 70
     8
 71
     3
 72
     8
 73
     4
 74
     0
 42
0.000000001
 43
0.00000001
 40
47.0
 40
47.0
 40
47.0
 40
47.0
 40
48.0
 40
48.0
 40
48.0
 40
48.0
 10
1907.087206457101
 20
-1422.728115330634
 30
0.0
 10
1910.147149768363
 20
-1427.379253032265
 30
0.0
 10
1912.477193965285
 20
-1429.96349688804
 30
0.0
 10
1916.947288999086
 20
-1437.143980866541
 30
0.0
  0
SPLINE
  5
236
330
1EF
100
AcDbEntity
  8
LAYER_1
 62
     7
370
    15
100
AcDbSpline
210
0.0
220
0.0
230
1.0
 70
     8
 71
     3
 72
     8
 73
     4
 74
     0
 42
0.000000001
 43
0.00000001
 40
46.0
 40
46.0
 40
46.0
 40
46.0
 40
47.0
 40
47.0
 40
47.0
 40
47.0
 10
1895.720066031549
 20
-1398.404907597856
 30
0.0
 10
1898.824404776189
 20
-1406.335698268942
 30
0.0
 10
1900.960636651057
 20
-1413.416411864908
 30
0.0
 10
1907.087206457101
 20
-1422.728115330634
 30
0.0
  0
SPLINE
  5
237
330
1EF
100
AcDbEntity
  8
LAYER_1
 62
     7
370
    15
100
AcDbSpline
210
0.0
220
0.0
230
1.0
 70
     8
 71
     3
 72
     8
 73
     4
 74
     0
 42
0.000000001
 43
0.00000001
 40
45.0
 40
45.0
 40
45.0
 40
45.0
 40
46.0
 40
46.0
 40
46.0
 40
46.0
 10
1875.498184813392
 20
-1359.584442701315
 30
0.0
 10
1886.615660597478
 20
-1382.677109268632
 30
0.0
 10
1889.0330635504
 20
-1381.322093810126
 30
0.0
 10
1895.720066031549
 20
-1398.404907597856
 30
0.0
  0
SPLINE
  5
238
330
1EF
100
AcDbEntity
  8
LAYER_1
 62
     7
370
    15
100
AcDbSpline
210
0.0
220
0.0
230
1.0
 70
     8
 71
     3
 72
     8
 73
     4
 74
     0
 42
0.000000001
 43
0.00000001
 40
44.0
 40
44.0
 40
44.0
 40
44.0
 40
45.0
 40
45.0
 40
45.0
 40
45.0
 10
1858.109973407348
 20
-1312.818866026147
 30
0.0
 10
1860.376049990587
 20
-1328.172525420864
 30
0.0
 10
1865.416602474771
 20
-1338.643164514347
 30
0.0
 10
1875.498184813392
 20
-1359.584442701315
 30
0.0
  0
SPLINE
  5
239
330
1EF
100
AcDbEntity
  8
LAYER_1
 62
     7
370
    15
100
AcDbSpline
210
0.0
220
0.0
230
1.0
 70
     8
 71
     3
 72
     8
 73
     4
 74
     0
 42
0.000000001
 43
0.00000001
 40
43.0
 40
43.0
 40
43.0
 40
43.0
 40
44.0
 40
44.0
 40
44.0
 40
44.0
 10
1857.667451184332
 20
-1278.265017093761
 30
0.0
 10
1857.20296992975
 20
-1282.657658804276
 30
0.0
 10
1855.771813916153
 20
-1296.974947383276
 30
0.0
 10
1858.109973407348
 20
-1312.818866026147
 30
0.0
  0
SPLINE
  5
23A
330
1EF
100
AcDbEntity
  8
LAYER_1
 62
     7
370
    15
100
AcDbSpline
210
0.0
220
0.0
230
1.0
 70
     8
 71
     3
 72
     8
 73
     4
 74
     0
 42
0.000000001
 43
0.00000001
 40
42.0
 40
42.0
 40
42.0
 40
42.0
 40
43.0
 40
43.0
 40
43.0
 40
43.0
 10
1861.338905787595
 20
-1256.864270039852
 30
0.0
 10
1859.102903530191
 20
-1264.686339636188
 30
0.0
 10
1858.480890092661
 20
-1270.57004732685
 30
0.0
 10
1857.667451184332
 20
-1278.265017093761
 30
0.0
  0
SPLINE
  5
23B
330
1EF
100
AcDbEntity
  8
LAYER_1
 62
     7
370
    15
100
AcDbSpline
210
0.0
220
0.0
230
1.0
 70
     8
 71
     3
 72
     8
 73
     4
 74
     0
 42
0.000000001
 43
0.00000001
 40
41.0
 40
41.0
 40
41.0
 40
41.0
 40
42.0
 40
42.0
 40
42.0
 40
42.0
 10
1866.369910866752
 20
-1238.324164217261
 30
0.0
 10
1866.146501589111
 20
-1245.411560996743
 30
0.0
 10
1864.028409783797
 20
-1247.456853838726
 30
0.0
 10
1861.338905787595
 20
-1256.864270039852
 30
0.0
  0
SPLINE
  5
23C
330
1EF
100
AcDbEntity
  8
LAYER_1
 62
     7
370
    15
100
AcDbSpline
210
0.0
220
0.0
230
1.0
 70
     8
 71
     3
 72
     8
 73
     4
 74
     0
 42
0.000000001
 43
0.00000001
 40
40.0
 40
40.0
 40
40.0
 40
40.0
 40
41.0
 40
41.0
 40
41.0
 40
41.0
 10
1865.621394312608
 20
-1222.989480290036
 30
0.0
 10
1864.657583775098
 20
-1230.121749873147
 30
0.0
 10
1866.589023812129
 20
-1231.38093325369
 30
0.0
 10
1866.369910866752
 20
-1238.324164217261
 30
0.0
  0
SPLINE
  5
23D
330
1EF
100
AcDbEntity
  8
LAYER_1
 62
     7
370
    15
100
AcDbSpline
210
0.0
220
0.0
230
1.0
 70
     8
 71
     3
 72
     8
 73
     4
 74
     0
 42
0.000000001
 43
0.00000001
 40
39.0
 40
39.0
 40
39.0
 40
39.0
 40
40.0
 40
40.0
 40
40.0
 40
40.0
 10
1867.878400861072
 20
-1210.67058292582
 30
0.0
 10
1868.409713950842
 20
-1215.394280905661
 30
0.0
 10
1866.504051907385
 20
-1216.458219853394
 30
0.0
 10
1865.621394312608
 20
-1222.989480290036
 30
0.0
  0
SPLINE
  5
23E
330
1EF
100
AcDbEntity
  8
LAYER_1
 62
     7
370
    15
100
AcDbSpline
210
0.0
220
0.0
230
1.0
 70
     8
 71
     3
 72
     8
 73
     4
 74
     0
 42
0.000000001
 43
0.00000001
 40
38.0
 40
38.0
 40
38.0
 40
38.0
 40
39.0
 40
39.0
 40
39.0
 40
39.0
 10
1863.360091431883
 20
-1199.010575851056
 30
0.0
 10
1864.436561348716
 20
-1205.105281192821
 30
0.0
 10
1867.251613721027
 20
-1205.101342888249
 30
0.0
 10
1867.878400861072
 20
-1210.67058292582
 30
0.0
  0
SPLINE
  5
23F
330
1EF
100
AcDbEntity
  8
LAYER_1
 62
     7
370
    15
100
AcDbSpline
210
0.0
220
0.0
230
1.0
 70
     8
 71
     3
 72
     8
 73
     4
 74
     0
 42
0.000000001
 43
0.00000001
 40
37.0
 40
37.0
 40
37.0
 40
37.0
 40
38.0
 40
38.0
 40
38.0
 40
38.0
 10
1863.38014098244
 20
-1185.86260570278
 30
0.0
 10
1864.729666683055
 20
-1191.808848896371
 30
0.0
 10
1862.317514802897
 20
-1193.107176637525
 30
0.0
 10
1863.360091431883
 20
-1199.010575851056
 30
0.0
  0
SPLINE
  5
240
330
1EF
100
AcDbEntity
  8
LAYER_1
 62
     7
370
    15
100
AcDbSpline
210
0.0
220
0.0
230
1.0
 70
     8
 71
     3
 72
     8
 73
     4
 74
     0
 42
0.000000001
 43
0.00000001
 40
36.0
 40
36.0
 40
36.0
 40
36.0
 40
37.0
 40
37.0
 40
37.0
 40
37.0
 10
1858.725781031613
 20
-1177.064671970086
 30
0.0
 10
1861.958055003617
 20
-1179.598314579217
 30
0.0
 10
1862.858375297696
 20
-1183.564545312699
 30
0.0
 10
1863.38014098244
 20
-1185.86260570278
 30
0.0
  0
SPLINE
  5
241
330
1EF
100
AcDbEntity
  8
LAYER_1
 62
     7
370
    15
100
AcDbSpline
210
0.0
220
0.0
230
1.0
 70
     8
 71
     3
 72
     8
 73
     4
 74
     0
 42
0.000000001
 43
0.00000001
 40
35.0
 40
35.0
 40
35.0
 40
35.0
 40
36.0
 40
36.0
 40
36.0
 40
36.0
 10
1844.247141307651
 20
-1175.977819250287
 30
0.0
 10
1845.437225344308
 20
-1175.57312861969
 30
0.0
 10
1853.378279475799
 20
-1172.873122477959
 30
0.0
 10
1858.725781031613
 20
-1177.064671970086
 30
0.0
  0
SPLINE
  5
242
330
1EF
100
AcDbEntity
  8
LAYER_1
 62
     7
370
    15
100
AcDbSpline
210
0.0
220
0.0
230
1.0
 70
     8
 71
     3
 72
     8
 73
     4
 74
     0
 42
0.000000001
 43
0.00000001
 40
34.0
 40
34.0
 40
34.0
 40
34.0
 40
35.0
 40
35.0
 40
35.0
 40
35.0
 10
1828.09961518491
 20
-1193.066361481034
 30
0.0
 10
1832.25130426105
 20
-1185.358860745025
 30
0.0
 10
1836.547159153101
 20
-1178.595956393908
 30
0.0
 10
1844.247141307651
 20
-1175.977819250287
 30
0.0
  0
SPLINE
  5
243
330
1EF
100
AcDbEntity
  8
LAYER_1
 62
     7
370
    15
100
AcDbSpline
210
0.0
220
0.0
230
1.0
 70
     8
 71
     3
 72
     8
 73
     4
 74
     0
 42
0.000000001
 43
0.00000001
 40
33.0
 40
33.0
 40
33.0
 40
33.0
 40
34.0
 40
34.0
 40
34.0
 40
34.0
 10
1808.671123324524
 20
-1238.012083415428
 30
0.0
 10
1817.811331527449
 20
-1220.775437064196
 30
0.0
 10
1817.035604868977
 20
-1213.606529314291
 30
0.0
 10
1828.09961518491
 20
-1193.066361481034
 30
0.0
  0
SPLINE
  5
244
330
1EF
100
AcDbEntity
  8
LAYER_1
 62
     7
370
    15
100
AcDbSpline
210
0.0
220
0.0
230
1.0
 70
     8
 71
     3
 72
     8
 73
     4
 74
     0
 42
0.000000001
 43
0.00000001
 40
32.0
 40
32.0
 40
32.0
 40
32.0
 40
33.0
 40
33.0
 40
33.0
 40
33.0
 10
1787.682585482672
 20
-1261.994926158981
 30
0.0
 10
1790.313372937956
 20
-1261.100334307919
 30
0.0
 10
1798.107397032024
 20
-1257.933340717789
 30
0.0
 10
1808.671123324524
 20
-1238.012083415428
 30
0.0
  0
SPLINE
  5
245
330
1EF
100
AcDbEntity
  8
LAYER_1
 62
     7
370
    15
100
AcDbSpline
210
0.0
220
0.0
230
1.0
 70
     8
 71
     3
 72
     8
 73
     4
 74
     0
 42
0.000000001
 43
0.00000001
 40
31.0
 40
31.0
 40
31.0
 40
31.0
 40
32.0
 40
32.0
 40
32.0
 40
32.0
 10
1767.917547595073
 20
-1261.090190190079
 30
0.0
 10
1772.461157647584
 20
-1262.608824302239
 30
0.0
 10
1779.869466578548
 20
-1264.651372265276
 30
0.0
 10
1787.682585482672
 20
-1261.994926158981
 30
0.0
  0
SPLINE
  5
246
330
1EF
100
AcDbEntity
  8
LAYER_1
 62
     7
370
    15
100
AcDbSpline
210
0.0
220
0.0
230
1.0
 70
     8
 71
     3
 72
     8
 73
     4
 74
     0
 42
0.000000001
 43
0.00000001
 40
30.0
 40
30.0
 40
30.0
 40
30.0
 40
31.0
 40
31.0
 40
31.0
 40
31.0
 10
1707.920222292513
 20
-1218.558648959409
 30
0.0
 10
1729.856817453581
 20
-1237.602261054631
 30
0.0
 10
1745.268716018964
 20
-1253.520649456715
 30
0.0
 10
1767.917547595073
 20
-1261.090190190079
 30
0.0
  0
SPLINE
  5
247
330
1EF
100
AcDbEntity
  8
LAYER_1
 62
     7
370
    15
100
AcDbSpline
210
0.0
220
0.0
230
1.0
 70
     8
 71
     3
 72
     8
 73
     4
 74
     0
 42
0.000000001
 43
0.00000001
 40
29.0
 40
29.0
 40
29.0
 40
29.0
 40
30.0
 40
30.0
 40
30.0
 40
30.0
 10
1641.034444262728
 20
-1163.910734693669
 30
0.0
 10
1648.817011470765
 20
-1169.963312110752
 30
0.0
 10
1685.243703241827
 20
-1198.872973876099
 30
0.0
 10
1707.920222292513
 20
-1218.558648959409
 30
0.0
  0
SPLINE
  5
248
330
1EF
100
AcDbEntity
  8
LAYER_1
 62
     7
370
    15
100
AcDbSpline
210
0.0
220
0.0
230
1.0
 70
     8
 71
     3
 72
     8
 73
     4
 74
     0
 42
0.000000001
 43
0.00000001
 40
28.0
 40
28.0
 40
28.0
 40
28.0
 40
29.0
 40
29.0
 40
29.0
 40
29.0
 10
1630.140855126534
 20
-1154.60905600322
 30
0.0
 10
1634.755115976247
 20
-1159.09132397843
 30
0.0
 10
1638.447574870571
 20
-1161.898977111845
 30
0.0
 10
1641.034444262728
 20
-1163.910734693669
 30
0.0
  0
SPLINE
  5
249
330
1EF
100
AcDbEntity
  8
LAYER_1
 62
     7
370
    15
100
AcDbSpline
210
0.0
220
0.0
230
1.0
 70
     8
 71
     3
 72
     8
 73
     4
 74
     0
 42
0.000000001
 43
0.00000001
 40
27.0
 40
27.0
 40
27.0
 40
27.0
 40
28.0
 40
28.0
 40
28.0
 40
28.0
 10
1618.006103336784
 20
-1141.7297259639
 30
0.0
 10
1622.393613317098
 20
-1145.510259669603
 30
0.0
 10
1623.586561575264
 20
-1148.241891590486
 30
0.0
 10
1630.140855126534
 20
-1154.60905600322
 30
0.0
  0
SPLINE
  5
24A
330
1EF
100
AcDbEntity
  8
LAYER_1
 62
     7
370
    15
100
AcDbSpline
210
0.0
220
0.0
230
1.0
 70
     8
 71
     3
 72
     8
 73
     4
 74
     0
 42
0.000000001
 43
0.00000001
 40
26.0
 40
26.0
 40
26.0
 40
26.0
 40
27.0
 40
27.0
 40
27.0
 40
27.0
 10
1600.498549367899
 20
-1132.750272193125
 30
0.0
 10
1603.339857104035
 20
-1133.660975290171
 30
0.0
 10
1610.821681053711
 20
-1135.539069201611
 30
0.0
 10
1618.006103336784
 20
-1141.7297259639
 30
0.0
  0
SPLINE
  5
24B
330
1EF
100
AcDbEntity
  8
LAYER_1
 62
     7
370
    15
100
AcDbSpline
210
0.0
220
0.0
230
1.0
 70
     8
 71
     3
 72
     8
 73
     4
 74
     0
 42
0.000000001
 43
0.00000001
 40
25.0
 40
25.0
 40
25.0
 40
25.0
 40
26.0
 40
26.0
 40
26.0
 40
26.0
 10
1423.718797881671
 20
-1018.750675889799
 30
0.0
 10
1503.187100996987
 20
-1066.546775595105
 30
0.0
 10
1577.185695772141
 20
-1125.277756963351
 30
0.0
 10
1600.498549367899
 20
-1132.750272193125
 30
0.0
  0
SPLINE
  5
24C
330
1EF
100
AcDbEntity
  8
LAYER_1
 62
     7
370
    15
100
AcDbSpline
210
0.0
220
0.0
230
1.0
 70
     8
 71
     3
 72
     8
 73
     4
 74
     0
 42
0.000000001
 43
0.00000001
 40
24.0
 40
24.0
 40
24.0
 40
24.0
 40
25.0
 40
25.0
 40
25.0
 40
25.0
 10
1338.985578264028
 20
-969.2551380896253
 30
0.0
 10
1338.986055634278
 20
-969.2553767747507
 30
0.0
 10
1383.704668671586
 20
-994.6842933522571
 30
0.0
 10
1423.718797881671
 20
-1018.750675889799
 30
0.0
  0
SPLINE
  5
24D
330
1EF
100
AcDbEntity
  8
LAYER_1
 62
     7
370
    15
100
AcDbSpline
210
0.0
220
0.0
230
1.0
 70
     8
 71
     3
 72
     8
 73
     4
 74
     0
 42
0.000000001
 43
0.00000001
 40
23.0
 40
23.0
 40
23.0
 40
23.0
 40
24.0
 40
24.0
 40
24.0
 40
24.0
 10
1291.591304967809
 20
-939.8534269376811
 30
0.0
 10
1307.54740561975
 20
-951.5981672320629
 30
0.0
 10
1319.14463850646
 20
-957.9727308836926
 30
0.0
 10
1338.985578264028
 20
-969.2551380896253
 30
0.0
  0
SPLINE
  5
24E
330
1EF
100
AcDbEntity
  8
LAYER_1
 62
     7
370
    15
100
AcDbSpline
210
0.0
220
0.0
230
1.0
 70
     8
 71
     3
 72
     8
 73
     4
 74
     0
 42
0.000000001
 43
0.00000001
 40
22.0
 40
22.0
 40
22.0
 40
22.0
 40
23.0
 40
23.0
 40
23.0
 40
23.0
 10
1239.246702164914
 20
-892.3667824978219
 30
0.0
 10
1251.154225715013
 20
-905.022524245657
 30
0.0
 10
1267.159495502845
 20
-921.8704121984346
 30
0.0
 10
1291.591304967809
 20
-939.8534269376811
 30
0.0
  0
SPLINE
  5
24F
330
1EF
100
AcDbEntity
  8
LAYER_1
 62
     7
370
    15
100
AcDbSpline
210
0.0
220
0.0
230
1.0
 70
     8
 71
     3
 72
     8
 73
     4
 74
     0
 42
0.000000001
 43
0.00000001
 40
21.0
 40
21.0
 40
21.0
 40
21.0
 40
22.0
 40
22.0
 40
22.0
 40
22.0
 10
1180.810854954576
 20
-819.497108695871
 30
0.0
 10
1211.572116582415
 20
-859.3661770208216
 30
0.0
 10
1227.198831760914
 20
-879.5620415602802
 30
0.0
 10
1239.246702164914
 20
-892.3667824978219
 30
0.0
  0
SPLINE
  5
250
330
1EF
100
AcDbEntity
  8
LAYER_1
 62
     7
370
    15
100
AcDbSpline
210
0.0
220
0.0
230
1.0
 70
     8
 71
     3
 72
     8
 73
     4
 74
     0
 42
0.000000001
 43
0.00000001
 40
20.0
 40
20.0
 40
20.0
 40
20.0
 40
21.0
 40
21.0
 40
21.0
 40
21.0
 10
1151.146112794128
 20
-780.0278379564396
 30
0.0
 10
1156.991988892369
 20
-788.605405646846
 30
0.0
 10
1165.010854374831
 20
-799.0193570229801
 30
0.0
 10
1180.810854954576
 20
-819.497108695871
 30
0.0
  0
SPLINE
  5
251
330
1EF
100
AcDbEntity
  8
LAYER_1
 62
     7
370
    15
100
AcDbSpline
210
0.0
220
0.0
230
1.0
 70
     8
 71
     3
 72
     8
 73
     4
 74
     0
 42
0.000000001
 43
0.00000001
 40
19.0
 40
19.0
 40
19.0
 40
19.0
 40
20.0
 40
20.0
 40
20.0
 40
20.0
 10
1114.426793058978
 20
-717.1855052982961
 30
0.0
 10
1131.241205422879
 20
-750.4736070091826
 30
0.0
 10
1146.51657609637
 20
-773.2345012517984
 30
0.0
 10
1151.146112794128
 20
-780.0278379564396
 30
0.0
  0
SPLINE
  5
252
330
1EF
100
AcDbEntity
  8
LAYER_1
 62
     7
370
    15
100
AcDbSpline
210
0.0
220
0.0
230
1.0
 70
     8
 71
     3
 72
     8
 73
     4
 74
     0
 42
0.000000001
 43
0.00000001
 40
18.0
 40
18.0
 40
18.0
 40
18.0
 40
19.0
 40
19.0
 40
19.0
 40
19.0
 10
1082.020513544929
 20
-642.0807839794453
 30
0.0
 10
1097.11018719064
 20
-679.2531280831405
 30
0.0
 10
1104.654546643244
 20
-697.8392404637082
 30
0.0
 10
1114.426793058978
 20
-717.1855052982961
 30
0.0
  0
SPLINE
  5
253
330
1EF
100
AcDbEntity
  8
LAYER_1
 62
     7
370
    15
100
AcDbSpline
210
0.0
220
0.0
230
1.0
 70
     8
 71
     3
 72
     8
 73
     4
 74
     0
 42
0.000000001
 43
0.00000001
 40
17.0
 40
17.0
 40
17.0
 40
17.0
 40
18.0
 40
18.0
 40
18.0
 40
18.0
 10
1057.978715575333
 20
-580.7265934086564
 30
0.0
 10
1064.457107256634
 20
-597.6973445298792
 30
0.0
 10
1071.81672442196
 20
-616.9443163521821
 30
0.0
 10
1082.020513544929
 20
-642.0807839794453
 30
0.0
  0
SPLINE
  5
254
330
1EF
100
AcDbEntity
  8
LAYER_1
 62
     7
370
    15
100
AcDbSpline
210
0.0
220
0.0
230
1.0
 70
     8
 71
     3
 72
     8
 73
     4
 74
     0
 42
0.000000001
 43
0.00000001
 40
16.0
 40
16.0
 40
16.0
 40
16.0
 40
17.0
 40
17.0
 40
17.0
 40
17.0
 10
1030.528971381227
 20
-506.580013855579
 30
0.0
 10
1037.560157813612
 20
-527.2384501686117
 30
0.0
 10
1044.366502857602
 20
-545.0678113582001
 30
0.0
 10
1057.978715575333
 20
-580.7265934086564
 30
0.0
  0
SPLINE
  5
255
330
1EF
100
AcDbEntity
  8
LAYER_1
 62
     7
370
    15
100
AcDbSpline
210
0.0
220
0.0
230
1.0
 70
     8
 71
     3
 72
     8
 73
     4
 74
     0
 42
0.000000001
 43
0.00000001
 40
15.0
 40
15.0
 40
15.0
 40
15.0
 40
16.0
 40
16.0
 40
16.0
 40
16.0
 10
1002.379879768869
 20
-411.0776793947853
 30
0.0
 10
1011.618903613826
 20
-450.7648696539653
 30
0.0
 10
1021.688074325911
 20
-480.6048066966646
 30
0.0
 10
1030.528971381227
 20
-506.580013855579
 30
0.0
  0
SPLINE
  5
256
330
1EF
100
AcDbEntity
  8
LAYER_1
 62
     7
370
    15
100
AcDbSpline
210
0.0
220
0.0
230
1.0
 70
     8
 71
     3
 72
     8
 73
     4
 74
     0
 42
0.000000001
 43
0.00000001
 40
14.0
 40
14.0
 40
14.0
 40
14.0
 40
15.0
 40
15.0
 40
15.0
 40
15.0
 10
990.7549594075798
 20
-352.9046245078237
 30
0.0
 10
998.4974275145013
 20
-386.1815378534444
 30
0.0
 10
995.2069143718292
 20
-380.2647126015945
 30
0.0
 10
1002.379879768869
 20
-411.0776793947853
 30
0.0
  0
SPLINE
  5
257
330
1EF
100
AcDbEntity
  8
LAYER_1
 62
     7
370
    15
100
AcDbSpline
210
0.0
220
0.0
230
1.0
 70
     8
 71
     3
 72
     8
 73
     4
 74
     0
 42
0.000000001
 43
0.00000001
 40
13.0
 40
13.0
 40
13.0
 40
13.0
 40
14.0
 40
14.0
 40
14.0
 40
14.0
 10
968.7185938639767
 20
-257.9325290537366
 30
0.0
 10
972.4797940744972
 20
-292.2729636481203
 30
0.0
 10
979.4121648648487
 20
-304.1516361336529
 30
0.0
 10
990.7549594075798
 20
-352.9046245078237
 30
0.0
  0
SPLINE
  5
258
330
1EF
100
AcDbEntity
  8
LAYER_1
 62
     7
370
    15
100
AcDbSpline
210
0.0
220
0.0
230
1.0
 70
     8
 71
     3
 72
     8
 73
     4
 74
     0
 42
0.000000001
 43
0.00000001
 40
12.0
 40
12.0
 40
12.0
 40
12.0
 40
13.0
 40
13.0
 40
13.0
 40
13.0
 10
964.6136870724712
 20
-224.7126614531534
 30
0.0
 10
967.1294282971757
 20
-239.7567164042193
 30
0.0
 10
967.7146842253518
 20
-248.7647228831553
 30
0.0
 10
968.7185938639767
 20
-257.9325290537366
 30
0.0
  0
SPLINE
  5
259
330
1EF
100
AcDbEntity
  8
LAYER_1
 62
     7
370
    15
100
AcDbSpline
210
0.0
220
0.0
230
1.0
 70
     8
 71
     3
 72
     8
 73
     4
 74
     0
 42
0.000000001
 43
0.00000001
 40
11.0
 40
11.0
 40
11.0
 40
11.0
 40
12.0
 40
12.0
 40
12.0
 40
12.0
 10
956.2635266355604
 20
-182.9201192072431
 30
0.0
 10
957.5390599472122
 20
-195.0587794659246
 30
0.0
 10
960.800930874804
 20
-201.9110713966094
 30
0.0
 10
964.6136870724712
 20
-224.7126614531534
 30
0.0
  0
SPLINE
  5
25A
330
1EF
100
AcDbEntity
  8
LAYER_1
 62
     7
370
    15
100
AcDbSpline
210
0.0
220
0.0
230
1.0
 70
     8
 71
     3
 72
     8
 73
     4
 74
     0
 42
0.000000001
 43
0.00000001
 40
10.0
 40
10.0
 40
10.0
 40
10.0
 40
11.0
 40
11.0
 40
11.0
 40
11.0
 10
954.4480875696112
 20
-174.7693205215572
 30
0.0
 10
955.8348481498326
 20
-178.6123598945466
 30
0.0
 10
956.1389329999532
 20
-181.7351669007859
 30
0.0
 10
956.2635266355604
 20
-182.9201192072431
 30
0.0
  0
SPLINE
  5
25B
330
1EF
100
AcDbEntity
  8
LAYER_1
 62
     7
370
    15
100
AcDbSpline
210
0.0
220
0.0
230
1.0
 70
     8
 71
     3
 72
     8
 73
     4
 74
     0
 42
0.000000001
 43
0.00000001
 40
9.0
 40
9.0
 40
9.0
 40
9.0
 40
10.0
 40
10.0
 40
10.0
 40
10.0
 10
947.3061512389097
 20
-163.1240820889445
 30
0.0
 10
948.9521238656229
 20
-164.9804854895895
 30
0.0
 10
952.3061272517278
 20
-168.8342955288746
 30
0.0
 10
954.4480875696112
 20
-174.7693205215572
 30
0.0
  0
SPLINE
  5
25C
330
1EF
100
AcDbEntity
  8
LAYER_1
 62
     7
370
    15
100
AcDbSpline
210
0.0
220
0.0
230
1.0
 70
     8
 71
     3
 72
     8
 73
     4
 74
     0
 42
0.000000001
 43
0.00000001
 40
8.0
 40
8.0
 40
8.0
 40
8.0
 40
9.0
 40
9.0
 40
9.0
 40
9.0
 10
911.3133890263404
 20
-146.7592480770904
 30
0.0
 10
927.5110390254741
 20
-147.1286431447254
 30
0.0
 10
940.6730915961652
 20
-155.6442571271968
 30
0.0
 10
947.3061512389097
 20
-163.1240820889445
 30
0.0
  0
SPLINE
  5
25D
330
1EF
100
AcDbEntity
  8
LAYER_1
 62
     7
370
    15
100
AcDbSpline
210
0.0
220
0.0
230
1.0
 70
     8
 71
     3
 72
     8
 73
     4
 74
     0
 42
0.000000001
 43
0.00000001
 40
7.0
 40
7.0
 40
7.0
 40
7.0
 40
8.0
 40
8.0
 40
8.0
 40
8.0
 10
891.1683644186529
 20
-150.4910452636908
 30
0.0
 10
908.8888255196481
 20
-146.923776717788
 30
0.0
 10
908.6639841312535
 20
-146.6988309046518
 30
0.0
 10
911.3133890263404
 20
-146.7592480770904
 30
0.0
  0
SPLINE
  5
25E
330
1EF
100
AcDbEntity
  8
LAYER_1
 62
     7
370
    15
100
AcDbSpline
210
0.0
220
0.0
230
1.0
 70
     8
 71
     3
 72
     8
 73
     4
 74
     0
 42
0.000000001
 43
0.00000001
 40
6.0
 40
6.0
 40
6.0
 40
6.0
 40
7.0
 40
7.0
 40
7.0
 40
7.0
 10
844.1903579816258
 20
-161.4973832861307
 30
0.0
 10
856.8172785005341
 20
-157.3001501044469
 30
0.0
 10
880.0623455205991
 20
-152.7267640825073
 30
0.0
 10
891.1683644186529
 20
-150.4910452636908
 30
0.0
  0
SPLINE
  5
25F
330
1EF
100
AcDbEntity
  8
LAYER_1
 62
     7
370
    15
100
AcDbSpline
210
0.0
220
0.0
230
1.0
 70
     8
 71
     3
 72
     8
 73
     4
 74
     0
 42
0.000000001
 43
0.00000001
 40
5.0
 40
5.0
 40
5.0
 40
5.0
 40
6.0
 40
6.0
 40
6.0
 40
6.0
 10
830.7409285196122
 20
-167.3423643151492
 30
0.0
 10
834.2266860950936
 20
-166.5339676301005
 30
0.0
 10
834.8520411243853
 20
-164.6014535100039
 30
0.0
 10
844.1903579816258
 20
-161.4973832861307
 30
0.0
  0
SPLINE
  5
260
330
1EF
100
AcDbEntity
  8
LAYER_1
 62
     7
370
    15
100
AcDbSpline
210
0.0
220
0.0
230
1.0
 70
     8
 71
     3
 72
     8
 73
     4
 74
     0
 42
0.000000001
 43
0.00000001
 40
4.0
 40
4.0
 40
4.0
 40
4.0
 40
5.0
 40
5.0
 40
5.0
 40
5.0
 10
827.3157969660531
 20
-169.3535251841588
 30
0.0
 10
827.5907622308407
 20
-168.0136662311338
 30
0.0
 10
830.1065034555459
 20
-167.4895435307739
 30
0.0
 10
830.7409285196122
 20
-167.3423643151492
 30
0.0
  0
SPLINE
  5
261
330
1EF
100
AcDbEntity
  8
LAYER_1
 62
     7
370
    15
100
AcDbSpline
210
0.0
220
0.0
230
1.0
 70
     8
 71
     3
 72
     8
 73
     4
 74
     0
 42
0.000000001
 43
0.00000001
 40
3.0
 40
3.0
 40
3.0
 40
3.0
 40
4.0
 40
4.0
 40
4.0
 40
4.0
 10
827.3181838173107
 20
-169.8672352459108
 30
0.0
 10
827.3076816717805
 20
-169.8137697777567
 30
0.0
 10
827.2637636086545
 20
-169.6070386232741
 30
0.0
 10
827.3157969660531
 20
-169.3535251841588
 30
0.0
  0
SPLINE
  5
262
330
1EF
100
AcDbEntity
  8
LAYER_1
 62
     7
370
    15
100
AcDbSpline
210
0.0
220
0.0
230
1.0
 70
     8
 71
     3
 72
     8
 73
     4
 74
     0
 42
0.000000001
 43
0.00000001
 40
2.0
 40
2.0
 40
2.0
 40
2.0
 40
3.0
 40
3.0
 40
3.0
 40
3.0
 10
831.8675223128382
 20
-221.9279220918052
 30
0.0
 10
826.7434300346647
 20
-190.4434146975053
 30
0.0
 10
827.7373148980106
 20
-171.9882807796565
 30
0.0
 10
827.3181838173107
 20
-169.8672352459108
 30
0.0
  0
SPLINE
  5
263
330
1EF
100
AcDbEntity
  8
LAYER_1
 62
     7
370
    15
100
AcDbSpline
210
0.0
220
0.0
230
1.0
 70
     8
 71
     3
 72
     8
 73
     4
 74
     0
 42
0.000000001
 43
0.00000001
 40
1.0
 40
1.0
 40
1.0
 40
1.0
 40
2.0
 40
2.0
 40
2.0
 40
2.0
 10
840.4177008850731
 20
-263.156361878804
 30
0.0
 10
835.4024490242107
 20
-239.8774314065322
 30
0.0
 10
832.8943457235279
 20
-228.2379810882187
 30
0.0
 10
831.8675223128382
 20
-221.9279220918052
 30
0.0
  0
SPLINE
  5
264
330
1EF
100
AcDbEntity
  8
LAYER_1
 62
     7
370
    15
100
AcDbSpline
210
0.0
220
0.0
230
1.0
 70
     8
 71
     3
 72
     8
 73
     4
 74
     0
 42
0.000000001
 43
0.00000001
 40
0.0
 40
0.0
 40
0.0
 40
0.0
 40
1.0
 40
1.0
 40
1.0
 40
1.0
 10
844.7445848434629
 20
-282.9489380627807
 30
0.0
 10
843.7215803947834
 20
-278.3366762009937
 30
0.0
 10
842.2107035492066
 20
-271.4793718826704
 30
0.0
 10
840.4177008850731
 20
-263.156361878804
 30
0.0
  0
INSERT
  5
273
330
1EF
100
AcDbEntity
  8
0
  6
Continuous
 62
     7
100
AcDbBlockReference
  2
BLOCK 18
 10
0.0
 20
0.0
 30
0.0
  0
ENDBLK
  5
1F1
330
1EF
100
AcDbEntity
  8
0
100
AcDbBlockEnd
  0
BLOCK
  5
2BC
330
2BB
100
AcDbEntity
  8
0
100
AcDbBlockBegin
  2
SW_NOTE_0
 70
     0
 10
0.0
 20
0.0
 30
0.0
  3
SW_NOTE_0
  1

  0
MTEXT
  5
2BE
330
2BB
100
AcDbEntity
  8
0
  6
Continuous
 62
     0
370
     0
100
AcDbMText
 10
0.0
 20
2.0463950369
 30
0.0
 40
1.5875
 41
0.0
 71
     1
 72
     1
  1
87 34th Street, Unit 11, Brooklyn, NY 11232
  7
SLDTEXTSTYLE0
 73
     1
 44
1.0
  0
MTEXT
  5
2BF
330
2BB
100
AcDbEntity
  8
0
  6
Continuous
 62
     0
370
     0
100
AcDbMText
 10
0.0
 20
-0.0702716042
 30
0.0
 40
1.5875
 41
0.0
 71
     1
 72
     1
  1
T +1 718-387-6132
  7
SLDTEXTSTYLE0
 73
     1
 44
1.0
  0
MTEXT
  5
2C0
330
2BB
100
AcDbEntity
  8
0
  6
Continuous
 62
     0
370
     0
100
AcDbMText
 10
0.0
 20
-2.1869382453
 30
0.0
 40
1.5875
 41
0.0
 71
     1
 72
     1
  1
www.rollandhill.com
  7
SLDTEXTSTYLE0
 73
     1
 44
1.0
  0
ENDBLK
  5
2BD
330
2BB
100
AcDbEntity
  8
0
100
AcDbBlockEnd
  0
BLOCK
  5
2C7
330
2C6
100
AcDbEntity
  8
0
100
AcDbBlockBegin
  2
SW_NOTE_1
 70
     0
 10
0.0
 20
0.0
 30
0.0
  3
SW_NOTE_1
  1

  0
MTEXT
  5
2C9
330
2C6
100
AcDbEntity
  8
0
  6
Continuous
 62
     0
370
     0
100
AcDbMText
 10
0.0
 20
2.0463950369
 30
0.0
 40
1.5875
 41
0.0
 71
     1
 72
     1
  1
\LPROPRIETARY AND CONFIDENTIAL
  7
SLDTEXTSTYLE0
 73
     1
 44
1.0
  0
MTEXT
  5
2CA
330
2C6
100
AcDbEntity
  8
0
  6
Continuous
 62
     0
370
     0
100
AcDbMText
 10
37.3117625713
 20
2.0463950369
 30
0.0
 40
1.5875
 41
0.0
 71
     1
 72
     1
  1
THE INFORMATION CONTAINED IN THIS DRAWING IS THE SOLE PROPERTY OF ROLL & HILL LLC. ANY REPRODUCTION IN
  7
SLDTEXTSTYLE0
 73
     1
 44
1.0
  0
MTEXT
  5
2CB
330
2C6
100
AcDbEntity
  8
0
  6
Continuous
 62
     0
370
     0
100
AcDbMText
 10
0.0
 20
-0.0702716042
 30
0.0
 40
1.5875
 41
0.0
 71
     1
 72
     1
  1
PART OR AS A WHOLE WITHOUT THE WRITTEN PERMISSION OF ROLL & HILL LLC. IS PROHIBITED.
  7
SLDTEXTSTYLE0
 73
     1
 44
1.0
  0
ENDBLK
  5
2C8
330
2C6
100
AcDbEntity
  8
0
100
AcDbBlockEnd
  0
ENDSEC
  0
SECTION
  2
ENTITIES
  0
HATCH
  5
274
330
1F
100
AcDbEntity
  8
0
  6
Continuous
 62
     7
100
AcDbHatch
 10
0.0
 20
0.0
 30
0.0
210
0.0
220
0.0
230
1.0
  2
SOLID
 70
     1
 71
     0
 91
        2
 92
        0
 93
        6
 72
     4
 94
        3
 73
     1
 74
     0
 95
       20
 96
       16
 40
0.0
 40
0.0
 40
0.0
 40
0.0
 40
1.0
 40
1.0
 40
1.0
 40
2.0
 40
2.0
 40
2.0
 40
3.0
 40
3.0
 40
3.0
 40
4.0
 40
4.0
 40
4.0
 40
5.0
 40
5.0
 40
5.0
 40
5.0
 10
261.0219043336847
 20
23.63056361828031
 42
1.0
 10
261.2341319795987
 20
23.68742184709604
 42
1.0
 10
261.3945785321864
 20
23.72473719781129
 42
1.0
 10
261.5515161764629
 20
23.77337299628437
 42
1.0
 10
262.5617362220245
 20
24.08644572151765
 42
1.0
 10
262.9966382899503
 20
24.76217905347502
 42
1.0
 10
262.9131259646454
 20
25.88395655371281
 42
1.0
 10
262.8488620904764
 20
26.74717259793779
 42
1.0
 10
262.3071445332423
 20
27.30037799580671
 42
1.0
 10
261.2989762515715
 20
27.40941936834727
 42
1.0
 10
260.5093946232761
 20
27.49481913962259
 42
1.0
 10
259.7094699986221
 20
27.48819126576296
 42
1.0
 10
258.913837050576
 20
27.51251762112626
 42
1.0
 10
258.5159962651877
 20
27.52468175973202
 42
1.0
 10
258.1174764912431
 20
27.51463645747964
 42
1.0
 10
257.7192638284546
 20
27.51463645747964
 42
1.0
 72
     4
 94
        3
 73
     1
 74
     0
 95
       14
 96
       10
 40
17.0
 40
17.0
 40
17.0
 40
17.0
 40
18.0
 40
18.0
 40
18.0
 40
19.0
 40
19.0
 40
19.0
 40
20.0
 40
20.0
 40
20.0
 40
20.0
 10
257.7192638284546
 20
27.51463645747964
 42
1.0
 10
258.2057453879524
 20
27.36893835120056
 42
1.0
 10
258.4151924094879
 20
27.04153921726714
 42
1.0
 10
258.4151320634913
 20
26.55729487989966
 42
1.0
 10
258.4149081683119
 20
24.76100595804667
 42
1.0
 10
258.4191609275175
 20
22.96470127704905
 42
1.0
 10
258.4124688639662
 20
21.16843695483816
 42
1.0
 10
258.4104423723632
 20
20.62446660851326
 42
1.0
 10
258.2139995287706
 20
20.39587059142628
 42
1.0
 10
257.7053577757453
 20
20.25910042553502
 42
1.0
 72
     1
 10
257.7053577757453
 20
20.25910042553502
 11
260.1134120717832
 21
20.25910042553502
 72
     4
 94
        3
 73
     1
 74
     0
 95
       14
 96
       10
 40
13.0
 40
13.0
 40
13.0
 40
13.0
 40
14.0
 40
14.0
 40
14.0
 40
15.0
 40
15.0
 40
15.0
 40
16.0
 40
16.0
 40
16.0
 40
16.0
 10
260.1134120717832
 20
20.25910042553502
 42
1.0
 10
259.6377614656041
 20
20.40079128856704
 42
1.0
 10
259.4435911100346
 20
20.64162793377141
 42
1.0
 10
259.4408326829897
 20
21.14221143023692
 42
1.0
 10
259.4366701545022
 20
21.89763799307775
 42
1.0
 10
259.4392191002215
 20
22.65310606781492
 42
1.0
 10
259.4405559370167
 20
23.40855338660287
 42
1.0
 10
259.4406539512153
 20
23.46398560492077
 42
1.0
 10
259.4539911852495
 20
23.51939476107442
 42
1.0
 10
259.4607286043899
 20
23.57138302951071
 42
1.0
 72
     4
 94
        3
 73
     1
 74
     0
 95
       20
 96
       16
 40
8.0
 40
8.0
 40
8.0
 40
8.0
 40
9.0
 40
9.0
 40
9.0
 40
10.0
 40
10.0
 40
10.0
 40
11.0
 40
11.0
 40
11.0
 40
12.0
 40
12.0
 40
12.0
 40
13.0
 40
13.0
 40
13.0
 40
13.0
 10
259.4607286043899
 20
23.57138302951071
 42
1.0
 10
260.3725694925604
 20
23.65083910446931
 42
1.0
 10
260.6054131759577
 20
23.52556773374194
 42
1.0
 10
261.0037355762117
 20
22.71920223094413
 42
1.0
 10
261.378026816807
 20
21.9614848264415
 42
1.0
 10
261.7451764738302
 20
21.200166649339
 42
1.0
 10
262.1067370153144
 20
20.43629933433309
 42
1.0
 10
262.1765046750147
 20
20.28890135435546
 42
1.0
 10
262.2549406335689
 20
20.22203337745712
 42
1.0
 10
262.427398730108
 20
20.22724465786873
 42
1.0
 10
262.8718696744063
 20
20.24067529366942
 42
1.0
 10
263.3170171088603
 20
20.2311736819415
 42
1.0
 10
263.7618904879274
 20
20.2323936704376
 42
1.0
 10
263.8264337986554
 20
20.23257048036439
 42
1.0
 10
263.8909540472192
 20
20.24131411562171
 42
1.0
 10
263.9554858268652
 20
20.24609336482204
 42
1.0
 72
     4
 94
        3
 73
     1
 74
     0
 95
       14
 96
       10
 40
5.0
 40
5.0
 40
5.0
 40
5.0
 40
6.0
 40
6.0
 40
6.0
 40
7.0
 40
7.0
 40
7.0
 40
8.0
 40
8.0
 40
8.0
 40
8.0
 10
263.9554858268652
 20
20.24609336482204
 42
1.0
 10
263.5606000734738
 20
20.32757122285868
 42
1.0
 10
263.3178377375433
 20
20.57267359973515
 42
1.0
 10
263.1292772534607
 20
20.88520667032095
 42
1.0
 10
262.8739775562312
 20
21.30835818112304
 42
1.0
 10
262.6276890153665
 20
21.7369354504649
 42
1.0
 10
262.3739921385617
 20
22.16106556577572
 42
1.0
 10
262.033208300972
 20
22.73079019980925
 42
1.0
 10
261.7521543160346
 20
23.35408286053947
 42
1.0
 10
261.0219043336847
 20
23.63056361828031
 42
1.0
 97
        0
 92
        0
 93
        2
 72
     1
 10
259.4558811296203
 20
23.74052094311722
 11
259.4558811296203
 21
27.35855230546976
 72
     4
 94
        3
 73
     1
 74
     0
 95
       20
 96
       16
 40
1.0
 40
1.0
 40
1.0
 40
1.0
 40
2.0
 40
2.0
 40
2.0
 40
3.0
 40
3.0
 40
3.0
 40
4.0
 40
4.0
 40
4.0
 40
5.0
 40
5.0
 40
5.0
 40
6.0
 40
6.0
 40
6.0
 40
6.0
 10
259.4558811296203
 20
27.35855230546976
 42
1.0
 10
259.8103733099057
 20
27.35855230546976
 42
1.0
 10
260.1467440101549
 20
27.38072599997261
 42
1.0
 10
260.4792308497364
 20
27.35420547185249
 42
1.0
 10
261.3230227860075
 20
27.28690123567825
 42
1.0
 10
261.7108519014664
 20
26.95476897687368
 42
1.0
 10
261.8164781518313
 20
26.10478869315943
 42
1.0
 10
261.8719876284001
 20
25.65810454981779
 42
1.0
 10
261.8389787525148
 20
25.18024881635489
 42
1.0
 10
261.7413862071132
 20
24.73962656292206
 42
1.0
 10
261.608259863196
 20
24.13857044109259
 42
1.0
 10
261.1506181168165
 20
23.81517009427841
 42
1.0
 10
260.5489927438957
 20
23.74778168120397
 42
1.0
 10
260.1942113256325
 20
23.70804326575078
 42
1.0
 10
259.8313410453958
 20
23.74052094311722
 42
1.0
 10
259.4558811296203
 20
23.74052094311722
 42
1.0
 97
        0
 75
     0
 76
     1
 98
        1
 10
0.0
 20
0.0
  0
HATCH
  5
275
330
1F
100
AcDbEntity
  8
0
  6
Continuous
 62
     7
100
AcDbHatch
 10
0.0
 20
0.0
 30
0.0
210
0.0
220
0.0
230
1.0
  2
SOLID
 70
     1
 71
     0
 91
        2
 92
        0
 93
        2
 72
     4
 94
        3
 73
     1
 74
     0
 95
       14
 96
       10
 40
0.0
 40
0.0
 40
0.0
 40
0.0
 40
1.0
 40
1.0
 40
1.0
 40
2.0
 40
2.0
 40
2.0
 40
3.0
 40
3.0
 40
3.0
 40
3.0
 10
267.2336118279071
 20
20.23490821509466
 42
1.0
 10
268.1650050112285
 20
19.98240211471103
 42
1.0
 10
269.1482911393735
 20
20.33660467264827
 42
1.0
 10
269.7215189161771
 20
21.13111084177937
 42
1.0
 10
270.3723808569537
 20
22.03321892002499
 42
1.0
 10
270.372934348899
 20
23.32205720159637
 42
1.0
 10
269.7103360726668
 20
24.21398909980579
 42
1.0
 10
269.2464106552308
 20
24.83848445240961
 42
1.0
 10
268.6216197225536
 20
25.16033694362372
 42
1.0
 10
267.7758432870376
 20
25.16748813643033
 42
1.0
 72
     4
 94
        3
 73
     1
 74
     0
 95
       14
 96
       10
 40
3.0
 40
3.0
 40
3.0
 40
3.0
 40
4.0
 40
4.0
 40
4.0
 40
5.0
 40
5.0
 40
5.0
 40
6.0
 40
6.0
 40
6.0
 40
6.0
 10
267.7758432870376
 20
25.16748813643033
 42
1.0
 10
266.9062728477855
 20
25.1505801106106
 42
1.0
 10
266.225828300013
 20
24.723612195973
 42
1.0
 10
265.7739382574312
 20
23.92202056120339
 42
1.0
 10
265.4879189885011
 20
23.41465794151554
 42
1.0
 10
265.4259332718035
 20
22.86561853145873
 42
1.0
 10
265.4837047623288
 20
22.29272284982232
 42
1.0
 10
265.5792320909092
 20
21.34541139190241
 42
1.0
 10
266.3034040398354
 20
20.48709452013179
 42
1.0
 10
267.2336118279071
 20
20.23490821509466
 42
1.0
 97
        0
 92
        0
 93
        2
 72
     4
 94
        3
 73
     1
 74
     0
 95
       17
 96
       13
 40
0.0
 40
0.0
 40
0.0
 40
0.0
 40
1.0
 40
1.0
 40
1.0
 40
2.0
 40
2.0
 40
2.0
 40
3.0
 40
3.0
 40
3.0
 40
4.0
 40
4.0
 40
4.0
 40
4.0
 10
266.4699528411193
 20
22.82140374989816
 42
1.0
 10
266.4968487059656
 20
23.23360918874381
 42
1.0
 10
266.5993976948625
 20
23.64490674705059
 42
1.0
 10
266.7072125446274
 20
24.04607386528146
 42
1.0
 10
266.7597204805012
 20
24.2414496033099
 42
1.0
 10
266.882078331128
 20
24.42789874624283
 42
1.0
 10
267.0072628343699
 20
24.59213287496141
 42
1.0
 10
267.4640605055332
 20
25.19142205062979
 42
1.0
 10
268.2143234497673
 20
25.18405330473933
 42
1.0
 10
268.6683621173312
 20
24.58056604641373
 42
1.0
 10
269.0963628325642
 20
24.01168817818241
 42
1.0
 10
269.195680043492
 20
23.34551372899321
 42
1.0
 10
269.218762963826
 20
22.68351122534059
 42
1.0
 72
     4
 94
        3
 73
     1
 74
     0
 95
       17
 96
       13
 40
4.0
 40
4.0
 40
4.0
 40
4.0
 40
5.0
 40
5.0
 40
5.0
 40
6.0
 40
6.0
 40
6.0
 40
7.0
 40
7.0
 40
7.0
 40
8.0
 40
8.0
 40
8.0
 40
8.0
 10
269.218762963826
 20
22.68351122534059
 42
1.0
 10
269.202432645224
 20
22.05765558940843
 42
1.0
 10
269.1208448575376
 20
21.47214721006825
 42
1.0
 10
268.810867074766
 20
20.94311038392242
 42
1.0
 10
268.6078393105943
 20
20.5966013640246
 42
1.0
 10
268.3388937306983
 20
20.33416469565678
 42
1.0
 10
267.9076604687568
 20
20.30531315927085
 42
1.0
 10
267.4153070900211
 20
20.27237193240103
 42
1.0
 10
267.1048165584612
 20
20.54785025472892
 42
1.0
 10
266.8746830637486
 20
20.93428603108956
 42
1.0
 10
266.5287029361534
 20
21.51524885782822
 42
1.0
 10
266.4269741915698
 20
22.16270989809668
 42
1.0
 10
266.4699528411193
 20
22.82140374989816
 42
1.0
 97
        0
 75
     0
 76
     1
 98
        1
 10
0.0
 20
0.0
  0
HATCH
  5
276
330
1F
100
AcDbEntity
  8
0
  6
Continuous
 62
     7
100
AcDbHatch
 10
0.0
 20
0.0
 30
0.0
210
0.0
220
0.0
230
1.0
  2
SOLID
 70
     1
 71
     0
 91
        1
 92
        0
 93
        4
 72
     1
 10
273.9540333846496
 20
27.87257450949275
 11
272.4594267850394
 21
27.32510813123116
 72
     4
 94
        3
 73
     1
 74
     0
 95
       14
 96
       10
 40
6.0
 40
6.0
 40
6.0
 40
6.0
 40
7.0
 40
7.0
 40
7.0
 40
8.0
 40
8.0
 40
8.0
 40
9.0
 40
9.0
 40
9.0
 40
9.0
 10
272.4594267850394
 20
27.32510813123116
 42
1.0
 10
272.9826104338649
 20
27.28380667758701
 42
1.0
 10
273.0476395875227
 20
27.23250104921648
 42
1.0
 10
273.0527409382852
 20
26.65700799131587
 42
1.0
 10
273.0685846452182
 20
24.86961337752774
 42
1.0
 10
273.0702866329497
 20
23.08209538116094
 42
1.0
 10
273.0783845276048
 20
21.29462927466367
 42
1.0
 10
273.0805785081768
 20
20.81042375860576
 42
1.0
 10
273.0059923935969
 20
20.37668517687364
 42
1.0
 10
272.426404840594
 20
20.2590796695872
 42
1.0
 72
     1
 10
272.426404840594
 20
20.2590796695872
 11
274.6224502449564
 21
20.2590796695872
 72
     4
 94
        3
 73
     1
 74
     0
 95
       17
 96
       13
 40
1.0
 40
1.0
 40
1.0
 40
1.0
 40
2.0
 40
2.0
 40
2.0
 40
3.0
 40
3.0
 40
3.0
 40
4.0
 40
4.0
 40
4.0
 40
5.0
 40
5.0
 40
5.0
 40
5.0
 10
274.6224502449564
 20
20.2590796695872
 42
1.0
 10
274.1836818051716
 20
20.38260600321025
 42
1.0
 10
274.0006220316647
 20
20.58964274029083
 42
1.0
 10
273.9590578615309
 20
21.04279505200226
 42
1.0
 10
273.9506540088286
 20
21.13443409966764
 42
1.0
 10
273.954217881965
 20
21.22727776105204
 42
1.0
 10
273.9542086570993
 20
21.31956562427539
 42
1.0
 10
273.9539872603212
 20
23.41776441505853
 42
1.0
 10
273.9540349221275
 20
25.51596282147274
 42
1.0
 10
273.9540333846496
 20
27.61416161225588
 42
1.0
 10
273.9540333846496
 20
27.71082379150879
 42
1.0
 10
273.9540333846496
 20
27.8074859707617
 42
1.0
 10
273.9540333846496
 20
27.87257450949275
 42
1.0
 97
        0
 75
     0
 76
     1
 98
        1
 10
0.0
 20
0.0
  0
HATCH
  5
277
330
1F
100
AcDbEntity
  8
0
  6
Continuous
 62
     7
100
AcDbHatch
 10
0.0
 20
0.0
 30
0.0
210
0.0
220
0.0
230
1.0
  2
SOLID
 70
     1
 71
     0
 91
        1
 92
        0
 93
        4
 72
     1
 10
276.9460186560295
 20
20.2549177176549
 11
279.1055120673172
 21
20.2549177176549
 72
     4
 94
        3
 73
     1
 74
     0
 95
       14
 96
       10
 40
6.0
 40
6.0
 40
6.0
 40
6.0
 40
7.0
 40
7.0
 40
7.0
 40
8.0
 40
8.0
 40
8.0
 40
9.0
 40
9.0
 40
9.0
 40
9.0
 10
279.1055120673172
 20
20.2549177176549
 42
1.0
 10
278.6550987719953
 20
20.40793364087759
 42
1.0
 10
278.4823339486704
 20
20.63637283524633
 42
1.0
 10
278.4822124879378
 20
21.11904779232805
 42
1.0
 10
278.4816605334703
 20
23.30086999117493
 42
1.0
 10
278.4819664915176
 20
25.48269219002111
 42
1.0
 10
278.4819649540404
 20
27.66451419668386
 42
1.0
 10
278.4819649540404
 20
27.75219577693941
 42
1.0
 10
278.4819664915176
 20
27.83987735719566
 42
1.0
 10
278.4819664915176
 20
27.88441039662488
 42
1.0
 72
     1
 10
278.4819664915176
 20
27.88441039662488
 11
276.9846800684063
 21
27.3296354262854
 72
     4
 94
        3
 73
     1
 74
     0
 95
       17
 96
       13
 40
1.0
 40
1.0
 40
1.0
 40
1.0
 40
2.0
 40
2.0
 40
2.0
 40
3.0
 40
3.0
 40
3.0
 40
4.0
 40
4.0
 40
4.0
 40
5.0
 40
5.0
 40
5.0
 40
5.0
 10
276.9846800684063
 20
27.3296354262854
 42
1.0
 10
277.5366914227135
 20
27.25167954511983
 42
1.0
 10
277.5738092075535
 20
27.20775573119973
 42
1.0
 10
277.5772915943764
 20
26.57154691311976
 42
1.0
 10
277.5773838430334
 20
26.55476419172763
 42
1.0
 10
277.577359243392
 20
26.53798031722657
 42
1.0
 10
277.577359243392
 20
26.52119721146337
 42
1.0
 10
277.5773700057348
 20
24.72538990447762
 42
1.0
 10
277.5776652014392
 20
22.92958298186009
 42
1.0
 10
277.5771993457187
 20
21.13377529050539
 42
1.0
 10
277.5770686601204
 20
20.6342380475635
 42
1.0
 10
277.4179566381115
 20
20.4199152040148
 42
1.0
 10
276.9460186560295
 20
20.2549177176549
 42
1.0
 97
        0
 75
     0
 76
     1
 98
        1
 10
0.0
 20
0.0
  0
HATCH
  5
278
330
1F
100
AcDbEntity
  8
0
  6
Continuous
 62
     7
100
AcDbHatch
 10
0.0
 20
0.0
 30
0.0
210
0.0
220
0.0
230
1.0
  2
SOLID
 70
     1
 71
     0
 91
        3
 92
        0
 93
        9
 72
     4
 94
        3
 73
     1
 74
     0
 95
       14
 96
       10
 40
0.0
 40
0.0
 40
0.0
 40
0.0
 40
1.0
 40
1.0
 40
1.0
 40
2.0
 40
2.0
 40
2.0
 40
3.0
 40
3.0
 40
3.0
 40
3.0
 10
287.0539854214827
 20
21.61211917311517
 42
1.0
 10
287.2972697310664
 20
21.3082559388604
 42
1.0
 10
287.5152010346028
 20
21.01001756649998
 42
1.0
 10
287.7601488949774
 20
20.73592220529573
 42
1.0
 10
288.1784811821614
 20
20.26780485511384
 42
1.0
 10
288.7048673968812
 20
20.09831485913089
 42
1.0
 10
289.3271645408483
 20
20.20870037148624
 42
1.0
 10
289.9739444785289
 20
20.32342848939635
 42
1.0
 10
290.7160910783766
 20
21.04182259740494
 42
1.0
 10
290.8103661314317
 20
21.70506046432864
 42
1.0
 72
     4
 94
        3
 73
     1
 74
     0
 95
       14
 96
       10
 40
24.0
 40
24.0
 40
24.0
 40
24.0
 40
25.0
 40
25.0
 40
25.0
 40
26.0
 40
26.0
 40
26.0
 40
27.0
 40
27.0
 40
27.0
 40
27.0
 10
290.8103661314317
 20
21.70506046432864
 42
1.0
 10
290.6825002672103
 20
21.49939669476813
 42
1.0
 10
290.5884281612034
 20
21.32571784099438
 42
1.0
 10
290.4735170834558
 20
21.16713932372221
 42
1.0
 10
289.9836367374808
 20
20.49110656799653
 42
1.0
 10
289.3841588364346
 20
20.43289382139212
 42
1.0
 10
288.8166481701822
 20
21.05011190802389
 42
1.0
 10
288.4270667146001
 20
21.47381844824843
 42
1.0
 10
288.0996055050067
 20
21.95463920731319
 42
1.0
 10
287.7314564875268
 20
22.4264857094768
 42
1.0
 72
     4
 94
        3
 73
     1
 74
     0
 95
       11
 96
        7
 40
22.0
 40
22.0
 40
22.0
 40
22.0
 40
23.0
 40
23.0
 40
23.0
 40
24.0
 40
24.0
 40
24.0
 40
24.0
 10
287.7314564875268
 20
22.4264857094768
 42
1.0
 10
288.1508588591387
 20
23.00030157147278
 42
1.0
 10
288.5466855488353
 20
23.55949371503118
 42
1.0
 10
288.9612633156569
 20
24.10441845059237
 42
1.0
 10
289.4290162836425
 20
24.71923384406366
 42
1.0
 10
289.9536528488242
 20
25.26443186627322
 42
1.0
 10
290.7742138825406
 20
25.39867403457779
 42
1.0
 72
     1
 10
290.7742138825406
 20
25.39867403457779
 11
287.7715077796773
 21
25.39867403457779
 72
     4
 94
        3
 73
     1
 74
     0
 95
       17
 96
       13
 40
16.0
 40
16.0
 40
16.0
 40
16.0
 40
17.0
 40
17.0
 40
17.0
 40
18.0
 40
18.0
 40
18.0
 40
19.0
 40
19.0
 40
19.0
 40
20.0
 40
20.0
 40
20.0
 40
20.0
 10
287.7715077796773
 20
25.39867403457779
 42
1.0
 10
287.9710693005408
 20
25.34310267453518
 42
1.0
 10
288.1718392788191
 20
25.32949945687163
 42
1.0
 10
288.3670435880915
 20
25.28904726743022
 42
1.0
 10
288.7601181928394
 20
25.20759054971102
 42
1.0
 10
288.9174636530569
 20
24.97387165717582
 42
1.0
 10
288.8543009972361
 20
24.57697987985169
 42
1.0
 10
288.8373887433532
 20
24.47070865762303
 42
1.0
 10
288.8131334963293
 20
24.35736772890119
 42
1.0
 10
288.7595985254019
 20
24.26650702928458
 42
1.0
 10
288.4211781752921
 20
23.692108847638
 42
1.0
 10
288.0735790837579
 20
23.12311989664797
 42
1.0
 10
287.7233847299918
 20
22.54303496963325
 42
1.0
 72
     1
 10
287.7233847299918
 20
22.54303496963325
 11
285.8065406500284
 21
24.86455968857224
 72
     4
 94
        3
 73
     1
 74
     0
 95
       20
 96
       16
 40
10.0
 40
10.0
 40
10.0
 40
10.0
 40
11.0
 40
11.0
 40
11.0
 40
12.0
 40
12.0
 40
12.0
 40
13.0
 40
13.0
 40
13.0
 40
14.0
 40
14.0
 40
14.0
 40
15.0
 40
15.0
 40
15.0
 40
15.0
 10
285.8065406500283
 20
24.86455968857225
 42
1.0
 10
285.9002991106001
 20
24.9215528310502
 42
1.0
 10
286.0025259979348
 20
24.975621306713
 42
1.0
 10
286.0959738880259
 20
25.04203380586477
 42
1.0
 10
286.361711520857
 20
25.23088333574105
 42
1.0
 10
286.6551698752792
 20
25.39378370261948
 42
1.0
 10
286.8815726805328
 20
25.62247811827483
 42
1.0
 10
287.5614237619422
 20
26.30921056516709
 42
1.0
 10
287.361321048954
 20
27.32558686332681
 42
1.0
 10
286.4793408590448
 20
27.71426216803416
 42
1.0
 10
285.840402057257
 20
27.99583274545401
 42
1.0
 10
285.1912113546599
 20
27.99239110178883
 42
1.0
 10
284.558084218296
 20
27.68711127408746
 42
1.0
 10
283.9109291360762
 20
27.37506654483262
 42
1.0
 10
283.6309452355653
 20
26.8393466878164
 42
1.0
 10
283.7149530130354
 20
26.1296866058298
 42
1.0
 72
     4
 94
        3
 73
     1
 74
     0
 95
       11
 96
        7
 40
8.0
 40
8.0
 40
8.0
 40
8.0
 40
9.0
 40
9.0
 40
9.0
 40
10.0
 40
10.0
 40
10.0
 40
10.0
 10
283.7149530130354
 20
26.1296866058298
 42
1.0
 10
283.7707819005811
 20
25.65802498535045
 42
1.0
 10
284.0198409761273
 20
25.28515591156022
 42
1.0
 10
284.3077767109179
 20
24.93075271279267
 42
1.0
 10
284.4323277733789
 20
24.77744812814591
 42
1.0
 10
284.5641388051866
 20
24.6300390014551
 42
1.0
 10
284.7027239634148
 20
24.46818604120849
 42
1.0
 72
     4
 94
        3
 73
     1
 74
     0
 95
       20
 96
       16
 40
3.0
 40
3.0
 40
3.0
 40
3.0
 40
4.0
 40
4.0
 40
4.0
 40
5.0
 40
5.0
 40
5.0
 40
6.0
 40
6.0
 40
6.0
 40
7.0
 40
7.0
 40
7.0
 40
8.0
 40
8.0
 40
8.0
 40
8.0
 10
284.7027239634148
 20
24.46818604120849
 42
1.0
 10
284.5513685160267
 20
24.38851087568819
 42
1.0
 10
284.4255536469583
 20
24.32317807019961
 42
1.0
 10
284.3005597909425
 20
24.25632085564481
 42
1.0
 10
283.8607304915963
 20
24.02105948868024
 42
1.0
 10
283.460866385652
 20
23.73663343094009
 42
1.0
 10
283.1417229300147
 20
23.34576433784628
 42
1.0
 10
282.3522343191156
 20
22.37884389028816
 42
1.0
 10
282.6109241545095
 20
20.5355588898502
 42
1.0
 10
284.198169930981
 20
20.23446388406056
 42
1.0
 10
285.1515567317372
 20
20.05360962220845
 42
1.0
 10
285.9488126796034
 20
20.36759637788916
 42
1.0
 10
286.5896302790503
 20
21.09003174583673
 42
1.0
 10
286.7443651022574
 20
21.26447318851251
 42
1.0
 10
286.8995550188436
 20
21.43851181205056
 42
1.0
 10
287.0539854214827
 20
21.61211917311517
 42
1.0
 97
        0
 92
        0
 93
        2
 72
     4
 94
        3
 73
     1
 74
     0
 95
       14
 96
       10
 40
0.0
 40
0.0
 40
0.0
 40
0.0
 40
1.0
 40
1.0
 40
1.0
 40
2.0
 40
2.0
 40
2.0
 40
3.0
 40
3.0
 40
3.0
 40
3.0
 10
284.688382372121
 20
27.15085253116304
 42
1.0
 10
284.8337724063213
 20
27.5710895609412
 42
1.0
 10
285.1818973152029
 20
27.79269159230804
 42
1.0
 10
285.6158934244382
 20
27.76810636414938
 42
1.0
 10
285.9916529561654
 20
27.74682017860581
 42
1.0
 10
286.2400293916459
 20
27.5110460628537
 42
1.0
 10
286.3549927436335
 20
27.06650131962916
 42
1.0
 10
286.5713650448558
 20
26.2298440482801
 42
1.0
 10
286.3259713159692
 20
25.4295804098103
 42
1.0
 10
285.6520579731507
 20
24.9254318870995
 42
1.0
 72
     4
 94
        3
 73
     1
 74
     0
 95
       11
 96
        7
 40
3.0
 40
3.0
 40
3.0
 40
3.0
 40
4.0
 40
4.0
 40
4.0
 40
5.0
 40
5.0
 40
5.0
 40
5.0
 10
285.6520579731507
 20
24.9254318870995
 42
1.0
 10
285.3510444536752
 20
25.31853032275095
 42
1.0
 10
285.0380140090768
 20
25.68714980838475
 42
1.0
 10
284.7721626029031
 20
26.08712768767229
 42
1.0
 10
284.5571094574822
 20
26.41068293535724
 42
1.0
 10
284.5630810205802
 20
26.788679112661
 42
1.0
 10
284.688382372121
 20
27.15085253116304
 42
1.0
 97
        0
 92
        0
 93
        2
 72
     1
 10
284.845288113738
 20
24.3712657578988
 11
287.0009947176327
 21
21.77781006188367
 72
     4
 94
        3
 73
     1
 74
     0
 95
       14
 96
       10
 40
1.0
 40
1.0
 40
1.0
 40
1.0
 40
2.0
 40
2.0
 40
2.0
 40
3.0
 40
3.0
 40
3.0
 40
4.0
 40
4.0
 40
4.0
 40
4.0
 10
287.0009947176327
 20
21.77781006188367
 42
1.0
 10
286.5509442670314
 20
21.22618922689351
 42
1.0
 10
286.0339581905155
 20
20.90925282038733
 42
1.0
 10
285.3603677179978
 20
20.87638462370451
 42
1.0
 10
284.4974276510072
 20
20.83427541775252
 42
1.0
 10
283.8665083325146
 20
21.39392726712143
 42
1.0
 10
283.7780264951535
 20
22.28619625730053
 42
1.0
 10
283.6988925217564
 20
23.08417174469389
 42
1.0
 10
284.1054815548355
 20
23.90423117633508
 42
1.0
 10
284.845288113738
 20
24.3712657578988
 42
1.0
 97
        0
 75
     0
 76
     1
 98
        1
 10
0.0
 20
0.0
  0
HATCH
  5
279
330
1F
100
AcDbEntity
  8
0
  6
Continuous
 62
     7
100
AcDbHatch
 10
0.0
 20
0.0
 30
0.0
210
0.0
220
0.0
230
1.0
  2
SOLID
 70
     1
 71
     0
 91
        1
 92
        0
 93
        2
 72
     4
 94
        3
 73
     1
 74
     0
 95
       11
 96
        7
 40
0.0
 40
0.0
 40
0.0
 40
0.0
 40
1.0
 40
1.0
 40
1.0
 40
2.0
 40
2.0
 40
2.0
 40
2.0
 10
303.0570519104932
 20
26.35430478392947
 42
1.0
 10
303.0628482011429
 20
25.96449808787493
 42
1.0
 10
303.3259905717408
 20
25.69768229885988
 42
1.0
 10
303.6993639381942
 20
25.70301926806731
 42
1.0
 10
304.0680572227529
 20
25.70828897263022
 42
1.0
 10
304.3293945946187
 20
25.98752450590587
 42
1.0
 10
304.327448147944
 20
26.37412133304796
 42
1.0
 72
     4
 94
        3
 73
     1
 74
     0
 95
       11
 96
        7
 40
2.0
 40
2.0
 40
2.0
 40
2.0
 40
3.0
 40
3.0
 40
3.0
 40
4.0
 40
4.0
 40
4.0
 40
4.0
 10
304.327448147944
 20
26.37412133304796
 42
1.0
 10
304.3255386007336
 20
26.75299425696746
 42
1.0
 10
304.0507636744179
 20
27.04560238626284
 42
1.0
 10
303.6924299141011
 20
27.05034857969325
 42
1.0
 10
303.3266947364936
 20
27.05519259513757
 42
1.0
 10
303.0511172468595
 20
26.75330175249256
 42
1.0
 10
303.0570519104932
 20
26.35430478392947
 42
1.0
 97
        0
 75
     0
 76
     1
 98
        1
 10
0.0
 20
0.0
  0
HATCH
  5
27A
330
1F
100
AcDbEntity
  8
0
  6
Continuous
 62
     7
100
AcDbHatch
 10
0.0
 20
0.0
 30
0.0
210
0.0
220
0.0
230
1.0
  2
SOLID
 70
     1
 71
     0
 91
        1
 92
        0
 93
        4
 72
     1
 10
302.6973344203136
 20
20.2539775500868
 11
304.8038079156778
 21
20.2539775500868
 72
     4
 94
        3
 73
     1
 74
     0
 95
       17
 96
       13
 40
6.0
 40
6.0
 40
6.0
 40
6.0
 40
7.0
 40
7.0
 40
7.0
 40
8.0
 40
8.0
 40
8.0
 40
9.0
 40
9.0
 40
9.0
 40
10.0
 40
10.0
 40
10.0
 40
10.0
 10
304.8038079156778
 20
20.2539775500868
 42
1.0
 10
304.4578262506061
 20
20.33981031349822
 42
1.0
 10
304.2621822227331
 20
20.55023795748124
 42
1.0
 10
304.2107535961514
 20
20.89393877449616
 42
1.0
 10
304.1922454404932
 20
21.01764883669525
 42
1.0
 10
304.1821011631179
 20
21.14380579453512
 42
1.0
 10
304.1818797663412
 20
21.26887114326077
 42
1.0
 10
304.1797703470369
 20
22.46084295323946
 42
1.0
 10
304.1808527312862
 20
23.65282014439031
 42
1.0
 10
304.1800932173391
 20
24.84479541369365
 42
1.0
 10
304.1800409430993
 20
24.93136078519359
 42
1.0
 10
304.1727133247369
 20
25.01792115989102
 42
1.0
 10
304.1706223551654
 20
25.06377258638473
 42
1.0
 72
     1
 10
304.1706223551654
 20
25.06377258638473
 11
302.7125031745686
 21
24.50968064047992
 72
     4
 94
        3
 73
     1
 74
     0
 95
       17
 96
       13
 40
1.0
 40
1.0
 40
1.0
 40
1.0
 40
2.0
 40
2.0
 40
2.0
 40
3.0
 40
3.0
 40
3.0
 40
4.0
 40
4.0
 40
4.0
 40
5.0
 40
5.0
 40
5.0
 40
5.0
 10
302.7125031745686
 20
24.50968064047994
 42
1.0
 10
302.7604109773859
 20
24.50557288463289
 42
1.0
 10
302.8224697242704
 20
24.49650561033552
 42
1.0
 10
302.8846514693661
 20
24.49557889569631
 42
1.0
 10
303.1332831261333
 20
24.4918735746181
 42
1.0
 10
303.2632153602819
 20
24.35030186610297
 42
1.0
 10
303.2668591822546
 20
24.11891186780057
 42
1.0
 10
303.2829750227277
 20
23.09531768874206
 42
1.0
 10
303.296603224403
 20
22.071496731734
 42
1.0
 10
303.2916556214044
 20
21.04785181591346
 42
1.0
 10
303.2897768237453
 20
20.65853557522151
 42
1.0
 10
303.1321361678242
 20
20.3494649042487
 42
1.0
 10
302.6973344203136
 20
20.2539775500868
 42
1.0
 97
        0
 75
     0
 76
     1
 98
        1
 10
0.0
 20
0.0
  0
HATCH
  5
27B
330
1F
100
AcDbEntity
  8
0
  6
Continuous
 62
     7
100
AcDbHatch
 10
0.0
 20
0.0
 30
0.0
210
0.0
220
0.0
230
1.0
  2
SOLID
 70
     1
 71
     0
 91
        1
 92
        0
 93
        4
 72
     1
 10
308.65963267846
 20
27.88697759989075
 11
307.1608133901539
 21
27.32540717062984
 72
     4
 94
        3
 73
     1
 74
     0
 95
       20
 96
       16
 40
5.0
 40
5.0
 40
5.0
 40
5.0
 40
6.0
 40
6.0
 40
6.0
 40
7.0
 40
7.0
 40
7.0
 40
8.0
 40
8.0
 40
8.0
 40
9.0
 40
9.0
 40
9.0
 40
10.0
 40
10.0
 40
10.0
 40
10.0
 10
307.1608133901539
 20
27.32540717062984
 42
1.0
 10
307.6774858212348
 20
27.28280885460759
 42
1.0
 10
307.7501131893193
 20
27.20350460556406
 42
1.0
 10
307.7547502218385
 20
26.63215658734291
 42
1.0
 10
307.7552944889174
 20
26.56503146731187
 42
1.0
 10
307.7550361926765
 20
26.49789904426262
 42
1.0
 10
307.7550361926765
 20
26.43077008053731
 42
1.0
 10
307.7550484924979
 20
24.69380511724257
 42
1.0
 10
307.7587445887104
 20
22.95682170421714
 42
1.0
 10
307.7500732149022
 20
21.21990094340409
 42
1.0
 10
307.7490584796685
 20
21.01681475508336
 42
1.0
 10
307.7285516030971
 20
20.78446498637255
 42
1.0
 10
307.6283941606454
 20
20.61954360515536
 42
1.0
 10
307.5293898264143
 20
20.45652254628292
 42
1.0
 10
307.3179589782804
 20
20.36177625633667
 42
1.0
 10
307.178408284104
 20
20.25443648715803
 42
1.0
 72
     1
 10
307.178408284104
 20
20.25443648715803
 11
309.3620693061908
 21
20.25443648715802
 72
     4
 94
        3
 73
     1
 74
     0
 95
       14
 96
       10
 40
1.0
 40
1.0
 40
1.0
 40
1.0
 40
2.0
 40
2.0
 40
2.0
 40
3.0
 40
3.0
 40
3.0
 40
4.0
 40
4.0
 40
4.0
 40
4.0
 10
309.3620693061908
 20
20.25443648715802
 42
1.0
 10
308.807415027844
 20
20.43200746554105
 42
1.0
 10
308.6597679764911
 20
20.6374237012035
 42
1.0
 10
308.6597187772069
 20
21.15880542625192
 42
1.0
 10
308.6595035303402
 20
23.32371921490944
 42
1.0
 10
308.65963267846
 20
25.48863300356693
 42
1.0
 10
308.65963267846
 20
27.65354698440997
 42
1.0
 10
308.65963267846
 20
27.74275854708867
 42
1.0
 10
308.65963267846
 20
27.83196991758182
 42
1.0
 10
308.65963267846
 20
27.88697759989075
 42
1.0
 97
        0
 75
     0
 76
     1
 98
        1
 10
0.0
 20
0.0
  0
HATCH
  5
27C
330
1F
100
AcDbEntity
  8
0
  6
Continuous
 62
     7
100
AcDbHatch
 10
0.0
 20
0.0
 30
0.0
210
0.0
220
0.0
230
1.0
  2
SOLID
 70
     1
 71
     0
 91
        1
 92
        0
 93
        4
 72
     1
 10
313.1781318226163
 20
27.87703492426926
 11
311.6691528821608
 21
27.32445797038016
 72
     4
 94
        3
 73
     1
 74
     0
 95
       17
 96
       13
 40
6.0
 40
6.0
 40
6.0
 40
6.0
 40
7.0
 40
7.0
 40
7.0
 40
8.0
 40
8.0
 40
8.0
 40
9.0
 40
9.0
 40
9.0
 40
10.0
 40
10.0
 40
10.0
 40
10.0
 10
311.6691528821608
 20
27.32445797038016
 42
1.0
 10
312.2096131670664
 20
27.27631108979181
 42
1.0
 10
312.2683694120104
 20
27.21300429544448
 42
1.0
 10
312.2823973578678
 20
26.60716642601487
 42
1.0
 10
312.2845313768121
 20
26.51487279724974
 42
1.0
 10
312.2871512386867
 20
26.42255802816857
 42
1.0
 10
312.2871819882395
 20
26.33025248395311
 42
1.0
 10
312.2877662297369
 20
24.60974045310045
 42
1.0
 10
312.2890700107628
 20
22.88922803787955
 42
1.0
 10
312.2876555313485
 20
21.16871754450475
 42
1.0
 10
312.2872188877024
 20
20.63608302071405
 42
1.0
 10
312.1185268426077
 20
20.41647125413319
 42
1.0
 10
311.6156486607861
 20
20.25320881127337
 42
1.0
 72
     1
 10
311.6156486607861
 20
20.25320881127337
 11
313.8867245107604
 21
20.25320881127337
 72
     4
 94
        3
 73
     1
 74
     0
 95
       17
 96
       13
 40
1.0
 40
1.0
 40
1.0
 40
1.0
 40
2.0
 40
2.0
 40
2.0
 40
3.0
 40
3.0
 40
3.0
 40
4.0
 40
4.0
 40
4.0
 40
5.0
 40
5.0
 40
5.0
 40
5.0
 10
313.8867245107604
 20
20.25320881127337
 42
1.0
 10
313.3266152617988
 20
20.4348325806782
 42
1.0
 10
313.1888880160859
 20
20.62648762285203
 42
1.0
 10
313.1786115156352
 20
21.17082388885262
 42
1.0
 10
313.1771847363981
 20
21.24633325874564
 42
1.0
 10
313.1781441224363
 20
21.32188875296783
 42
1.0
 10
313.1781441224363
 20
21.39742349124222
 42
1.0
 10
313.1781256727049
 20
23.48721689184593
 42
1.0
 10
313.1781318226163
 20
25.57700952371036
 42
1.0
 10
313.1781318226163
 20
27.66680273212925
 42
1.0
 10
313.1781318226163
 20
27.75161518695077
 42
1.0
 10
313.1781318226163
 20
27.83642744958889
 42
1.0
 10
313.1781318226163
 20
27.87703492426926
 42
1.0
 97
        0
 75
     0
 76
     1
 98
        1
 10
0.0
 20
0.0
  0
HATCH
  5
27D
330
1F
100
AcDbEntity
  8
0
  6
Continuous
 62
     7
100
AcDbHatch
 10
0.0
 20
0.0
 30
0.0
210
0.0
220
0.0
230
1.0
  2
SOLID
 70
     1
 71
     0
 91
        1
 92
        0
 93
       12
 72
     1
 10
296.2715297073844
 20
27.50458020069891
 11
293.841527870193
 21
27.50458020069891
 72
     4
 94
        3
 73
     1
 74
     0
 95
       17
 96
       13
 40
21.0
 40
21.0
 40
21.0
 40
21.0
 40
22.0
 40
22.0
 40
22.0
 40
23.0
 40
23.0
 40
23.0
 40
24.0
 40
24.0
 40
24.0
 40
25.0
 40
25.0
 40
25.0
 40
25.0
 10
293.841527870193
 20
27.50458020069891
 42
1.0
 10
294.4654639653083
 20
27.35271373418588
 42
1.0
 10
294.541848928711
 20
26.88863860486635
 42
1.0
 10
294.5396718603926
 20
26.35648992400541
 42
1.0
 10
294.5326947869268
 20
24.65236702027423
 42
1.0
 10
294.54232862173
 20
22.9481603240125
 42
1.0
 10
294.5304592944584
 20
21.24409084762873
 42
1.0
 10
294.52894334152
 20
21.02641399663968
 42
1.0
 10
294.4888489999954
 20
20.77588586122133
 42
1.0
 10
294.3739502220706
 20
20.60171040217499
 42
1.0
 10
294.2655211499942
 20
20.43733713173098
 42
1.0
 10
294.0348564567621
 20
20.35359533789035
 42
1.0
 10
293.8906841048422
 20
20.25643828302682
 42
1.0
 72
     1
 10
293.8906841048422
 20
20.25643828302682
 11
296.2880237673525
 21
20.25643828302682
 72
     4
 94
        3
 73
     1
 74
     0
 95
       14
 96
       10
 40
17.0
 40
17.0
 40
17.0
 40
17.0
 40
18.0
 40
18.0
 40
18.0
 40
19.0
 40
19.0
 40
19.0
 40
20.0
 40
20.0
 40
20.0
 40
20.0
 10
296.2880237673525
 20
20.25643828302682
 42
1.0
 10
295.7413366980624
 20
20.4024294709773
 42
1.0
 10
295.5628078711177
 20
20.63015527572819
 42
1.0
 10
295.5619960829322
 20
21.2138824872384
 42
1.0
 10
295.560827599936
 20
22.05336910178782
 42
1.0
 10
295.561359567195
 20
22.89285956003151
 42
1.0
 10
295.5621928800676
 20
23.73234771205876
 42
1.0
 10
295.5622759038603
 20
23.81306182808445
 42
1.0
 10
295.5696219719554
 20
23.89376787235267
 42
1.0
 10
295.5733857171835
 20
23.97022240661697
 42
1.0
 72
     1
 10
295.5733857171835
 20
23.97022240661697
 11
298.4851131190222
 21
23.97022240661697
 72
     4
 94
        3
 73
     1
 74
     0
 95
       11
 96
        7
 40
14.0
 40
14.0
 40
14.0
 40
14.0
 40
15.0
 40
15.0
 40
15.0
 40
16.0
 40
16.0
 40
16.0
 40
16.0
 10
298.4851131190222
 20
23.97022240661697
 42
1.0
 10
298.4851131190222
 20
23.04419117651474
 42
1.0
 10
298.4852207424561
 20
22.13796342697173
 42
1.0
 10
298.485073144605
 20
21.23173567742801
 42
1.0
 10
298.4849747460367
 20
20.62384393007452
 42
1.0
 10
298.3307257657572
 20
20.41986831094703
 42
1.0
 10
297.7632396991476
 20
20.25412130424438
 42
1.0
 72
     1
 10
297.7632396991476
 20
20.25412130424438
 11
300.2193725060648
 21
20.25412130424438
 72
     4
 94
        3
 73
     1
 74
     0
 95
       17
 96
       13
 40
9.0
 40
9.0
 40
9.0
 40
9.0
 40
10.0
 40
10.0
 40
10.0
 40
11.0
 40
11.0
 40
11.0
 40
12.0
 40
12.0
 40
12.0
 40
13.0
 40
13.0
 40
13.0
 40
13.0
 10
300.2193725060648
 20
20.25412130424438
 42
1.0
 10
299.739442715284
 20
20.41422423058344
 42
1.0
 10
299.5427163031618
 20
20.62720562490344
 42
1.0
 10
299.542119761843
 20
21.03839632851544
 42
1.0
 10
299.5393769017586
 20
22.92724217217554
 42
1.0
 10
299.5395583241182
 20
24.8160968563317
 42
1.0
 10
299.5421628112159
 20
26.70494346873036
 42
1.0
 10
299.5426363543262
 20
27.0468754177367
 42
1.0
 10
299.7248336028849
 20
27.28837413924314
 42
1.0
 10
300.049118383702
 20
27.40930924651266
 42
1.0
 10
300.1052670665942
 20
27.43024796211264
 42
1.0
 10
300.1600043450263
 20
27.45496618208605
 42
1.0
 10
300.2549312885929
 20
27.49433829349534
 42
1.0
 72
     1
 10
300.2549312885929
 20
27.49433829349534
 11
297.7186989723292
 21
27.49433829349534
 72
     4
 94
        3
 73
     1
 74
     0
 95
       14
 96
       10
 40
5.0
 40
5.0
 40
5.0
 40
5.0
 40
6.0
 40
6.0
 40
6.0
 40
7.0
 40
7.0
 40
7.0
 40
8.0
 40
8.0
 40
8.0
 40
8.0
 10
297.7186989723292
 20
27.49433829349534
 42
1.0
 10
298.3648823686909
 20
27.26685790861022
 42
1.0
 10
298.4850762195593
 20
27.0944786077999
 42
1.0
 10
298.4851069691121
 20
26.45733654080182
 42
1.0
 10
298.4851377186649
 20
25.7773505457302
 42
1.0
 10
298.4851131190222
 20
25.09736416629037
 42
1.0
 10
298.4851131190222
 20
24.41737817121947
 42
1.0
 10
298.4851131190222
 20
24.32893553953832
 42
1.0
 10
298.4851131190222
 20
24.24049329222682
 42
1.0
 10
298.4851131190222
 20
24.16049564077468
 42
1.0
 72
     1
 10
298.4851131190222
 20
24.16049564077468
 11
295.5632814142282
 21
24.16049564077468
 72
     4
 94
        3
 73
     1
 74
     0
 95
       14
 96
       10
 40
1.0
 40
1.0
 40
1.0
 40
1.0
 40
2.0
 40
2.0
 40
2.0
 40
3.0
 40
3.0
 40
3.0
 40
4.0
 40
4.0
 40
4.0
 40
4.0
 10
295.5632814142282
 20
24.16049564077468
 42
1.0
 10
295.5632814142282
 20
25.01272602299438
 42
1.0
 10
295.5627432970579
 20
25.84365465270932
 42
1.0
 10
295.5644406723573
 20
26.67457866999212
 42
1.0
 10
295.5645605956114
 20
26.73240397223375
 42
1.0
 10
295.5792681065788
 20
26.79059327230427
 42
1.0
 10
295.5906023916358
 20
26.8479388815276
 42
1.0
 10
295.6648994604227
 20
27.22384581892186
 42
1.0
 10
295.9411319155254
 20
27.38780204855992
 42
1.0
 10
296.2715297073844
 20
27.50458020069891
 42
1.0
 97
        0
 75
     0
 76
     1
 98
        1
 10
0.0
 20
0.0
  0
SPLINE
  5
27E
330
1F
100
AcDbEntity
  8
0
  6
Continuous
 62
   179
370
     0
100
AcDbSpline
210
0.0
220
0.0
230
1.0
 70
     8
 71
     3
 72
    14
 73
    10
 74
     0
 42
0.000000001
 43
0.00000001
 40
24.0
 40
24.0
 40
24.0
 40
24.0
 40
25.0
 40
25.0
 40
25.0
 40
26.0
 40
26.0
 40
26.0
 40
27.0
 40
27.0
 40
27.0
 40
27.0
 10
287.7314564875268
 20
22.4264857094768
 30
0.0
 10
288.0996055050067
 20
21.95463920731319
 30
0.0
 10
288.4270667146001
 20
21.47381844824843
 30
0.0
 10
288.8166481701822
 20
21.05011190802389
 30
0.0
 10
289.3841588364346
 20
20.43289382139212
 30
0.0
 10
289.9836367374808
 20
20.49110656799653
 30
0.0
 10
290.4735170834558
 20
21.16713932372221
 30
0.0
 10
290.5884281612034
 20
21.32571784099438
 30
0.0
 10
290.6825002672103
 20
21.49939669476813
 30
0.0
 10
290.8103661314317
 20
21.70506046432864
 30
0.0
  0
SPLINE
  5
27F
330
1F
100
AcDbEntity
  8
0
  6
Continuous
 62
   179
370
     0
100
AcDbSpline
210
0.0
220
0.0
230
1.0
 70
     8
 71
     3
 72
    11
 73
     7
 74
     0
 42
0.000000001
 43
0.00000001
 40
22.0
 40
22.0
 40
22.0
 40
22.0
 40
23.0
 40
23.0
 40
23.0
 40
24.0
 40
24.0
 40
24.0
 40
24.0
 10
290.7742138825406
 20
25.39867403457779
 30
0.0
 10
289.9536528488242
 20
25.26443186627322
 30
0.0
 10
289.4290162836425
 20
24.71923384406366
 30
0.0
 10
288.9612633156569
 20
24.10441845059237
 30
0.0
 10
288.5466855488353
 20
23.55949371503118
 30
0.0
 10
288.1508588591387
 20
23.00030157147278
 30
0.0
 10
287.7314564875268
 20
22.4264857094768
 30
0.0
  0
SPLINE
  5
280
330
1F
100
AcDbEntity
  8
0
  6
Continuous
 62
   179
370
     0
100
AcDbSpline
210
0.0
220
0.0
230
1.0
 70
     8
 71
     3
 72
    11
 73
     7
 74
     0
 42
0.000000001
 43
0.00000001
 40
20.0
 40
20.0
 40
20.0
 40
20.0
 40
21.0
 40
21.0
 40
21.0
 40
22.0
 40
22.0
 40
22.0
 40
22.0
 10
287.7715077796773
 20
25.39867403457779
 30
0.0
 10
288.2706160663608
 20
25.39867403457779
 30
0.0
 10
288.76972127809
 20
25.39867441894744
 30
0.0
 10
289.2688295647749
 20
25.39867441894744
 30
0.0
 10
289.7706253623487
 20
25.39867441894744
 30
0.0
 10
290.2724180849667
 20
25.39867403457779
 30
0.0
 10
290.7742138825406
 20
25.39867403457779
 30
0.0
  0
SPLINE
  5
281
330
1F
100
AcDbEntity
  8
0
  6
Continuous
 62
   179
370
     0
100
AcDbSpline
210
0.0
220
0.0
230
1.0
 70
     8
 71
     3
 72
    17
 73
    13
 74
     0
 42
0.000000001
 43
0.00000001
 40
16.0
 40
16.0
 40
16.0
 40
16.0
 40
17.0
 40
17.0
 40
17.0
 40
18.0
 40
18.0
 40
18.0
 40
19.0
 40
19.0
 40
19.0
 40
20.0
 40
20.0
 40
20.0
 40
20.0
 10
287.7233847299918
 20
22.54303496963325
 30
0.0
 10
288.0735790837579
 20
23.12311989664797
 30
0.0
 10
288.4211781752921
 20
23.692108847638
 30
0.0
 10
288.7595985254019
 20
24.26650702928458
 30
0.0
 10
288.8131334963293
 20
24.35736772890119
 30
0.0
 10
288.8373887433532
 20
24.47070865762303
 30
0.0
 10
288.8543009972361
 20
24.57697987985169
 30
0.0
 10
288.9174636530569
 20
24.97387165717582
 30
0.0
 10
288.7601181928394
 20
25.20759054971102
 30
0.0
 10
288.3670435880915
 20
25.28904726743022
 30
0.0
 10
288.1718392788191
 20
25.32949945687163
 30
0.0
 10
287.9710693005408
 20
25.34310267453518
 30
0.0
 10
287.7715077796773
 20
25.39867403457779
 30
0.0
  0
SPLINE
  5
282
330
1F
100
AcDbEntity
  8
0
  6
Continuous
 62
   179
370
     0
100
AcDbSpline
210
0.0
220
0.0
230
1.0
 70
     8
 71
     3
 72
     8
 73
     4
 74
     0
 42
0.000000001
 43
0.00000001
 40
15.0
 40
15.0
 40
15.0
 40
15.0
 40
16.0
 40
16.0
 40
16.0
 40
16.0
 10
285.8065406500283
 20
24.86455968857225
 30
0.0
 10
286.4380688096612
 20
24.09970377545334
 30
0.0
 10
287.0596648638312
 20
23.34687900912474
 30
0.0
 10
287.7233847299918
 20
22.54303496963325
 30
0.0
  0
SPLINE
  5
283
330
1F
100
AcDbEntity
  8
0
  6
Continuous
 62
   179
370
     0
100
AcDbSpline
210
0.0
220
0.0
230
1.0
 70
     8
 71
     3
 72
    26
 73
    22
 74
     0
 42
0.000000001
 43
0.00000001
 40
8.0
 40
8.0
 40
8.0
 40
8.0
 40
9.0
 40
9.0
 40
9.0
 40
10.0
 40
10.0
 40
10.0
 40
11.0
 40
11.0
 40
11.0
 40
12.0
 40
12.0
 40
12.0
 40
13.0
 40
13.0
 40
13.0
 40
14.0
 40
14.0
 40
14.0
 40
15.0
 40
15.0
 40
15.0
 40
15.0
 10
284.7027239634148
 20
24.46818604120849
 30
0.0
 10
284.5641388051866
 20
24.6300390014551
 30
0.0
 10
284.4323277733789
 20
24.77744812814591
 30
0.0
 10
284.3077767109179
 20
24.93075271279267
 30
0.0
 10
284.0198409761273
 20
25.28515591156022
 30
0.0
 10
283.7707819005811
 20
25.65802498535045
 30
0.0
 10
283.7149530130354
 20
26.1296866058298
 30
0.0
 10
283.6309452355653
 20
26.8393466878164
 30
0.0
 10
283.9109291360762
 20
27.37506654483262
 30
0.0
 10
284.558084218296
 20
27.68711127408746
 30
0.0
 10
285.1912113546599
 20
27.99239110178883
 30
0.0
 10
285.840402057257
 20
27.99583274545401
 30
0.0
 10
286.4793408590448
 20
27.71426216803416
 30
0.0
 10
287.361321048954
 20
27.32558686332681
 30
0.0
 10
287.5614237619422
 20
26.30921056516709
 30
0.0
 10
286.8815726805328
 20
25.62247811827483
 30
0.0
 10
286.6551698752792
 20
25.39378370261948
 30
0.0
 10
286.361711520857
 20
25.23088333574105
 30
0.0
 10
286.0959738880259
 20
25.04203380586477
 30
0.0
 10
286.0025259979348
 20
24.975621306713
 30
0.0
 10
285.9002991106001
 20
24.9215528310502
 30
0.0
 10
285.8065406500283
 20
24.86455968857225
 30
0.0
  0
SPLINE
  5
284
330
1F
100
AcDbEntity
  8
0
  6
Continuous
 62
   179
370
     0
100
AcDbSpline
210
0.0
220
0.0
230
1.0
 70
     8
 71
     3
 72
    20
 73
    16
 74
     0
 42
0.000000001
 43
0.00000001
 40
3.0
 40
3.0
 40
3.0
 40
3.0
 40
4.0
 40
4.0
 40
4.0
 40
5.0
 40
5.0
 40
5.0
 40
6.0
 40
6.0
 40
6.0
 40
7.0
 40
7.0
 40
7.0
 40
8.0
 40
8.0
 40
8.0
 40
8.0
 10
287.0539854214827
 20
21.61211917311517
 30
0.0
 10
286.8995550188436
 20
21.43851181205056
 30
0.0
 10
286.7443651022574
 20
21.26447318851251
 30
0.0
 10
286.5896302790503
 20
21.09003174583673
 30
0.0
 10
285.9488126796034
 20
20.36759637788916
 30
0.0
 10
285.1515567317372
 20
20.05360962220845
 30
0.0
 10
284.198169930981
 20
20.23446388406056
 30
0.0
 10
282.6109241545095
 20
20.5355588898502
 30
0.0
 10
282.3522343191156
 20
22.37884389028816
 30
0.0
 10
283.1417229300147
 20
23.34576433784628
 30
0.0
 10
283.460866385652
 20
23.73663343094009
 30
0.0
 10
283.8607304915963
 20
24.02105948868024
 30
0.0
 10
284.3005597909425
 20
24.25632085564481
 30
0.0
 10
284.4255536469583
 20
24.32317807019961
 30
0.0
 10
284.5513685160267
 20
24.38851087568819
 30
0.0
 10
284.7027239634148
 20
24.46818604120849
 30
0.0
  0
SPLINE
  5
285
330
1F
100
AcDbEntity
  8
0
  6
Continuous
 62
   179
370
     0
100
AcDbSpline
210
0.0
220
0.0
230
1.0
 70
     8
 71
     3
 72
    14
 73
    10
 74
     0
 42
0.000000001
 43
0.00000001
 40
0.0
 40
0.0
 40
0.0
 40
0.0
 40
1.0
 40
1.0
 40
1.0
 40
2.0
 40
2.0
 40
2.0
 40
3.0
 40
3.0
 40
3.0
 40
3.0
 10
290.8103661314317
 20
21.70506046432864
 30
0.0
 10
290.7160910783766
 20
21.04182259740494
 30
0.0
 10
289.9739444785289
 20
20.32342848939635
 30
0.0
 10
289.3271645408483
 20
20.20870037148624
 30
0.0
 10
288.7048673968812
 20
20.09831485913089
 30
0.0
 10
288.1784811821614
 20
20.26780485511384
 30
0.0
 10
287.7601488949774
 20
20.73592220529573
 30
0.0
 10
287.5152010346028
 20
21.01001756649998
 30
0.0
 10
287.2972697310664
 20
21.3082559388604
 30
0.0
 10
287.0539854214827
 20
21.61211917311517
 30
0.0
  0
SPLINE
  5
286
330
1F
100
AcDbEntity
  8
0
  6
Continuous
 62
   179
370
     0
100
AcDbSpline
210
0.0
220
0.0
230
1.0
 70
     8
 71
     3
 72
    14
 73
    10
 74
     0
 42
0.000000001
 43
0.00000001
 40
1.0
 40
1.0
 40
1.0
 40
1.0
 40
2.0
 40
2.0
 40
2.0
 40
3.0
 40
3.0
 40
3.0
 40
4.0
 40
4.0
 40
4.0
 40
4.0
 10
284.845288113738
 20
24.3712657578988
 30
0.0
 10
284.1054815548355
 20
23.90423117633508
 30
0.0
 10
283.6988925217564
 20
23.08417174469389
 30
0.0
 10
283.7780264951535
 20
22.28619625730053
 30
0.0
 10
283.8665083325146
 20
21.39392726712143
 30
0.0
 10
284.4974276510072
 20
20.83427541775252
 30
0.0
 10
285.3603677179978
 20
20.87638462370451
 30
0.0
 10
286.0339581905155
 20
20.90925282038733
 30
0.0
 10
286.5509442670314
 20
21.22618922689351
 30
0.0
 10
287.0009947176327
 20
21.77781006188367
 30
0.0
  0
SPLINE
  5
287
330
1F
100
AcDbEntity
  8
0
  6
Continuous
 62
   179
370
     0
100
AcDbSpline
210
0.0
220
0.0
230
1.0
 70
     8
 71
     3
 72
     8
 73
     4
 74
     0
 42
0.000000001
 43
0.00000001
 40
0.0
 40
0.0
 40
0.0
 40
0.0
 40
1.0
 40
1.0
 40
1.0
 40
1.0
 10
287.0009947176327
 20
21.77781006188367
 30
0.0
 10
286.2819902310068
 20
22.64282111123716
 30
0.0
 10
285.5612360948443
 20
23.50993158628786
 30
0.0
 10
284.845288113738
 20
24.3712657578988
 30
0.0
  0
SPLINE
  5
288
330
1F
100
AcDbEntity
  8
0
  6
Continuous
 62
   179
370
     0
100
AcDbSpline
210
0.0
220
0.0
230
1.0
 70
     8
 71
     3
 72
    11
 73
     7
 74
     0
 42
0.000000001
 43
0.00000001
 40
3.0
 40
3.0
 40
3.0
 40
3.0
 40
4.0
 40
4.0
 40
4.0
 40
5.0
 40
5.0
 40
5.0
 40
5.0
 10
284.688382372121
 20
27.15085253116304
 30
0.0
 10
284.5630810205802
 20
26.788679112661
 30
0.0
 10
284.5571094574822
 20
26.41068293535724
 30
0.0
 10
284.7721626029031
 20
26.08712768767229
 30
0.0
 10
285.0380140090768
 20
25.68714980838475
 30
0.0
 10
285.3510444536752
 20
25.31853032275095
 30
0.0
 10
285.6520579731507
 20
24.9254318870995
 30
0.0
  0
SPLINE
  5
289
330
1F
100
AcDbEntity
  8
0
  6
Continuous
 62
   179
370
     0
100
AcDbSpline
210
0.0
220
0.0
230
1.0
 70
     8
 71
     3
 72
    14
 73
    10
 74
     0
 42
0.000000001
 43
0.00000001
 40
0.0
 40
0.0
 40
0.0
 40
0.0
 40
1.0
 40
1.0
 40
1.0
 40
2.0
 40
2.0
 40
2.0
 40
3.0
 40
3.0
 40
3.0
 40
3.0
 10
285.6520579731507
 20
24.9254318870995
 30
0.0
 10
286.3259713159692
 20
25.4295804098103
 30
0.0
 10
286.5713650448558
 20
26.2298440482801
 30
0.0
 10
286.3549927436335
 20
27.06650131962916
 30
0.0
 10
286.2400293916459
 20
27.5110460628537
 30
0.0
 10
285.9916529561654
 20
27.74682017860581
 30
0.0
 10
285.6158934244382
 20
27.76810636414938
 30
0.0
 10
285.1818973152029
 20
27.79269159230804
 30
0.0
 10
284.8337724063213
 20
27.5710895609412
 30
0.0
 10
284.688382372121
 20
27.15085253116304
 30
0.0
  0
SPLINE
  5
28A
330
1F
100
AcDbEntity
  8
0
  6
Continuous
 62
   179
370
     0
100
AcDbSpline
210
0.0
220
0.0
230
1.0
 70
     8
 71
     3
 72
    17
 73
    13
 74
     0
 42
0.000000001
 43
0.00000001
 40
21.0
 40
21.0
 40
21.0
 40
21.0
 40
22.0
 40
22.0
 40
22.0
 40
23.0
 40
23.0
 40
23.0
 40
24.0
 40
24.0
 40
24.0
 40
25.0
 40
25.0
 40
25.0
 40
25.0
 10
293.8906841048422
 20
20.25643828302682
 30
0.0
 10
294.0348564567621
 20
20.35359533789035
 30
0.0
 10
294.2655211499942
 20
20.43733713173098
 30
0.0
 10
294.3739502220706
 20
20.60171040217499
 30
0.0
 10
294.4888489999954
 20
20.77588586122133
 30
0.0
 10
294.52894334152
 20
21.02641399663968
 30
0.0
 10
294.5304592944584
 20
21.24409084762873
 30
0.0
 10
294.54232862173
 20
22.9481603240125
 30
0.0
 10
294.5326947869268
 20
24.65236702027423
 30
0.0
 10
294.5396718603926
 20
26.35648992400541
 30
0.0
 10
294.541848928711
 20
26.88863860486635
 30
0.0
 10
294.4654639653083
 20
27.35271373418588
 30
0.0
 10
293.841527870193
 20
27.50458020069891
 30
0.0
  0
SPLINE
  5
28B
330
1F
100
AcDbEntity
  8
0
  6
Continuous
 62
   179
370
     0
100
AcDbSpline
210
0.0
220
0.0
230
1.0
 70
    24
 71
     3
 72
     8
 73
     4
 74
     0
 42
0.000000001
 43
0.00000001
 40
20.0
 40
20.0
 40
20.0
 40
20.0
 40
21.0
 40
21.0
 40
21.0
 40
21.0
 10
296.2880237673525
 20
20.25643828302682
 30
0.0
 10
295.4693261565182
 20
20.25643828302682
 30
0.0
 10
294.6506254707311
 20
20.25643828302682
 30
0.0
 10
293.8906841048422
 20
20.25643828302682
 30
0.0
  0
SPLINE
  5
28C
330
1F
100
AcDbEntity
  8
0
  6
Continuous
 62
   179
370
     0
100
AcDbSpline
210
0.0
220
0.0
230
1.0
 70
     8
 71
     3
 72
    14
 73
    10
 74
     0
 42
0.000000001
 43
0.00000001
 40
17.0
 40
17.0
 40
17.0
 40
17.0
 40
18.0
 40
18.0
 40
18.0
 40
19.0
 40
19.0
 40
19.0
 40
20.0
 40
20.0
 40
20.0
 40
20.0
 10
295.5733857171835
 20
23.97022240661697
 30
0.0
 10
295.5696219719554
 20
23.89376787235267
 30
0.0
 10
295.5622759038603
 20
23.81306182808445
 30
0.0
 10
295.5621928800676
 20
23.73234771205876
 30
0.0
 10
295.561359567195
 20
22.89285956003151
 30
0.0
 10
295.560827599936
 20
22.05336910178782
 30
0.0
 10
295.5619960829322
 20
21.2138824872384
 30
0.0
 10
295.5628078711177
 20
20.63015527572819
 30
0.0
 10
295.7413366980624
 20
20.4024294709773
 30
0.0
 10
296.2880237673525
 20
20.25643828302682
 30
0.0
  0
SPLINE
  5
28D
330
1F
100
AcDbEntity
  8
0
  6
Continuous
 62
   179
370
     0
100
AcDbSpline
210
0.0
220
0.0
230
1.0
 70
    24
 71
     3
 72
     8
 73
     4
 74
     0
 42
0.000000001
 43
0.00000001
 40
16.0
 40
16.0
 40
16.0
 40
16.0
 40
17.0
 40
17.0
 40
17.0
 40
17.0
 10
298.4851131190222
 20
23.97022240661697
 30
0.0
 10
297.5154382802974
 20
23.97022240661697
 30
0.0
 10
296.5557754958724
 20
23.97022240661697
 30
0.0
 10
295.5733857171835
 20
23.97022240661697
 30
0.0
  0
SPLINE
  5
28E
330
1F
100
AcDbEntity
  8
0
  6
Continuous
 62
   179
370
     0
100
AcDbSpline
210
0.0
220
0.0
230
1.0
 70
     8
 71
     3
 72
    11
 73
     7
 74
     0
 42
0.000000001
 43
0.00000001
 40
14.0
 40
14.0
 40
14.0
 40
14.0
 40
15.0
 40
15.0
 40
15.0
 40
16.0
 40
16.0
 40
16.0
 40
16.0
 10
297.7632396991476
 20
20.25412130424438
 30
0.0
 10
298.3307257657572
 20
20.41986831094703
 30
0.0
 10
298.4849747460367
 20
20.62384393007452
 30
0.0
 10
298.485073144605
 20
21.23173567742801
 30
0.0
 10
298.4852207424561
 20
22.13796342697173
 30
0.0
 10
298.4851131190222
 20
23.04419117651474
 30
0.0
 10
298.4851131190222
 20
23.97022240661697
 30
0.0
  0
SPLINE
  5
28F
330
1F
100
AcDbEntity
  8
0
  6
Continuous
 62
   179
370
     0
100
AcDbSpline
210
0.0
220
0.0
230
1.0
 70
    24
 71
     3
 72
     8
 73
     4
 74
     0
 42
0.000000001
 43
0.00000001
 40
13.0
 40
13.0
 40
13.0
 40
13.0
 40
14.0
 40
14.0
 40
14.0
 40
14.0
 10
300.2193725060648
 20
20.25412130424438
 30
0.0
 10
299.4006625954106
 20
20.25412130424438
 30
0.0
 10
298.5819526847563
 20
20.25412130424438
 30
0.0
 10
297.7632396991476
 20
20.25412130424438
 30
0.0
  0
SPLINE
  5
290
330
1F
100
AcDbEntity
  8
0
  6
Continuous
 62
   179
370
     0
100
AcDbSpline
210
0.0
220
0.0
230
1.0
 70
     8
 71
     3
 72
    17
 73
    13
 74
     0
 42
0.000000001
 43
0.00000001
 40
9.0
 40
9.0
 40
9.0
 40
9.0
 40
10.0
 40
10.0
 40
10.0
 40
11.0
 40
11.0
 40
11.0
 40
12.0
 40
12.0
 40
12.0
 40
13.0
 40
13.0
 40
13.0
 40
13.0
 10
300.2549312885929
 20
27.49433829349534
 30
0.0
 10
300.1600043450263
 20
27.45496618208605
 30
0.0
 10
300.1052670665942
 20
27.43024796211264
 30
0.0
 10
300.049118383702
 20
27.40930924651266
 30
0.0
 10
299.7248336028849
 20
27.28837413924314
 30
0.0
 10
299.5426363543262
 20
27.0468754177367
 30
0.0
 10
299.5421628112159
 20
26.70494346873036
 30
0.0
 10
299.5395583241182
 20
24.8160968563317
 30
0.0
 10
299.5393769017586
 20
22.92724217217554
 30
0.0
 10
299.542119761843
 20
21.03839632851544
 30
0.0
 10
299.5427163031618
 20
20.62720562490344
 30
0.0
 10
299.739442715284
 20
20.41422423058344
 30
0.0
 10
300.2193725060648
 20
20.25412130424438
 30
0.0
  0
SPLINE
  5
291
330
1F
100
AcDbEntity
  8
0
  6
Continuous
 62
   179
370
     0
100
AcDbSpline
210
0.0
220
0.0
230
1.0
 70
    24
 71
     3
 72
     8
 73
     4
 74
     0
 42
0.000000001
 43
0.00000001
 40
8.0
 40
8.0
 40
8.0
 40
8.0
 40
9.0
 40
9.0
 40
9.0
 40
9.0
 10
297.7186989723292
 20
27.49433829349534
 30
0.0
 10
298.5854396840106
 20
27.49433829349534
 30
0.0
 10
299.3949493285535
 20
27.49433829349534
 30
0.0
 10
300.2549312885929
 20
27.49433829349534
 30
0.0
  0
SPLINE
  5
292
330
1F
100
AcDbEntity
  8
0
  6
Continuous
 62
   179
370
     0
100
AcDbSpline
210
0.0
220
0.0
230
1.0
 70
     8
 71
     3
 72
    14
 73
    10
 74
     0
 42
0.000000001
 43
0.00000001
 40
5.0
 40
5.0
 40
5.0
 40
5.0
 40
6.0
 40
6.0
 40
6.0
 40
7.0
 40
7.0
 40
7.0
 40
8.0
 40
8.0
 40
8.0
 40
8.0
 10
298.4851131190222
 20
24.16049564077468
 30
0.0
 10
298.4851131190222
 20
24.24049329222682
 30
0.0
 10
298.4851131190222
 20
24.32893553953832
 30
0.0
 10
298.4851131190222
 20
24.41737817121947
 30
0.0
 10
298.4851131190222
 20
25.09736416629037
 30
0.0
 10
298.4851377186649
 20
25.7773505457302
 30
0.0
 10
298.4851069691121
 20
26.45733654080182
 30
0.0
 10
298.4850762195593
 20
27.0944786077999
 30
0.0
 10
298.3648823686909
 20
27.26685790861022
 30
0.0
 10
297.7186989723292
 20
27.49433829349534
 30
0.0
  0
SPLINE
  5
293
330
1F
100
AcDbEntity
  8
0
  6
Continuous
 62
   179
370
     0
100
AcDbSpline
210
0.0
220
0.0
230
1.0
 70
    24
 71
     3
 72
     8
 73
     4
 74
     0
 42
0.000000001
 43
0.00000001
 40
4.0
 40
4.0
 40
4.0
 40
4.0
 40
5.0
 40
5.0
 40
5.0
 40
5.0
 10
295.5632814142282
 20
24.16049564077468
 30
0.0
 10
296.5292663066504
 20
24.16049564077468
 30
0.0
 10
297.4889290910767
 20
24.16049564077468
 30
0.0
 10
298.4851131190222
 20
24.16049564077468
 30
0.0
  0
SPLINE
  5
294
330
1F
100
AcDbEntity
  8
0
  6
Continuous
 62
   179
370
     0
100
AcDbSpline
210
0.0
220
0.0
230
1.0
 70
     8
 71
     3
 72
    14
 73
    10
 74
     0
 42
0.000000001
 43
0.00000001
 40
1.0
 40
1.0
 40
1.0
 40
1.0
 40
2.0
 40
2.0
 40
2.0
 40
3.0
 40
3.0
 40
3.0
 40
4.0
 40
4.0
 40
4.0
 40
4.0
 10
296.2715297073844
 20
27.50458020069891
 30
0.0
 10
295.9411319155254
 20
27.38780204855992
 30
0.0
 10
295.6648994604227
 20
27.22384581892186
 30
0.0
 10
295.5906023916358
 20
26.8479388815276
 30
0.0
 10
295.5792681065788
 20
26.79059327230427
 30
0.0
 10
295.5645605956114
 20
26.73240397223375
 30
0.0
 10
295.5644406723573
 20
26.67457866999212
 30
0.0
 10
295.5627432970579
 20
25.84365465270932
 30
0.0
 10
295.5632814142282
 20
25.01272602299438
 30
0.0
 10
295.5632814142282
 20
24.16049564077468
 30
0.0
  0
SPLINE
  5
295
330
1F
100
AcDbEntity
  8
0
  6
Continuous
 62
   179
370
     0
100
AcDbSpline
210
0.0
220
0.0
230
1.0
 70
    24
 71
     3
 72
     8
 73
     4
 74
     0
 42
0.000000001
 43
0.00000001
 40
0.0
 40
0.0
 40
0.0
 40
0.0
 40
1.0
 40
1.0
 40
1.0
 40
1.0
 10
293.841527870193
 20
27.50458020069891
 30
0.0
 10
294.6515264326192
 20
27.50458020069891
 30
0.0
 10
295.4615280700011
 20
27.50458020069891
 30
0.0
 10
296.2715297073844
 20
27.50458020069891
 30
0.0
  0
SPLINE
  5
296
330
1F
100
AcDbEntity
  8
0
  6
Continuous
 62
   179
370
     0
100
AcDbSpline
210
0.0
220
0.0
230
1.0
 70
     8
 71
     3
 72
    14
 73
    10
 74
     0
 42
0.000000001
 43
0.00000001
 40
17.0
 40
17.0
 40
17.0
 40
17.0
 40
18.0
 40
18.0
 40
18.0
 40
19.0
 40
19.0
 40
19.0
 40
20.0
 40
20.0
 40
20.0
 40
20.0
 10
257.7053577757453
 20
20.25910042553502
 30
0.0
 10
258.2139995287706
 20
20.39587059142628
 30
0.0
 10
258.4104423723632
 20
20.62446660851326
 30
0.0
 10
258.4124688639662
 20
21.16843695483816
 30
0.0
 10
258.4191609275175
 20
22.96470127704905
 30
0.0
 10
258.4149081683119
 20
24.76100595804667
 30
0.0
 10
258.4151320634913
 20
26.55729487989966
 30
0.0
 10
258.4151924094879
 20
27.04153921726714
 30
0.0
 10
258.2057453879524
 20
27.36893835120056
 30
0.0
 10
257.7192638284546
 20
27.51463645747964
 30
0.0
  0
SPLINE
  5
297
330
1F
100
AcDbEntity
  8
0
  6
Continuous
 62
   179
370
     0
100
AcDbSpline
210
0.0
220
0.0
230
1.0
 70
    24
 71
     3
 72
     8
 73
     4
 74
     0
 42
0.000000001
 43
0.00000001
 40
16.0
 40
16.0
 40
16.0
 40
16.0
 40
17.0
 40
17.0
 40
17.0
 40
17.0
 10
260.1134120717832
 20
20.25910042553502
 30
0.0
 10
259.3107272904223
 20
20.25910042553502
 30
0.0
 10
258.5080426051526
 20
20.25910042553502
 30
0.0
 10
257.7053577757453
 20
20.25910042553502
 30
0.0
  0
SPLINE
  5
298
330
1F
100
AcDbEntity
  8
0
  6
Continuous
 62
   179
370
     0
100
AcDbSpline
210
0.0
220
0.0
230
1.0
 70
     8
 71
     3
 72
    14
 73
    10
 74
     0
 42
0.000000001
 43
0.00000001
 40
13.0
 40
13.0
 40
13.0
 40
13.0
 40
14.0
 40
14.0
 40
14.0
 40
15.0
 40
15.0
 40
15.0
 40
16.0
 40
16.0
 40
16.0
 40
16.0
 10
259.4607286043899
 20
23.57138302951071
 30
0.0
 10
259.4539911852495
 20
23.51939476107442
 30
0.0
 10
259.4406539512153
 20
23.46398560492077
 30
0.0
 10
259.4405559370167
 20
23.40855338660287
 30
0.0
 10
259.4392191002215
 20
22.65310606781492
 30
0.0
 10
259.4366701545022
 20
21.89763799307775
 30
0.0
 10
259.4408326829897
 20
21.14221143023692
 30
0.0
 10
259.4435911100346
 20
20.64162793377141
 30
0.0
 10
259.6377614656041
 20
20.40079128856704
 30
0.0
 10
260.1134120717832
 20
20.25910042553502
 30
0.0
  0
SPLINE
  5
299
330
1F
100
AcDbEntity
  8
0
  6
Continuous
 62
   179
370
     0
100
AcDbSpline
210
0.0
220
0.0
230
1.0
 70
     8
 71
     3
 72
    20
 73
    16
 74
     0
 42
0.000000001
 43
0.00000001
 40
8.0
 40
8.0
 40
8.0
 40
8.0
 40
9.0
 40
9.0
 40
9.0
 40
10.0
 40
10.0
 40
10.0
 40
11.0
 40
11.0
 40
11.0
 40
12.0
 40
12.0
 40
12.0
 40
13.0
 40
13.0
 40
13.0
 40
13.0
 10
263.9554858268652
 20
20.24609336482204
 30
0.0
 10
263.8909540472192
 20
20.24131411562171
 30
0.0
 10
263.8264337986554
 20
20.23257048036439
 30
0.0
 10
263.7618904879274
 20
20.2323936704376
 30
0.0
 10
263.3170171088603
 20
20.2311736819415
 30
0.0
 10
262.8718696744063
 20
20.24067529366942
 30
0.0
 10
262.427398730108
 20
20.22724465786873
 30
0.0
 10
262.2549406335689
 20
20.22203337745712
 30
0.0
 10
262.1765046750147
 20
20.28890135435546
 30
0.0
 10
262.1067370153144
 20
20.43629933433309
 30
0.0
 10
261.7451764738302
 20
21.200166649339
 30
0.0
 10
261.378026816807
 20
21.9614848264415
 30
0.0
 10
261.0037355762117
 20
22.71920223094413
 30
0.0
 10
260.6054131759577
 20
23.52556773374194
 30
0.0
 10
260.3725694925604
 20
23.65083910446931
 30
0.0
 10
259.4607286043899
 20
23.57138302951071
 30
0.0
  0
SPLINE
  5
29A
330
1F
100
AcDbEntity
  8
0
  6
Continuous
 62
   179
370
     0
100
AcDbSpline
210
0.0
220
0.0
230
1.0
 70
     8
 71
     3
 72
    14
 73
    10
 74
     0
 42
0.000000001
 43
0.00000001
 40
5.0
 40
5.0
 40
5.0
 40
5.0
 40
6.0
 40
6.0
 40
6.0
 40
7.0
 40
7.0
 40
7.0
 40
8.0
 40
8.0
 40
8.0
 40
8.0
 10
261.0219043336847
 20
23.63056361828031
 30
0.0
 10
261.7521543160346
 20
23.35408286053947
 30
0.0
 10
262.033208300972
 20
22.73079019980925
 30
0.0
 10
262.3739921385617
 20
22.16106556577572
 30
0.0
 10
262.6276890153665
 20
21.7369354504649
 30
0.0
 10
262.8739775562312
 20
21.30835818112304
 30
0.0
 10
263.1292772534607
 20
20.88520667032095
 30
0.0
 10
263.3178377375433
 20
20.57267359973515
 30
0.0
 10
263.5606000734738
 20
20.32757122285868
 30
0.0
 10
263.9554858268652
 20
20.24609336482204
 30
0.0
  0
SPLINE
  5
29B
330
1F
100
AcDbEntity
  8
0
  6
Continuous
 62
   179
370
     0
100
AcDbSpline
210
0.0
220
0.0
230
1.0
 70
     8
 71
     3
 72
    20
 73
    16
 74
     0
 42
0.000000001
 43
0.00000001
 40
0.0
 40
0.0
 40
0.0
 40
0.0
 40
1.0
 40
1.0
 40
1.0
 40
2.0
 40
2.0
 40
2.0
 40
3.0
 40
3.0
 40
3.0
 40
4.0
 40
4.0
 40
4.0
 40
5.0
 40
5.0
 40
5.0
 40
5.0
 10
257.7192638284546
 20
27.51463645747964
 30
0.0
 10
258.1174764912431
 20
27.51463645747964
 30
0.0
 10
258.5159962651877
 20
27.52468175973202
 30
0.0
 10
258.913837050576
 20
27.51251762112626
 30
0.0
 10
259.7094699986221
 20
27.48819126576296
 30
0.0
 10
260.5093946232761
 20
27.49481913962259
 30
0.0
 10
261.2989762515715
 20
27.40941936834727
 30
0.0
 10
262.3071445332423
 20
27.30037799580671
 30
0.0
 10
262.8488620904764
 20
26.74717259793779
 30
0.0
 10
262.9131259646454
 20
25.88395655371281
 30
0.0
 10
262.9966382899503
 20
24.76217905347502
 30
0.0
 10
262.5617362220245
 20
24.08644572151765
 30
0.0
 10
261.5515161764629
 20
23.77337299628437
 30
0.0
 10
261.3945785321864
 20
23.72473719781129
 30
0.0
 10
261.2341319795987
 20
23.68742184709604
 30
0.0
 10
261.0219043336847
 20
23.63056361828031
 30
0.0
  0
SPLINE
  5
29C
330
1F
100
AcDbEntity
  8
0
  6
Continuous
 62
   179
370
     0
100
AcDbSpline
210
0.0
220
0.0
230
1.0
 70
     8
 71
     3
 72
    20
 73
    16
 74
     0
 42
0.000000001
 43
0.00000001
 40
1.0
 40
1.0
 40
1.0
 40
1.0
 40
2.0
 40
2.0
 40
2.0
 40
3.0
 40
3.0
 40
3.0
 40
4.0
 40
4.0
 40
4.0
 40
5.0
 40
5.0
 40
5.0
 40
6.0
 40
6.0
 40
6.0
 40
6.0
 10
259.4558811296203
 20
23.74052094311722
 30
0.0
 10
259.8313410453958
 20
23.74052094311722
 30
0.0
 10
260.1942113256325
 20
23.70804326575078
 30
0.0
 10
260.5489927438957
 20
23.74778168120397
 30
0.0
 10
261.1506181168165
 20
23.81517009427841
 30
0.0
 10
261.608259863196
 20
24.13857044109259
 30
0.0
 10
261.7413862071132
 20
24.73962656292206
 30
0.0
 10
261.8389787525148
 20
25.18024881635489
 30
0.0
 10
261.8719876284001
 20
25.65810454981779
 30
0.0
 10
261.8164781518313
 20
26.10478869315943
 30
0.0
 10
261.7108519014664
 20
26.95476897687368
 30
0.0
 10
261.3230227860075
 20
27.28690123567825
 30
0.0
 10
260.4792308497364
 20
27.35420547185249
 30
0.0
 10
260.1467440101549
 20
27.38072599997261
 30
0.0
 10
259.8103733099057
 20
27.35855230546976
 30
0.0
 10
259.4558811296203
 20
27.35855230546976
 30
0.0
  0
SPLINE
  5
29D
330
1F
100
AcDbEntity
  8
0
  6
Continuous
 62
   179
370
     0
100
AcDbSpline
210
0.0
220
0.0
230
1.0
 70
    24
 71
     3
 72
     8
 73
     4
 74
     0
 42
0.000000001
 43
0.00000001
 40
0.0
 40
0.0
 40
0.0
 40
0.0
 40
1.0
 40
1.0
 40
1.0
 40
1.0
 10
259.4558811296203
 20
27.35855230546976
 30
0.0
 10
259.4558811296203
 20
26.13864548795524
 30
0.0
 10
259.4558811296203
 20
24.94385548148867
 30
0.0
 10
259.4558811296203
 20
23.74052094311722
 30
0.0
  0
SPLINE
  5
29E
330
1F
100
AcDbEntity
  8
0
  6
Continuous
 62
   179
370
     0
100
AcDbSpline
210
0.0
220
0.0
230
1.0
 70
     8
 71
     3
 72
    14
 73
    10
 74
     0
 42
0.000000001
 43
0.00000001
 40
3.0
 40
3.0
 40
3.0
 40
3.0
 40
4.0
 40
4.0
 40
4.0
 40
5.0
 40
5.0
 40
5.0
 40
6.0
 40
6.0
 40
6.0
 40
6.0
 10
267.2336118279071
 20
20.23490821509466
 30
0.0
 10
266.3034040398354
 20
20.48709452013179
 30
0.0
 10
265.5792320909092
 20
21.34541139190241
 30
0.0
 10
265.4837047623288
 20
22.29272284982232
 30
0.0
 10
265.4259332718035
 20
22.86561853145873
 30
0.0
 10
265.4879189885011
 20
23.41465794151554
 30
0.0
 10
265.7739382574312
 20
23.92202056120339
 30
0.0
 10
266.225828300013
 20
24.723612195973
 30
0.0
 10
266.9062728477855
 20
25.1505801106106
 30
0.0
 10
267.7758432870376
 20
25.16748813643033
 30
0.0
  0
SPLINE
  5
29F
330
1F
100
AcDbEntity
  8
0
  6
Continuous
 62
   179
370
     0
100
AcDbSpline
210
0.0
220
0.0
230
1.0
 70
     8
 71
     3
 72
    14
 73
    10
 74
     0
 42
0.000000001
 43
0.00000001
 40
0.0
 40
0.0
 40
0.0
 40
0.0
 40
1.0
 40
1.0
 40
1.0
 40
2.0
 40
2.0
 40
2.0
 40
3.0
 40
3.0
 40
3.0
 40
3.0
 10
267.7758432870376
 20
25.16748813643033
 30
0.0
 10
268.6216197225536
 20
25.16033694362372
 30
0.0
 10
269.2464106552308
 20
24.83848445240961
 30
0.0
 10
269.7103360726668
 20
24.21398909980579
 30
0.0
 10
270.372934348899
 20
23.32205720159637
 30
0.0
 10
270.3723808569537
 20
22.03321892002499
 30
0.0
 10
269.7215189161771
 20
21.13111084177937
 30
0.0
 10
269.1482911393735
 20
20.33660467264827
 30
0.0
 10
268.1650050112285
 20
19.98240211471103
 30
0.0
 10
267.2336118279071
 20
20.23490821509466
 30
0.0
  0
SPLINE
  5
2A0
330
1F
100
AcDbEntity
  8
0
  6
Continuous
 62
   179
370
     0
100
AcDbSpline
210
0.0
220
0.0
230
1.0
 70
     8
 71
     3
 72
    17
 73
    13
 74
     0
 42
0.000000001
 43
0.00000001
 40
4.0
 40
4.0
 40
4.0
 40
4.0
 40
5.0
 40
5.0
 40
5.0
 40
6.0
 40
6.0
 40
6.0
 40
7.0
 40
7.0
 40
7.0
 40
8.0
 40
8.0
 40
8.0
 40
8.0
 10
266.4699528411193
 20
22.82140374989816
 30
0.0
 10
266.4269741915698
 20
22.16270989809668
 30
0.0
 10
266.5287029361534
 20
21.51524885782822
 30
0.0
 10
266.8746830637486
 20
20.93428603108956
 30
0.0
 10
267.1048165584612
 20
20.54785025472892
 30
0.0
 10
267.4153070900211
 20
20.27237193240103
 30
0.0
 10
267.9076604687568
 20
20.30531315927085
 30
0.0
 10
268.3388937306983
 20
20.33416469565678
 30
0.0
 10
268.6078393105943
 20
20.5966013640246
 30
0.0
 10
268.810867074766
 20
20.94311038392242
 30
0.0
 10
269.1208448575376
 20
21.47214721006825
 30
0.0
 10
269.202432645224
 20
22.05765558940843
 30
0.0
 10
269.218762963826
 20
22.68351122534059
 30
0.0
  0
SPLINE
  5
2A1
330
1F
100
AcDbEntity
  8
0
  6
Continuous
 62
   179
370
     0
100
AcDbSpline
210
0.0
220
0.0
230
1.0
 70
     8
 71
     3
 72
    17
 73
    13
 74
     0
 42
0.000000001
 43
0.00000001
 40
0.0
 40
0.0
 40
0.0
 40
0.0
 40
1.0
 40
1.0
 40
1.0
 40
2.0
 40
2.0
 40
2.0
 40
3.0
 40
3.0
 40
3.0
 40
4.0
 40
4.0
 40
4.0
 40
4.0
 10
269.218762963826
 20
22.68351122534059
 30
0.0
 10
269.195680043492
 20
23.34551372899321
 30
0.0
 10
269.0963628325642
 20
24.01168817818241
 30
0.0
 10
268.6683621173312
 20
24.58056604641373
 30
0.0
 10
268.2143234497673
 20
25.18405330473933
 30
0.0
 10
267.4640605055332
 20
25.19142205062979
 30
0.0
 10
267.0072628343699
 20
24.59213287496141
 30
0.0
 10
266.882078331128
 20
24.42789874624283
 30
0.0
 10
266.7597204805012
 20
24.2414496033099
 30
0.0
 10
266.7072125446274
 20
24.04607386528146
 30
0.0
 10
266.5993976948625
 20
23.64490674705059
 30
0.0
 10
266.4968487059656
 20
23.23360918874381
 30
0.0
 10
266.4699528411193
 20
22.82140374989816
 30
0.0
  0
SPLINE
  5
2A2
330
1F
100
AcDbEntity
  8
0
  6
Continuous
 62
   179
370
     0
100
AcDbSpline
210
0.0
220
0.0
230
1.0
 70
     8
 71
     3
 72
    17
 73
    13
 74
     0
 42
0.000000001
 43
0.00000001
 40
6.0
 40
6.0
 40
6.0
 40
6.0
 40
7.0
 40
7.0
 40
7.0
 40
8.0
 40
8.0
 40
8.0
 40
9.0
 40
9.0
 40
9.0
 40
10.0
 40
10.0
 40
10.0
 40
10.0
 10
311.6156486607861
 20
20.25320881127337
 30
0.0
 10
312.1185268426077
 20
20.41647125413319
 30
0.0
 10
312.2872188877024
 20
20.63608302071405
 30
0.0
 10
312.2876555313485
 20
21.16871754450475
 30
0.0
 10
312.2890700107628
 20
22.88922803787955
 30
0.0
 10
312.2877662297369
 20
24.60974045310045
 30
0.0
 10
312.2871819882395
 20
26.33025248395311
 30
0.0
 10
312.2871512386867
 20
26.42255802816857
 30
0.0
 10
312.2845313768121
 20
26.51487279724974
 30
0.0
 10
312.2823973578678
 20
26.60716642601487
 30
0.0
 10
312.2683694120104
 20
27.21300429544448
 30
0.0
 10
312.2096131670664
 20
27.27631108979181
 30
0.0
 10
311.6691528821608
 20
27.32445797038016
 30
0.0
  0
SPLINE
  5
2A3
330
1F
100
AcDbEntity
  8
0
  6
Continuous
 62
   179
370
     0
100
AcDbSpline
210
0.0
220
0.0
230
1.0
 70
    24
 71
     3
 72
     8
 73
     4
 74
     0
 42
0.000000001
 43
0.00000001
 40
5.0
 40
5.0
 40
5.0
 40
5.0
 40
6.0
 40
6.0
 40
6.0
 40
6.0
 10
313.8867245107604
 20
20.25320881127337
 30
0.0
 10
313.0865658051385
 20
20.25320881127337
 30
0.0
 10
312.3511103079174
 20
20.25320881127337
 30
0.0
 10
311.6156486607861
 20
20.25320881127337
 30
0.0
  0
SPLINE
  5
2A4
330
1F
100
AcDbEntity
  8
0
  6
Continuous
 62
   179
370
     0
100
AcDbSpline
210
0.0
220
0.0
230
1.0
 70
     8
 71
     3
 72
    17
 73
    13
 74
     0
 42
0.000000001
 43
0.00000001
 40
1.0
 40
1.0
 40
1.0
 40
1.0
 40
2.0
 40
2.0
 40
2.0
 40
3.0
 40
3.0
 40
3.0
 40
4.0
 40
4.0
 40
4.0
 40
5.0
 40
5.0
 40
5.0
 40
5.0
 10
313.1781318226163
 20
27.87703492426926
 30
0.0
 10
313.1781318226163
 20
27.83642744958889
 30
0.0
 10
313.1781318226163
 20
27.75161518695077
 30
0.0
 10
313.1781318226163
 20
27.66680273212925
 30
0.0
 10
313.1781318226163
 20
25.57700952371036
 30
0.0
 10
313.1781256727049
 20
23.48721689184593
 30
0.0
 10
313.1781441224363
 20
21.39742349124222
 30
0.0
 10
313.1781441224363
 20
21.32188875296783
 30
0.0
 10
313.1771847363981
 20
21.24633325874564
 30
0.0
 10
313.1786115156352
 20
21.17082388885262
 30
0.0
 10
313.1888880160859
 20
20.62648762285203
 30
0.0
 10
313.3266152617988
 20
20.4348325806782
 30
0.0
 10
313.8867245107604
 20
20.25320881127337
 30
0.0
  0
SPLINE
  5
2A5
330
1F
100
AcDbEntity
  8
0
  6
Continuous
 62
   179
370
     0
100
AcDbSpline
210
0.0
220
0.0
230
1.0
 70
     8
 71
     3
 72
     8
 73
     4
 74
     0
 42
0.000000001
 43
0.00000001
 40
0.0
 40
0.0
 40
0.0
 40
0.0
 40
1.0
 40
1.0
 40
1.0
 40
1.0
 10
311.6691528821608
 20
27.32445797038016
 30
0.0
 10
312.1410908642435
 20
27.49727756634619
 30
0.0
 10
312.6458878181427
 20
27.68213176842718
 30
0.0
 10
313.1781318226163
 20
27.87703492426926
 30
0.0
  0
SPLINE
  5
2A6
330
1F
100
AcDbEntity
  8
0
  6
Continuous
 62
   179
370
     0
100
AcDbSpline
210
0.0
220
0.0
230
1.0
 70
     8
 71
     3
 72
    14
 73
    10
 74
     0
 42
0.000000001
 43
0.00000001
 40
6.0
 40
6.0
 40
6.0
 40
6.0
 40
7.0
 40
7.0
 40
7.0
 40
8.0
 40
8.0
 40
8.0
 40
9.0
 40
9.0
 40
9.0
 40
9.0
 10
278.4819664915176
 20
27.88441039662488
 30
0.0
 10
278.4819664915176
 20
27.83987735719566
 30
0.0
 10
278.4819649540404
 20
27.75219577693941
 30
0.0
 10
278.4819649540404
 20
27.66451419668386
 30
0.0
 10
278.4819664915176
 20
25.48269219002111
 30
0.0
 10
278.4816605334703
 20
23.30086999117493
 30
0.0
 10
278.4822124879378
 20
21.11904779232805
 30
0.0
 10
278.4823339486704
 20
20.63637283524633
 30
0.0
 10
278.6550987719953
 20
20.40793364087759
 30
0.0
 10
279.1055120673172
 20
20.2549177176549
 30
0.0
  0
SPLINE
  5
2A7
330
1F
100
AcDbEntity
  8
0
  6
Continuous
 62
   179
370
     0
100
AcDbSpline
210
0.0
220
0.0
230
1.0
 70
     8
 71
     3
 72
     8
 73
     4
 74
     0
 42
0.000000001
 43
0.00000001
 40
5.0
 40
5.0
 40
5.0
 40
5.0
 40
6.0
 40
6.0
 40
6.0
 40
6.0
 10
276.9846800684063
 20
27.3296354262854
 30
0.0
 10
277.4478728777531
 20
27.5012575193644
 30
0.0
 10
277.9568994326009
 20
27.68986239811422
 30
0.0
 10
278.4819664915176
 20
27.88441039662488
 30
0.0
  0
SPLINE
  5
2A8
330
1F
100
AcDbEntity
  8
0
  6
Continuous
 62
   179
370
     0
100
AcDbSpline
210
0.0
220
0.0
230
1.0
 70
     8
 71
     3
 72
    17
 73
    13
 74
     0
 42
0.000000001
 43
0.00000001
 40
1.0
 40
1.0
 40
1.0
 40
1.0
 40
2.0
 40
2.0
 40
2.0
 40
3.0
 40
3.0
 40
3.0
 40
4.0
 40
4.0
 40
4.0
 40
5.0
 40
5.0
 40
5.0
 40
5.0
 10
276.9460186560295
 20
20.2549177176549
 30
0.0
 10
277.4179566381115
 20
20.4199152040148
 30
0.0
 10
277.5770686601204
 20
20.6342380475635
 30
0.0
 10
277.5771993457187
 20
21.13377529050539
 30
0.0
 10
277.5776652014392
 20
22.92958298186009
 30
0.0
 10
277.5773700057348
 20
24.72538990447762
 30
0.0
 10
277.577359243392
 20
26.52119721146337
 30
0.0
 10
277.577359243392
 20
26.53798031722657
 30
0.0
 10
277.5773838430334
 20
26.55476419172763
 30
0.0
 10
277.5772915943764
 20
26.57154691311976
 30
0.0
 10
277.5738092075535
 20
27.20775573119973
 30
0.0
 10
277.5366914227135
 20
27.25167954511983
 30
0.0
 10
276.9846800684063
 20
27.3296354262854
 30
0.0
  0
SPLINE
  5
2A9
330
1F
100
AcDbEntity
  8
0
  6
Continuous
 62
   179
370
     0
100
AcDbSpline
210
0.0
220
0.0
230
1.0
 70
    24
 71
     3
 72
     8
 73
     4
 74
     0
 42
0.000000001
 43
0.00000001
 40
0.0
 40
0.0
 40
0.0
 40
0.0
 40
1.0
 40
1.0
 40
1.0
 40
1.0
 10
279.1055120673172
 20
20.2549177176549
 30
0.0
 10
278.3856819552066
 20
20.2549177176549
 30
0.0
 10
277.6658503056181
 20
20.2549177176549
 30
0.0
 10
276.9460186560295
 20
20.2549177176549
 30
0.0
  0
SPLINE
  5
2AA
330
1F
100
AcDbEntity
  8
0
  6
Continuous
 62
   179
370
     0
100
AcDbSpline
210
0.0
220
0.0
230
1.0
 70
     8
 71
     3
 72
    20
 73
    16
 74
     0
 42
0.000000001
 43
0.00000001
 40
5.0
 40
5.0
 40
5.0
 40
5.0
 40
6.0
 40
6.0
 40
6.0
 40
7.0
 40
7.0
 40
7.0
 40
8.0
 40
8.0
 40
8.0
 40
9.0
 40
9.0
 40
9.0
 40
10.0
 40
10.0
 40
10.0
 40
10.0
 10
307.178408284104
 20
20.25443648715803
 30
0.0
 10
307.3179589782804
 20
20.36177625633667
 30
0.0
 10
307.5293898264143
 20
20.45652254628292
 30
0.0
 10
307.6283941606454
 20
20.61954360515536
 30
0.0
 10
307.7285516030971
 20
20.78446498637255
 30
0.0
 10
307.7490584796685
 20
21.01681475508336
 30
0.0
 10
307.7500732149022
 20
21.21990094340409
 30
0.0
 10
307.7587445887104
 20
22.95682170421714
 30
0.0
 10
307.7550484924979
 20
24.69380511724257
 30
0.0
 10
307.7550361926765
 20
26.43077008053731
 30
0.0
 10
307.7550361926765
 20
26.49789904426262
 30
0.0
 10
307.7552944889174
 20
26.56503146731187
 30
0.0
 10
307.7547502218385
 20
26.63215658734291
 30
0.0
 10
307.7501131893193
 20
27.20350460556406
 30
0.0
 10
307.6774858212348
 20
27.28280885460759
 30
0.0
 10
307.1608133901539
 20
27.32540717062984
 30
0.0
  0
SPLINE
  5
2AB
330
1F
100
AcDbEntity
  8
0
  6
Continuous
 62
   179
370
     0
100
AcDbSpline
210
0.0
220
0.0
230
1.0
 70
    24
 71
     3
 72
     8
 73
     4
 74
     0
 42
0.000000001
 43
0.00000001
 40
4.0
 40
4.0
 40
4.0
 40
4.0
 40
5.0
 40
5.0
 40
5.0
 40
5.0
 10
309.3620693061908
 20
20.25443648715802
 30
0.0
 10
308.5715044609524
 20
20.25443648715802
 30
0.0
 10
307.8517004859624
 20
20.25443648715802
 30
0.0
 10
307.178408284104
 20
20.25443648715803
 30
0.0
  0
SPLINE
  5
2AC
330
1F
100
AcDbEntity
  8
0
  6
Continuous
 62
   179
370
     0
100
AcDbSpline
210
0.0
220
0.0
230
1.0
 70
     8
 71
     3
 72
    14
 73
    10
 74
     0
 42
0.000000001
 43
0.00000001
 40
1.0
 40
1.0
 40
1.0
 40
1.0
 40
2.0
 40
2.0
 40
2.0
 40
3.0
 40
3.0
 40
3.0
 40
4.0
 40
4.0
 40
4.0
 40
4.0
 10
308.65963267846
 20
27.88697759989075
 30
0.0
 10
308.65963267846
 20
27.83196991758182
 30
0.0
 10
308.65963267846
 20
27.74275854708867
 30
0.0
 10
308.65963267846
 20
27.65354698440997
 30
0.0
 10
308.65963267846
 20
25.48863300356693
 30
0.0
 10
308.6595035303402
 20
23.32371921490944
 30
0.0
 10
308.6597187772069
 20
21.15880542625192
 30
0.0
 10
308.6597679764911
 20
20.6374237012035
 30
0.0
 10
308.807415027844
 20
20.43200746554105
 30
0.0
 10
309.3620693061908
 20
20.25443648715802
 30
0.0
  0
SPLINE
  5
2AD
330
1F
100
AcDbEntity
  8
0
  6
Continuous
 62
   179
370
     0
100
AcDbSpline
210
0.0
220
0.0
230
1.0
 70
     8
 71
     3
 72
     8
 73
     4
 74
     0
 42
0.000000001
 43
0.00000001
 40
0.0
 40
0.0
 40
0.0
 40
0.0
 40
1.0
 40
1.0
 40
1.0
 40
1.0
 10
307.1608133901539
 20
27.32540717062984
 30
0.0
 10
307.6336123597077
 20
27.50255342081908
 30
0.0
 10
308.1420254609839
 20
27.69304267058278
 30
0.0
 10
308.65963267846
 20
27.88697759989075
 30
0.0
  0
SPLINE
  5
2AE
330
1F
100
AcDbEntity
  8
0
  6
Continuous
 62
   179
370
     0
100
AcDbSpline
210
0.0
220
0.0
230
1.0
 70
     8
 71
     3
 72
    14
 73
    10
 74
     0
 42
0.000000001
 43
0.00000001
 40
6.0
 40
6.0
 40
6.0
 40
6.0
 40
7.0
 40
7.0
 40
7.0
 40
8.0
 40
8.0
 40
8.0
 40
9.0
 40
9.0
 40
9.0
 40
9.0
 10
272.426404840594
 20
20.2590796695872
 30
0.0
 10
273.0059923935969
 20
20.37668517687364
 30
0.0
 10
273.0805785081768
 20
20.81042375860576
 30
0.0
 10
273.0783845276048
 20
21.29462927466367
 30
0.0
 10
273.0702866329497
 20
23.08209538116094
 30
0.0
 10
273.0685846452182
 20
24.86961337752774
 30
0.0
 10
273.0527409382852
 20
26.65700799131587
 30
0.0
 10
273.0476395875227
 20
27.23250104921648
 30
0.0
 10
272.9826104338649
 20
27.28380667758701
 30
0.0
 10
272.4594267850394
 20
27.32510813123116
 30
0.0
  0
SPLINE
  5
2AF
330
1F
100
AcDbEntity
  8
0
  6
Continuous
 62
   179
370
     0
100
AcDbSpline
210
0.0
220
0.0
230
1.0
 70
    24
 71
     3
 72
     8
 73
     4
 74
     0
 42
0.000000001
 43
0.00000001
 40
5.0
 40
5.0
 40
5.0
 40
5.0
 40
6.0
 40
6.0
 40
6.0
 40
6.0
 10
274.6224502449564
 20
20.2590796695872
 30
0.0
 10
273.8904356226618
 20
20.2590796695872
 30
0.0
 10
273.1584194628893
 20
20.2590796695872
 30
0.0
 10
272.426404840594
 20
20.2590796695872
 30
0.0
  0
SPLINE
  5
2B0
330
1F
100
AcDbEntity
  8
0
  6
Continuous
 62
   179
370
     0
100
AcDbSpline
210
0.0
220
0.0
230
1.0
 70
     8
 71
     3
 72
    17
 73
    13
 74
     0
 42
0.000000001
 43
0.00000001
 40
1.0
 40
1.0
 40
1.0
 40
1.0
 40
2.0
 40
2.0
 40
2.0
 40
3.0
 40
3.0
 40
3.0
 40
4.0
 40
4.0
 40
4.0
 40
5.0
 40
5.0
 40
5.0
 40
5.0
 10
273.9540333846496
 20
27.87257450949275
 30
0.0
 10
273.9540333846496
 20
27.8074859707617
 30
0.0
 10
273.9540333846496
 20
27.71082379150879
 30
0.0
 10
273.9540333846496
 20
27.61416161225588
 30
0.0
 10
273.9540349221275
 20
25.51596282147274
 30
0.0
 10
273.9539872603212
 20
23.41776441505853
 30
0.0
 10
273.9542086570993
 20
21.31956562427539
 30
0.0
 10
273.954217881965
 20
21.22727776105204
 30
0.0
 10
273.9506540088286
 20
21.13443409966764
 30
0.0
 10
273.9590578615309
 20
21.04279505200226
 30
0.0
 10
274.0006220316647
 20
20.58964274029083
 30
0.0
 10
274.1836818051716
 20
20.38260600321025
 30
0.0
 10
274.6224502449564
 20
20.2590796695872
 30
0.0
  0
SPLINE
  5
2B1
330
1F
100
AcDbEntity
  8
0
  6
Continuous
 62
   179
370
     0
100
AcDbSpline
210
0.0
220
0.0
230
1.0
 70
     8
 71
     3
 72
     8
 73
     4
 74
     0
 42
0.000000001
 43
0.00000001
 40
0.0
 40
0.0
 40
0.0
 40
0.0
 40
1.0
 40
1.0
 40
1.0
 40
1.0
 10
272.4594267850394
 20
27.32510813123116
 30
0.0
 10
272.932774634105
 20
27.4984925580398
 30
0.0
 10
273.4351023989377
 20
27.68249307566929
 30
0.0
 10
273.9540333846496
 20
27.87257450949275
 30
0.0
  0
SPLINE
  5
2B2
330
1F
100
AcDbEntity
  8
0
  6
Continuous
 62
   179
370
     0
100
AcDbSpline
210
0.0
220
0.0
230
1.0
 70
     8
 71
     3
 72
    17
 73
    13
 74
     0
 42
0.000000001
 43
0.00000001
 40
6.0
 40
6.0
 40
6.0
 40
6.0
 40
7.0
 40
7.0
 40
7.0
 40
8.0
 40
8.0
 40
8.0
 40
9.0
 40
9.0
 40
9.0
 40
10.0
 40
10.0
 40
10.0
 40
10.0
 10
304.1706223551654
 20
25.06377258638473
 30
0.0
 10
304.1727133247369
 20
25.01792115989102
 30
0.0
 10
304.1800409430993
 20
24.93136078519359
 30
0.0
 10
304.1800932173391
 20
24.84479541369365
 30
0.0
 10
304.1808527312862
 20
23.65282014439031
 30
0.0
 10
304.1797703470369
 20
22.46084295323946
 30
0.0
 10
304.1818797663412
 20
21.26887114326077
 30
0.0
 10
304.1821011631179
 20
21.14380579453512
 30
0.0
 10
304.1922454404932
 20
21.01764883669525
 30
0.0
 10
304.2107535961514
 20
20.89393877449616
 30
0.0
 10
304.2621822227331
 20
20.55023795748124
 30
0.0
 10
304.4578262506061
 20
20.33981031349822
 30
0.0
 10
304.8038079156778
 20
20.2539775500868
 30
0.0
  0
SPLINE
  5
2B3
330
1F
100
AcDbEntity
  8
0
  6
Continuous
 62
   179
370
     0
100
AcDbSpline
210
0.0
220
0.0
230
1.0
 70
     8
 71
     3
 72
     8
 73
     4
 74
     0
 42
0.000000001
 43
0.00000001
 40
5.0
 40
5.0
 40
5.0
 40
5.0
 40
6.0
 40
6.0
 40
6.0
 40
6.0
 10
302.7125031745686
 20
24.50968064047994
 30
0.0
 10
303.1898069535648
 20
24.69105879783349
 30
0.0
 10
303.6729961969132
 20
24.874672832025
 30
0.0
 10
304.1706223551654
 20
25.06377258638473
 30
0.0
  0
SPLINE
  5
2B4
330
1F
100
AcDbEntity
  8
0
  6
Continuous
 62
   179
370
     0
100
AcDbSpline
210
0.0
220
0.0
230
1.0
 70
     8
 71
     3
 72
    17
 73
    13
 74
     0
 42
0.000000001
 43
0.00000001
 40
1.0
 40
1.0
 40
1.0
 40
1.0
 40
2.0
 40
2.0
 40
2.0
 40
3.0
 40
3.0
 40
3.0
 40
4.0
 40
4.0
 40
4.0
 40
5.0
 40
5.0
 40
5.0
 40
5.0
 10
302.6973344203136
 20
20.2539775500868
 30
0.0
 10
303.1321361678242
 20
20.3494649042487
 30
0.0
 10
303.2897768237453
 20
20.65853557522151
 30
0.0
 10
303.2916556214044
 20
21.04785181591346
 30
0.0
 10
303.296603224403
 20
22.071496731734
 30
0.0
 10
303.2829750227277
 20
23.09531768874206
 30
0.0
 10
303.2668591822546
 20
24.11891186780057
 30
0.0
 10
303.2632153602819
 20
24.35030186610297
 30
0.0
 10
303.1332831261333
 20
24.4918735746181
 30
0.0
 10
302.8846514693661
 20
24.49557889569631
 30
0.0
 10
302.8224697242704
 20
24.49650561033552
 30
0.0
 10
302.7604109773859
 20
24.50557288463289
 30
0.0
 10
302.7125031745686
 20
24.50968064047994
 30
0.0
  0
SPLINE
  5
2B5
330
1F
100
AcDbEntity
  8
0
  6
Continuous
 62
   179
370
     0
100
AcDbSpline
210
0.0
220
0.0
230
1.0
 70
    24
 71
     3
 72
     8
 73
     4
 74
     0
 42
0.000000001
 43
0.00000001
 40
0.0
 40
0.0
 40
0.0
 40
0.0
 40
1.0
 40
1.0
 40
1.0
 40
1.0
 10
304.8038079156778
 20
20.2539775500868
 30
0.0
 10
304.1016511088749
 20
20.2539775500868
 30
0.0
 10
303.3994912271164
 20
20.2539775500868
 30
0.0
 10
302.6973344203136
 20
20.2539775500868
 30
0.0
  0
SPLINE
  5
2B6
330
1F
100
AcDbEntity
  8
0
  6
Continuous
 62
   179
370
     0
100
AcDbSpline
210
0.0
220
0.0
230
1.0
 70
     8
 71
     3
 72
    11
 73
     7
 74
     0
 42
0.000000001
 43
0.00000001
 40
2.0
 40
2.0
 40
2.0
 40
2.0
 40
3.0
 40
3.0
 40
3.0
 40
4.0
 40
4.0
 40
4.0
 40
4.0
 10
303.0570519104932
 20
26.35430478392947
 30
0.0
 10
303.0511172468595
 20
26.75330175249256
 30
0.0
 10
303.3266947364936
 20
27.05519259513757
 30
0.0
 10
303.6924299141011
 20
27.05034857969325
 30
0.0
 10
304.0507636744179
 20
27.04560238626284
 30
0.0
 10
304.3255386007336
 20
26.75299425696746
 30
0.0
 10
304.327448147944
 20
26.37412133304796
 30
0.0
  0
SPLINE
  5
2B7
330
1F
100
AcDbEntity
  8
0
  6
Continuous
 62
   179
370
     0
100
AcDbSpline
210
0.0
220
0.0
230
1.0
 70
     8
 71
     3
 72
    11
 73
     7
 74
     0
 42
0.000000001
 43
0.00000001
 40
0.0
 40
0.0
 40
0.0
 40
0.0
 40
1.0
 40
1.0
 40
1.0
 40
2.0
 40
2.0
 40
2.0
 40
2.0
 10
304.327448147944
 20
26.37412133304796
 30
0.0
 10
304.3293945946187
 20
25.98752450590587
 30
0.0
 10
304.0680572227529
 20
25.70828897263022
 30
0.0
 10
303.6993639381942
 20
25.70301926806731
 30
0.0
 10
303.3259905717408
 20
25.69768229885988
 30
0.0
 10
303.0628482011429
 20
25.96449808787493
 30
0.0
 10
303.0570519104932
 20
26.35430478392947
 30
0.0
  0
MTEXT
  5
2B9
330
1F
100
AcDbEntity
  8
0
  6
Continuous
 62
     7
370
     0
100
AcDbMText
 10
257.9690483454
 20
40.3166048975
 30
0.0
 40
3.7041666667
 41
0.0
 71
     1
 72
     1
  1
ANTTL_01_Superordinate Antler Table Lamp
  7
SLDTEXTSTYLE0
 73
     1
 44
1.0
  0
MTEXT
  5
2BA
330
1F
100
AcDbEntity
  8
0
  6
Continuous
 62
     7
370
     0
100
AcDbMText
 10
258.6105142387
 20
44.3546043689
 30
0.0
 40
1.5875
 41
0.0
 71
     1
 72
     1
  1
\LDESCRIPTION
  7
SLDTEXTSTYLE0
 73
     1
 44
1.0
  0
INSERT
  5
2C1
330
1F
100
AcDbEntity
  8
0
  6
Continuous
 62
     7
370
     0
100
AcDbBlockReference
  2
SW_NOTE_0
 10
317.1049495712
 20
24.1495665419
 30
0.0
  0
MTEXT
  5
2C2
330
1F
100
AcDbEntity
  8
0
  6
Continuous
 62
     7
370
     0
100
AcDbMText
 10
273.8048790106
 20
32.371143085
 30
0.0
 40
1.5875
 41
0.0
 71
     2
 72
     1
  1
\LSCALE
  7
SLDTEXTSTYLE0
 73
     1
 44
1.0
  0
MTEXT
  5
2C3
330
1F
100
AcDbEntity
  8
0
  6
Continuous
 62
     7
370
     0
100
AcDbMText
 10
278.3960862508
 20
33.4394651033
 30
0.0
 40
2.6458333333
 41
0.0
 71
     1
 72
     1
  1
1:4
  7
SLDTEXTSTYLE0
 73
     1
 44
1.0
  0
MTEXT
  5
2C4
330
1F
100
AcDbEntity
  8
0
  6
Continuous
 62
     7
370
     0
100
AcDbMText
 10
261.4913139704
 20
32.371143085
 30
0.0
 40
1.5875
 41
0.0
 71
     2
 72
     1
  1
\LSIZE
  7
SLDTEXTSTYLE0
 73
     1
 44
1.0
  0
MTEXT
  5
2C5
330
1F
100
AcDbEntity
  8
0
  6
Continuous
 62
     7
370
     0
100
AcDbMText
 10
264.7495209372
 20
33.4394651033
 30
0.0
 40
2.6458333333
 41
0.0
 71
     1
 72
     1
  1
B
  7
SLDTEXTSTYLE0
 73
     1
 44
1.0
  0
INSERT
  5
2CC
330
1F
100
AcDbEntity
  8
0
  6
Continuous
 62
     7
370
     0
100
AcDbBlockReference
  2
SW_NOTE_1
 10
258.0900415808
 20
15.6806800849
 30
0.0
  0
INSERT
  5
2CD
330
1F
100
AcDbEntity
  8
FORMAT
100
AcDbBlockReference
  2
BLOCK 2
 10
107.0551860632
 20
140.8462815769
 30
0.0
 41
0.05
 42
0.05
 43
0.05
  0
INSERT
  5
2CE
330
1F
100
AcDbEntity
  8
FORMAT
100
AcDbBlockReference
  2
BLOCK 11
 10
111.5763734087
 20
130.1172459982
 30
0.0
 41
0.05
 42
0.05
 43
0.05
  0
INSERT
  5
2CF
330
1F
100
AcDbEntity
  8
FORMAT
100
AcDbBlockReference
  2
BLOCK 17
 10
139.5112054189
 20
133.5259428459
 30
0.0
 41
0.055
 42
0.055
 43
0.055
  0
ENDSEC
  0
SECTION
  2
OBJECTS
  0
DICTIONARY
  5
C
330
0
100
AcDbDictionary
281
     1
  3
ACAD_GROUP
350
D
  3
ACAD_LAYOUT
350
1A
  3
ACAD_MLINESTYLE
350
17
  3
ACAD_PLOTSETTINGS
350
19
  3
ACAD_PLOTSTYLENAME
350
E
  3
ACAD_SCALELIST
350
47
  0
DICTIONARY
  5
D
102
{ACAD_REACTORS
330
C
102
}
330
C
100
AcDbDictionary
281
     1
  0
DICTIONARY
  5
1A
102
{ACAD_REACTORS
330
C
102
}
330
C
100
AcDbDictionary
281
     1
  3
Layout1
350
1E
  3
Layout2
350
26
  3
Model
350
22
  0
DICTIONARY
  5
17
102
{ACAD_REACTORS
330
C
102
}
330
C
100
AcDbDictionary
281
     1
  3
Standard
350
18
  0
DICTIONARY
  5
19
102
{ACAD_REACTORS
330
C
102
}
330
C
100
AcDbDictionary
281
     1
  0
ACDBDICTIONARYWDFLT
  5
E
102
{ACAD_REACTORS
330
C
102
}
330
C
100
AcDbDictionary
281
     1
  3
Normal
350
F
100
AcDbDictionaryWithDefault
340
F
  0
DICTIONARY
  5
47
102
{ACAD_REACTORS
330
C
102
}
330
C
100
AcDbDictionary
281
     1
  3
A0
350
48
  3
A1
350
49
  3
A2
350
4A
  3
A3
350
4B
  3
A4
350
4C
  3
A5
350
4D
  3
A6
350
4E
  3
A7
350
4F
  3
A8
350
50
  3
A9
350
51
  3
B0
350
52
  3
B1
350
53
  3
B2
350
54
  3
B3
350
55
  3
B4
350
56
  3
B5
350
57
  3
B6
350
58
  3
B7
350
59
  3
B8
350
5A
  3
B9
350
5B
  3
C0
350
5C
  3
C1
350
5D
  3
C2
350
5E
  3
C3
350
5F
  3
C4
350
60
  3
C5
350
61
  3
C6
350
62
  3
C7
350
63
  3
C8
350
64
  3
C9
350
65
  3
D0
350
66
  3
D1
350
67
  3
D2
350
68
  0
LAYOUT
  5
1E
102
{ACAD_REACTORS
330
1A
102
}
330
1A
100
AcDbPlotSettings
  1

  2
none_device
  4

  6

 40
0.0
 41
0.0
 42
0.0
 43
0.0
 44
0.0
 45
0.0
 46
0.0
 47
0.0
 48
0.0
 49
0.0
140
0.0
141
0.0
142
1.0
143
1.0
 70
   688
 72
     1
 73
     0
 74
     5
  7

 75
    16
147
1.0
148
0.0
149
0.0
100
AcDbLayout
  1
Layout1
 70
     1
 71
     1
 10
0.0
 20
0.0
 11
420.0
 21
297.0
 12
0.0
 22
0.0
 32
0.0
 14
1.0000000000E+20
 24
1.0000000000E+20
 34
1.0000000000E+20
 15
-1.0000000000E+20
 25
-1.0000000000E+20
 35
-1.0000000000E+20
146
0.0
 13
0.0
 23
0.0
 33
0.0
 16
1.0
 26
0.0
 36
0.0
 17
0.0
 27
1.0
 37
0.0
 76
     0
330
1B
  0
LAYOUT
  5
26
102
{ACAD_REACTORS
330
1A
102
}
330
1A
100
AcDbPlotSettings
  1

  2
none_device
  4

  6

 40
0.0
 41
0.0
 42
0.0
 43
0.0
 44
0.0
 45
0.0
 46
0.0
 47
0.0
 48
0.0
 49
0.0
140
0.0
141
0.0
142
1.0
143
1.0
 70
   688
 72
     1
 73
     0
 74
     5
  7

 75
    16
147
1.0
148
0.0
149
0.0
100
AcDbLayout
  1
Layout2
 70
     1
 71
     2
 10
0.0
 20
0.0
 11
0.0
 21
0.0
 12
0.0
 22
0.0
 32
0.0
 14
0.0
 24
0.0
 34
0.0
 15
0.0
 25
0.0
 35
0.0
146
0.0
 13
0.0
 23
0.0
 33
0.0
 16
1.0
 26
0.0
 36
0.0
 17
0.0
 27
1.0
 37
0.0
 76
     0
330
23
  0
LAYOUT
  5
22
102
{ACAD_REACTORS
330
1A
102
}
330
1A
100
AcDbPlotSettings
  1

  2
none_device
  4
Letter_(8.50_x_11.00_Inches)
  6

 40
6.35
 41
6.35
 42
6.35000508
 43
6.35000508
 44
215.9
 45
279.4
 46
0.0
 47
0.0
 48
0.0
 49
0.0
140
0.0
141
0.0
142
1.0
143
1.0
 70
  1712
 72
     1
 73
     0
 74
     0
  7

 75
     0
147
1.0
148
0.0
149
0.0
100
AcDbLayout
  1
Model
 70
     1
 71
     0
 10
0.0
 20
0.0
 11
431.8
 21
279.4
 12
0.0
 22
0.0
 32
0.0
 14
0.0
 24
0.0
 34
0.0
 15
431.8
 25
279.4
 35
0.0
146
0.0
 13
0.0
 23
0.0
 33
0.0
 16
1.0
 26
0.0
 36
0.0
 17
0.0
 27
1.0
 37
0.0
 76
     0
330
1F
331
29
  0
MLINESTYLE
  5
18
102
{ACAD_REACTORS
330
17
102
}
330
17
100
AcDbMlineStyle
  2
Standard
 70
     0
  3

 62
   256
 51
90.0
 52
90.0
 71
     2
 49
0.5
 62
   256
  6
BYLAYER
 49
-0.5
 62
   256
  6
BYLAYER
  0
ACDBPLACEHOLDER
  5
F
102
{ACAD_REACTORS
330
E
102
}
330
E
  0
SCALE
  5
48
102
{ACAD_REACTORS
330
47
102
}
330
47
100
AcDbScale
 70
     0
300
1:1
140
1.0
141
1.0
290
     1
  0
SCALE
  5
49
102
{ACAD_REACTORS
330
47
102
}
330
47
100
AcDbScale
 70
     0
300
1:2
140
1.0
141
2.0
290
     0
  0
SCALE
  5
4A
102
{ACAD_REACTORS
330
47
102
}
330
47
100
AcDbScale
 70
     0
300
1:4
140
1.0
141
4.0
290
     0
  0
SCALE
  5
4B
102
{ACAD_REACTORS
330
47
102
}
330
47
100
AcDbScale
 70
     0
300
1:5
140
1.0
141
5.0
290
     0
  0
SCALE
  5
4C
102
{ACAD_REACTORS
330
47
102
}
330
47
100
AcDbScale
 70
     0
300
1:8
140
1.0
141
8.0
290
     0
  0
SCALE
  5
4D
102
{ACAD_REACTORS
330
47
102
}
330
47
100
AcDbScale
 70
     0
300
1:10
140
1.0
141
10.0
290
     0
  0
SCALE
  5
4E
102
{ACAD_REACTORS
330
47
102
}
330
47
100
AcDbScale
 70
     0
300
1:16
140
1.0
141
16.0
290
     0
  0
SCALE
  5
4F
102
{ACAD_REACTORS
330
47
102
}
330
47
100
AcDbScale
 70
     0
300
1:20
140
1.0
141
20.0
290
     0
  0
SCALE
  5
50
102
{ACAD_REACTORS
330
47
102
}
330
47
100
AcDbScale
 70
     0
300
1:30
140
1.0
141
30.0
290
     0
  0
SCALE
  5
51
102
{ACAD_REACTORS
330
47
102
}
330
47
100
AcDbScale
 70
     0
300
1:40
140
1.0
141
40.0
290
     0
  0
SCALE
  5
52
102
{ACAD_REACTORS
330
47
102
}
330
47
100
AcDbScale
 70
     0
300
1:50
140
1.0
141
50.0
290
     0
  0
SCALE
  5
53
102
{ACAD_REACTORS
330
47
102
}
330
47
100
AcDbScale
 70
     0
300
1:100
140
1.0
141
100.0
290
     0
  0
SCALE
  5
54
102
{ACAD_REACTORS
330
47
102
}
330
47
100
AcDbScale
 70
     0
300
2:1
140
2.0
141
1.0
290
     0
  0
SCALE
  5
55
102
{ACAD_REACTORS
330
47
102
}
330
47
100
AcDbScale
 70
     0
300
4:1
140
4.0
141
1.0
290
     0
  0
SCALE
  5
56
102
{ACAD_REACTORS
330
47
102
}
330
47
100
AcDbScale
 70
     0
300
8:1
140
8.0
141
1.0
290
     0
  0
SCALE
  5
57
102
{ACAD_REACTORS
330
47
102
}
330
47
100
AcDbScale
 70
     0
300
10:1
140
10.0
141
1.0
290
     0
  0
SCALE
  5
58
102
{ACAD_REACTORS
330
47
102
}
330
47
100
AcDbScale
 70
     0
300
100:1
140
100.0
141
1.0
290
     0
  0
SCALE
  5
59
102
{ACAD_REACTORS
330
47
102
}
330
47
100
AcDbScale
 70
     0
300
1/128" = 1'-0"
140
0.0078125
141
12.0
290
     0
  0
SCALE
  5
5A
102
{ACAD_REACTORS
330
47
102
}
330
47
100
AcDbScale
 70
     0
300
1/64" = 1'-0"
140
0.015625
141
12.0
290
     0
  0
SCALE
  5
5B
102
{ACAD_REACTORS
330
47
102
}
330
47
100
AcDbScale
 70
     0
300
1/32" = 1'-0"
140
0.03125
141
12.0
290
     0
  0
SCALE
  5
5C
102
{ACAD_REACTORS
330
47
102
}
330
47
100
AcDbScale
 70
     0
300
1/16" = 1'-0"
140
0.0625
141
12.0
290
     0
  0
SCALE
  5
5D
102
{ACAD_REACTORS
330
47
102
}
330
47
100
AcDbScale
 70
     0
300
3/32" = 1'-0"
140
0.09375
141
12.0
290
     0
  0
SCALE
  5
5E
102
{ACAD_REACTORS
330
47
102
}
330
47
100
AcDbScale
 70
     0
300
1/8" = 1'-0"
140
0.125
141
12.0
290
     0
  0
SCALE
  5
5F
102
{ACAD_REACTORS
330
47
102
}
330
47
100
AcDbScale
 70
     0
300
3/16" = 1'-0"
140
0.1875
141
12.0
290
     0
  0
SCALE
  5
60
102
{ACAD_REACTORS
330
47
102
}
330
47
100
AcDbScale
 70
     0
300
1/4" = 1'-0"
140
0.25
141
12.0
290
     0
  0
SCALE
  5
61
102
{ACAD_REACTORS
330
47
102
}
330
47
100
AcDbScale
 70
     0
300
3/8" = 1'-0"
140
0.375
141
12.0
290
     0
  0
SCALE
  5
62
102
{ACAD_REACTORS
330
47
102
}
330
47
100
AcDbScale
 70
     0
300
1/2" = 1'-0"
140
0.5
141
12.0
290
     0
  0
SCALE
  5
63
102
{ACAD_REACTORS
330
47
102
}
330
47
100
AcDbScale
 70
     0
300
3/4" = 1'-0"
140
0.75
141
12.0
290
     0
  0
SCALE
  5
64
102
{ACAD_REACTORS
330
47
102
}
330
47
100
AcDbScale
 70
     0
300
1" = 1'-0"
140
1.0
141
12.0
290
     0
  0
SCALE
  5
65
102
{ACAD_REACTORS
330
47
102
}
330
47
100
AcDbScale
 70
     0
300
1-1/2" = 1'-0"
140
1.5
141
12.0
290
     0
  0
SCALE
  5
66
102
{ACAD_REACTORS
330
47
102
}
330
47
100
AcDbScale
 70
     0
300
3" = 1'-0"
140
3.0
141
12.0
290
     0
  0
SCALE
  5
67
102
{ACAD_REACTORS
330
47
102
}
330
47
100
AcDbScale
 70
     0
300
6" = 1'-0"
140
6.0
141
12.0
290
     0
  0
SCALE
  5
68
102
{ACAD_REACTORS
330
47
102
}
330
47
100
AcDbScale
 70
     0
300
1'-0" = 1'-0"
140
12.0
141
12.0
290
     0
  0
ENDSEC
  0
EOF
